  0
SECTION
  2
HEADER
  9
$ACADVER
  1
AC1015
  9
$ACADMAINTVER
 70
    13
  9
$DWGCODEPAGE
  3
ANSI_1252
  9
$INSBASE
 10
0.0
 20
0.0
 30
0.0
  9
$EXTMIN
 10
0.0
 20
-0.0101799999999988
 30
0.0
  9
$EXTMAX
 10
150.0
 20
208.01018
 30
0.0
  9
$LIMMIN
 10
0.0
 20
0.0
  9
$LIMMAX
 10
12.0
 20
9.0
  9
$ORTHOMODE
 70
     0
  9
$REGENMODE
 70
     1
  9
$FILLMODE
 70
     1
  9
$QTEXTMODE
 70
     0
  9
$MIRRTEXT
 70
     1
  9
$LTSCALE
 40
1.0
  9
$ATTMODE
 70
     1
  9
$TEXTSIZE
 40
0.2
  9
$TRACEWID
 40
0.05
  9
$TEXTSTYLE
  7
Standard
  9
$CLAYER
  8
0
  9
$CELTYPE
  6
Continuous
  9
$CECOLOR
 62
   256
  9
$CELTSCALE
 40
1.0
  9
$DISPSILH
 70
     0
  9
$DIMSCALE
 40
1.0
  9
$DIMASZ
 40
0.18
  9
$DIMEXO
 40
0.0625
  9
$DIMDLI
 40
0.38
  9
$DIMRND
 40
0.0
  9
$DIMDLE
 40
0.0
  9
$DIMEXE
 40
0.18
  9
$DIMTP
 40
0.0
  9
$DIMTM
 40
0.0
  9
$DIMTXT
 40
0.18
  9
$DIMCEN
 40
0.09
  9
$DIMTSZ
 40
0.0
  9
$DIMTOL
 70
     0
  9
$DIMLIM
 70
     0
  9
$DIMTIH
 70
     1
  9
$DIMTOH
 70
     1
  9
$DIMSE1
 70
     0
  9
$DIMSE2
 70
     0
  9
$DIMTAD
 70
     0
  9
$DIMZIN
 70
     0
  9
$DIMBLK
  1

  9
$DIMASO
 70
     1
  9
$DIMSHO
 70
     1
  9
$DIMPOST
  1

  9
$DIMAPOST
  1

  9
$DIMALT
 70
     0
  9
$DIMALTD
 70
     2
  9
$DIMALTF
 40
25.4
  9
$DIMLFAC
 40
1.0
  9
$DIMTOFL
 70
     0
  9
$DIMTVP
 40
0.0
  9
$DIMTIX
 70
     0
  9
$DIMSOXD
 70
     0
  9
$DIMSAH
 70
     0
  9
$DIMBLK1
  1

  9
$DIMBLK2
  1

  9
$DIMSTYLE
  2
Standard
  9
$DIMCLRD
 70
     0
  9
$DIMCLRE
 70
     0
  9
$DIMCLRT
 70
     0
  9
$DIMTFAC
 40
1.0
  9
$DIMGAP
 40
0.09
  9
$DIMJUST
 70
     0
  9
$DIMSD1
 70
     0
  9
$DIMSD2
 70
     0
  9
$DIMTOLJ
 70
     1
  9
$DIMTZIN
 70
     0
  9
$DIMALTZ
 70
     0
  9
$DIMALTTZ
 70
     0
  9
$DIMUPT
 70
     0
  9
$DIMDEC
 70
     4
  9
$DIMTDEC
 70
     4
  9
$DIMALTU
 70
     2
  9
$DIMALTTD
 70
     2
  9
$DIMTXSTY
  7
Standard
  9
$DIMAUNIT
 70
     0
  9
$DIMADEC
 70
     0
  9
$DIMALTRND
 40
0.0
  9
$DIMAZIN
 70
     0
  9
$DIMDSEP
 70
    46
  9
$DIMATFIT
 70
     3
  9
$DIMFRAC
 70
     0
  9
$DIMLDRBLK
  1

  9
$DIMLUNIT
 70
     2
  9
$DIMLWD
 70
    -2
  9
$DIMLWE
 70
    -2
  9
$DIMTMOVE
 70
     0
  9
$LUNITS
 70
     2
  9
$LUPREC
 70
     4
  9
$SKETCHINC
 40
0.1
  9
$FILLETRAD
 40
0.0
  9
$AUNITS
 70
     0
  9
$AUPREC
 70
     0
  9
$MENU
  1
.
  9
$ELEVATION
 40
0.0
  9
$PELEVATION
 40
0.0
  9
$THICKNESS
 40
0.0
  9
$LIMCHECK
 70
     0
  9
$CHAMFERA
 40
0.0
  9
$CHAMFERB
 40
0.0
  9
$CHAMFERC
 40
0.0
  9
$CHAMFERD
 40
0.0
  9
$SKPOLY
 70
     0
  9
$TDCREATE
 40
2454834.901926898
  9
$TDUCREATE
 40
2454834.860260231
  9
$TDUPDATE
 40
2454834.903088830
  9
$TDUUPDATE
 40
2454834.861422164
  9
$TDINDWG
 40
0.0011619329
  9
$TDUSRTIMER
 40
0.0011619329
  9
$USRTIMER
 70
     1
  9
$ANGBASE
 50
0.0
  9
$ANGDIR
 70
     0
  9
$PDMODE
 70
     0
  9
$PDSIZE
 40
0.0
  9
$PLINEWID
 40
0.0
  9
$SPLFRAME
 70
     0
  9
$SPLINETYPE
 70
     6
  9
$SPLINESEGS
 70
     8
  9
$HANDSEED
  5
1E5
  9
$SURFTAB1
 70
     6
  9
$SURFTAB2
 70
     6
  9
$SURFTYPE
 70
     6
  9
$SURFU
 70
     6
  9
$SURFV
 70
     6
  9
$UCSBASE
  2

  9
$UCSNAME
  2

  9
$UCSORG
 10
0.0
 20
0.0
 30
0.0
  9
$UCSXDIR
 10
1.0
 20
0.0
 30
0.0
  9
$UCSYDIR
 10
0.0
 20
1.0
 30
0.0
  9
$UCSORTHOREF
  2

  9
$UCSORTHOVIEW
 70
     1
  9
$UCSORGTOP
 10
0.0
 20
0.0
 30
0.0
  9
$UCSORGBOTTOM
 10
0.0
 20
0.0
 30
0.0
  9
$UCSORGLEFT
 10
0.0
 20
0.0
 30
0.0
  9
$UCSORGRIGHT
 10
0.0
 20
0.0
 30
0.0
  9
$UCSORGFRONT
 10
0.0
 20
0.0
 30
0.0
  9
$UCSORGBACK
 10
0.0
 20
0.0
 30
0.0
  9
$PUCSBASE
  2

  9
$PUCSNAME
  2

  9
$PUCSORG
 10
0.0
 20
0.0
 30
0.0
  9
$PUCSXDIR
 10
1.0
 20
0.0
 30
0.0
  9
$PUCSYDIR
 10
0.0
 20
1.0
 30
0.0
  9
$PUCSORTHOREF
  2

  9
$PUCSORTHOVIEW
 70
     0
  9
$PUCSORGTOP
 10
0.0
 20
0.0
 30
0.0
  9
$PUCSORGBOTTOM
 10
0.0
 20
0.0
 30
0.0
  9
$PUCSORGLEFT
 10
0.0
 20
0.0
 30
0.0
  9
$PUCSORGRIGHT
 10
0.0
 20
0.0
 30
0.0
  9
$PUCSORGFRONT
 10
0.0
 20
0.0
 30
0.0
  9
$PUCSORGBACK
 10
0.0
 20
0.0
 30
0.0
  9
$USERI1
 70
     0
  9
$USERI2
 70
     0
  9
$USERI3
 70
     0
  9
$USERI4
 70
     0
  9
$USERI5
 70
     0
  9
$USERR1
 40
0.0
  9
$USERR2
 40
0.0
  9
$USERR3
 40
0.0
  9
$USERR4
 40
0.0
  9
$USERR5
 40
0.0
  9
$WORLDVIEW
 70
     1
  9
$SHADEDGE
 70
     3
  9
$SHADEDIF
 70
    70
  9
$TILEMODE
 70
     1
  9
$MAXACTVP
 70
    64
  9
$PINSBASE
 10
0.0
 20
0.0
 30
0.0
  9
$PLIMCHECK
 70
     0
  9
$PEXTMIN
 10
1.000000000000000E+20
 20
1.000000000000000E+20
 30
1.000000000000000E+20
  9
$PEXTMAX
 10
-1.000000000000000E+20
 20
-1.000000000000000E+20
 30
-1.000000000000000E+20
  9
$PLIMMIN
 10
0.0
 20
0.0
  9
$PLIMMAX
 10
12.0
 20
9.0
  9
$UNITMODE
 70
     0
  9
$VISRETAIN
 70
     1
  9
$PLINEGEN
 70
     0
  9
$PSLTSCALE
 70
     1
  9
$TREEDEPTH
 70
  3020
  9
$CMLSTYLE
  2
Standard
  9
$CMLJUST
 70
     0
  9
$CMLSCALE
 40
1.0
  9
$PROXYGRAPHICS
 70
     1
  9
$MEASUREMENT
 70
     0
  9
$CELWEIGHT
370
    -1
  9
$ENDCAPS
280
     0
  9
$JOINSTYLE
280
     0
  9
$LWDISPLAY
290
     0
  9
$INSUNITS
 70
     0
  9
$HYPERLINKBASE
  1

  9
$STYLESHEET
  1

  9
$XEDIT
290
     1
  9
$CEPSNTYPE
380
     0
  9
$PSTYLEMODE
290
     1
  9
$FINGERPRINTGUID
  2
{223A0C83-5C34-4947-AD7C-6ECF79B0101D}
  9
$VERSIONGUID
  2
{A7388AB1-EAD0-4874-9537-4DEDE0A68495}
  9
$EXTNAMES
290
     1
  9
$PSVPSCALE
 40
0.0
  9
$OLESTARTUP
290
     0
  0
ENDSEC
  0
SECTION
  2
CLASSES
  0
CLASS
  1
ACDBDICTIONARYWDFLT
  2
AcDbDictionaryWithDefault
  3
AutoCAD 2000
 90
        0
280
     0
281
     0
  0
CLASS
  1
ACDBPLACEHOLDER
  2
AcDbPlaceHolder
  3
AutoCAD 2000
 90
        0
280
     0
281
     0
  0
CLASS
  1
LAYOUT
  2
AcDbLayout
  3
AutoCAD 2000
 90
        0
280
     0
281
     0
  0
CLASS
  1
DICTIONARYVAR
  2
AcDbDictionaryVar
  3
AutoCAD 2000
 90
        0
280
     0
281
     0
  0
ENDSEC
  0
SECTION
  2
TABLES
  0
TABLE
  2
VPORT
  5
8
330
0
100
AcDbSymbolTable
 70
     3
  0
VPORT
  5
1E4
330
8
100
AcDbSymbolTableRecord
100
AcDbViewportTableRecord
  2
*Active
 70
     0
 10
0.0
 20
0.0
 11
1.0
 21
1.0
 12
75.0
 22
103.9999999999999
 13
0.0
 23
0.0
 14
1.0
 24
1.0
 15
0.0
 25
0.0
 16
0.0
 26
0.0
 36
1.0
 17
0.0
 27
0.0
 37
0.0
 40
209.6164241432225
 41
2.078104993597951
 42
50.0
 43
0.0
 44
0.0
 50
0.0
 51
0.0
 71
     0
 72
   100
 73
     1
 74
     3
 75
     0
 76
     0
 77
     0
 78
     0
281
     0
 65
     1
110
0.0
120
0.0
130
0.0
111
1.0
121
0.0
131
0.0
112
0.0
122
1.0
132
0.0
 79
     1
146
0.0
  0
ENDTAB
  0
TABLE
  2
LTYPE
  5
5
330
0
100
AcDbSymbolTable
 70
     1
  0
LTYPE
  5
13
330
5
100
AcDbSymbolTableRecord
100
AcDbLinetypeTableRecord
  2
ByBlock
 70
     0
  3

 72
    65
 73
     0
 40
0.0
  0
LTYPE
  5
14
330
5
100
AcDbSymbolTableRecord
100
AcDbLinetypeTableRecord
  2
ByLayer
 70
     0
  3

 72
    65
 73
     0
 40
0.0
  0
LTYPE
  5
15
330
5
100
AcDbSymbolTableRecord
100
AcDbLinetypeTableRecord
  2
Continuous
 70
     0
  3
Solid line
 72
    65
 73
     0
 40
0.0
  0
ENDTAB
  0
TABLE
  2
LAYER
  5
2
330
0
100
AcDbSymbolTable
 70
     1
  0
LAYER
  5
10
330
2
100
AcDbSymbolTableRecord
100
AcDbLayerTableRecord
  2
0
 70
     0
 62
     7
  6
Continuous
370
    -3
390
F
  0
ENDTAB
  0
TABLE
  2
STYLE
  5
3
330
0
100
AcDbSymbolTable
 70
     1
  0
STYLE
  5
11
330
3
100
AcDbSymbolTableRecord
100
AcDbTextStyleTableRecord
  2
Standard
 70
     0
 40
0.0
 41
1.0
 50
0.0
 71
     0
 42
0.2
  3
txt
  4

  0
ENDTAB
  0
TABLE
  2
VIEW
  5
6
330
0
100
AcDbSymbolTable
 70
     0
  0
ENDTAB
  0
TABLE
  2
UCS
  5
7
330
0
100
AcDbSymbolTable
 70
     0
  0
ENDTAB
  0
TABLE
  2
APPID
  5
9
330
0
100
AcDbSymbolTable
 70
     1
  0
APPID
  5
12
330
9
100
AcDbSymbolTableRecord
100
AcDbRegAppTableRecord
  2
ACAD
 70
     0
  0
ENDTAB
  0
TABLE
  2
DIMSTYLE
  5
A
330
0
100
AcDbSymbolTable
 70
     1
100
AcDbDimStyleTable
 71
     0
  0
DIMSTYLE
105
151
330
A
100
AcDbSymbolTableRecord
100
AcDbDimStyleTableRecord
  2
Standard
 70
     0
340
11
  0
ENDTAB
  0
TABLE
  2
BLOCK_RECORD
  5
1
330
0
100
AcDbSymbolTable
 70
     0
  0
BLOCK_RECORD
  5
1E
330
1
100
AcDbSymbolTableRecord
100
AcDbBlockTableRecord
  2
*Model_Space
340
21
  0
BLOCK_RECORD
  5
1A
330
1
100
AcDbSymbolTableRecord
100
AcDbBlockTableRecord
  2
*Paper_Space
340
1D
  0
ENDTAB
  0
ENDSEC
  0
SECTION
  2
BLOCKS
  0
BLOCK
  5
1F
330
1E
100
AcDbEntity
  8
0
100
AcDbBlockBegin
  2
*Model_Space
 70
     0
 10
0.0
 20
0.0
 30
0.0
  3
*Model_Space
  1

  0
ENDBLK
  5
20
330
1E
100
AcDbEntity
  8
0
100
AcDbBlockEnd
  0
BLOCK
  5
1B
330
1A
100
AcDbEntity
 67
     1
  8
0
100
AcDbBlockBegin
  2
*Paper_Space
 70
     0
 10
0.0
 20
0.0
 30
0.0
  3
*Paper_Space
  1

  0
ENDBLK
  5
1C
330
1A
100
AcDbEntity
 67
     1
  8
0
100
AcDbBlockEnd
  0
ENDSEC
  0
SECTION
  2
ENTITIES
  0
LINE
  5
22
330
1E
100
AcDbEntity
  8
0
100
AcDbLine
 10
46.3235
 20
13.83371
 30
0.0
 11
55.6765
 21
10.74546999999999
 31
0.0
  0
LINE
  5
23
330
1E
100
AcDbEntity
  8
0
100
AcDbLine
 10
37.67649999999999
 20
18.06898
 30
0.0
 11
46.3235
 21
13.83371
 31
0.0
  0
LINE
  5
24
330
1E
100
AcDbEntity
  8
0
100
AcDbLine
 10
29.3824
 20
23.62778
 30
0.0
 11
37.67649999999999
 21
18.06898
 31
0.0
  0
LINE
  5
25
330
1E
100
AcDbEntity
  8
0
100
AcDbLine
 10
15.6176
 20
37.39258
 30
0.0
 11
22.0588
 21
30.06898
 31
0.0
  0
LINE
  5
26
330
1E
100
AcDbEntity
  8
0
100
AcDbLine
 10
10.0588
 20
45.68667999999999
 30
0.0
 11
15.6176
 21
37.39258
 31
0.0
  0
LINE
  5
27
330
1E
100
AcDbEntity
  8
0
100
AcDbLine
 10
5.823529999999999
 20
54.33368000000001
 30
0.0
 11
10.0588
 21
45.68667999999999
 31
0.0
  0
LINE
  5
28
330
1E
100
AcDbEntity
  8
0
100
AcDbLine
 10
0.7941180000000001
 20
73.21608000000001
 30
0.0
 11
2.735289999999999
 21
63.68668
 31
0.0
  0
LINE
  5
29
330
1E
100
AcDbEntity
  8
0
100
AcDbLine
 10
2.735289999999999
 20
63.68668
 30
0.0
 11
5.823529999999999
 21
54.33368000000001
 31
0.0
  0
LINE
  5
2A
330
1E
100
AcDbEntity
  8
0
100
AcDbLine
 10
0.7941180000000001
 20
73.21608000000001
 30
0.0
 11
2.735289999999999
 21
63.68668
 31
0.0
  0
LINE
  5
2B
330
1E
100
AcDbEntity
  8
0
100
AcDbLine
 10
22.0588
 20
30.06898
 30
0.0
 11
29.3824
 21
23.62778
 31
0.0
  0
LINE
  5
2C
330
1E
100
AcDbEntity
  8
0
100
AcDbLine
 10
0.0
 20
83.01018
 30
0.0
 11
0.7941180000000001
 21
73.21608000000001
 31
0.0
  0
LINE
  5
2D
330
1E
100
AcDbEntity
  8
0
100
AcDbLine
 10
0.0
 20
83.01018
 30
0.0
 11
0.0
 21
133.01018
 31
0.0
  0
LINE
  5
2E
330
1E
100
AcDbEntity
  8
0
100
AcDbLine
 10
52.4436
 20
73.89718000000001
 30
0.0
 11
55.5195
 21
18.40408
 31
0.0
  0
LINE
  5
2F
330
1E
100
AcDbEntity
  8
0
100
AcDbLine
 10
55.6765
 20
10.74546999999999
 30
0.0
 11
57.4510144737577
 21
10.3839955880723
 31
0.0
  0
LINE
  5
30
330
1E
100
AcDbEntity
  8
0
100
AcDbLine
 10
55.7246
 20
15.7887
 30
0.0
 11
56.2372
 21
13.49065
 31
0.0
  0
LINE
  5
31
330
1E
100
AcDbEntity
  8
0
100
AcDbLine
 10
55.5195
 20
18.40408
 30
0.0
 11
55.7246
 21
15.7887
 31
0.0
  0
LINE
  5
32
330
1E
100
AcDbEntity
  8
0
100
AcDbLine
 10
57.0574
 20
11.19269999999999
 30
0.0
 11
58.0827
 21
9.086160000000001
 31
0.0
  0
LINE
  5
33
330
1E
100
AcDbEntity
  8
0
100
AcDbLine
 10
56.2372
 20
13.49065
 30
0.0
 11
57.0574
 21
11.19269999999999
 31
0.0
  0
LINE
  5
34
330
1E
100
AcDbEntity
  8
0
100
AcDbLine
 10
59.6207
 20
7.075389999999999
 30
0.0
 11
61.2611
 21
5.351874999999999
 31
0.0
  0
LINE
  5
35
330
1E
100
AcDbEntity
  8
0
100
AcDbLine
 10
58.0827
 20
9.086160000000001
 30
0.0
 11
59.6207
 21
7.075389999999999
 31
0.0
  0
LINE
  5
36
330
1E
100
AcDbEntity
  8
0
100
AcDbLine
 10
61.2611
 20
5.351874999999999
 30
0.0
 11
63.1066
 21
3.819859999999999
 31
0.0
  0
LINE
  5
43
330
1E
100
AcDbEntity
  8
0
100
AcDbLine
 10
55.858577413131
 20
85.0120629577597
 30
0.0
 11
55.90399999999999
 21
85.11208000000001
 31
0.0
  0
LINE
  5
44
330
1E
100
AcDbEntity
  8
0
100
AcDbLine
 10
55.90399999999999
 20
85.11208000000001
 30
0.0
 11
57.576
 21
87.56368
 31
0.0
  0
LINE
  5
45
330
1E
100
AcDbEntity
  8
0
100
AcDbLine
 10
57.576
 20
87.56368
 30
0.0
 11
59.512
 21
89.64278
 31
0.0
  0
LINE
  5
46
330
1E
100
AcDbEntity
  8
0
100
AcDbLine
 10
57.16
 20
86.72788
 30
0.0
 11
59.108
 21
88.73858
 31
0.0
  0
LINE
  5
47
330
1E
100
AcDbEntity
  8
0
100
AcDbLine
 10
55.417
 20
84.42988000000001
 30
0.0
 11
57.16
 21
86.72788
 31
0.0
  0
LINE
  5
48
330
1E
100
AcDbEntity
  8
0
100
AcDbLine
 10
55.417
 20
84.42988000000001
 30
0.0
 11
55.90399999999999
 21
85.11208000000001
 31
0.0
  0
LINE
  5
49
330
1E
100
AcDbEntity
  8
0
100
AcDbLine
 10
54.1866
 20
81.94038
 30
0.0
 11
55.417
 21
84.42988000000001
 31
0.0
  0
LINE
  5
4A
330
1E
100
AcDbEntity
  8
0
100
AcDbLine
 10
53.26389999999999
 20
79.35497999999999
 30
0.0
 11
54.1866
 21
81.94038
 31
0.0
  0
LINE
  5
4B
330
1E
100
AcDbEntity
  8
0
100
AcDbLine
 10
52.6487
 20
76.67398
 30
0.0
 11
53.26389999999999
 21
79.35497999999999
 31
0.0
  0
LINE
  5
4C
330
1E
100
AcDbEntity
  8
0
100
AcDbLine
 10
52.4436
 20
73.89718000000001
 30
0.0
 11
52.6487
 21
76.67398
 31
0.0
  0
LINE
  5
4E
330
1E
100
AcDbEntity
  8
0
100
AcDbLine
 10
52.4436
 20
73.89718000000001
 30
0.0
 11
55.5195
 21
18.40408
 31
0.0
  0
LINE
  5
4F
330
1E
100
AcDbEntity
  8
0
100
AcDbLine
 10
59.27303682369879
 20
89.38615379140101
 30
0.0
 11
59.424
 21
89.58617999999999
 31
0.0
  0
LINE
  5
50
330
1E
100
AcDbEntity
  8
0
100
AcDbLine
 10
59.424
 20
89.58617999999999
 30
0.0
 11
59.5708675314655
 21
89.697023419974
 31
0.0
  0
LINE
  5
51
330
1E
100
AcDbEntity
  8
0
100
AcDbLine
 10
59.424
 20
89.58617999999999
 30
0.0
 11
59.5708675314655
 21
89.697023419974
 31
0.0
  0
LINE
  5
52
330
1E
100
AcDbEntity
  8
0
100
AcDbLine
 10
59.512
 20
89.64278
 30
0.0
 11
61.62399999999999
 21
91.58888000000001
 31
0.0
  0
LINE
  5
53
330
1E
100
AcDbEntity
  8
0
100
AcDbLine
 10
59.108
 20
88.73858
 30
0.0
 11
61.2611
 21
90.55788000000001
 31
0.0
  0
LINE
  5
54
330
1E
100
AcDbEntity
  8
0
100
AcDbLine
 10
65.2598
 20
2.383599999999999
 30
0.0
 11
67.5154
 21
1.426089999999999
 31
0.0
  0
LINE
  5
55
330
1E
100
AcDbEntity
  8
0
100
AcDbLine
 10
62.9462
 20
70.33858000000001
 30
0.0
 11
63.1582
 21
70.18108000000001
 31
0.0
  0
LINE
  5
56
330
1E
100
AcDbEntity
  8
0
100
AcDbLine
 10
62.7862
 20
70.54738
 30
0.0
 11
62.9462
 21
70.33858000000001
 31
0.0
  0
LINE
  5
57
330
1E
100
AcDbEntity
  8
0
100
AcDbLine
 10
62.6902
 20
70.78378
 30
0.0
 11
62.7862
 21
70.54738
 31
0.0
  0
LINE
  5
58
330
1E
100
AcDbEntity
  8
0
100
AcDbLine
 10
62.9462
 20
71.73308
 30
0.0
 11
63.1582
 21
71.89068
 31
0.0
  0
LINE
  5
59
330
1E
100
AcDbEntity
  8
0
100
AcDbLine
 10
62.7862
 20
71.52428
 30
0.0
 11
62.9462
 21
71.73308
 31
0.0
  0
LINE
  5
5A
330
1E
100
AcDbEntity
  8
0
100
AcDbLine
 10
62.6902
 20
71.28798
 30
0.0
 11
62.7862
 21
71.52428
 31
0.0
  0
LINE
  5
5B
330
1E
100
AcDbEntity
  8
0
100
AcDbLine
 10
62.6542
 20
71.03588000000001
 30
0.0
 11
62.6902
 21
70.78378
 31
0.0
  0
LINE
  5
5C
330
1E
100
AcDbEntity
  8
0
100
AcDbLine
 10
62.6542
 20
71.03588000000001
 30
0.0
 11
62.6902
 21
71.28798
 31
0.0
  0
LINE
  5
5D
330
1E
100
AcDbEntity
  8
0
100
AcDbLine
 10
61.62399999999999
 20
91.58888000000001
 30
0.0
 11
64.08800000000001
 21
93.19828000000001
 31
0.0
  0
LINE
  5
5E
330
1E
100
AcDbEntity
  8
0
100
AcDbLine
 10
63.1066
 20
3.819859999999999
 30
0.0
 11
65.2598
 21
2.383599999999999
 31
0.0
  0
LINE
  5
5F
330
1E
100
AcDbEntity
  8
0
100
AcDbLine
 10
63.6542
 20
70.05107999999999
 30
0.0
 11
63.91020000000001
 21
70.08648
 31
0.0
  0
LINE
  5
60
330
1E
100
AcDbEntity
  8
0
100
AcDbLine
 10
63.91020000000001
 20
70.08648
 30
0.0
 11
64.1502
 21
70.18108000000001
 31
0.0
  0
LINE
  5
61
330
1E
100
AcDbEntity
  8
0
100
AcDbLine
 10
64.1502
 20
70.18108000000001
 30
0.0
 11
64.3622
 21
70.33858000000001
 31
0.0
  0
LINE
  5
62
330
1E
100
AcDbEntity
  8
0
100
AcDbLine
 10
63.3982
 20
70.08648
 30
0.0
 11
63.6542
 21
70.05107999999999
 31
0.0
  0
LINE
  5
63
330
1E
100
AcDbEntity
  8
0
100
AcDbLine
 10
64.3622
 20
70.33858000000001
 30
0.0
 11
64.5222
 21
70.54738
 31
0.0
  0
LINE
  5
64
330
1E
100
AcDbEntity
  8
0
100
AcDbLine
 10
63.1582
 20
71.89068
 30
0.0
 11
63.3982
 21
71.98517999999999
 31
0.0
  0
LINE
  5
65
330
1E
100
AcDbEntity
  8
0
100
AcDbLine
 10
63.3982
 20
71.98517999999999
 30
0.0
 11
63.6542
 21
72.02068
 31
0.0
  0
LINE
  5
66
330
1E
100
AcDbEntity
  8
0
100
AcDbLine
 10
63.6542
 20
72.02068
 30
0.0
 11
63.91020000000001
 21
71.98517999999999
 31
0.0
  0
LINE
  5
67
330
1E
100
AcDbEntity
  8
0
100
AcDbLine
 10
63.91020000000001
 20
71.98517999999999
 30
0.0
 11
64.1502
 21
71.89068
 31
0.0
  0
LINE
  5
68
330
1E
100
AcDbEntity
  8
0
100
AcDbLine
 10
64.1502
 20
71.89068
 30
0.0
 11
64.3622
 21
71.73308
 31
0.0
  0
LINE
  5
69
330
1E
100
AcDbEntity
  8
0
100
AcDbLine
 10
64.3622
 20
71.73308
 30
0.0
 11
64.5222
 21
71.52428
 31
0.0
  0
LINE
  5
6A
330
1E
100
AcDbEntity
  8
0
100
AcDbLine
 10
64.5222
 20
71.52428
 30
0.0
 11
64.6182
 21
71.28798
 31
0.0
  0
LINE
  5
6B
330
1E
100
AcDbEntity
  8
0
100
AcDbLine
 10
64.6182
 20
71.28798
 30
0.0
 11
64.6542
 21
71.03588000000001
 31
0.0
  0
LINE
  5
6C
330
1E
100
AcDbEntity
  8
0
100
AcDbLine
 10
64.5222
 20
70.54738
 30
0.0
 11
64.6182
 21
70.78378
 31
0.0
  0
LINE
  5
6D
330
1E
100
AcDbEntity
  8
0
100
AcDbLine
 10
64.6182
 20
70.78378
 30
0.0
 11
64.6542
 21
71.03588000000001
 31
0.0
  0
LINE
  5
6E
330
1E
100
AcDbEntity
  8
0
100
AcDbLine
 10
63.1582
 20
70.18108000000001
 30
0.0
 11
63.3982
 21
70.08648
 31
0.0
  0
LINE
  5
71
330
1E
100
AcDbEntity
  8
0
100
AcDbLine
 10
61.2611
 20
90.55788000000001
 30
0.0
 11
63.7218
 21
92.18568000000001
 31
0.0
  0
LINE
  5
72
330
1E
100
AcDbEntity
  8
0
100
AcDbLine
 10
64.08800000000001
 20
93.19828000000001
 30
0.0
 11
66.64
 21
94.31668
 31
0.0
  0
LINE
  5
73
330
1E
100
AcDbEntity
  8
0
100
AcDbLine
 10
63.7218
 20
92.18568000000001
 30
0.0
 11
66.38760000000001
 21
93.33468000000001
 31
0.0
  0
LINE
  5
74
330
1E
100
AcDbEntity
  8
0
100
AcDbLine
 10
69.9761
 20
0.6600800000000021
 30
0.0
 11
72.43680000000001
 21
0.181320000000002
 31
0.0
  0
LINE
  5
75
330
1E
100
AcDbEntity
  8
0
100
AcDbLine
 10
67.5154
 20
1.426089999999999
 30
0.0
 11
69.9761
 21
0.6600800000000021
 31
0.0
  0
LINE
  5
78
330
1E
100
AcDbEntity
  8
0
100
AcDbLine
 10
66.38760000000001
 20
93.33468000000001
 30
0.0
 11
69.1559
 21
94.19638
 31
0.0
  0
LINE
  5
79
330
1E
100
AcDbEntity
  8
0
100
AcDbLine
 10
0.7941180000000001
 20
142.80418
 30
0.0
 11
2.735289999999999
 21
152.33418
 31
0.0
  0
LINE
  5
7A
330
1E
100
AcDbEntity
  8
0
100
AcDbLine
 10
0.794118000000001
 20
142.80418
 30
0.0
 11
2.735289999999999
 21
152.33418
 31
0.0
  0
LINE
  5
7B
330
1E
100
AcDbEntity
  8
0
100
AcDbLine
 10
5.823530000000009
 20
161.68618
 30
0.0
 11
10.0588
 21
170.33418
 31
0.0
  0
LINE
  5
7C
330
1E
100
AcDbEntity
  8
0
100
AcDbLine
 10
15.6176
 20
178.62818
 30
0.0
 11
22.0588
 21
185.9511799999999
 31
0.0
  0
LINE
  5
7D
330
1E
100
AcDbEntity
  8
0
100
AcDbLine
 10
10.0588
 20
170.33418
 30
0.0
 11
15.6176
 21
178.62818
 31
0.0
  0
LINE
  5
7E
330
1E
100
AcDbEntity
  8
0
100
AcDbLine
 10
5.823529999999999
 20
161.68618
 30
0.0
 11
10.0588
 21
170.33418
 31
0.0
  0
LINE
  5
7F
330
1E
100
AcDbEntity
  8
0
100
AcDbLine
 10
2.735289999999999
 20
152.33418
 30
0.0
 11
5.823529999999999
 21
161.68618
 31
0.0
  0
LINE
  5
80
330
1E
100
AcDbEntity
  8
0
100
AcDbLine
 10
0.7941180000000001
 20
142.80418
 30
0.0
 11
2.735289999999999
 21
152.33418
 31
0.0
  0
LINE
  5
81
330
1E
100
AcDbEntity
  8
0
100
AcDbLine
 10
0.0
 20
133.01018
 30
0.0
 11
0.7941180000000001
 21
142.80418
 31
0.0
  0
LINE
  5
82
330
1E
100
AcDbEntity
  8
0
100
AcDbLine
 10
0.0
 20
133.01018
 30
0.0
 11
0.0
 21
83.01018
 31
0.0
  0
LINE
  5
83
330
1E
100
AcDbEntity
  8
0
100
AcDbLine
 10
67.5
 20
135.01018
 30
0.0
 11
71.09999999999999
 21
133.5101799999999
 31
0.0
  0
LINE
  5
84
330
1E
100
AcDbEntity
  8
0
100
AcDbLine
 10
64.40000000000001
 20
137.41018
 30
0.0
 11
67.5
 21
135.01018
 31
0.0
  0
LINE
  5
85
330
1E
100
AcDbEntity
  8
0
100
AcDbLine
 10
62.0
 20
140.5101799999999
 30
0.0
 11
64.40000000000001
 21
137.41018
 31
0.0
  0
LINE
  5
86
330
1E
100
AcDbEntity
  8
0
100
AcDbLine
 10
60.5
 20
144.11018
 30
0.0
 11
62.0
 21
140.5101799999999
 31
0.0
  0
LINE
  5
87
330
1E
100
AcDbEntity
  8
0
100
AcDbLine
 10
60.5
 20
151.91018
 30
0.0
 11
62.0
 21
155.5101799999999
 31
0.0
  0
LINE
  5
88
330
1E
100
AcDbEntity
  8
0
100
AcDbLine
 10
60.0
 20
148.0101799999999
 30
0.0
 11
60.5
 21
144.11018
 31
0.0
  0
LINE
  5
89
330
1E
100
AcDbEntity
  8
0
100
AcDbLine
 10
60.0
 20
148.0101799999999
 30
0.0
 11
60.5
 21
151.91018
 31
0.0
  0
LINE
  5
8A
330
1E
100
AcDbEntity
  8
0
100
AcDbLine
 10
61.5
 20
151.61018
 30
0.0
 11
62.9
 21
155.01018
 31
0.0
  0
LINE
  5
8B
330
1E
100
AcDbEntity
  8
0
100
AcDbLine
 10
62.0
 20
155.5101799999999
 30
0.0
 11
64.40000000000001
 21
158.61018
 31
0.0
  0
LINE
  5
8C
330
1E
100
AcDbEntity
  8
0
100
AcDbLine
 10
62.9
 20
155.01018
 30
0.0
 11
65.09999999999999
 21
157.91018
 31
0.0
  0
LINE
  5
8D
330
1E
100
AcDbEntity
  8
0
100
AcDbLine
 10
61.0
 20
148.0101799999999
 30
0.0
 11
61.5
 21
144.41018
 31
0.0
  0
LINE
  5
8E
330
1E
100
AcDbEntity
  8
0
100
AcDbLine
 10
61.0
 20
148.0101799999999
 30
0.0
 11
61.5
 21
151.61018
 31
0.0
  0
LINE
  5
8F
330
1E
100
AcDbEntity
  8
0
100
AcDbLine
 10
61.5
 20
144.41018
 30
0.0
 11
62.9
 21
141.0101799999999
 31
0.0
  0
LINE
  5
90
330
1E
100
AcDbEntity
  8
0
100
AcDbLine
 10
64.40000000000001
 20
158.61018
 30
0.0
 11
67.5
 21
161.0101799999999
 31
0.0
  0
LINE
  5
91
330
1E
100
AcDbEntity
  8
0
100
AcDbLine
 10
65.4
 20
150.61018
 30
0.0
 11
66.29999999999999
 21
153.0101799999999
 31
0.0
  0
LINE
  5
92
330
1E
100
AcDbEntity
  8
0
100
AcDbLine
 10
66.29999999999999
 20
153.0101799999999
 30
0.0
 11
67.9
 21
155.11018
 31
0.0
  0
LINE
  5
93
330
1E
100
AcDbEntity
  8
0
100
AcDbLine
 10
65.09999999999999
 20
157.91018
 30
0.0
 11
68.0
 21
160.11018
 31
0.0
  0
LINE
  5
94
330
1E
100
AcDbEntity
  8
0
100
AcDbLine
 10
65.0
 20
148.0101799999999
 30
0.0
 11
65.4
 21
145.4101799999999
 31
0.0
  0
LINE
  5
95
330
1E
100
AcDbEntity
  8
0
100
AcDbLine
 10
65.0
 20
148.0101799999999
 30
0.0
 11
65.4
 21
150.61018
 31
0.0
  0
LINE
  5
96
330
1E
100
AcDbEntity
  8
0
100
AcDbLine
 10
65.4
 20
145.4101799999999
 30
0.0
 11
66.29999999999999
 21
143.0101799999999
 31
0.0
  0
LINE
  5
97
330
1E
100
AcDbEntity
  8
0
100
AcDbLine
 10
67.9
 20
155.11018
 30
0.0
 11
70.0
 21
156.71018
 31
0.0
  0
LINE
  5
98
330
1E
100
AcDbEntity
  8
0
100
AcDbLine
 10
67.5
 20
161.0101799999999
 30
0.0
 11
71.09999999999999
 21
162.5101799999999
 31
0.0
  0
LINE
  5
99
330
1E
100
AcDbEntity
  8
0
100
AcDbLine
 10
68.0
 20
160.11018
 30
0.0
 11
71.4
 21
161.5101799999999
 31
0.0
  0
LINE
  5
9A
330
1E
100
AcDbEntity
  8
0
100
AcDbLine
 10
66.29999999999999
 20
143.0101799999999
 30
0.0
 11
67.9
 21
140.91018
 31
0.0
  0
LINE
  5
9B
330
1E
100
AcDbEntity
  8
0
100
AcDbLine
 10
67.9
 20
140.91018
 30
0.0
 11
70.0
 21
139.3101799999999
 31
0.0
  0
LINE
  5
9C
330
1E
100
AcDbEntity
  8
0
100
AcDbLine
 10
62.9
 20
141.0101799999999
 30
0.0
 11
65.09999999999999
 21
138.11018
 31
0.0
  0
LINE
  5
9D
330
1E
100
AcDbEntity
  8
0
100
AcDbLine
 10
65.09999999999999
 20
138.11018
 30
0.0
 11
68.0
 21
135.9101799999999
 31
0.0
  0
LINE
  5
9E
330
1E
100
AcDbEntity
  8
0
100
AcDbLine
 10
68.0
 20
135.9101799999999
 30
0.0
 11
71.4
 21
134.5101799999999
 31
0.0
  0
LINE
  5
9F
330
1E
100
AcDbEntity
  8
0
100
AcDbLine
 10
46.3235
 20
202.1861799999999
 30
0.0
 11
55.6765
 21
205.27518
 31
0.0
  0
LINE
  5
A0
330
1E
100
AcDbEntity
  8
0
100
AcDbLine
 10
55.6765
 20
205.27518
 30
0.0
 11
65.2059
 21
207.2161799999999
 31
0.0
  0
LINE
  5
A1
330
1E
100
AcDbEntity
  8
0
100
AcDbLine
 10
65.2059
 20
207.2161799999999
 30
0.0
 11
75.0
 21
208.01018
 31
0.0
  0
LINE
  5
A2
330
1E
100
AcDbEntity
  8
0
100
AcDbLine
 10
37.67649999999999
 20
197.95118
 30
0.0
 11
46.3235
 21
202.1861799999999
 31
0.0
  0
LINE
  5
A3
330
1E
100
AcDbEntity
  8
0
100
AcDbLine
 10
29.3824
 20
192.39218
 30
0.0
 11
37.67649999999999
 21
197.95118
 31
0.0
  0
LINE
  5
A4
330
1E
100
AcDbEntity
  8
0
100
AcDbLine
 10
22.0588
 20
185.9511799999999
 30
0.0
 11
29.3824
 21
192.39218
 31
0.0
  0
LINE
  5
A5
330
1E
100
AcDbEntity
  8
0
100
AcDbLine
 10
66.64
 20
94.31668
 30
0.0
 11
69.36799999999999
 21
95.26248
 31
0.0
  0
LINE
  5
A6
330
1E
100
AcDbEntity
  8
0
100
AcDbLine
 10
71.09999999999999
 20
133.5101799999999
 30
0.0
 11
75.0
 21
133.01018
 31
0.0
  0
LINE
  5
A7
330
1E
100
AcDbEntity
  8
0
100
AcDbLine
 10
70.0
 20
156.71018
 30
0.0
 11
72.40000000000001
 21
157.61018
 31
0.0
  0
LINE
  5
A8
330
1E
100
AcDbEntity
  8
0
100
AcDbLine
 10
71.09999999999999
 20
162.5101799999999
 30
0.0
 11
75.0
 21
163.01018
 31
0.0
  0
LINE
  5
A9
330
1E
100
AcDbEntity
  8
0
100
AcDbLine
 10
71.4
 20
161.5101799999999
 30
0.0
 11
75.0
 21
162.01018
 31
0.0
  0
LINE
  5
AA
330
1E
100
AcDbEntity
  8
0
100
AcDbLine
 10
71.6
 20
148.91018
 30
0.0
 11
72.0
 21
149.71018
 31
0.0
  0
LINE
  5
AB
330
1E
100
AcDbEntity
  8
0
100
AcDbLine
 10
71.5
 20
148.0101799999999
 30
0.0
 11
71.6
 21
147.11018
 31
0.0
  0
LINE
  5
AC
330
1E
100
AcDbEntity
  8
0
100
AcDbLine
 10
71.5
 20
148.0101799999999
 30
0.0
 11
71.6
 21
148.91018
 31
0.0
  0
LINE
  5
AD
330
1E
100
AcDbEntity
  8
0
100
AcDbLine
 10
71.6
 20
147.11018
 30
0.0
 11
72.0
 21
146.31018
 31
0.0
  0
LINE
  5
AE
330
1E
100
AcDbEntity
  8
0
100
AcDbLine
 10
70.0
 20
139.3101799999999
 30
0.0
 11
72.40000000000001
 21
138.41018
 31
0.0
  0
LINE
  5
AF
330
1E
100
AcDbEntity
  8
0
100
AcDbLine
 10
71.4
 20
134.5101799999999
 30
0.0
 11
75.0
 21
134.01018
 31
0.0
  0
LINE
  5
B0
330
1E
100
AcDbEntity
  8
0
100
AcDbLine
 10
72.0
 20
149.71018
 30
0.0
 11
72.5
 21
150.51018
 31
0.0
  0
LINE
  5
B1
330
1E
100
AcDbEntity
  8
0
100
AcDbLine
 10
72.0
 20
146.31018
 30
0.0
 11
72.5
 21
145.51018
 31
0.0
  0
LINE
  5
B2
330
1E
100
AcDbEntity
  8
0
100
AcDbLine
 10
69.36799999999999
 20
95.26248
 30
0.0
 11
72.096
 21
95.81428
 31
0.0
  0
LINE
  5
B3
330
1E
100
AcDbEntity
  8
0
100
AcDbLine
 10
69.1559
 20
94.19638
 30
0.0
 11
72.02670000000001
 21
94.77088
 31
0.0
  0
LINE
  5
B8
330
1E
100
AcDbEntity
  8
0
100
AcDbLine
 10
72.43680000000001
 20
0.181320000000002
 30
0.0
 11
75.0
 21
-0.0101799999999988
 31
0.0
  0
LINE
  5
106
330
1E
100
AcDbEntity
  8
0
100
AcDbLine
 10
72.5
 20
150.51018
 30
0.0
 11
73.3
 21
151.0101799999999
 31
0.0
  0
LINE
  5
107
330
1E
100
AcDbEntity
  8
0
100
AcDbLine
 10
73.3
 20
151.0101799999999
 30
0.0
 11
74.1
 21
151.4101799999999
 31
0.0
  0
LINE
  5
108
330
1E
100
AcDbEntity
  8
0
100
AcDbLine
 10
74.1
 20
151.4101799999999
 30
0.0
 11
75.0
 21
151.51018
 31
0.0
  0
LINE
  5
109
330
1E
100
AcDbEntity
  8
0
100
AcDbLine
 10
72.5
 20
145.51018
 30
0.0
 11
73.3
 21
145.0101799999999
 31
0.0
  0
LINE
  5
10A
330
1E
100
AcDbEntity
  8
0
100
AcDbLine
 10
73.3
 20
145.0101799999999
 30
0.0
 11
74.1
 21
144.61018
 31
0.0
  0
LINE
  5
10B
330
1E
100
AcDbEntity
  8
0
100
AcDbLine
 10
74.1
 20
144.61018
 30
0.0
 11
75.0
 21
144.5101799999999
 31
0.0
  0
LINE
  5
10C
330
1E
100
AcDbEntity
  8
0
100
AcDbLine
 10
72.40000000000001
 20
138.41018
 30
0.0
 11
75.0
 21
138.01018
 31
0.0
  0
LINE
  5
110
330
1E
100
AcDbEntity
  8
0
100
AcDbLine
 10
72.40000000000001
 20
157.61018
 30
0.0
 11
75.0
 21
158.01018
 31
0.0
  0
LINE
  5
14E
330
1E
100
AcDbEntity
  8
0
100
AcDbLine
 10
72.096
 20
95.81428
 30
0.0
 11
75.0
 21
96.05068000000001
 31
0.0
  0
LINE
  5
150
330
1E
100
AcDbEntity
  8
0
100
AcDbLine
 10
72.02670000000001
 20
94.77088
 30
0.0
 11
75.0
 21
94.96247999999999
 31
0.0
  0
LINE
  5
155
330
1E
100
AcDbEntity
  8
0
100
AcDbLine
 10
120.6175999999999
 20
192.39218
 30
0.0
 11
112.3234999999999
 21
197.95118
 31
0.0
  0
LINE
  5
156
330
1E
100
AcDbEntity
  8
0
100
AcDbLine
 10
120.6175999999999
 20
23.62778
 30
0.0
 11
112.3234999999999
 21
18.06898
 31
0.0
  0
LINE
  5
157
330
1E
100
AcDbEntity
  8
0
100
AcDbLine
 10
150.0
 20
133.01018
 30
0.0
 11
150.0
 21
83.01018
 31
0.0
  0
LINE
  5
158
330
1E
100
AcDbEntity
  8
0
100
AcDbLine
 10
150.0
 20
83.01018
 30
0.0
 11
150.0
 21
133.01018
 31
0.0
  0
LINE
  5
159
330
1E
100
AcDbEntity
  8
0
100
AcDbLine
 10
139.9412
 20
45.68667999999999
 30
0.0
 11
134.3823999999999
 21
37.39258
 31
0.0
  0
LINE
  5
15A
330
1E
100
AcDbEntity
  8
0
100
AcDbLine
 10
149.205882
 20
73.21608000000001
 30
0.0
 11
147.26471
 21
63.68668
 31
0.0
  0
LINE
  5
15B
330
1E
100
AcDbEntity
  8
0
100
AcDbLine
 10
149.205882
 20
73.21608000000001
 30
0.0
 11
147.26471
 21
63.68668
 31
0.0
  0
LINE
  5
15C
330
1E
100
AcDbEntity
  8
0
100
AcDbLine
 10
150.0
 20
83.01018
 30
0.0
 11
149.205882
 21
73.21608000000001
 31
0.0
  0
LINE
  5
15D
330
1E
100
AcDbEntity
  8
0
100
AcDbLine
 10
144.17647
 20
54.33368000000001
 30
0.0
 11
139.9412
 21
45.68667999999999
 31
0.0
  0
LINE
  5
15E
330
1E
100
AcDbEntity
  8
0
100
AcDbLine
 10
147.26471
 20
63.68668
 30
0.0
 11
144.17647
 21
54.33368000000001
 31
0.0
  0
LINE
  5
15F
330
1E
100
AcDbEntity
  8
0
100
AcDbLine
 10
127.9411999999999
 20
30.06898
 30
0.0
 11
120.6175999999999
 21
23.62778
 31
0.0
  0
LINE
  5
160
330
1E
100
AcDbEntity
  8
0
100
AcDbLine
 10
134.3823999999999
 20
37.39258
 30
0.0
 11
127.9411999999999
 21
30.06898
 31
0.0
  0
LINE
  5
161
330
1E
100
AcDbEntity
  8
0
100
AcDbLine
 10
139.9412
 20
170.33418
 30
0.0
 11
134.3823999999999
 21
178.62818
 31
0.0
  0
LINE
  5
162
330
1E
100
AcDbEntity
  8
0
100
AcDbLine
 10
144.17647
 20
161.68618
 30
0.0
 11
139.9412
 21
170.33418
 31
0.0
  0
LINE
  5
163
330
1E
100
AcDbEntity
  8
0
100
AcDbLine
 10
144.17647
 20
161.68618
 30
0.0
 11
139.9412
 21
170.33418
 31
0.0
  0
LINE
  5
164
330
1E
100
AcDbEntity
  8
0
100
AcDbLine
 10
149.205882
 20
142.80418
 30
0.0
 11
147.26471
 21
152.33418
 31
0.0
  0
LINE
  5
165
330
1E
100
AcDbEntity
  8
0
100
AcDbLine
 10
149.205882
 20
142.80418
 30
0.0
 11
147.26471
 21
152.33418
 31
0.0
  0
LINE
  5
166
330
1E
100
AcDbEntity
  8
0
100
AcDbLine
 10
149.205882
 20
142.80418
 30
0.0
 11
147.26471
 21
152.33418
 31
0.0
  0
LINE
  5
167
330
1E
100
AcDbEntity
  8
0
100
AcDbLine
 10
150.0
 20
133.01018
 30
0.0
 11
149.205882
 21
142.80418
 31
0.0
  0
LINE
  5
168
330
1E
100
AcDbEntity
  8
0
100
AcDbLine
 10
147.26471
 20
152.33418
 30
0.0
 11
144.17647
 21
161.68618
 31
0.0
  0
LINE
  5
169
330
1E
100
AcDbEntity
  8
0
100
AcDbLine
 10
127.9411999999999
 20
185.9511799999999
 30
0.0
 11
120.6175999999999
 21
192.39218
 31
0.0
  0
LINE
  5
16A
330
1E
100
AcDbEntity
  8
0
100
AcDbLine
 10
134.3823999999999
 20
178.62818
 30
0.0
 11
127.9411999999999
 21
185.9511799999999
 31
0.0
  0
LINE
  5
16B
330
1E
100
AcDbEntity
  8
0
100
AcDbLine
 10
90.89199999999999
 20
88.73858
 30
0.0
 11
88.73890000000001
 21
90.55788000000001
 31
0.0
  0
LINE
  5
16C
330
1E
100
AcDbEntity
  8
0
100
AcDbLine
 10
90.48799999999999
 20
89.64278
 30
0.0
 11
88.376
 21
91.58888000000001
 31
0.0
  0
LINE
  5
16D
330
1E
100
AcDbEntity
  8
0
100
AcDbLine
 10
90.37930000000001
 20
7.075389999999999
 30
0.0
 11
88.73890000000001
 21
5.351874999999999
 31
0.0
  0
LINE
  5
16E
330
1E
100
AcDbEntity
  8
0
100
AcDbLine
 10
97.55639999999999
 20
73.89718000000001
 30
0.0
 11
94.4805
 21
18.40408
 31
0.0
  0
LINE
  5
16F
330
1E
100
AcDbEntity
  8
0
100
AcDbLine
 10
97.55639999999999
 20
73.89718000000001
 30
0.0
 11
94.4805
 21
18.40408
 31
0.0
  0
LINE
  5
170
330
1E
100
AcDbEntity
  8
0
100
AcDbLine
 10
103.6765
 20
13.83371
 30
0.0
 11
94.32349999999999
 21
10.74546999999999
 31
0.0
  0
LINE
  5
171
330
1E
100
AcDbEntity
  8
0
100
AcDbLine
 10
112.3234999999999
 20
18.06898
 30
0.0
 11
103.6765
 21
13.83371
 31
0.0
  0
LINE
  5
172
330
1E
100
AcDbEntity
  8
0
100
AcDbLine
 10
92.94259999999999
 20
11.19269999999999
 30
0.0
 11
91.91729999999999
 21
9.086160000000001
 31
0.0
  0
LINE
  5
173
330
1E
100
AcDbEntity
  8
0
100
AcDbLine
 10
94.27539999999998
 20
15.7887
 30
0.0
 11
93.76279999999999
 21
13.49065
 31
0.0
  0
LINE
  5
174
330
1E
100
AcDbEntity
  8
0
100
AcDbLine
 10
93.76279999999999
 20
13.49065
 30
0.0
 11
92.94259999999999
 21
11.19269999999999
 31
0.0
  0
LINE
  5
175
330
1E
100
AcDbEntity
  8
0
100
AcDbLine
 10
94.32349999999999
 20
10.74546999999999
 30
0.0
 11
92.54898552624229
 21
10.3839955880723
 31
0.0
  0
LINE
  5
176
330
1E
100
AcDbEntity
  8
0
100
AcDbLine
 10
94.4805
 20
18.40408
 30
0.0
 11
94.27539999999998
 21
15.7887
 31
0.0
  0
LINE
  5
177
330
1E
100
AcDbEntity
  8
0
100
AcDbLine
 10
91.91729999999999
 20
9.086160000000001
 30
0.0
 11
90.37930000000001
 21
7.075389999999999
 31
0.0
  0
LINE
  5
178
330
1E
100
AcDbEntity
  8
0
100
AcDbLine
 10
95.8134
 20
81.94038
 30
0.0
 11
94.58299999999999
 21
84.42988000000001
 31
0.0
  0
LINE
  5
179
330
1E
100
AcDbEntity
  8
0
100
AcDbLine
 10
96.7361
 20
79.35497999999999
 30
0.0
 11
95.8134
 21
81.94038
 31
0.0
  0
LINE
  5
17A
330
1E
100
AcDbEntity
  8
0
100
AcDbLine
 10
97.55639999999999
 20
73.89718000000001
 30
0.0
 11
97.35130000000001
 21
76.67398
 31
0.0
  0
LINE
  5
17B
330
1E
100
AcDbEntity
  8
0
100
AcDbLine
 10
97.35130000000001
 20
76.67398
 30
0.0
 11
96.7361
 21
79.35497999999999
 31
0.0
  0
LINE
  5
17C
330
1E
100
AcDbEntity
  8
0
100
AcDbLine
 10
92.84
 20
86.72788
 30
0.0
 11
90.89199999999999
 21
88.73858
 31
0.0
  0
LINE
  5
17D
330
1E
100
AcDbEntity
  8
0
100
AcDbLine
 10
92.42400000000001
 20
87.56368
 30
0.0
 11
90.48799999999999
 21
89.64278
 31
0.0
  0
LINE
  5
17E
330
1E
100
AcDbEntity
  8
0
100
AcDbLine
 10
94.58299999999999
 20
84.42988000000001
 30
0.0
 11
92.84
 21
86.72788
 31
0.0
  0
LINE
  5
17F
330
1E
100
AcDbEntity
  8
0
100
AcDbLine
 10
94.09600000000001
 20
85.11208000000001
 30
0.0
 11
92.42400000000001
 21
87.56368
 31
0.0
  0
LINE
  5
180
330
1E
100
AcDbEntity
  8
0
100
AcDbLine
 10
94.58299999999999
 20
84.42988000000001
 30
0.0
 11
94.09600000000001
 21
85.11208000000001
 31
0.0
  0
LINE
  5
181
330
1E
100
AcDbEntity
  8
0
100
AcDbLine
 10
94.14142258686899
 20
85.0120629577597
 30
0.0
 11
94.09600000000001
 21
85.11208000000001
 31
0.0
  0
LINE
  5
182
330
1E
100
AcDbEntity
  8
0
100
AcDbLine
 10
90.57599999999998
 20
89.58617999999999
 30
0.0
 11
90.4291324685345
 21
89.697023419974
 31
0.0
  0
LINE
  5
183
330
1E
100
AcDbEntity
  8
0
100
AcDbLine
 10
90.57599999999998
 20
89.58617999999999
 30
0.0
 11
90.4291324685345
 21
89.697023419974
 31
0.0
  0
LINE
  5
184
330
1E
100
AcDbEntity
  8
0
100
AcDbLine
 10
90.72696317630121
 20
89.38615379140101
 30
0.0
 11
90.57599999999998
 21
89.58617999999999
 31
0.0
  0
LINE
  5
185
330
1E
100
AcDbEntity
  8
0
100
AcDbLine
 10
77.56319999999999
 20
0.181320000000002
 30
0.0
 11
75.0
 21
-0.0101799999999988
 31
0.0
  0
LINE
  5
186
330
1E
100
AcDbEntity
  8
0
100
AcDbLine
 10
84.74020000000001
 20
2.383599999999999
 30
0.0
 11
82.48459999999999
 21
1.426089999999999
 31
0.0
  0
LINE
  5
187
330
1E
100
AcDbEntity
  8
0
100
AcDbLine
 10
86.89339999999999
 20
3.819859999999999
 30
0.0
 11
84.74020000000001
 21
2.383599999999999
 31
0.0
  0
LINE
  5
188
330
1E
100
AcDbEntity
  8
0
100
AcDbLine
 10
88.73890000000001
 20
5.351874999999999
 30
0.0
 11
86.89339999999999
 21
3.819859999999999
 31
0.0
  0
LINE
  5
189
330
1E
100
AcDbEntity
  8
0
100
AcDbLine
 10
82.48459999999999
 20
1.426089999999999
 30
0.0
 11
80.0239
 21
0.6600800000000021
 31
0.0
  0
LINE
  5
18A
330
1E
100
AcDbEntity
  8
0
100
AcDbLine
 10
80.0239
 20
0.6600800000000021
 30
0.0
 11
77.56319999999999
 21
0.181320000000002
 31
0.0
  0
LINE
  5
18B
330
1E
100
AcDbEntity
  8
0
100
AcDbLine
 10
77.97329999999999
 20
94.77088
 30
0.0
 11
75.0
 21
94.96247999999999
 31
0.0
  0
LINE
  5
18C
330
1E
100
AcDbEntity
  8
0
100
AcDbLine
 10
77.90399999999999
 20
95.81428
 30
0.0
 11
75.0
 21
96.05068000000001
 31
0.0
  0
LINE
  5
18D
330
1E
100
AcDbEntity
  8
0
100
AcDbLine
 10
85.47780000000001
 20
71.52428
 30
0.0
 11
85.3818
 21
71.28798
 31
0.0
  0
LINE
  5
18E
330
1E
100
AcDbEntity
  8
0
100
AcDbLine
 10
87.3098
 20
71.28798
 30
0.0
 11
87.21379999999999
 21
71.52428
 31
0.0
  0
LINE
  5
18F
330
1E
100
AcDbEntity
  8
0
100
AcDbLine
 10
86.34579999999999
 20
70.05107999999999
 30
0.0
 11
86.0898
 21
70.08648
 31
0.0
  0
LINE
  5
190
330
1E
100
AcDbEntity
  8
0
100
AcDbLine
 10
87.05379999999999
 20
70.33858000000001
 30
0.0
 11
86.84180000000001
 21
70.18108000000001
 31
0.0
  0
LINE
  5
191
330
1E
100
AcDbEntity
  8
0
100
AcDbLine
 10
87.34579999999999
 20
71.03588000000001
 30
0.0
 11
87.3098
 21
71.28798
 31
0.0
  0
LINE
  5
192
330
1E
100
AcDbEntity
  8
0
100
AcDbLine
 10
87.34579999999999
 20
71.03588000000001
 30
0.0
 11
87.3098
 21
70.78378
 31
0.0
  0
LINE
  5
193
330
1E
100
AcDbEntity
  8
0
100
AcDbLine
 10
87.3098
 20
70.78378
 30
0.0
 11
87.21379999999999
 21
70.54738
 31
0.0
  0
LINE
  5
194
330
1E
100
AcDbEntity
  8
0
100
AcDbLine
 10
87.21379999999999
 20
70.54738
 30
0.0
 11
87.05379999999999
 21
70.33858000000001
 31
0.0
  0
LINE
  5
195
330
1E
100
AcDbEntity
  8
0
100
AcDbLine
 10
86.6018
 20
70.08648
 30
0.0
 11
86.34579999999999
 21
70.05107999999999
 31
0.0
  0
LINE
  5
196
330
1E
100
AcDbEntity
  8
0
100
AcDbLine
 10
86.84180000000001
 20
70.18108000000001
 30
0.0
 11
86.6018
 21
70.08648
 31
0.0
  0
LINE
  5
197
330
1E
100
AcDbEntity
  8
0
100
AcDbLine
 10
85.47780000000001
 20
70.54738
 30
0.0
 11
85.3818
 21
70.78378
 31
0.0
  0
LINE
  5
198
330
1E
100
AcDbEntity
  8
0
100
AcDbLine
 10
85.63779999999999
 20
70.33858000000001
 30
0.0
 11
85.47780000000001
 21
70.54738
 31
0.0
  0
LINE
  5
199
330
1E
100
AcDbEntity
  8
0
100
AcDbLine
 10
85.84979999999999
 20
70.18108000000001
 30
0.0
 11
85.63779999999999
 21
70.33858000000001
 31
0.0
  0
LINE
  5
19A
330
1E
100
AcDbEntity
  8
0
100
AcDbLine
 10
86.0898
 20
70.08648
 30
0.0
 11
85.84979999999999
 21
70.18108000000001
 31
0.0
  0
LINE
  5
19B
330
1E
100
AcDbEntity
  8
0
100
AcDbLine
 10
85.3818
 20
70.78378
 30
0.0
 11
85.3458
 21
71.03588000000001
 31
0.0
  0
LINE
  5
19C
330
1E
100
AcDbEntity
  8
0
100
AcDbLine
 10
85.3818
 20
71.28798
 30
0.0
 11
85.3458
 21
71.03588000000001
 31
0.0
  0
LINE
  5
19D
330
1E
100
AcDbEntity
  8
0
100
AcDbLine
 10
83.36
 20
94.31668
 30
0.0
 11
80.632
 21
95.26248
 31
0.0
  0
LINE
  5
19E
330
1E
100
AcDbEntity
  8
0
100
AcDbLine
 10
83.6124
 20
93.33468000000001
 30
0.0
 11
80.8441
 21
94.19638
 31
0.0
  0
LINE
  5
19F
330
1E
100
AcDbEntity
  8
0
100
AcDbLine
 10
86.34579999999999
 20
72.02068
 30
0.0
 11
86.0898
 21
71.98517999999999
 31
0.0
  0
LINE
  5
1A0
330
1E
100
AcDbEntity
  8
0
100
AcDbLine
 10
87.05379999999999
 20
71.73308
 30
0.0
 11
86.84180000000001
 21
71.89068
 31
0.0
  0
LINE
  5
1A1
330
1E
100
AcDbEntity
  8
0
100
AcDbLine
 10
87.21379999999999
 20
71.52428
 30
0.0
 11
87.05379999999999
 21
71.73308
 31
0.0
  0
LINE
  5
1A2
330
1E
100
AcDbEntity
  8
0
100
AcDbLine
 10
86.6018
 20
71.98517999999999
 30
0.0
 11
86.34579999999999
 21
72.02068
 31
0.0
  0
LINE
  5
1A3
330
1E
100
AcDbEntity
  8
0
100
AcDbLine
 10
86.84180000000001
 20
71.89068
 30
0.0
 11
86.6018
 21
71.98517999999999
 31
0.0
  0
LINE
  5
1A4
330
1E
100
AcDbEntity
  8
0
100
AcDbLine
 10
85.63779999999999
 20
71.73308
 30
0.0
 11
85.47780000000001
 21
71.52428
 31
0.0
  0
LINE
  5
1A5
330
1E
100
AcDbEntity
  8
0
100
AcDbLine
 10
85.84979999999999
 20
71.89068
 30
0.0
 11
85.63779999999999
 21
71.73308
 31
0.0
  0
LINE
  5
1A6
330
1E
100
AcDbEntity
  8
0
100
AcDbLine
 10
86.0898
 20
71.98517999999999
 30
0.0
 11
85.84979999999999
 21
71.89068
 31
0.0
  0
LINE
  5
1A7
330
1E
100
AcDbEntity
  8
0
100
AcDbLine
 10
86.27819999999999
 20
92.18568000000001
 30
0.0
 11
83.6124
 21
93.33468000000001
 31
0.0
  0
LINE
  5
1A8
330
1E
100
AcDbEntity
  8
0
100
AcDbLine
 10
88.376
 20
91.58888000000001
 30
0.0
 11
85.91199999999998
 21
93.19828000000001
 31
0.0
  0
LINE
  5
1A9
330
1E
100
AcDbEntity
  8
0
100
AcDbLine
 10
88.73890000000001
 20
90.55788000000001
 30
0.0
 11
86.27819999999999
 21
92.18568000000001
 31
0.0
  0
LINE
  5
1AA
330
1E
100
AcDbEntity
  8
0
100
AcDbLine
 10
85.91199999999998
 20
93.19828000000001
 30
0.0
 11
83.36
 21
94.31668
 31
0.0
  0
LINE
  5
1AB
330
1E
100
AcDbEntity
  8
0
100
AcDbLine
 10
80.8441
 20
94.19638
 30
0.0
 11
77.97329999999999
 21
94.77088
 31
0.0
  0
LINE
  5
1AC
330
1E
100
AcDbEntity
  8
0
100
AcDbLine
 10
80.632
 20
95.26248
 30
0.0
 11
77.90399999999999
 21
95.81428
 31
0.0
  0
LINE
  5
1AD
330
1E
100
AcDbEntity
  8
0
100
AcDbLine
 10
94.32349999999999
 20
205.27518
 30
0.0
 11
84.79409999999999
 21
207.2161799999999
 31
0.0
  0
LINE
  5
1AE
330
1E
100
AcDbEntity
  8
0
100
AcDbLine
 10
89.50000000000001
 20
144.11018
 30
0.0
 11
88.0
 21
140.5101799999999
 31
0.0
  0
LINE
  5
1AF
330
1E
100
AcDbEntity
  8
0
100
AcDbLine
 10
89.50000000000001
 20
151.91018
 30
0.0
 11
88.0
 21
155.5101799999999
 31
0.0
  0
LINE
  5
1B0
330
1E
100
AcDbEntity
  8
0
100
AcDbLine
 10
90.0
 20
148.0101799999999
 30
0.0
 11
89.50000000000001
 21
144.11018
 31
0.0
  0
LINE
  5
1B1
330
1E
100
AcDbEntity
  8
0
100
AcDbLine
 10
90.0
 20
148.0101799999999
 30
0.0
 11
89.50000000000001
 21
151.91018
 31
0.0
  0
LINE
  5
1B2
330
1E
100
AcDbEntity
  8
0
100
AcDbLine
 10
103.6765
 20
202.1861799999999
 30
0.0
 11
94.32349999999999
 21
205.27518
 31
0.0
  0
LINE
  5
1B3
330
1E
100
AcDbEntity
  8
0
100
AcDbLine
 10
112.3234999999999
 20
197.95118
 30
0.0
 11
103.6765
 21
202.1861799999999
 31
0.0
  0
LINE
  5
1B4
330
1E
100
AcDbEntity
  8
0
100
AcDbLine
 10
78.59999999999999
 20
161.5101799999999
 30
0.0
 11
75.0
 21
162.01018
 31
0.0
  0
LINE
  5
1B5
330
1E
100
AcDbEntity
  8
0
100
AcDbLine
 10
78.9
 20
162.5101799999999
 30
0.0
 11
75.0
 21
163.01018
 31
0.0
  0
LINE
  5
1B6
330
1E
100
AcDbEntity
  8
0
100
AcDbLine
 10
77.59999999999999
 20
157.61018
 30
0.0
 11
75.0
 21
158.01018
 31
0.0
  0
LINE
  5
1B7
330
1E
100
AcDbEntity
  8
0
100
AcDbLine
 10
77.5
 20
150.51018
 30
0.0
 11
76.7
 21
151.0101799999999
 31
0.0
  0
LINE
  5
1B8
330
1E
100
AcDbEntity
  8
0
100
AcDbLine
 10
77.5
 20
145.51018
 30
0.0
 11
76.7
 21
145.0101799999999
 31
0.0
  0
LINE
  5
1B9
330
1E
100
AcDbEntity
  8
0
100
AcDbLine
 10
77.59999999999999
 20
138.41018
 30
0.0
 11
75.0
 21
138.01018
 31
0.0
  0
LINE
  5
1BA
330
1E
100
AcDbEntity
  8
0
100
AcDbLine
 10
78.59999999999999
 20
134.5101799999999
 30
0.0
 11
75.0
 21
134.01018
 31
0.0
  0
LINE
  5
1BB
330
1E
100
AcDbEntity
  8
0
100
AcDbLine
 10
78.9
 20
133.5101799999999
 30
0.0
 11
75.0
 21
133.01018
 31
0.0
  0
LINE
  5
1BC
330
1E
100
AcDbEntity
  8
0
100
AcDbLine
 10
84.9
 20
138.11018
 30
0.0
 11
82.0
 21
135.9101799999999
 31
0.0
  0
LINE
  5
1BD
330
1E
100
AcDbEntity
  8
0
100
AcDbLine
 10
85.6
 20
137.41018
 30
0.0
 11
82.5
 21
135.01018
 31
0.0
  0
LINE
  5
1BE
330
1E
100
AcDbEntity
  8
0
100
AcDbLine
 10
82.0
 20
135.9101799999999
 30
0.0
 11
78.59999999999999
 21
134.5101799999999
 31
0.0
  0
LINE
  5
1BF
330
1E
100
AcDbEntity
  8
0
100
AcDbLine
 10
82.5
 20
135.01018
 30
0.0
 11
78.9
 21
133.5101799999999
 31
0.0
  0
LINE
  5
1C0
330
1E
100
AcDbEntity
  8
0
100
AcDbLine
 10
83.7
 20
153.0101799999999
 30
0.0
 11
82.09999999999999
 21
155.11018
 31
0.0
  0
LINE
  5
1C1
330
1E
100
AcDbEntity
  8
0
100
AcDbLine
 10
84.9
 20
157.91018
 30
0.0
 11
82.0
 21
160.11018
 31
0.0
  0
LINE
  5
1C2
330
1E
100
AcDbEntity
  8
0
100
AcDbLine
 10
85.6
 20
158.61018
 30
0.0
 11
82.5
 21
161.0101799999999
 31
0.0
  0
LINE
  5
1C3
330
1E
100
AcDbEntity
  8
0
100
AcDbLine
 10
83.7
 20
143.0101799999999
 30
0.0
 11
82.09999999999999
 21
140.91018
 31
0.0
  0
LINE
  5
1C4
330
1E
100
AcDbEntity
  8
0
100
AcDbLine
 10
84.59999999999999
 20
150.61018
 30
0.0
 11
83.7
 21
153.0101799999999
 31
0.0
  0
LINE
  5
1C5
330
1E
100
AcDbEntity
  8
0
100
AcDbLine
 10
88.49999999999999
 20
151.61018
 30
0.0
 11
87.09999999999999
 21
155.01018
 31
0.0
  0
LINE
  5
1C6
330
1E
100
AcDbEntity
  8
0
100
AcDbLine
 10
87.09999999999999
 20
141.0101799999999
 30
0.0
 11
84.9
 21
138.11018
 31
0.0
  0
LINE
  5
1C7
330
1E
100
AcDbEntity
  8
0
100
AcDbLine
 10
88.0
 20
140.5101799999999
 30
0.0
 11
85.6
 21
137.41018
 31
0.0
  0
LINE
  5
1C8
330
1E
100
AcDbEntity
  8
0
100
AcDbLine
 10
89.0
 20
148.0101799999999
 30
0.0
 11
88.49999999999999
 21
144.41018
 31
0.0
  0
LINE
  5
1C9
330
1E
100
AcDbEntity
  8
0
100
AcDbLine
 10
88.49999999999999
 20
144.41018
 30
0.0
 11
87.09999999999999
 21
141.0101799999999
 31
0.0
  0
LINE
  5
1CA
330
1E
100
AcDbEntity
  8
0
100
AcDbLine
 10
89.0
 20
148.0101799999999
 30
0.0
 11
88.49999999999999
 21
151.61018
 31
0.0
  0
LINE
  5
1CB
330
1E
100
AcDbEntity
  8
0
100
AcDbLine
 10
84.59999999999999
 20
145.4101799999999
 30
0.0
 11
83.7
 21
143.0101799999999
 31
0.0
  0
LINE
  5
1CC
330
1E
100
AcDbEntity
  8
0
100
AcDbLine
 10
85.0
 20
148.0101799999999
 30
0.0
 11
84.59999999999999
 21
145.4101799999999
 31
0.0
  0
LINE
  5
1CD
330
1E
100
AcDbEntity
  8
0
100
AcDbLine
 10
85.0
 20
148.0101799999999
 30
0.0
 11
84.59999999999999
 21
150.61018
 31
0.0
  0
LINE
  5
1CE
330
1E
100
AcDbEntity
  8
0
100
AcDbLine
 10
87.09999999999999
 20
155.01018
 30
0.0
 11
84.9
 21
157.91018
 31
0.0
  0
LINE
  5
1CF
330
1E
100
AcDbEntity
  8
0
100
AcDbLine
 10
88.0
 20
155.5101799999999
 30
0.0
 11
85.6
 21
158.61018
 31
0.0
  0
LINE
  5
1D0
330
1E
100
AcDbEntity
  8
0
100
AcDbLine
 10
82.09999999999999
 20
140.91018
 30
0.0
 11
80.0
 21
139.3101799999999
 31
0.0
  0
LINE
  5
1D1
330
1E
100
AcDbEntity
  8
0
100
AcDbLine
 10
80.0
 20
139.3101799999999
 30
0.0
 11
77.59999999999999
 21
138.41018
 31
0.0
  0
LINE
  5
1D2
330
1E
100
AcDbEntity
  8
0
100
AcDbLine
 10
78.5
 20
148.0101799999999
 30
0.0
 11
78.4
 21
148.91018
 31
0.0
  0
LINE
  5
1D3
330
1E
100
AcDbEntity
  8
0
100
AcDbLine
 10
78.4
 20
147.11018
 30
0.0
 11
78.0
 21
146.31018
 31
0.0
  0
LINE
  5
1D4
330
1E
100
AcDbEntity
  8
0
100
AcDbLine
 10
78.5
 20
148.0101799999999
 30
0.0
 11
78.4
 21
147.11018
 31
0.0
  0
LINE
  5
1D5
330
1E
100
AcDbEntity
  8
0
100
AcDbLine
 10
78.0
 20
146.31018
 30
0.0
 11
77.5
 21
145.51018
 31
0.0
  0
LINE
  5
1D6
330
1E
100
AcDbEntity
  8
0
100
AcDbLine
 10
78.4
 20
148.91018
 30
0.0
 11
78.0
 21
149.71018
 31
0.0
  0
LINE
  5
1D7
330
1E
100
AcDbEntity
  8
0
100
AcDbLine
 10
78.0
 20
149.71018
 30
0.0
 11
77.5
 21
150.51018
 31
0.0
  0
LINE
  5
1D8
330
1E
100
AcDbEntity
  8
0
100
AcDbLine
 10
82.0
 20
160.11018
 30
0.0
 11
78.59999999999999
 21
161.5101799999999
 31
0.0
  0
LINE
  5
1D9
330
1E
100
AcDbEntity
  8
0
100
AcDbLine
 10
82.5
 20
161.0101799999999
 30
0.0
 11
78.9
 21
162.5101799999999
 31
0.0
  0
LINE
  5
1DA
330
1E
100
AcDbEntity
  8
0
100
AcDbLine
 10
82.09999999999999
 20
155.11018
 30
0.0
 11
80.0
 21
156.71018
 31
0.0
  0
LINE
  5
1DB
330
1E
100
AcDbEntity
  8
0
100
AcDbLine
 10
80.0
 20
156.71018
 30
0.0
 11
77.59999999999999
 21
157.61018
 31
0.0
  0
LINE
  5
1DC
330
1E
100
AcDbEntity
  8
0
100
AcDbLine
 10
76.7
 20
145.0101799999999
 30
0.0
 11
75.9
 21
144.61018
 31
0.0
  0
LINE
  5
1DD
330
1E
100
AcDbEntity
  8
0
100
AcDbLine
 10
75.9
 20
144.61018
 30
0.0
 11
75.0
 21
144.5101799999999
 31
0.0
  0
LINE
  5
1DE
330
1E
100
AcDbEntity
  8
0
100
AcDbLine
 10
75.9
 20
151.4101799999999
 30
0.0
 11
75.0
 21
151.51018
 31
0.0
  0
LINE
  5
1DF
330
1E
100
AcDbEntity
  8
0
100
AcDbLine
 10
76.7
 20
151.0101799999999
 30
0.0
 11
75.9
 21
151.4101799999999
 31
0.0
  0
LINE
  5
1E0
330
1E
100
AcDbEntity
  8
0
100
AcDbLine
 10
84.79409999999999
 20
207.2161799999999
 30
0.0
 11
75.0
 21
208.01018
 31
0.0
  0
ENDSEC
  0
SECTION
  2
OBJECTS
  0
DICTIONARY
  5
C
330
0
100
AcDbDictionary
281
     1
  3
ACAD_GROUP
350
D
  3
ACAD_LAYOUT
350
19
  3
ACAD_MLINESTYLE
350
16
  3
ACAD_PLOTSETTINGS
350
18
  3
ACAD_PLOTSTYLENAME
350
E
  3
AcDbVariableDictionary
350
1E1
  0
DICTIONARY
  5
D
102
{ACAD_REACTORS
330
C
102
}
330
C
100
AcDbDictionary
281
     1
  0
DICTIONARY
  5
19
102
{ACAD_REACTORS
330
C
102
}
330
C
100
AcDbDictionary
281
     1
  3
Layout1
350
1D
  3
Model
350
21
  0
DICTIONARY
  5
16
102
{ACAD_REACTORS
330
C
102
}
330
C
100
AcDbDictionary
281
     1
  3
Standard
350
17
  0
DICTIONARY
  5
18
102
{ACAD_REACTORS
330
C
102
}
330
C
100
AcDbDictionary
281
     1
  0
ACDBDICTIONARYWDFLT
  5
E
102
{ACAD_REACTORS
330
C
102
}
330
C
100
AcDbDictionary
281
     1
  3
Normal
350
F
100
AcDbDictionaryWithDefault
340
F
  0
DICTIONARY
  5
1E1
102
{ACAD_REACTORS
330
C
102
}
330
C
100
AcDbDictionary
281
     1
  3
DIMASSOC
350
1E2
  0
LAYOUT
  5
1D
102
{ACAD_REACTORS
330
19
102
}
330
19
100
AcDbPlotSettings
  1

  2
hp deskjet 980c series
  4

  6

 40
0.0
 41
0.0
 42
0.0
 43
0.0
 44
0.0
 45
0.0
 46
0.0
 47
0.0
 48
0.0
 49
0.0
140
0.0
141
0.0
142
1.0
143
1.0
 70
   688
 72
     0
 73
     0
 74
     5
  7

 75
    16
147
1.0
148
0.0
149
0.0
100
AcDbLayout
  1
Layout1
 70
     1
 71
     1
 10
0.0
 20
0.0
 11
12.0
 21
9.0
 12
0.0
 22
0.0
 32
0.0
 14
1.000000000000000E+20
 24
1.000000000000000E+20
 34
1.000000000000000E+20
 15
-1.000000000000000E+20
 25
-1.000000000000000E+20
 35
-1.000000000000000E+20
146
0.0
 13
0.0
 23
0.0
 33
0.0
 16
1.0
 26
0.0
 36
0.0
 17
0.0
 27
1.0
 37
0.0
 76
     0
330
1A
  0
LAYOUT
  5
21
102
{ACAD_REACTORS
330
19
102
}
330
19
100
AcDbPlotSettings
  1

  2
hp deskjet 980c series
  4

  6

 40
0.0
 41
0.0
 42
0.0
 43
0.0
 44
0.0
 45
0.0
 46
0.0
 47
0.0
 48
0.0
 49
0.0
140
0.0
141
0.0
142
1.0
143
1.0
 70
  1712
 72
     0
 73
     0
 74
     0
  7

 75
     0
147
1.0
148
0.0
149
0.0
100
AcDbLayout
  1
Model
 70
     1
 71
     0
 10
0.0
 20
0.0
 11
12.0
 21
9.0
 12
0.0
 22
0.0
 32
0.0
 14
0.0
 24
0.0
 34
0.0
 15
0.0
 25
0.0
 35
0.0
146
0.0
 13
0.0
 23
0.0
 33
0.0
 16
1.0
 26
0.0
 36
0.0
 17
0.0
 27
1.0
 37
0.0
 76
     0
330
1E
  0
MLINESTYLE
  5
17
102
{ACAD_REACTORS
330
16
102
}
330
16
100
AcDbMlineStyle
  2
STANDARD
 70
     0
  3

 62
   256
 51
90.0
 52
90.0
 71
     2
 49
0.5
 62
   256
  6
BYLAYER
 49
-0.5
 62
   256
  6
BYLAYER
  0
ACDBPLACEHOLDER
  5
F
102
{ACAD_REACTORS
330
E
102
}
330
E
  0
DICTIONARYVAR
  5
1E2
102
{ACAD_REACTORS
330
1E1
102
}
330
1E1
100
DictionaryVariables
280
     0
  1
1
  0
ENDSEC
  0
EOF
