  0
SECTION
  2
HEADER
  9
$ACADVER
  1
AC1015
  9
$ACADMAINTVER
 70
    13
  9
$DWGCODEPAGE
  3
ANSI_1252
  9
$INSBASE
 10
0.0
 20
0.0
 30
0.0
  9
$EXTMIN
 10
0.0000000000000021
 20
-0.0850000000000001
 30
0.0
  9
$EXTMAX
 10
189.0
 20
202.085
 30
0.0
  9
$LIMMIN
 10
0.0
 20
0.0
  9
$LIMMAX
 10
12.0
 20
9.0
  9
$ORTHOMODE
 70
     0
  9
$REGENMODE
 70
     1
  9
$FILLMODE
 70
     1
  9
$QTEXTMODE
 70
     0
  9
$MIRRTEXT
 70
     1
  9
$LTSCALE
 40
1.0
  9
$ATTMODE
 70
     1
  9
$TEXTSIZE
 40
0.2
  9
$TRACEWID
 40
0.05
  9
$TEXTSTYLE
  7
Standard
  9
$CLAYER
  8
0
  9
$CELTYPE
  6
Continuous
  9
$CECOLOR
 62
   256
  9
$CELTSCALE
 40
1.0
  9
$DISPSILH
 70
     0
  9
$DIMSCALE
 40
1.0
  9
$DIMASZ
 40
0.18
  9
$DIMEXO
 40
0.0625
  9
$DIMDLI
 40
0.38
  9
$DIMRND
 40
0.0
  9
$DIMDLE
 40
0.0
  9
$DIMEXE
 40
0.18
  9
$DIMTP
 40
0.0
  9
$DIMTM
 40
0.0
  9
$DIMTXT
 40
0.18
  9
$DIMCEN
 40
0.09
  9
$DIMTSZ
 40
0.0
  9
$DIMTOL
 70
     0
  9
$DIMLIM
 70
     0
  9
$DIMTIH
 70
     1
  9
$DIMTOH
 70
     1
  9
$DIMSE1
 70
     0
  9
$DIMSE2
 70
     0
  9
$DIMTAD
 70
     0
  9
$DIMZIN
 70
     0
  9
$DIMBLK
  1

  9
$DIMASO
 70
     1
  9
$DIMSHO
 70
     1
  9
$DIMPOST
  1

  9
$DIMAPOST
  1

  9
$DIMALT
 70
     0
  9
$DIMALTD
 70
     2
  9
$DIMALTF
 40
25.4
  9
$DIMLFAC
 40
1.0
  9
$DIMTOFL
 70
     0
  9
$DIMTVP
 40
0.0
  9
$DIMTIX
 70
     0
  9
$DIMSOXD
 70
     0
  9
$DIMSAH
 70
     0
  9
$DIMBLK1
  1

  9
$DIMBLK2
  1

  9
$DIMSTYLE
  2
Standard
  9
$DIMCLRD
 70
     0
  9
$DIMCLRE
 70
     0
  9
$DIMCLRT
 70
     0
  9
$DIMTFAC
 40
1.0
  9
$DIMGAP
 40
0.09
  9
$DIMJUST
 70
     0
  9
$DIMSD1
 70
     0
  9
$DIMSD2
 70
     0
  9
$DIMTOLJ
 70
     1
  9
$DIMTZIN
 70
     0
  9
$DIMALTZ
 70
     0
  9
$DIMALTTZ
 70
     0
  9
$DIMUPT
 70
     0
  9
$DIMDEC
 70
     4
  9
$DIMTDEC
 70
     4
  9
$DIMALTU
 70
     2
  9
$DIMALTTD
 70
     2
  9
$DIMTXSTY
  7
Standard
  9
$DIMAUNIT
 70
     0
  9
$DIMADEC
 70
     0
  9
$DIMALTRND
 40
0.0
  9
$DIMAZIN
 70
     0
  9
$DIMDSEP
 70
    46
  9
$DIMATFIT
 70
     3
  9
$DIMFRAC
 70
     0
  9
$DIMLDRBLK
  1

  9
$DIMLUNIT
 70
     2
  9
$DIMLWD
 70
    -2
  9
$DIMLWE
 70
    -2
  9
$DIMTMOVE
 70
     0
  9
$LUNITS
 70
     2
  9
$LUPREC
 70
     4
  9
$SKETCHINC
 40
0.1
  9
$FILLETRAD
 40
0.0
  9
$AUNITS
 70
     0
  9
$AUPREC
 70
     0
  9
$MENU
  1
.
  9
$ELEVATION
 40
0.0
  9
$PELEVATION
 40
0.0
  9
$THICKNESS
 40
0.0
  9
$LIMCHECK
 70
     0
  9
$CHAMFERA
 40
0.0
  9
$CHAMFERB
 40
0.0
  9
$CHAMFERC
 40
0.0
  9
$CHAMFERD
 40
0.0
  9
$SKPOLY
 70
     0
  9
$TDCREATE
 40
2454835.603299514
  9
$TDUCREATE
 40
2454835.561632847
  9
$TDUPDATE
 40
2454835.604221099
  9
$TDUUPDATE
 40
2454835.562554433
  9
$TDINDWG
 40
0.0009217593
  9
$TDUSRTIMER
 40
0.0009217593
  9
$USRTIMER
 70
     1
  9
$ANGBASE
 50
0.0
  9
$ANGDIR
 70
     0
  9
$PDMODE
 70
     0
  9
$PDSIZE
 40
0.0
  9
$PLINEWID
 40
0.0
  9
$SPLFRAME
 70
     0
  9
$SPLINETYPE
 70
     6
  9
$SPLINESEGS
 70
     8
  9
$HANDSEED
  5
263
  9
$SURFTAB1
 70
     6
  9
$SURFTAB2
 70
     6
  9
$SURFTYPE
 70
     6
  9
$SURFU
 70
     6
  9
$SURFV
 70
     6
  9
$UCSBASE
  2

  9
$UCSNAME
  2

  9
$UCSORG
 10
0.0
 20
0.0
 30
0.0
  9
$UCSXDIR
 10
1.0
 20
0.0
 30
0.0
  9
$UCSYDIR
 10
0.0
 20
1.0
 30
0.0
  9
$UCSORTHOREF
  2

  9
$UCSORTHOVIEW
 70
     1
  9
$UCSORGTOP
 10
0.0
 20
0.0
 30
0.0
  9
$UCSORGBOTTOM
 10
0.0
 20
0.0
 30
0.0
  9
$UCSORGLEFT
 10
0.0
 20
0.0
 30
0.0
  9
$UCSORGRIGHT
 10
0.0
 20
0.0
 30
0.0
  9
$UCSORGFRONT
 10
0.0
 20
0.0
 30
0.0
  9
$UCSORGBACK
 10
0.0
 20
0.0
 30
0.0
  9
$PUCSBASE
  2

  9
$PUCSNAME
  2

  9
$PUCSORG
 10
0.0
 20
0.0
 30
0.0
  9
$PUCSXDIR
 10
1.0
 20
0.0
 30
0.0
  9
$PUCSYDIR
 10
0.0
 20
1.0
 30
0.0
  9
$PUCSORTHOREF
  2

  9
$PUCSORTHOVIEW
 70
     0
  9
$PUCSORGTOP
 10
0.0
 20
0.0
 30
0.0
  9
$PUCSORGBOTTOM
 10
0.0
 20
0.0
 30
0.0
  9
$PUCSORGLEFT
 10
0.0
 20
0.0
 30
0.0
  9
$PUCSORGRIGHT
 10
0.0
 20
0.0
 30
0.0
  9
$PUCSORGFRONT
 10
0.0
 20
0.0
 30
0.0
  9
$PUCSORGBACK
 10
0.0
 20
0.0
 30
0.0
  9
$USERI1
 70
     0
  9
$USERI2
 70
     0
  9
$USERI3
 70
     0
  9
$USERI4
 70
     0
  9
$USERI5
 70
     0
  9
$USERR1
 40
0.0
  9
$USERR2
 40
0.0
  9
$USERR3
 40
0.0
  9
$USERR4
 40
0.0
  9
$USERR5
 40
0.0
  9
$WORLDVIEW
 70
     1
  9
$SHADEDGE
 70
     3
  9
$SHADEDIF
 70
    70
  9
$TILEMODE
 70
     1
  9
$MAXACTVP
 70
    64
  9
$PINSBASE
 10
0.0
 20
0.0
 30
0.0
  9
$PLIMCHECK
 70
     0
  9
$PEXTMIN
 10
1.000000000000000E+20
 20
1.000000000000000E+20
 30
1.000000000000000E+20
  9
$PEXTMAX
 10
-1.000000000000000E+20
 20
-1.000000000000000E+20
 30
-1.000000000000000E+20
  9
$PLIMMIN
 10
0.0
 20
0.0
  9
$PLIMMAX
 10
12.0
 20
9.0
  9
$UNITMODE
 70
     0
  9
$VISRETAIN
 70
     1
  9
$PLINEGEN
 70
     0
  9
$PSLTSCALE
 70
     1
  9
$TREEDEPTH
 70
  3020
  9
$CMLSTYLE
  2
Standard
  9
$CMLJUST
 70
     0
  9
$CMLSCALE
 40
1.0
  9
$PROXYGRAPHICS
 70
     1
  9
$MEASUREMENT
 70
     0
  9
$CELWEIGHT
370
    -1
  9
$ENDCAPS
280
     0
  9
$JOINSTYLE
280
     0
  9
$LWDISPLAY
290
     0
  9
$INSUNITS
 70
     0
  9
$HYPERLINKBASE
  1

  9
$STYLESHEET
  1

  9
$XEDIT
290
     1
  9
$CEPSNTYPE
380
     0
  9
$PSTYLEMODE
290
     1
  9
$FINGERPRINTGUID
  2
{A2F9847A-5F5F-464C-8C46-23B0954A7607}
  9
$VERSIONGUID
  2
{4F51F354-3912-4396-A57B-4FC764C19510}
  9
$EXTNAMES
290
     1
  9
$PSVPSCALE
 40
0.0
  9
$OLESTARTUP
290
     0
  0
ENDSEC
  0
SECTION
  2
CLASSES
  0
CLASS
  1
ACDBDICTIONARYWDFLT
  2
AcDbDictionaryWithDefault
  3
AutoCAD 2000
 90
        0
280
     0
281
     0
  0
CLASS
  1
ACDBPLACEHOLDER
  2
AcDbPlaceHolder
  3
AutoCAD 2000
 90
        0
280
     0
281
     0
  0
CLASS
  1
LAYOUT
  2
AcDbLayout
  3
AutoCAD 2000
 90
        0
280
     0
281
     0
  0
CLASS
  1
DICTIONARYVAR
  2
AcDbDictionaryVar
  3
AutoCAD 2000
 90
        0
280
     0
281
     0
  0
ENDSEC
  0
SECTION
  2
TABLES
  0
TABLE
  2
VPORT
  5
8
330
0
100
AcDbSymbolTable
 70
     2
  0
VPORT
  5
262
330
8
100
AcDbSymbolTableRecord
100
AcDbViewportTableRecord
  2
*Active
 70
     0
 10
0.0
 20
0.0
 11
1.0
 21
1.0
 12
94.50000000000001
 22
101.0
 13
0.0
 23
0.0
 14
1.0
 24
1.0
 15
0.0
 25
0.0
 16
0.0
 26
0.0
 36
1.0
 17
0.0
 27
0.0
 37
0.0
 40
203.7211764705882
 41
2.078104993597951
 42
50.0
 43
0.0
 44
0.0
 50
0.0
 51
0.0
 71
     0
 72
   100
 73
     1
 74
     3
 75
     0
 76
     0
 77
     0
 78
     0
281
     0
 65
     1
110
0.0
120
0.0
130
0.0
111
1.0
121
0.0
131
0.0
112
0.0
122
1.0
132
0.0
 79
     1
146
0.0
  0
ENDTAB
  0
TABLE
  2
LTYPE
  5
5
330
0
100
AcDbSymbolTable
 70
     1
  0
LTYPE
  5
13
330
5
100
AcDbSymbolTableRecord
100
AcDbLinetypeTableRecord
  2
ByBlock
 70
     0
  3

 72
    65
 73
     0
 40
0.0
  0
LTYPE
  5
14
330
5
100
AcDbSymbolTableRecord
100
AcDbLinetypeTableRecord
  2
ByLayer
 70
     0
  3

 72
    65
 73
     0
 40
0.0
  0
LTYPE
  5
15
330
5
100
AcDbSymbolTableRecord
100
AcDbLinetypeTableRecord
  2
Continuous
 70
     0
  3
Solid line
 72
    65
 73
     0
 40
0.0
  0
ENDTAB
  0
TABLE
  2
LAYER
  5
2
330
0
100
AcDbSymbolTable
 70
     1
  0
LAYER
  5
10
330
2
100
AcDbSymbolTableRecord
100
AcDbLayerTableRecord
  2
0
 70
     0
 62
     7
  6
Continuous
370
    -3
390
F
  0
ENDTAB
  0
TABLE
  2
STYLE
  5
3
330
0
100
AcDbSymbolTable
 70
     1
  0
STYLE
  5
11
330
3
100
AcDbSymbolTableRecord
100
AcDbTextStyleTableRecord
  2
Standard
 70
     0
 40
0.0
 41
1.0
 50
0.0
 71
     0
 42
0.2
  3
txt
  4

  0
ENDTAB
  0
TABLE
  2
VIEW
  5
6
330
0
100
AcDbSymbolTable
 70
     0
  0
ENDTAB
  0
TABLE
  2
UCS
  5
7
330
0
100
AcDbSymbolTable
 70
     0
  0
ENDTAB
  0
TABLE
  2
APPID
  5
9
330
0
100
AcDbSymbolTable
 70
     1
  0
APPID
  5
12
330
9
100
AcDbSymbolTableRecord
100
AcDbRegAppTableRecord
  2
ACAD
 70
     0
  0
ENDTAB
  0
TABLE
  2
DIMSTYLE
  5
A
330
0
100
AcDbSymbolTable
 70
     1
100
AcDbDimStyleTable
 71
     0
  0
DIMSTYLE
105
256
330
A
100
AcDbSymbolTableRecord
100
AcDbDimStyleTableRecord
  2
Standard
 70
     0
340
11
  0
ENDTAB
  0
TABLE
  2
BLOCK_RECORD
  5
1
330
0
100
AcDbSymbolTable
 70
     0
  0
BLOCK_RECORD
  5
1E
330
1
100
AcDbSymbolTableRecord
100
AcDbBlockTableRecord
  2
*Model_Space
340
21
  0
BLOCK_RECORD
  5
1A
330
1
100
AcDbSymbolTableRecord
100
AcDbBlockTableRecord
  2
*Paper_Space
340
1D
  0
ENDTAB
  0
ENDSEC
  0
SECTION
  2
BLOCKS
  0
BLOCK
  5
1F
330
1E
100
AcDbEntity
  8
0
100
AcDbBlockBegin
  2
*Model_Space
 70
     0
 10
0.0
 20
0.0
 30
0.0
  3
*Model_Space
  1

  0
ENDBLK
  5
20
330
1E
100
AcDbEntity
  8
0
100
AcDbBlockEnd
  0
BLOCK
  5
1B
330
1A
100
AcDbEntity
 67
     1
  8
0
100
AcDbBlockBegin
  2
*Paper_Space
 70
     0
 10
0.0
 20
0.0
 30
0.0
  3
*Paper_Space
  1

  0
ENDBLK
  5
1C
330
1A
100
AcDbEntity
 67
     1
  8
0
100
AcDbBlockEnd
  0
ENDSEC
  0
SECTION
  2
ENTITIES
  0
LINE
  5
22
330
1E
100
AcDbEntity
  8
0
100
AcDbLine
 10
53.5723
 20
59.915
 30
0.0
 11
53.9723
 21
59.915
 31
0.0
  0
LINE
  5
23
330
1E
100
AcDbEntity
  8
0
100
AcDbLine
 10
28.0527
 20
88.19879
 30
0.0
 11
28.5511
 21
88.65586999999999
 31
0.0
  0
LINE
  5
24
330
1E
100
AcDbEntity
  8
0
100
AcDbLine
 10
27.6129
 20
88.35886999999999
 30
0.0
 11
28.0527
 21
88.19879
 31
0.0
  0
LINE
  5
25
330
1E
100
AcDbEntity
  8
0
100
AcDbLine
 10
26.4402
 20
88.78569
 30
0.0
 11
27.6129
 21
88.35886999999999
 31
0.0
  0
LINE
  5
26
330
1E
100
AcDbEntity
  8
0
100
AcDbLine
 10
24.5345
 20
89.47933
 30
0.0
 11
26.4402
 21
88.78569
 31
0.0
  0
LINE
  5
27
330
1E
100
AcDbEntity
  8
0
100
AcDbLine
 10
28.5511
 20
88.65586999999999
 30
0.0
 11
31.1377105838566
 21
95.7625162042242
 31
0.0
  0
LINE
  5
28
330
1E
100
AcDbEntity
  8
0
100
AcDbLine
 10
52.97229999999999
 20
89.91502
 30
0.0
 11
54.0723
 21
89.91502
 31
0.0
  0
LINE
  5
29
330
1E
100
AcDbEntity
  8
0
100
AcDbLine
 10
54.0723
 20
89.91502
 30
0.0
 11
55.97229999999999
 21
89.91502
 31
0.0
  0
LINE
  5
2A
330
1E
100
AcDbEntity
  8
0
100
AcDbLine
 10
52.57229999999999
 20
89.91502
 30
0.0
 11
53.5723
 21
59.915
 31
0.0
  0
LINE
  5
2B
330
1E
100
AcDbEntity
  8
0
100
AcDbLine
 10
52.57229999999999
 20
89.91502
 30
0.0
 11
52.97229999999999
 21
89.91502
 31
0.0
  0
LINE
  5
2C
330
1E
100
AcDbEntity
  8
0
100
AcDbLine
 10
53.9723
 20
59.915
 30
0.0
 11
54.9723
 21
59.915
 31
0.0
  0
LINE
  5
2D
330
1E
100
AcDbEntity
  8
0
100
AcDbLine
 10
65.9723
 20
-0.0586999999999922
 30
0.0
 11
67.7723
 21
0.0161999999999978
 31
0.0
  0
LINE
  5
2E
330
1E
100
AcDbEntity
  8
0
100
AcDbLine
 10
64.0723
 20
-0.0850000000000001
 30
0.0
 11
65.9723
 21
-0.0586999999999922
 31
0.0
  0
LINE
  5
2F
330
1E
100
AcDbEntity
  8
0
100
AcDbLine
 10
55.97229999999999
 20
89.91502
 30
0.0
 11
58.3723
 21
89.91502
 31
0.0
  0
LINE
  5
30
330
1E
100
AcDbEntity
  8
0
100
AcDbLine
 10
56.5723
 20
59.915
 30
0.0
 11
56.5723
 21
4.176799999999979
 31
0.0
  0
LINE
  5
31
330
1E
100
AcDbEntity
  8
0
100
AcDbLine
 10
56.5723
 20
59.915
 30
0.0
 11
56.8723
 21
59.915
 31
0.0
  0
LINE
  5
32
330
1E
100
AcDbEntity
  8
0
100
AcDbLine
 10
56.8723
 20
5.52619999999999
 30
0.0
 11
57.57229999999999
 21
6.72559999999999
 31
0.0
  0
LINE
  5
33
330
1E
100
AcDbEntity
  8
0
100
AcDbLine
 10
56.67229999999999
 20
59.915
 30
0.0
 11
58.8723
 21
59.915
 31
0.0
  0
LINE
  5
34
330
1E
100
AcDbEntity
  8
0
100
AcDbLine
 10
56.8723
 20
59.915
 30
0.0
 11
57.57229999999999
 21
59.915
 31
0.0
  0
LINE
  5
35
330
1E
100
AcDbEntity
  8
0
100
AcDbLine
 10
57.57229999999999
 20
59.915
 30
0.0
 11
58.7723
 21
59.915
 31
0.0
  0
LINE
  5
36
330
1E
100
AcDbEntity
  8
0
100
AcDbLine
 10
57.57229999999999
 20
6.72559999999999
 30
0.0
 11
58.7723
 21
7.924999999999999
 31
0.0
  0
LINE
  5
37
330
1E
100
AcDbEntity
  8
0
100
AcDbLine
 10
56.5723
 20
4.176799999999979
 30
0.0
 11
56.8723
 21
2.190199999999999
 31
0.0
  0
LINE
  5
38
330
1E
100
AcDbEntity
  8
0
100
AcDbLine
 10
56.5723
 20
4.176799999999979
 30
0.0
 11
56.5723
 21
59.915
 31
0.0
  0
LINE
  5
39
330
1E
100
AcDbEntity
  8
0
100
AcDbLine
 10
56.5723
 20
4.176799999999979
 30
0.0
 11
56.8723
 21
5.52619999999999
 31
0.0
  0
LINE
  5
3A
330
1E
100
AcDbEntity
  8
0
100
AcDbLine
 10
56.8723
 20
2.190199999999999
 30
0.0
 11
57.57229999999999
 21
1.06569999999999
 31
0.0
  0
LINE
  5
3B
330
1E
100
AcDbEntity
  8
0
100
AcDbLine
 10
58.8723
 20
59.915
 30
0.0
 11
61.3723
 21
59.915
 31
0.0
  0
LINE
  5
3C
330
1E
100
AcDbEntity
  8
0
100
AcDbLine
 10
58.7723
 20
7.924999999999999
 30
0.0
 11
60.3723
 21
8.97449999999999
 31
0.0
  0
LINE
  5
3D
330
1E
100
AcDbEntity
  8
0
100
AcDbLine
 10
58.7723
 20
59.915
 30
0.0
 11
60.3723
 21
59.915
 31
0.0
  0
LINE
  5
3E
330
1E
100
AcDbEntity
  8
0
100
AcDbLine
 10
60.3723
 20
8.97449999999999
 30
0.0
 11
62.1723
 21
9.6867
 31
0.0
  0
LINE
  5
3F
330
1E
100
AcDbEntity
  8
0
100
AcDbLine
 10
58.3723
 20
89.91502
 30
0.0
 11
61.0723
 21
89.91502
 31
0.0
  0
LINE
  5
40
330
1E
100
AcDbEntity
  8
0
100
AcDbLine
 10
60.3723
 20
59.915
 30
0.0
 11
62.1723
 21
59.915
 31
0.0
  0
LINE
  5
41
330
1E
100
AcDbEntity
  8
0
100
AcDbLine
 10
57.57229999999999
 20
1.06569999999999
 30
0.0
 11
58.7723
 21
0.39110000000001
 31
0.0
  0
LINE
  5
42
330
1E
100
AcDbEntity
  8
0
100
AcDbLine
 10
58.7723
 20
0.39110000000001
 30
0.0
 11
60.3723
 21
0.0161999999999978
 31
0.0
  0
LINE
  5
43
330
1E
100
AcDbEntity
  8
0
100
AcDbLine
 10
61.3723
 20
59.915
 30
0.0
 11
64.0723
 21
59.915
 31
0.0
  0
LINE
  5
44
330
1E
100
AcDbEntity
  8
0
100
AcDbLine
 10
65.9723
 20
9.6867
 30
0.0
 11
67.7723
 21
8.97449999999999
 31
0.0
  0
LINE
  5
45
330
1E
100
AcDbEntity
  8
0
100
AcDbLine
 10
65.9723
 20
59.915
 30
0.0
 11
67.7723
 21
59.915
 31
0.0
  0
LINE
  5
46
330
1E
100
AcDbEntity
  8
0
100
AcDbLine
 10
64.0723
 20
9.915000000000009
 30
0.0
 11
65.9723
 21
9.6867
 31
0.0
  0
LINE
  5
47
330
1E
100
AcDbEntity
  8
0
100
AcDbLine
 10
67.7723
 20
0.0161999999999978
 30
0.0
 11
69.37229999999999
 21
0.39110000000001
 31
0.0
  0
LINE
  5
48
330
1E
100
AcDbEntity
  8
0
100
AcDbLine
 10
70.5723
 20
1.06569999999999
 30
0.0
 11
71.2723
 21
2.190199999999999
 31
0.0
  0
LINE
  5
49
330
1E
100
AcDbEntity
  8
0
100
AcDbLine
 10
69.37229999999999
 20
0.39110000000001
 30
0.0
 11
70.5723
 21
1.06569999999999
 31
0.0
  0
LINE
  5
4A
330
1E
100
AcDbEntity
  8
0
100
AcDbLine
 10
71.2723
 20
2.190199999999999
 30
0.0
 11
71.5723
 21
4.176799999999979
 31
0.0
  0
LINE
  5
4B
330
1E
100
AcDbEntity
  8
0
100
AcDbLine
 10
71.2723
 20
5.52619999999999
 30
0.0
 11
71.5723
 21
4.176799999999979
 31
0.0
  0
LINE
  5
4C
330
1E
100
AcDbEntity
  8
0
100
AcDbLine
 10
70.5723
 20
6.72559999999999
 30
0.0
 11
71.2723
 21
5.52619999999999
 31
0.0
  0
LINE
  5
4D
330
1E
100
AcDbEntity
  8
0
100
AcDbLine
 10
71.2723
 20
59.915
 30
0.0
 11
71.5723
 21
59.915
 31
0.0
  0
LINE
  5
4E
330
1E
100
AcDbEntity
  8
0
100
AcDbLine
 10
70.5723
 20
59.915
 30
0.0
 11
71.2723
 21
59.915
 31
0.0
  0
LINE
  5
4F
330
1E
100
AcDbEntity
  8
0
100
AcDbLine
 10
69.37229999999999
 20
59.915
 30
0.0
 11
70.5723
 21
59.915
 31
0.0
  0
LINE
  5
50
330
1E
100
AcDbEntity
  8
0
100
AcDbLine
 10
69.37229999999999
 20
7.924999999999999
 30
0.0
 11
70.5723
 21
6.72559999999999
 31
0.0
  0
LINE
  5
51
330
1E
100
AcDbEntity
  8
0
100
AcDbLine
 10
67.7723
 20
8.97449999999999
 30
0.0
 11
69.37229999999999
 21
7.924999999999999
 31
0.0
  0
LINE
  5
52
330
1E
100
AcDbEntity
  8
0
100
AcDbLine
 10
67.7723
 20
59.915
 30
0.0
 11
69.37229999999999
 21
59.915
 31
0.0
  0
LINE
  5
53
330
1E
100
AcDbEntity
  8
0
100
AcDbLine
 10
71.5723
 20
4.176799999999979
 30
0.0
 11
71.5723
 21
59.915
 31
0.0
  0
LINE
  5
54
330
1E
100
AcDbEntity
  8
0
100
AcDbLine
 10
71.4723
 20
59.915
 30
0.0
 11
73.17230000000001
 21
59.915
 31
0.0
  0
LINE
  5
55
330
1E
100
AcDbEntity
  8
0
100
AcDbLine
 10
69.2723
 20
59.915
 30
0.0
 11
71.4723
 21
59.915
 31
0.0
  0
LINE
  5
56
330
1E
100
AcDbEntity
  8
0
100
AcDbLine
 10
66.7723
 20
59.915
 30
0.0
 11
69.2723
 21
59.915
 31
0.0
  0
LINE
  5
57
330
1E
100
AcDbEntity
  8
0
100
AcDbLine
 10
64.0723
 20
59.915
 30
0.0
 11
66.7723
 21
59.915
 31
0.0
  0
LINE
  5
58
330
1E
100
AcDbEntity
  8
0
100
AcDbLine
 10
64.0723
 20
59.915
 30
0.0
 11
65.9723
 21
59.915
 31
0.0
  0
LINE
  5
59
330
1E
100
AcDbEntity
  8
0
100
AcDbLine
 10
74.5723
 20
59.915
 30
0.0
 11
75.5723
 21
89.91502
 31
0.0
  0
LINE
  5
5A
330
1E
100
AcDbEntity
  8
0
100
AcDbLine
 10
74.1723
 20
59.915
 30
0.0
 11
74.5723
 21
59.915
 31
0.0
  0
LINE
  5
5B
330
1E
100
AcDbEntity
  8
0
100
AcDbLine
 10
73.17230000000001
 20
59.915
 30
0.0
 11
74.1723
 21
59.915
 31
0.0
  0
LINE
  5
5C
330
1E
100
AcDbEntity
  8
0
100
AcDbLine
 10
71.5723
 20
59.915
 30
0.0
 11
73.17230000000001
 21
59.915
 31
0.0
  0
LINE
  5
5D
330
1E
100
AcDbEntity
  8
0
100
AcDbLine
 10
71.5723
 20
59.915
 30
0.0
 11
71.5723
 21
4.176799999999979
 31
0.0
  0
LINE
  5
5E
330
1E
100
AcDbEntity
  8
0
100
AcDbLine
 10
62.1723
 20
9.6867
 30
0.0
 11
64.0723
 21
9.915000000000009
 31
0.0
  0
LINE
  5
5F
330
1E
100
AcDbEntity
  8
0
100
AcDbLine
 10
74.0723
 20
89.91502
 30
0.0
 11
75.17230000000001
 21
89.91502
 31
0.0
  0
LINE
  5
60
330
1E
100
AcDbEntity
  8
0
100
AcDbLine
 10
72.1723
 20
89.91502
 30
0.0
 11
74.0723
 21
89.91502
 31
0.0
  0
LINE
  5
61
330
1E
100
AcDbEntity
  8
0
100
AcDbLine
 10
69.7723
 20
89.91502
 30
0.0
 11
72.1723
 21
89.91502
 31
0.0
  0
LINE
  5
62
330
1E
100
AcDbEntity
  8
0
100
AcDbLine
 10
67.0723
 20
89.91502
 30
0.0
 11
69.7723
 21
89.91502
 31
0.0
  0
LINE
  5
63
330
1E
100
AcDbEntity
  8
0
100
AcDbLine
 10
64.0723
 20
89.91502
 30
0.0
 11
67.0723
 21
89.91502
 31
0.0
  0
LINE
  5
64
330
1E
100
AcDbEntity
  8
0
100
AcDbLine
 10
61.0723
 20
89.91502
 30
0.0
 11
64.0723
 21
89.91502
 31
0.0
  0
LINE
  5
65
330
1E
100
AcDbEntity
  8
0
100
AcDbLine
 10
62.1723
 20
59.915
 30
0.0
 11
64.0723
 21
59.915
 31
0.0
  0
LINE
  5
66
330
1E
100
AcDbEntity
  8
0
100
AcDbLine
 10
60.3723
 20
0.0161999999999978
 30
0.0
 11
62.1723
 21
-0.0586999999999922
 31
0.0
  0
LINE
  5
67
330
1E
100
AcDbEntity
  8
0
100
AcDbLine
 10
62.1723
 20
-0.0586999999999922
 30
0.0
 11
64.0723
 21
-0.0850000000000001
 31
0.0
  0
LINE
  5
68
330
1E
100
AcDbEntity
  8
0
100
AcDbLine
 10
54.9723
 20
59.915
 30
0.0
 11
56.5723
 21
59.915
 31
0.0
  0
LINE
  5
69
330
1E
100
AcDbEntity
  8
0
100
AcDbLine
 10
54.9723
 20
59.915
 30
0.0
 11
56.67229999999999
 21
59.915
 31
0.0
  0
LINE
  5
6A
330
1E
100
AcDbEntity
  8
0
100
AcDbLine
 10
53.0723
 20
90.27502
 30
0.0
 11
53.4683
 21
90.27502
 31
0.0
  0
LINE
  5
6B
330
1E
100
AcDbEntity
  8
0
100
AcDbLine
 10
53.0723
 20
90.27502
 30
0.0
 11
53.3363
 21
89.91502
 31
0.0
  0
LINE
  5
6C
330
1E
100
AcDbEntity
  8
0
100
AcDbLine
 10
53.0723
 20
90.27502
 30
0.0
 11
53.0723
 21
96.12947124831492
 31
0.0
  0
LINE
  5
6D
330
1E
100
AcDbEntity
  8
0
100
AcDbLine
 10
53.4683
 20
90.27502
 30
0.0
 11
54.52429999999999
 21
90.27502
 31
0.0
  0
LINE
  5
6E
330
1E
100
AcDbEntity
  8
0
100
AcDbLine
 10
54.52429999999999
 20
90.27502
 30
0.0
 11
56.2843
 21
90.27502
 31
0.0
  0
LINE
  5
6F
330
1E
100
AcDbEntity
  8
0
100
AcDbLine
 10
56.2843
 20
90.27502
 30
0.0
 11
58.6163
 21
90.27502
 31
0.0
  0
LINE
  5
70
330
1E
100
AcDbEntity
  8
0
100
AcDbLine
 10
58.6163
 20
90.27502
 30
0.0
 11
61.25630000000001
 21
90.27502
 31
0.0
  0
LINE
  5
71
330
1E
100
AcDbEntity
  8
0
100
AcDbLine
 10
7.72526
 20
95.59739999999999
 30
0.0
 11
10.2173
 21
94.6903
 31
0.0
  0
LINE
  5
72
330
1E
100
AcDbEntity
  8
0
100
AcDbLine
 10
10.2173
 20
94.6903
 30
0.0
 11
13.05139999999999
 21
93.6588
 31
0.0
  0
LINE
  5
73
330
1E
100
AcDbEntity
  8
0
100
AcDbLine
 10
22.04239999999999
 20
90.38639000000001
 30
0.0
 11
24.5345
 21
89.47933
 31
0.0
  0
LINE
  5
74
330
1E
100
AcDbEntity
  8
0
100
AcDbLine
 10
19.2083
 20
91.4179
 30
0.0
 11
22.04239999999999
 21
90.38639000000001
 31
0.0
  0
LINE
  5
75
330
1E
100
AcDbEntity
  8
0
100
AcDbLine
 10
31.1377105838566
 20
95.7625162042242
 30
0.0
 11
53.0723
 21
96.12947124831492
 31
0.0
  0
LINE
  5
76
330
1E
100
AcDbEntity
  8
0
100
AcDbLine
 10
16.12989999999999
 20
92.5384
 30
0.0
 11
19.2083
 21
91.4179
 31
0.0
  0
LINE
  5
77
330
1E
100
AcDbEntity
  8
0
100
AcDbLine
 10
13.05139999999999
 20
93.6588
 30
0.0
 11
16.12989999999999
 21
92.5384
 31
0.0
  0
LINE
  5
78
330
1E
100
AcDbEntity
  8
0
100
AcDbLine
 10
4.11908
 20
97.54840000000001
 30
0.0
 11
5.795119425214819
 21
102.1532739955229
 31
0.0
  0
LINE
  5
79
330
1E
100
AcDbEntity
  8
0
100
AcDbLine
 10
4.11908
 20
97.54840000000001
 30
0.0
 11
4.207049999999999
 21
96.87789999999999
 31
0.0
  0
LINE
  5
7A
330
1E
100
AcDbEntity
  8
0
100
AcDbLine
 10
4.11908
 20
97.54840000000001
 30
0.0
 11
5.795119425214819
 21
102.1532739955229
 31
0.0
  0
LINE
  5
7B
330
1E
100
AcDbEntity
  8
0
100
AcDbLine
 10
4.207049999999999
 20
96.87789999999999
 30
0.0
 11
4.64683
 21
96.71790000000001
 31
0.0
  0
LINE
  5
7C
330
1E
100
AcDbEntity
  8
0
100
AcDbLine
 10
4.64683
 20
96.71790000000001
 30
0.0
 11
5.81956
 21
96.29100000000001
 31
0.0
  0
LINE
  5
7F
330
1E
100
AcDbEntity
  8
0
100
AcDbLine
 10
5.81956
 20
96.29100000000001
 30
0.0
 11
7.72526
 21
95.59739999999999
 31
0.0
  0
LINE
  5
80
330
1E
100
AcDbEntity
  8
0
100
AcDbLine
 10
4.18006
 20
103.5550999999999
 30
0.0
 11
5.795119425214819
 21
102.1532739955229
 31
0.0
  0
LINE
  5
81
330
1E
100
AcDbEntity
  8
0
100
AcDbLine
 10
4.18006
 20
103.5550999999999
 30
0.0
 11
5.795119425214819
 21
102.1532739955229
 31
0.0
  0
LINE
  5
82
330
1E
100
AcDbEntity
  8
0
100
AcDbLine
 10
1.98777
 20
107.0405
 30
0.0
 11
4.18006
 21
103.5550999999999
 31
0.0
  0
LINE
  5
83
330
1E
100
AcDbEntity
  8
0
100
AcDbLine
 10
0.5950630000000022
 20
111.6001999999999
 30
0.0
 11
1.98777
 21
107.0405
 31
0.0
  0
LINE
  5
84
330
1E
100
AcDbEntity
  8
0
100
AcDbLine
 10
31.1377105838566
 20
95.7625162042242
 30
0.0
 11
53.0723
 21
96.12947124831492
 31
0.0
  0
LINE
  5
85
330
1E
100
AcDbEntity
  8
0
100
AcDbLine
 10
0.0000000000000021
 20
115.5148
 30
0.0
 11
0.5950630000000022
 21
111.6001999999999
 31
0.0
  0
LINE
  5
86
330
1E
100
AcDbEntity
  8
0
100
AcDbLine
 10
0.0000000000000021
 20
115.5148
 30
0.0
 11
0.173889000000002
 21
116.2563
 31
0.0
  0
LINE
  5
87
330
1E
100
AcDbEntity
  8
0
100
AcDbLine
 10
0.173889000000002
 20
116.2563
 30
0.0
 11
0.811160000000002
 21
116.6731999999999
 31
0.0
  0
LINE
  5
89
330
1E
100
AcDbEntity
  8
0
100
AcDbLine
 10
0.811160000000002
 20
116.6731999999999
 30
0.0
 11
1.00812
 21
116.708
 31
0.0
  0
LINE
  5
9B
330
1E
100
AcDbEntity
  8
0
100
AcDbLine
 10
0.173889000000002
 20
116.2563
 30
0.0
 11
0.811160000000002
 21
116.6731999999999
 31
0.0
  0
LINE
  5
9D
330
1E
100
AcDbEntity
  8
0
100
AcDbLine
 10
0.0000000000000021
 20
115.5148
 30
0.0
 11
0.173889000000002
 21
116.2563
 31
0.0
  0
LINE
  5
9E
330
1E
100
AcDbEntity
  8
0
100
AcDbLine
 10
0.0000000000000021
 20
115.5148
 30
0.0
 11
0.5950630000000022
 21
111.6001999999999
 31
0.0
  0
LINE
  5
9F
330
1E
100
AcDbEntity
  8
0
100
AcDbLine
 10
55.3234
 20
131.4208999999999
 30
0.0
 11
55.3234
 21
148.4461
 31
0.0
  0
LINE
  5
A0
330
1E
100
AcDbEntity
  8
0
100
AcDbLine
 10
55.3234
 20
131.4208999999999
 30
0.0
 11
55.62339999999999
 21
131.4208999999999
 31
0.0
  0
LINE
  5
A1
330
1E
100
AcDbEntity
  8
0
100
AcDbLine
 10
57.3234
 20
131.4208999999999
 30
0.0
 11
57.3234
 21
125.531597303331
 31
0.0
  0
LINE
  5
A2
330
1E
100
AcDbEntity
  8
0
100
AcDbLine
 10
57.3234
 20
125.531597303331
 30
0.0
 11
57.3234
 21
131.4208999999999
 31
0.0
  0
LINE
  5
A3
330
1E
100
AcDbEntity
  8
0
100
AcDbLine
 10
61.9834
 20
131.4208999999999
 30
0.0
 11
64.3234
 21
131.4208999999999
 31
0.0
  0
LINE
  5
A4
330
1E
100
AcDbEntity
  8
0
100
AcDbLine
 10
59.8234
 20
131.4208999999999
 30
0.0
 11
61.9834
 21
131.4208999999999
 31
0.0
  0
LINE
  5
A5
330
1E
100
AcDbEntity
  8
0
100
AcDbLine
 10
57.9634
 20
131.4208999999999
 30
0.0
 11
59.8234
 21
131.4208999999999
 31
0.0
  0
LINE
  5
A6
330
1E
100
AcDbEntity
  8
0
100
AcDbLine
 10
56.5234
 20
131.4208999999999
 30
0.0
 11
57.3234
 21
131.4208999999999
 31
0.0
  0
LINE
  5
A7
330
1E
100
AcDbEntity
  8
0
100
AcDbLine
 10
56.5234
 20
131.4208999999999
 30
0.0
 11
57.9634
 21
131.4208999999999
 31
0.0
  0
LINE
  5
A8
330
1E
100
AcDbEntity
  8
0
100
AcDbLine
 10
61.9834
 20
148.4461
 30
0.0
 11
64.3234
 21
148.4461
 31
0.0
  0
LINE
  5
A9
330
1E
100
AcDbEntity
  8
0
100
AcDbLine
 10
59.8234
 20
148.4461
 30
0.0
 11
61.9834
 21
148.4461
 31
0.0
  0
LINE
  5
AA
330
1E
100
AcDbEntity
  8
0
100
AcDbLine
 10
57.9634
 20
148.4461
 30
0.0
 11
59.8234
 21
148.4461
 31
0.0
  0
LINE
  5
AB
330
1E
100
AcDbEntity
  8
0
100
AcDbLine
 10
56.5234
 20
148.4461
 30
0.0
 11
57.9634
 21
148.4461
 31
0.0
  0
LINE
  5
AC
330
1E
100
AcDbEntity
  8
0
100
AcDbLine
 10
55.62339999999999
 20
148.4461
 30
0.0
 11
56.5234
 21
148.4461
 31
0.0
  0
LINE
  5
AD
330
1E
100
AcDbEntity
  8
0
100
AcDbLine
 10
55.62339999999999
 20
131.4208999999999
 30
0.0
 11
56.5234
 21
131.4208999999999
 31
0.0
  0
LINE
  5
AE
330
1E
100
AcDbEntity
  8
0
100
AcDbLine
 10
55.3234
 20
148.4461
 30
0.0
 11
56.5234
 21
149.1772
 31
0.0
  0
LINE
  5
AF
330
1E
100
AcDbEntity
  8
0
100
AcDbLine
 10
55.3234
 20
148.4461
 30
0.0
 11
55.62339999999999
 21
148.4461
 31
0.0
  0
LINE
  5
B0
330
1E
100
AcDbEntity
  8
0
100
AcDbLine
 10
55.3234
 20
148.4461
 30
0.0
 11
55.3234
 21
131.4208999999999
 31
0.0
  0
LINE
  5
B1
330
1E
100
AcDbEntity
  8
0
100
AcDbLine
 10
56.5234
 20
149.1772
 30
0.0
 11
64.3234
 21
149.4208999999999
 31
0.0
  0
LINE
  5
B2
330
1E
100
AcDbEntity
  8
0
100
AcDbLine
 10
53.0723
 20
96.12947124831492
 30
0.0
 11
53.0723
 21
90.27502
 31
0.0
  0
LINE
  5
B3
330
1E
100
AcDbEntity
  8
0
100
AcDbLine
 10
61.25630000000001
 20
90.27502
 30
0.0
 11
64.0723
 21
90.27502
 31
0.0
  0
LINE
  5
B4
330
1E
100
AcDbEntity
  8
0
100
AcDbLine
 10
74.67629999999999
 20
90.27502
 30
0.0
 11
75.07229999999999
 21
90.27502
 31
0.0
  0
LINE
  5
B5
330
1E
100
AcDbEntity
  8
0
100
AcDbLine
 10
75.07229999999999
 20
90.27502
 30
0.0
 11
75.07229999999999
 21
96.49752057975369
 31
0.0
  0
LINE
  5
B6
330
1E
100
AcDbEntity
  8
0
100
AcDbLine
 10
73.6203
 20
90.27502
 30
0.0
 11
74.67629999999999
 21
90.27502
 31
0.0
  0
LINE
  5
B7
330
1E
100
AcDbEntity
  8
0
100
AcDbLine
 10
71.86029999999999
 20
90.27502
 30
0.0
 11
73.6203
 21
90.27502
 31
0.0
  0
LINE
  5
B8
330
1E
100
AcDbEntity
  8
0
100
AcDbLine
 10
69.5283
 20
90.27502
 30
0.0
 11
71.86029999999999
 21
90.27502
 31
0.0
  0
LINE
  5
B9
330
1E
100
AcDbEntity
  8
0
100
AcDbLine
 10
64.3234
 20
131.4208999999999
 30
0.0
 11
66.66339999999999
 21
131.4208999999999
 31
0.0
  0
LINE
  5
BA
330
1E
100
AcDbEntity
  8
0
100
AcDbLine
 10
66.66339999999999
 20
131.4208999999999
 30
0.0
 11
68.82340000000001
 21
131.4208999999999
 31
0.0
  0
LINE
  5
BB
330
1E
100
AcDbEntity
  8
0
100
AcDbLine
 10
68.82340000000001
 20
131.4208999999999
 30
0.0
 11
70.6833
 21
131.4208999999999
 31
0.0
  0
LINE
  5
BC
330
1E
100
AcDbEntity
  8
0
100
AcDbLine
 10
64.3234
 20
148.4461
 30
0.0
 11
66.66339999999999
 21
148.4461
 31
0.0
  0
LINE
  5
BD
330
1E
100
AcDbEntity
  8
0
100
AcDbLine
 10
66.66339999999999
 20
148.4461
 30
0.0
 11
68.82340000000001
 21
148.4461
 31
0.0
  0
LINE
  5
BE
330
1E
100
AcDbEntity
  8
0
100
AcDbLine
 10
71.32340000000001
 20
127.60085897056
 30
0.0
 11
71.32340000000001
 21
131.4208999999999
 31
0.0
  0
LINE
  5
BF
330
1E
100
AcDbEntity
  8
0
100
AcDbLine
 10
70.6833
 20
131.4208999999999
 30
0.0
 11
72.1233
 21
131.4208999999999
 31
0.0
  0
LINE
  5
C0
330
1E
100
AcDbEntity
  8
0
100
AcDbLine
 10
68.82340000000001
 20
148.4461
 30
0.0
 11
70.6833
 21
148.4461
 31
0.0
  0
LINE
  5
C1
330
1E
100
AcDbEntity
  8
0
100
AcDbLine
 10
70.6833
 20
148.4461
 30
0.0
 11
72.1233
 21
148.4461
 31
0.0
  0
LINE
  5
C2
330
1E
100
AcDbEntity
  8
0
100
AcDbLine
 10
71.32340000000001
 20
131.4208999999999
 30
0.0
 11
72.1233
 21
131.4208999999999
 31
0.0
  0
LINE
  5
C3
330
1E
100
AcDbEntity
  8
0
100
AcDbLine
 10
71.32340000000001
 20
131.4208999999999
 30
0.0
 11
71.32340000000001
 21
127.60085897056
 31
0.0
  0
LINE
  5
C4
330
1E
100
AcDbEntity
  8
0
100
AcDbLine
 10
64.3234
 20
149.4208999999999
 30
0.0
 11
72.1233
 21
149.1772
 31
0.0
  0
LINE
  5
C5
330
1E
100
AcDbEntity
  8
0
100
AcDbLine
 10
72.1233
 20
148.4461
 30
0.0
 11
73.02330000000001
 21
148.4461
 31
0.0
  0
LINE
  5
C6
330
1E
100
AcDbEntity
  8
0
100
AcDbLine
 10
73.02330000000001
 20
148.4461
 30
0.0
 11
73.32340000000001
 21
148.4461
 31
0.0
  0
LINE
  5
C7
330
1E
100
AcDbEntity
  8
0
100
AcDbLine
 10
72.1233
 20
131.4208999999999
 30
0.0
 11
73.02330000000001
 21
131.4208999999999
 31
0.0
  0
LINE
  5
C8
330
1E
100
AcDbEntity
  8
0
100
AcDbLine
 10
73.32340000000001
 20
131.4208999999999
 30
0.0
 11
73.32340000000001
 21
148.4461
 31
0.0
  0
LINE
  5
C9
330
1E
100
AcDbEntity
  8
0
100
AcDbLine
 10
73.32340000000001
 20
148.4461
 30
0.0
 11
73.32340000000001
 21
131.4208999999999
 31
0.0
  0
LINE
  5
CA
330
1E
100
AcDbEntity
  8
0
100
AcDbLine
 10
73.02330000000001
 20
131.4208999999999
 30
0.0
 11
73.32340000000001
 21
131.4208999999999
 31
0.0
  0
LINE
  5
CB
330
1E
100
AcDbEntity
  8
0
100
AcDbLine
 10
72.1233
 20
149.1772
 30
0.0
 11
73.32340000000001
 21
148.4461
 31
0.0
  0
LINE
  5
CD
330
1E
100
AcDbEntity
  8
0
100
AcDbLine
 10
66.8883
 20
90.27502
 30
0.0
 11
69.5283
 21
90.27502
 31
0.0
  0
LINE
  5
CE
330
1E
100
AcDbEntity
  8
0
100
AcDbLine
 10
64.0723
 20
90.27502
 30
0.0
 11
66.8883
 21
90.27502
 31
0.0
  0
LINE
  5
CF
330
1E
100
AcDbEntity
  8
0
100
AcDbLine
 10
74.8083
 20
89.91502
 30
0.0
 11
75.07229999999999
 21
90.27502
 31
0.0
  0
LINE
  5
D0
330
1E
100
AcDbEntity
  8
0
100
AcDbLine
 10
75.07229999999999
 20
96.49752057975369
 30
0.0
 11
139.0
 21
97.56700000000002
 31
0.0
  0
LINE
  5
D1
330
1E
100
AcDbEntity
  8
0
100
AcDbLine
 10
75.17230000000001
 20
89.91502
 30
0.0
 11
75.5723
 21
89.91502
 31
0.0
  0
LINE
  5
D2
330
1E
100
AcDbEntity
  8
0
100
AcDbLine
 10
75.07229999999999
 20
96.49752057975369
 30
0.0
 11
75.07229999999999
 21
90.27502
 31
0.0
  0
LINE
  5
D3
330
1E
100
AcDbEntity
  8
0
100
AcDbLine
 10
94.69089999999999
 20
176.2882999999999
 30
0.0
 11
94.77729999999999
 21
175.9802
 31
0.0
  0
LINE
  5
D4
330
1E
100
AcDbEntity
  8
0
100
AcDbLine
 10
87.0472
 20
194.4909999999999
 30
0.0
 11
88.1276
 21
193.852
 31
0.0
  0
LINE
  5
D5
330
1E
100
AcDbEntity
  8
0
100
AcDbLine
 10
85.8031
 20
195.0319999999999
 30
0.0
 11
87.0472
 21
194.4909999999999
 31
0.0
  0
LINE
  5
D6
330
1E
100
AcDbEntity
  8
0
100
AcDbLine
 10
84.1824
 20
195.6049999999999
 30
0.0
 11
85.8031
 21
195.0319999999999
 31
0.0
  0
LINE
  5
D7
330
1E
100
AcDbEntity
  8
0
100
AcDbLine
 10
82.31140000000001
 20
195.9469999999999
 30
0.0
 11
84.1824
 21
195.6049999999999
 31
0.0
  0
LINE
  5
D8
330
1E
100
AcDbEntity
  8
0
100
AcDbLine
 10
79.8658
 20
196.152
 30
0.0
 11
82.31140000000001
 21
195.9469999999999
 31
0.0
  0
LINE
  5
D9
330
1E
100
AcDbEntity
  8
0
100
AcDbLine
 10
77.4898
 20
196.304
 30
0.0
 11
79.8658
 21
196.152
 31
0.0
  0
LINE
  5
DA
330
1E
100
AcDbEntity
  8
0
100
AcDbLine
 10
89.17529999999999
 20
193.017
 30
0.0
 11
90.04290000000001
 21
191.952
 31
0.0
  0
LINE
  5
DB
330
1E
100
AcDbEntity
  8
0
100
AcDbLine
 10
88.1276
 20
193.852
 30
0.0
 11
89.17529999999999
 21
193.017
 31
0.0
  0
LINE
  5
E2
330
1E
100
AcDbEntity
  8
0
100
AcDbLine
 10
49.80129999999999
 20
198.067
 30
0.0
 11
56.2976
 21
197.527
 31
0.0
  0
LINE
  5
E3
330
1E
100
AcDbEntity
  8
0
100
AcDbLine
 10
43.9549
 20
198.7579999999999
 30
0.0
 11
49.80129999999999
 21
198.067
 31
0.0
  0
LINE
  5
F1
330
1E
100
AcDbEntity
  8
0
100
AcDbLine
 10
41.03399999999999
 20
199.469
 30
0.0
 11
43.9549
 21
198.7579999999999
 31
0.0
  0
LINE
  5
F2
330
1E
100
AcDbEntity
  8
0
100
AcDbLine
 10
39.52329999999999
 20
200.1999999999999
 30
0.0
 11
41.03399999999999
 21
199.469
 31
0.0
  0
LINE
  5
F3
330
1E
100
AcDbEntity
  8
0
100
AcDbLine
 10
56.2976
 20
197.527
 30
0.0
 11
77.4898
 21
196.304
 31
0.0
  0
LINE
  5
F5
330
1E
100
AcDbEntity
  8
0
100
AcDbLine
 10
90.04290000000001
 20
191.952
 30
0.0
 11
90.7141
 21
190.6909999999999
 31
0.0
  0
LINE
  5
F6
330
1E
100
AcDbEntity
  8
0
100
AcDbLine
 10
90.7141
 20
190.6909999999999
 30
0.0
 11
94.6698379800609
 21
176.556554360304
 31
0.0
  0
LINE
  5
F7
330
1E
100
AcDbEntity
  8
0
100
AcDbLine
 10
38.9596
 20
201.107
 30
0.0
 11
39.0508
 21
201.8659999999999
 31
0.0
  0
LINE
  5
F8
330
1E
100
AcDbEntity
  8
0
100
AcDbLine
 10
38.9596
 20
201.107
 30
0.0
 11
39.52329999999999
 21
200.1999999999999
 31
0.0
  0
LINE
  5
FA
330
1E
100
AcDbEntity
  8
0
100
AcDbLine
 10
45.1761
 20
202.0579999999999
 30
0.0
 11
46.9262
 21
202.0579999999999
 31
0.0
  0
LINE
  5
FB
330
1E
100
AcDbEntity
  8
0
100
AcDbLine
 10
46.9262
 20
202.0579999999999
 30
0.0
 11
48.8708
 21
202.0579999999999
 31
0.0
  0
LINE
  5
FC
330
1E
100
AcDbEntity
  8
0
100
AcDbLine
 10
48.8708
 20
202.0579999999999
 30
0.0
 11
50.9126
 21
202.0579999999999
 31
0.0
  0
LINE
  5
FD
330
1E
100
AcDbEntity
  8
0
100
AcDbLine
 10
50.9126
 20
202.0579999999999
 30
0.0
 11
53.0516
 21
202.0579999999999
 31
0.0
  0
LINE
  5
FE
330
1E
100
AcDbEntity
  8
0
100
AcDbLine
 10
57.5241
 20
202.0579999999999
 30
0.0
 11
113.874
 21
202.055
 31
0.0
  0
LINE
  5
FF
330
1E
100
AcDbEntity
  8
0
100
AcDbLine
 10
53.0516
 20
202.0579999999999
 30
0.0
 11
55.2878
 21
202.0579999999999
 31
0.0
  0
LINE
  5
100
330
1E
100
AcDbEntity
  8
0
100
AcDbLine
 10
55.2878
 20
202.0579999999999
 30
0.0
 11
57.5241
 21
202.0579999999999
 31
0.0
  0
LINE
  5
101
330
1E
100
AcDbEntity
  8
0
100
AcDbLine
 10
43.7177
 20
202.0579999999999
 30
0.0
 11
45.1761
 21
202.0579999999999
 31
0.0
  0
LINE
  5
102
330
1E
100
AcDbEntity
  8
0
100
AcDbLine
 10
42.35649999999999
 20
202.0579999999999
 30
0.0
 11
43.7177
 21
202.0579999999999
 31
0.0
  0
LINE
  5
103
330
1E
100
AcDbEntity
  8
0
100
AcDbLine
 10
41.38419999999999
 20
202.0579999999999
 30
0.0
 11
42.35649999999999
 21
202.0579999999999
 31
0.0
  0
LINE
  5
104
330
1E
100
AcDbEntity
  8
0
100
AcDbLine
 10
40.70359999999999
 20
202.0579999999999
 30
0.0
 11
41.38419999999999
 21
202.0579999999999
 31
0.0
  0
LINE
  5
105
330
1E
100
AcDbEntity
  8
0
100
AcDbLine
 10
40.21749999999999
 20
202.0579999999999
 30
0.0
 11
40.70359999999999
 21
202.0579999999999
 31
0.0
  0
LINE
  5
106
330
1E
100
AcDbEntity
  8
0
100
AcDbLine
 10
40.023
 20
202.0579999999999
 30
0.0
 11
40.21749999999999
 21
202.0579999999999
 31
0.0
  0
LINE
  5
107
330
1E
100
AcDbEntity
  8
0
100
AcDbLine
 10
39.34239999999999
 20
202.0
 30
0.0
 11
40.023
 21
202.0579999999999
 31
0.0
  0
LINE
  5
108
330
1E
100
AcDbEntity
  8
0
100
AcDbLine
 10
39.0508
 20
201.8659999999999
 30
0.0
 11
39.34239999999999
 21
202.0
 31
0.0
  0
LINE
  5
10A
330
1E
100
AcDbEntity
  8
0
100
AcDbLine
 10
94.61969999999999
 20
176.5425
 30
0.0
 11
94.6391
 21
176.4731999999999
 31
0.0
  0
LINE
  5
10B
330
1E
100
AcDbEntity
  8
0
100
AcDbLine
 10
94.61969999999999
 20
176.5425
 30
0.0
 11
94.6698379800609
 21
176.556554360304
 31
0.0
  0
LINE
  5
10C
330
1E
100
AcDbEntity
  8
0
100
AcDbLine
 10
94.6391
 20
176.4731999999999
 30
0.0
 11
94.69089999999999
 21
176.2882999999999
 31
0.0
  0
LINE
  5
10D
330
1E
100
AcDbEntity
  8
0
100
AcDbLine
 10
94.77729999999999
 20
175.9802
 30
0.0
 11
94.89169999999999
 21
175.5719
 31
0.0
  0
LINE
  5
10E
330
1E
100
AcDbEntity
  8
0
100
AcDbLine
 10
94.89169999999999
 20
175.5719
 30
0.0
 11
95.02119999999999
 21
175.1097
 31
0.0
  0
LINE
  5
10F
330
1E
100
AcDbEntity
  8
0
100
AcDbLine
 10
119.48
 20
117.5669999999999
 30
0.0
 11
120.1999999999999
 21
112.5269999999999
 31
0.0
  0
LINE
  5
110
330
1E
100
AcDbEntity
  8
0
100
AcDbLine
 10
119.48
 20
117.5669999999999
 30
0.0
 11
120.1999999999999
 21
122.607
 31
0.0
  0
LINE
  5
111
330
1E
100
AcDbEntity
  8
0
100
AcDbLine
 10
119.72
 20
122.687
 30
0.0
 11
121.6399999999999
 21
127.487
 31
0.0
  0
LINE
  5
112
330
1E
100
AcDbEntity
  8
0
100
AcDbLine
 10
119.0
 20
117.5669999999999
 30
0.0
 11
119.72
 21
112.447
 31
0.0
  0
LINE
  5
113
330
1E
100
AcDbEntity
  8
0
100
AcDbLine
 10
119.0
 20
117.5669999999999
 30
0.0
 11
119.72
 21
122.687
 31
0.0
  0
LINE
  5
114
330
1E
100
AcDbEntity
  8
0
100
AcDbLine
 10
120.1999999999999
 20
122.607
 30
0.0
 11
122.12
 21
127.247
 31
0.0
  0
LINE
  5
115
330
1E
100
AcDbEntity
  8
0
100
AcDbLine
 10
122.12
 20
127.247
 30
0.0
 11
125.2399999999999
 21
131.3269999999999
 31
0.0
  0
LINE
  5
116
330
1E
100
AcDbEntity
  8
0
100
AcDbLine
 10
121.6399999999999
 20
127.487
 30
0.0
 11
124.8399999999999
 21
131.727
 31
0.0
  0
LINE
  5
117
330
1E
100
AcDbEntity
  8
0
100
AcDbLine
 10
124.8399999999999
 20
131.727
 30
0.0
 11
129.08
 21
134.927
 31
0.0
  0
LINE
  5
118
330
1E
100
AcDbEntity
  8
0
100
AcDbLine
 10
120.1999999999999
 20
112.5269999999999
 30
0.0
 11
122.12
 21
107.8869999999999
 31
0.0
  0
LINE
  5
119
330
1E
100
AcDbEntity
  8
0
100
AcDbLine
 10
122.12
 20
107.8869999999999
 30
0.0
 11
125.2399999999999
 21
103.807
 31
0.0
  0
LINE
  5
11A
330
1E
100
AcDbEntity
  8
0
100
AcDbLine
 10
119.72
 20
112.447
 30
0.0
 11
121.6399999999999
 21
107.647
 31
0.0
  0
LINE
  5
11B
330
1E
100
AcDbEntity
  8
0
100
AcDbLine
 10
121.6399999999999
 20
107.647
 30
0.0
 11
124.8399999999999
 21
103.407
 31
0.0
  0
LINE
  5
11C
330
1E
100
AcDbEntity
  8
0
100
AcDbLine
 10
125.2399999999999
 20
131.3269999999999
 30
0.0
 11
129.3199999999999
 21
134.447
 31
0.0
  0
LINE
  5
11D
330
1E
100
AcDbEntity
  8
0
100
AcDbLine
 10
129.3199999999999
 20
134.447
 30
0.0
 11
133.96
 21
136.367
 31
0.0
  0
LINE
  5
11E
330
1E
100
AcDbEntity
  8
0
100
AcDbLine
 10
129.08
 20
134.927
 30
0.0
 11
133.8799999999999
 21
136.847
 31
0.0
  0
LINE
  5
11F
330
1E
100
AcDbEntity
  8
0
100
AcDbLine
 10
133.8799999999999
 20
136.847
 30
0.0
 11
139.0
 21
137.567
 31
0.0
  0
LINE
  5
120
330
1E
100
AcDbEntity
  8
0
100
AcDbLine
 10
125.2399999999999
 20
103.807
 30
0.0
 11
129.3199999999999
 21
100.687
 31
0.0
  0
LINE
  5
121
330
1E
100
AcDbEntity
  8
0
100
AcDbLine
 10
129.3199999999999
 20
100.687
 30
0.0
 11
133.96
 21
98.76700000000001
 31
0.0
  0
LINE
  5
122
330
1E
100
AcDbEntity
  8
0
100
AcDbLine
 10
124.8399999999999
 20
103.407
 30
0.0
 11
129.08
 21
100.207
 31
0.0
  0
LINE
  5
123
330
1E
100
AcDbEntity
  8
0
100
AcDbLine
 10
129.08
 20
100.207
 30
0.0
 11
133.8799999999999
 21
98.28700000000001
 31
0.0
  0
LINE
  5
124
330
1E
100
AcDbEntity
  8
0
100
AcDbLine
 10
139.0
 20
98.04700000000002
 30
0.0
 11
144.0399999999999
 21
98.76700000000001
 31
0.0
  0
LINE
  5
125
330
1E
100
AcDbEntity
  8
0
100
AcDbLine
 10
184.0
 20
97.9184
 30
0.0
 11
184.0
 21
90.5141
 31
0.0
  0
LINE
  5
126
330
1E
100
AcDbEntity
  8
0
100
AcDbLine
 10
184.0
 20
97.9184
 30
0.0
 11
184.0
 21
106.4383999999999
 31
0.0
  0
LINE
  5
127
330
1E
100
AcDbEntity
  8
0
100
AcDbLine
 10
184.0
 20
90.5141
 30
0.0
 11
184.0
 21
84.83414000000001
 31
0.0
  0
LINE
  5
128
330
1E
100
AcDbEntity
  8
0
100
AcDbLine
 10
184.0
 20
90.5141
 30
0.0
 11
184.0
 21
97.9184
 31
0.0
  0
LINE
  5
129
330
1E
100
AcDbEntity
  8
0
100
AcDbLine
 10
184.0
 20
84.83414000000001
 30
0.0
 11
184.0
 21
81.38557
 31
0.0
  0
LINE
  5
12A
330
1E
100
AcDbEntity
  8
0
100
AcDbLine
 10
184.0
 20
84.83414000000001
 30
0.0
 11
184.0
 21
90.5141
 31
0.0
  0
LINE
  5
12B
330
1E
100
AcDbEntity
  8
0
100
AcDbLine
 10
184.0
 20
81.38557
 30
0.0
 11
184.0
 21
80.067
 31
0.0
  0
LINE
  5
12C
330
1E
100
AcDbEntity
  8
0
100
AcDbLine
 10
184.0
 20
81.38557
 30
0.0
 11
184.0
 21
84.83414000000001
 31
0.0
  0
LINE
  5
12D
330
1E
100
AcDbEntity
  8
0
100
AcDbLine
 10
189.0
 20
97.9184
 30
0.0
 11
189.0
 21
90.5141
 31
0.0
  0
LINE
  5
12E
330
1E
100
AcDbEntity
  8
0
100
AcDbLine
 10
189.0
 20
90.5141
 30
0.0
 11
189.0
 21
84.83414000000001
 31
0.0
  0
LINE
  5
12F
330
1E
100
AcDbEntity
  8
0
100
AcDbLine
 10
189.0
 20
84.83414000000001
 30
0.0
 11
189.0
 21
81.38557
 31
0.0
  0
LINE
  5
130
330
1E
100
AcDbEntity
  8
0
100
AcDbLine
 10
189.0
 20
81.38557
 30
0.0
 11
189.0
 21
80.067
 31
0.0
  0
LINE
  5
131
330
1E
100
AcDbEntity
  8
0
100
AcDbLine
 10
184.0
 20
80.067
 30
0.0
 11
189.0
 21
80.067
 31
0.0
  0
LINE
  5
132
330
1E
100
AcDbEntity
  8
0
100
AcDbLine
 10
184.0
 20
80.067
 30
0.0
 11
184.0
 21
81.38557
 31
0.0
  0
LINE
  5
133
330
1E
100
AcDbEntity
  8
0
100
AcDbLine
 10
144.0399999999999
 20
98.76700000000001
 30
0.0
 11
149.0
 21
100.9317
 31
0.0
  0
LINE
  5
134
330
1E
100
AcDbEntity
  8
0
100
AcDbLine
 10
144.12
 20
98.28700000000001
 30
0.0
 11
149.0
 21
100.2674
 31
0.0
  0
LINE
  5
135
330
1E
100
AcDbEntity
  8
0
100
AcDbLine
 10
139.0
 20
97.56700000000002
 30
0.0
 11
144.12
 21
98.28700000000001
 31
0.0
  0
LINE
  5
136
330
1E
100
AcDbEntity
  8
0
100
AcDbLine
 10
148.9199999999999
 20
100.207
 30
0.0
 11
149.0
 21
100.2674
 31
0.0
  0
LINE
  5
137
330
1E
100
AcDbEntity
  8
0
100
AcDbLine
 10
144.0399999999999
 20
136.367
 30
0.0
 11
149.0
 21
134.2023
 31
0.0
  0
LINE
  5
138
330
1E
100
AcDbEntity
  8
0
100
AcDbLine
 10
139.0
 20
137.087
 30
0.0
 11
144.0399999999999
 21
136.367
 31
0.0
  0
LINE
  5
139
330
1E
100
AcDbEntity
  8
0
100
AcDbLine
 10
144.12
 20
136.847
 30
0.0
 11
149.0
 21
134.8666
 31
0.0
  0
LINE
  5
13A
330
1E
100
AcDbEntity
  8
0
100
AcDbLine
 10
149.0
 20
126.7241
 30
0.0
 11
151.0
 21
128.7527
 31
0.0
  0
LINE
  5
13B
330
1E
100
AcDbEntity
  8
0
100
AcDbLine
 10
149.0
 20
104.4098999999999
 30
0.0
 11
151.0
 21
102.3813
 31
0.0
  0
LINE
  5
13C
330
1E
100
AcDbEntity
  8
0
100
AcDbLine
 10
149.0
 20
100.2674
 30
0.0
 11
149.0
 21
100.9317
 31
0.0
  0
LINE
  5
13D
330
1E
100
AcDbEntity
  8
0
100
AcDbLine
 10
164.0
 20
101.367
 30
0.0
 11
164.0
 21
101.8740999999999
 31
0.0
  0
LINE
  5
13E
330
1E
100
AcDbEntity
  8
0
100
AcDbLine
 10
164.0
 20
101.367
 30
0.0
 11
184.0
 21
80.067
 31
0.0
  0
LINE
  5
13F
330
1E
100
AcDbEntity
  8
0
100
AcDbLine
 10
156.0
 20
101.367
 30
0.0
 11
159.0
 21
101.367
 31
0.0
  0
LINE
  5
140
330
1E
100
AcDbEntity
  8
0
100
AcDbLine
 10
161.0
 20
102.3813
 30
0.0
 11
163.0
 21
104.4098999999999
 31
0.0
  0
LINE
  5
141
330
1E
100
AcDbEntity
  8
0
100
AcDbLine
 10
164.0
 20
101.8740999999999
 30
0.0
 11
164.0
 21
103.2941
 31
0.0
  0
LINE
  5
142
330
1E
100
AcDbEntity
  8
0
100
AcDbLine
 10
164.0
 20
101.8740999999999
 30
0.0
 11
164.0
 21
101.367
 31
0.0
  0
LINE
  5
143
330
1E
100
AcDbEntity
  8
0
100
AcDbLine
 10
159.0
 20
101.367
 30
0.0
 11
161.0
 21
102.3813
 31
0.0
  0
LINE
  5
144
330
1E
100
AcDbEntity
  8
0
100
AcDbLine
 10
153.0
 20
101.367
 30
0.0
 11
156.0
 21
101.367
 31
0.0
  0
LINE
  5
145
330
1E
100
AcDbEntity
  8
0
100
AcDbLine
 10
161.0
 20
104.1055999999999
 30
0.0
 11
161.0
 21
128.7527
 31
0.0
  0
LINE
  5
146
330
1E
100
AcDbEntity
  8
0
100
AcDbLine
 10
161.0
 20
104.1055999999999
 30
0.0
 11
161.0
 21
102.3813
 31
0.0
  0
LINE
  5
147
330
1E
100
AcDbEntity
  8
0
100
AcDbLine
 10
161.0
 20
102.3813
 30
0.0
 11
161.0
 21
104.1055999999999
 31
0.0
  0
LINE
  5
148
330
1E
100
AcDbEntity
  8
0
100
AcDbLine
 10
151.0
 20
102.3813
 30
0.0
 11
151.0
 21
104.1055999999999
 31
0.0
  0
LINE
  5
151
330
1E
100
AcDbEntity
  8
0
100
AcDbLine
 10
161.0
 20
128.7527
 30
0.0
 11
161.0
 21
104.1055999999999
 31
0.0
  0
LINE
  5
15A
330
1E
100
AcDbEntity
  8
0
100
AcDbLine
 10
151.0
 20
128.7527
 30
0.0
 11
151.0
 21
104.1055999999999
 31
0.0
  0
LINE
  5
15B
330
1E
100
AcDbEntity
  8
0
100
AcDbLine
 10
151.0
 20
104.1055999999999
 30
0.0
 11
151.0
 21
102.3813
 31
0.0
  0
LINE
  5
15C
330
1E
100
AcDbEntity
  8
0
100
AcDbLine
 10
151.0
 20
104.1055999999999
 30
0.0
 11
151.0
 21
128.7527
 31
0.0
  0
LINE
  5
15D
330
1E
100
AcDbEntity
  8
0
100
AcDbLine
 10
163.0
 20
118.407
 30
0.0
 11
163.0
 21
115.567
 31
0.0
  0
LINE
  5
15E
330
1E
100
AcDbEntity
  8
0
100
AcDbLine
 10
163.0
 20
118.407
 30
0.0
 11
163.0
 21
121.1456
 31
0.0
  0
LINE
  5
15F
330
1E
100
AcDbEntity
  8
0
100
AcDbLine
 10
163.0
 20
121.1456
 30
0.0
 11
163.0
 21
118.407
 31
0.0
  0
LINE
  5
160
330
1E
100
AcDbEntity
  8
0
100
AcDbLine
 10
163.0
 20
121.1456
 30
0.0
 11
163.0
 21
123.4783999999999
 31
0.0
  0
LINE
  5
161
330
1E
100
AcDbEntity
  8
0
100
AcDbLine
 10
163.0
 20
123.4783999999999
 30
0.0
 11
163.0
 21
121.1456
 31
0.0
  0
LINE
  5
162
330
1E
100
AcDbEntity
  8
0
100
AcDbLine
 10
163.0
 20
123.4783999999999
 30
0.0
 11
163.0
 21
125.2027
 31
0.0
  0
LINE
  5
163
330
1E
100
AcDbEntity
  8
0
100
AcDbLine
 10
163.0
 20
125.2027
 30
0.0
 11
163.0
 21
123.4783999999999
 31
0.0
  0
LINE
  5
164
330
1E
100
AcDbEntity
  8
0
100
AcDbLine
 10
163.0
 20
125.2027
 30
0.0
 11
163.0
 21
126.3184
 31
0.0
  0
LINE
  5
165
330
1E
100
AcDbEntity
  8
0
100
AcDbLine
 10
163.0
 20
126.3184
 30
0.0
 11
163.0
 21
125.2027
 31
0.0
  0
LINE
  5
166
330
1E
100
AcDbEntity
  8
0
100
AcDbLine
 10
163.0
 20
126.3184
 30
0.0
 11
163.0
 21
126.7241
 31
0.0
  0
LINE
  5
167
330
1E
100
AcDbEntity
  8
0
100
AcDbLine
 10
163.0
 20
115.567
 30
0.0
 11
163.0
 21
112.7269999999999
 31
0.0
  0
LINE
  5
168
330
1E
100
AcDbEntity
  8
0
100
AcDbLine
 10
163.0
 20
115.567
 30
0.0
 11
163.0
 21
118.407
 31
0.0
  0
LINE
  5
169
330
1E
100
AcDbEntity
  8
0
100
AcDbLine
 10
163.0
 20
112.7269999999999
 30
0.0
 11
163.0
 21
109.9884
 31
0.0
  0
LINE
  5
16A
330
1E
100
AcDbEntity
  8
0
100
AcDbLine
 10
163.0
 20
112.7269999999999
 30
0.0
 11
163.0
 21
115.567
 31
0.0
  0
LINE
  5
16B
330
1E
100
AcDbEntity
  8
0
100
AcDbLine
 10
163.0
 20
109.9884
 30
0.0
 11
163.0
 21
107.6556
 31
0.0
  0
LINE
  5
16C
330
1E
100
AcDbEntity
  8
0
100
AcDbLine
 10
163.0
 20
109.9884
 30
0.0
 11
163.0
 21
112.7269999999999
 31
0.0
  0
LINE
  5
16D
330
1E
100
AcDbEntity
  8
0
100
AcDbLine
 10
163.0
 20
107.6556
 30
0.0
 11
163.0
 21
105.9312999999999
 31
0.0
  0
LINE
  5
16E
330
1E
100
AcDbEntity
  8
0
100
AcDbLine
 10
163.0
 20
107.6556
 30
0.0
 11
163.0
 21
109.9884
 31
0.0
  0
LINE
  5
16F
330
1E
100
AcDbEntity
  8
0
100
AcDbLine
 10
163.0
 20
105.9312999999999
 30
0.0
 11
163.0
 21
104.8156
 31
0.0
  0
LINE
  5
170
330
1E
100
AcDbEntity
  8
0
100
AcDbLine
 10
163.0
 20
105.9312999999999
 30
0.0
 11
163.0
 21
107.6556
 31
0.0
  0
LINE
  5
171
330
1E
100
AcDbEntity
  8
0
100
AcDbLine
 10
163.0
 20
104.8156
 30
0.0
 11
163.0
 21
104.4098999999999
 31
0.0
  0
LINE
  5
172
330
1E
100
AcDbEntity
  8
0
100
AcDbLine
 10
163.0
 20
104.8156
 30
0.0
 11
163.0
 21
105.9312999999999
 31
0.0
  0
LINE
  5
173
330
1E
100
AcDbEntity
  8
0
100
AcDbLine
 10
163.0
 20
126.7241
 30
0.0
 11
164.0
 21
126.7241
 31
0.0
  0
LINE
  5
174
330
1E
100
AcDbEntity
  8
0
100
AcDbLine
 10
163.0
 20
126.7241
 30
0.0
 11
163.0
 21
126.3184
 31
0.0
  0
LINE
  5
175
330
1E
100
AcDbEntity
  8
0
100
AcDbLine
 10
161.0
 20
128.7527
 30
0.0
 11
163.0
 21
126.7241
 31
0.0
  0
LINE
  5
176
330
1E
100
AcDbEntity
  8
0
100
AcDbLine
 10
156.0
 20
129.7669999999999
 30
0.0
 11
159.0
 21
129.7669999999999
 31
0.0
  0
LINE
  5
177
330
1E
100
AcDbEntity
  8
0
100
AcDbLine
 10
159.0
 20
129.7669999999999
 30
0.0
 11
161.0
 21
128.7527
 31
0.0
  0
LINE
  5
178
330
1E
100
AcDbEntity
  8
0
100
AcDbLine
 10
153.0
 20
129.7669999999999
 30
0.0
 11
156.0
 21
129.7669999999999
 31
0.0
  0
LINE
  5
179
330
1E
100
AcDbEntity
  8
0
100
AcDbLine
 10
151.0
 20
128.7527
 30
0.0
 11
153.0
 21
129.7669999999999
 31
0.0
  0
LINE
  5
17A
330
1E
100
AcDbEntity
  8
0
100
AcDbLine
 10
164.0
 20
105.5255999999999
 30
0.0
 11
164.0
 21
103.2941
 31
0.0
  0
LINE
  5
17B
330
1E
100
AcDbEntity
  8
0
100
AcDbLine
 10
164.0
 20
105.5255999999999
 30
0.0
 11
164.0
 21
108.467
 31
0.0
  0
LINE
  5
17C
330
1E
100
AcDbEntity
  8
0
100
AcDbLine
 10
164.0
 20
108.467
 30
0.0
 11
164.0
 21
105.5255999999999
 31
0.0
  0
LINE
  5
17D
330
1E
100
AcDbEntity
  8
0
100
AcDbLine
 10
164.0
 20
108.467
 30
0.0
 11
164.0
 21
111.9156
 31
0.0
  0
LINE
  5
17E
330
1E
100
AcDbEntity
  8
0
100
AcDbLine
 10
164.0
 20
111.9156
 30
0.0
 11
164.0
 21
108.467
 31
0.0
  0
LINE
  5
17F
330
1E
100
AcDbEntity
  8
0
100
AcDbLine
 10
164.0
 20
111.9156
 30
0.0
 11
164.0
 21
115.567
 31
0.0
  0
LINE
  5
180
330
1E
100
AcDbEntity
  8
0
100
AcDbLine
 10
164.0
 20
112.7269999999999
 30
0.0
 11
164.0
 21
109.9884
 31
0.0
  0
LINE
  5
181
330
1E
100
AcDbEntity
  8
0
100
AcDbLine
 10
164.0
 20
112.7269999999999
 30
0.0
 11
164.0
 21
115.567
 31
0.0
  0
LINE
  5
182
330
1E
100
AcDbEntity
  8
0
100
AcDbLine
 10
164.0
 20
109.9884
 30
0.0
 11
164.0
 21
107.6556
 31
0.0
  0
LINE
  5
183
330
1E
100
AcDbEntity
  8
0
100
AcDbLine
 10
164.0
 20
109.9884
 30
0.0
 11
164.0
 21
112.7269999999999
 31
0.0
  0
LINE
  5
184
330
1E
100
AcDbEntity
  8
0
100
AcDbLine
 10
164.0
 20
107.6556
 30
0.0
 11
164.0
 21
105.9312999999999
 31
0.0
  0
LINE
  5
185
330
1E
100
AcDbEntity
  8
0
100
AcDbLine
 10
164.0
 20
107.6556
 30
0.0
 11
164.0
 21
109.9884
 31
0.0
  0
LINE
  5
186
330
1E
100
AcDbEntity
  8
0
100
AcDbLine
 10
164.0
 20
105.9312999999999
 30
0.0
 11
164.0
 21
104.8156
 31
0.0
  0
LINE
  5
187
330
1E
100
AcDbEntity
  8
0
100
AcDbLine
 10
164.0
 20
105.9312999999999
 30
0.0
 11
164.0
 21
107.6556
 31
0.0
  0
LINE
  5
188
330
1E
100
AcDbEntity
  8
0
100
AcDbLine
 10
164.0
 20
104.8156
 30
0.0
 11
164.0
 21
104.4098999999999
 31
0.0
  0
LINE
  5
189
330
1E
100
AcDbEntity
  8
0
100
AcDbLine
 10
164.0
 20
104.8156
 30
0.0
 11
164.0
 21
105.9312999999999
 31
0.0
  0
LINE
  5
18A
330
1E
100
AcDbEntity
  8
0
100
AcDbLine
 10
164.0
 20
119.2184
 30
0.0
 11
164.0
 21
115.567
 31
0.0
  0
LINE
  5
18B
330
1E
100
AcDbEntity
  8
0
100
AcDbLine
 10
164.0
 20
119.2184
 30
0.0
 11
164.0
 21
122.667
 31
0.0
  0
LINE
  5
18C
330
1E
100
AcDbEntity
  8
0
100
AcDbLine
 10
164.0
 20
115.567
 30
0.0
 11
164.0
 21
118.407
 31
0.0
  0
LINE
  5
18D
330
1E
100
AcDbEntity
  8
0
100
AcDbLine
 10
164.0
 20
115.567
 30
0.0
 11
164.0
 21
119.2184
 31
0.0
  0
LINE
  5
18E
330
1E
100
AcDbEntity
  8
0
100
AcDbLine
 10
164.0
 20
115.567
 30
0.0
 11
164.0
 21
112.7269999999999
 31
0.0
  0
LINE
  5
18F
330
1E
100
AcDbEntity
  8
0
100
AcDbLine
 10
164.0
 20
115.567
 30
0.0
 11
164.0
 21
111.9156
 31
0.0
  0
LINE
  5
190
330
1E
100
AcDbEntity
  8
0
100
AcDbLine
 10
164.0
 20
118.407
 30
0.0
 11
164.0
 21
121.1456
 31
0.0
  0
LINE
  5
191
330
1E
100
AcDbEntity
  8
0
100
AcDbLine
 10
164.0
 20
118.407
 30
0.0
 11
164.0
 21
115.567
 31
0.0
  0
LINE
  5
192
330
1E
100
AcDbEntity
  8
0
100
AcDbLine
 10
164.0
 20
122.667
 30
0.0
 11
164.0
 21
119.2184
 31
0.0
  0
LINE
  5
193
330
1E
100
AcDbEntity
  8
0
100
AcDbLine
 10
164.0
 20
122.667
 30
0.0
 11
164.0
 21
125.6083999999999
 31
0.0
  0
LINE
  5
194
330
1E
100
AcDbEntity
  8
0
100
AcDbLine
 10
164.0
 20
121.1456
 30
0.0
 11
164.0
 21
123.4783999999999
 31
0.0
  0
LINE
  5
195
330
1E
100
AcDbEntity
  8
0
100
AcDbLine
 10
164.0
 20
121.1456
 30
0.0
 11
164.0
 21
118.407
 31
0.0
  0
LINE
  5
196
330
1E
100
AcDbEntity
  8
0
100
AcDbLine
 10
164.0
 20
123.4783999999999
 30
0.0
 11
164.0
 21
125.2027
 31
0.0
  0
LINE
  5
197
330
1E
100
AcDbEntity
  8
0
100
AcDbLine
 10
164.0
 20
123.4783999999999
 30
0.0
 11
164.0
 21
121.1456
 31
0.0
  0
LINE
  5
198
330
1E
100
AcDbEntity
  8
0
100
AcDbLine
 10
164.0
 20
125.6083999999999
 30
0.0
 11
164.0
 21
122.667
 31
0.0
  0
LINE
  5
199
330
1E
100
AcDbEntity
  8
0
100
AcDbLine
 10
164.0
 20
125.6083999999999
 30
0.0
 11
164.0
 21
127.8399
 31
0.0
  0
LINE
  5
19A
330
1E
100
AcDbEntity
  8
0
100
AcDbLine
 10
164.0
 20
125.2027
 30
0.0
 11
164.0
 21
126.3184
 31
0.0
  0
LINE
  5
19B
330
1E
100
AcDbEntity
  8
0
100
AcDbLine
 10
164.0
 20
125.2027
 30
0.0
 11
164.0
 21
123.4783999999999
 31
0.0
  0
LINE
  5
19C
330
1E
100
AcDbEntity
  8
0
100
AcDbLine
 10
164.0
 20
126.3184
 30
0.0
 11
164.0
 21
126.7241
 31
0.0
  0
LINE
  5
19D
330
1E
100
AcDbEntity
  8
0
100
AcDbLine
 10
164.0
 20
126.3184
 30
0.0
 11
164.0
 21
125.2027
 31
0.0
  0
LINE
  5
19E
330
1E
100
AcDbEntity
  8
0
100
AcDbLine
 10
164.0
 20
126.7241
 30
0.0
 11
164.0
 21
127.8399
 31
0.0
  0
LINE
  5
19F
330
1E
100
AcDbEntity
  8
0
100
AcDbLine
 10
164.0
 20
126.7241
 30
0.0
 11
164.0
 21
126.3184
 31
0.0
  0
LINE
  5
1A0
330
1E
100
AcDbEntity
  8
0
100
AcDbLine
 10
164.0
 20
127.8399
 30
0.0
 11
164.0
 21
129.2598999999999
 31
0.0
  0
LINE
  5
1A1
330
1E
100
AcDbEntity
  8
0
100
AcDbLine
 10
164.0
 20
127.8399
 30
0.0
 11
164.0
 21
126.7241
 31
0.0
  0
LINE
  5
1A2
330
1E
100
AcDbEntity
  8
0
100
AcDbLine
 10
164.0
 20
127.8399
 30
0.0
 11
164.0
 21
125.6083999999999
 31
0.0
  0
LINE
  5
1A3
330
1E
100
AcDbEntity
  8
0
100
AcDbLine
 10
164.0
 20
129.7669999999999
 30
0.0
 11
164.0
 21
129.2598999999999
 31
0.0
  0
LINE
  5
1A4
330
1E
100
AcDbEntity
  8
0
100
AcDbLine
 10
164.0
 20
129.7669999999999
 30
0.0
 11
184.0
 21
151.067
 31
0.0
  0
LINE
  5
1A5
330
1E
100
AcDbEntity
  8
0
100
AcDbLine
 10
164.0
 20
129.2598999999999
 30
0.0
 11
164.0
 21
129.7669999999999
 31
0.0
  0
LINE
  5
1A6
330
1E
100
AcDbEntity
  8
0
100
AcDbLine
 10
164.0
 20
129.2598999999999
 30
0.0
 11
164.0
 21
127.8399
 31
0.0
  0
LINE
  5
1A7
330
1E
100
AcDbEntity
  8
0
100
AcDbLine
 10
184.0
 20
106.4383999999999
 30
0.0
 11
184.0
 21
97.9184
 31
0.0
  0
LINE
  5
1A8
330
1E
100
AcDbEntity
  8
0
100
AcDbLine
 10
184.0
 20
106.4383999999999
 30
0.0
 11
184.0
 21
115.567
 31
0.0
  0
LINE
  5
1A9
330
1E
100
AcDbEntity
  8
0
100
AcDbLine
 10
184.0
 20
115.567
 30
0.0
 11
184.0
 21
124.6955999999999
 31
0.0
  0
LINE
  5
1AA
330
1E
100
AcDbEntity
  8
0
100
AcDbLine
 10
184.0
 20
115.567
 30
0.0
 11
184.0
 21
106.4383999999999
 31
0.0
  0
LINE
  5
1AB
330
1E
100
AcDbEntity
  8
0
100
AcDbLine
 10
189.0
 20
115.567
 30
0.0
 11
189.0
 21
106.4383999999999
 31
0.0
  0
LINE
  5
1AC
330
1E
100
AcDbEntity
  8
0
100
AcDbLine
 10
189.0
 20
106.4383999999999
 30
0.0
 11
189.0
 21
97.9184
 31
0.0
  0
LINE
  5
1AD
330
1E
100
AcDbEntity
  8
0
100
AcDbLine
 10
189.0
 20
124.6955999999999
 30
0.0
 11
189.0
 21
115.567
 31
0.0
  0
LINE
  5
1AE
330
1E
100
AcDbEntity
  8
0
100
AcDbLine
 10
189.0
 20
133.2155999999999
 30
0.0
 11
189.0
 21
124.6955999999999
 31
0.0
  0
LINE
  5
1AF
330
1E
100
AcDbEntity
  8
0
100
AcDbLine
 10
184.0
 20
124.6955999999999
 30
0.0
 11
184.0
 21
115.567
 31
0.0
  0
LINE
  5
1B0
330
1E
100
AcDbEntity
  8
0
100
AcDbLine
 10
184.0
 20
124.6955999999999
 30
0.0
 11
184.0
 21
133.2155999999999
 31
0.0
  0
LINE
  5
1B1
330
1E
100
AcDbEntity
  8
0
100
AcDbLine
 10
184.0
 20
133.2155999999999
 30
0.0
 11
184.0
 21
124.6955999999999
 31
0.0
  0
LINE
  5
1B2
330
1E
100
AcDbEntity
  8
0
100
AcDbLine
 10
184.0
 20
133.2155999999999
 30
0.0
 11
184.0
 21
140.6198999999999
 31
0.0
  0
LINE
  5
1B3
330
1E
100
AcDbEntity
  8
0
100
AcDbLine
 10
164.0
 20
104.4098999999999
 30
0.0
 11
164.0
 21
103.2941
 31
0.0
  0
LINE
  5
1B4
330
1E
100
AcDbEntity
  8
0
100
AcDbLine
 10
164.0
 20
104.4098999999999
 30
0.0
 11
164.0
 21
104.8156
 31
0.0
  0
LINE
  5
1B5
330
1E
100
AcDbEntity
  8
0
100
AcDbLine
 10
164.0
 20
103.2941
 30
0.0
 11
164.0
 21
104.4098999999999
 31
0.0
  0
LINE
  5
1B6
330
1E
100
AcDbEntity
  8
0
100
AcDbLine
 10
164.0
 20
103.2941
 30
0.0
 11
164.0
 21
101.8740999999999
 31
0.0
  0
LINE
  5
1B7
330
1E
100
AcDbEntity
  8
0
100
AcDbLine
 10
164.0
 20
103.2941
 30
0.0
 11
164.0
 21
105.5255999999999
 31
0.0
  0
LINE
  5
1B8
330
1E
100
AcDbEntity
  8
0
100
AcDbLine
 10
163.0
 20
104.4098999999999
 30
0.0
 11
164.0
 21
104.4098999999999
 31
0.0
  0
LINE
  5
1B9
330
1E
100
AcDbEntity
  8
0
100
AcDbLine
 10
163.0
 20
104.4098999999999
 30
0.0
 11
163.0
 21
104.8156
 31
0.0
  0
LINE
  5
1BA
330
1E
100
AcDbEntity
  8
0
100
AcDbLine
 10
151.0
 20
102.3813
 30
0.0
 11
153.0
 21
101.367
 31
0.0
  0
LINE
  5
1BB
330
1E
100
AcDbEntity
  8
0
100
AcDbLine
 10
149.0
 20
100.9317
 30
0.0
 11
149.0
 21
134.2023
 31
0.0
  0
LINE
  5
1BC
330
1E
100
AcDbEntity
  8
0
100
AcDbLine
 10
149.0
 20
100.9317
 30
0.0
 11
149.0
 21
100.2674
 31
0.0
  0
LINE
  5
1BD
330
1E
100
AcDbEntity
  8
0
100
AcDbLine
 10
149.0
 20
134.8666
 30
0.0
 11
149.0
 21
134.2023
 31
0.0
  0
LINE
  5
1BE
330
1E
100
AcDbEntity
  8
0
100
AcDbLine
 10
149.0
 20
134.2023
 30
0.0
 11
149.0
 21
134.8666
 31
0.0
  0
LINE
  5
1BF
330
1E
100
AcDbEntity
  8
0
100
AcDbLine
 10
149.0
 20
134.2023
 30
0.0
 11
149.0
 21
100.9317
 31
0.0
  0
LINE
  5
1C0
330
1E
100
AcDbEntity
  8
0
100
AcDbLine
 10
148.9199999999999
 20
134.927
 30
0.0
 11
149.0
 21
134.8666
 31
0.0
  0
LINE
  5
1C1
330
1E
100
AcDbEntity
  8
0
100
AcDbLine
 10
184.0
 20
140.6198999999999
 30
0.0
 11
184.0
 21
133.2155999999999
 31
0.0
  0
LINE
  5
1C2
330
1E
100
AcDbEntity
  8
0
100
AcDbLine
 10
184.0
 20
140.6198999999999
 30
0.0
 11
184.0
 21
146.2999
 31
0.0
  0
LINE
  5
1C3
330
1E
100
AcDbEntity
  8
0
100
AcDbLine
 10
184.0
 20
146.2999
 30
0.0
 11
184.0
 21
140.6198999999999
 31
0.0
  0
LINE
  5
1C4
330
1E
100
AcDbEntity
  8
0
100
AcDbLine
 10
184.0
 20
146.2999
 30
0.0
 11
184.0
 21
149.7484
 31
0.0
  0
LINE
  5
1C5
330
1E
100
AcDbEntity
  8
0
100
AcDbLine
 10
184.0
 20
149.7484
 30
0.0
 11
184.0
 21
146.2999
 31
0.0
  0
LINE
  5
1C6
330
1E
100
AcDbEntity
  8
0
100
AcDbLine
 10
184.0
 20
149.7484
 30
0.0
 11
184.0
 21
151.067
 31
0.0
  0
LINE
  5
1C7
330
1E
100
AcDbEntity
  8
0
100
AcDbLine
 10
189.0
 20
140.6198999999999
 30
0.0
 11
189.0
 21
133.2155999999999
 31
0.0
  0
LINE
  5
1C8
330
1E
100
AcDbEntity
  8
0
100
AcDbLine
 10
189.0
 20
146.2999
 30
0.0
 11
189.0
 21
140.6198999999999
 31
0.0
  0
LINE
  5
1C9
330
1E
100
AcDbEntity
  8
0
100
AcDbLine
 10
189.0
 20
149.7484
 30
0.0
 11
189.0
 21
146.2999
 31
0.0
  0
LINE
  5
1CA
330
1E
100
AcDbEntity
  8
0
100
AcDbLine
 10
189.0
 20
151.067
 30
0.0
 11
189.0
 21
149.7484
 31
0.0
  0
LINE
  5
1CB
330
1E
100
AcDbEntity
  8
0
100
AcDbLine
 10
184.0
 20
151.067
 30
0.0
 11
189.0
 21
151.067
 31
0.0
  0
LINE
  5
1CC
330
1E
100
AcDbEntity
  8
0
100
AcDbLine
 10
184.0
 20
151.067
 30
0.0
 11
184.0
 21
149.7484
 31
0.0
  0
LINE
  5
1CD
330
1E
100
AcDbEntity
  8
0
100
AcDbLine
 10
139.0
 20
137.567
 30
0.0
 11
144.12
 21
136.847
 31
0.0
  0
LINE
  5
1CE
330
1E
100
AcDbEntity
  8
0
100
AcDbLine
 10
133.96
 20
136.367
 30
0.0
 11
139.0
 21
137.087
 31
0.0
  0
LINE
  5
1CF
330
1E
100
AcDbEntity
  8
0
100
AcDbLine
 10
133.96
 20
98.76700000000001
 30
0.0
 11
139.0
 21
98.04700000000002
 31
0.0
  0
LINE
  5
1D0
330
1E
100
AcDbEntity
  8
0
100
AcDbLine
 10
133.8799999999999
 20
98.28700000000001
 30
0.0
 11
139.0
 21
97.56700000000002
 31
0.0
  0
LINE
  5
1D1
330
1E
100
AcDbEntity
  8
0
100
AcDbLine
 10
99.6124
 20
159.8705999999999
 30
0.0
 11
100.1319999999999
 21
159.9622
 31
0.0
  0
LINE
  5
1D2
330
1E
100
AcDbEntity
  8
0
100
AcDbLine
 10
99.35250000000001
 20
159.8247
 30
0.0
 11
99.6124
 21
159.8705999999999
 31
0.0
  0
LINE
  5
1D3
330
1E
100
AcDbEntity
  8
0
100
AcDbLine
 10
95.747880889321
 20
172.7045452092919
 30
0.0
 11
99.35250000000001
 21
159.8247
 31
0.0
  0
LINE
  5
1D4
330
1E
100
AcDbEntity
  8
0
100
AcDbLine
 10
100.055265226823
 20
159.9486724687779
 30
0.0
 11
100.482629962873
 21
157.525305922942
 31
0.0
  0
LINE
  5
1D5
330
1E
100
AcDbEntity
  8
0
100
AcDbLine
 10
100.7979999999999
 20
157.5809
 30
0.0
 11
102.8779999999999
 21
157.9475999999999
 31
0.0
  0
LINE
  5
1D6
330
1E
100
AcDbEntity
  8
0
100
AcDbLine
 10
100.382
 20
156.8983
 30
0.0
 11
102.462
 21
157.2651
 31
0.0
  0
LINE
  5
1D7
330
1E
100
AcDbEntity
  8
0
100
AcDbLine
 10
101.9079999999999
 20
158.7895
 30
0.0
 11
103.0359999999999
 21
158.9884
 31
0.0
  0
LINE
  5
1D8
330
1E
100
AcDbEntity
  8
0
100
AcDbLine
 10
101.062
 20
158.6403999999999
 30
0.0
 11
101.9079999999999
 21
158.7895
 31
0.0
  0
LINE
  5
1D9
330
1E
100
AcDbEntity
  8
0
100
AcDbLine
 10
100.4979999999999
 20
158.5409
 30
0.0
 11
101.062
 21
158.6403999999999
 31
0.0
  0
LINE
  5
1DA
330
1E
100
AcDbEntity
  8
0
100
AcDbLine
 10
100.31
 20
158.5078
 30
0.0
 11
100.4979999999999
 21
158.5409
 31
0.0
  0
LINE
  5
1DB
330
1E
100
AcDbEntity
  8
0
100
AcDbLine
 10
100.1319999999999
 20
159.9622
 30
0.0
 11
101.086
 21
160.1303
 31
0.0
  0
LINE
  5
1DC
330
1E
100
AcDbEntity
  8
0
100
AcDbLine
 10
101.086
 20
160.1303
 30
0.0
 11
102.212
 21
160.329
 31
0.0
  0
LINE
  5
1DD
330
1E
100
AcDbEntity
  8
0
100
AcDbLine
 10
102.8779999999999
 20
157.9475999999999
 30
0.0
 11
106.257
 21
158.5436
 31
0.0
  0
LINE
  5
1DE
330
1E
100
AcDbEntity
  8
0
100
AcDbLine
 10
102.462
 20
157.2651
 30
0.0
 11
105.9279999999999
 21
157.8762999999999
 31
0.0
  0
LINE
  5
1DF
330
1E
100
AcDbEntity
  8
0
100
AcDbLine
 10
104.634
 20
159.2701999999999
 30
0.0
 11
106.42
 21
159.5851999999999
 31
0.0
  0
LINE
  5
1E0
330
1E
100
AcDbEntity
  8
0
100
AcDbLine
 10
103.0359999999999
 20
158.9884
 30
0.0
 11
104.634
 21
159.2701999999999
 31
0.0
  0
LINE
  5
1E1
330
1E
100
AcDbEntity
  8
0
100
AcDbLine
 10
102.212
 20
160.329
 30
0.0
 11
103.8589999999999
 21
160.6193
 31
0.0
  0
LINE
  5
1E2
330
1E
100
AcDbEntity
  8
0
100
AcDbLine
 10
103.8589999999999
 20
160.6193
 30
0.0
 11
105.766
 21
160.9555
 31
0.0
  0
LINE
  5
1E3
330
1E
100
AcDbEntity
  8
0
100
AcDbLine
 10
106.257
 20
158.5436
 30
0.0
 11
110.677
 21
159.3229
 31
0.0
  0
LINE
  5
1E4
330
1E
100
AcDbEntity
  8
0
100
AcDbLine
 10
105.9279999999999
 20
157.8762999999999
 30
0.0
 11
110.521
 21
158.6862
 31
0.0
  0
LINE
  5
1E5
330
1E
100
AcDbEntity
  8
0
100
AcDbLine
 10
106.42
 20
159.5851999999999
 30
0.0
 11
108.3939999999999
 21
159.9331999999999
 31
0.0
  0
LINE
  5
1E6
330
1E
100
AcDbEntity
  8
0
100
AcDbLine
 10
108.3939999999999
 20
159.9331999999999
 30
0.0
 11
110.65
 21
160.3310999999999
 31
0.0
  0
LINE
  5
1E7
330
1E
100
AcDbEntity
  8
0
100
AcDbLine
 10
105.766
 20
160.9555
 30
0.0
 11
107.8449999999999
 21
161.3223
 31
0.0
  0
LINE
  5
1E8
330
1E
100
AcDbEntity
  8
0
100
AcDbLine
 10
107.8449999999999
 20
161.3223
 30
0.0
 11
110.272
 21
161.7501
 31
0.0
  0
LINE
  5
1E9
330
1E
100
AcDbEntity
  8
0
100
AcDbLine
 10
110.521
 20
158.6862
 30
0.0
 11
115.721
 21
159.6031
 31
0.0
  0
LINE
  5
1EA
330
1E
100
AcDbEntity
  8
0
100
AcDbLine
 10
110.677
 20
159.3229
 30
0.0
 11
115.704
 21
160.2092
 31
0.0
  0
LINE
  5
1EB
330
1E
100
AcDbEntity
  8
0
100
AcDbLine
 10
110.65
 20
160.3310999999999
 30
0.0
 11
113.094
 21
160.762
 31
0.0
  0
LINE
  5
1EC
330
1E
100
AcDbEntity
  8
0
100
AcDbLine
 10
113.094
 20
160.762
 30
0.0
 11
115.633
 21
161.2096
 31
0.0
  0
LINE
  5
1ED
330
1E
100
AcDbEntity
  8
0
100
AcDbLine
 10
110.272
 20
161.7501
 30
0.0
 11
112.785
 21
162.1933
 31
0.0
  0
LINE
  5
1EE
330
1E
100
AcDbEntity
  8
0
100
AcDbLine
 10
112.785
 20
162.1933
 30
0.0
 11
115.472
 21
162.667
 31
0.0
  0
LINE
  5
1EF
330
1E
100
AcDbEntity
  8
0
100
AcDbLine
 10
115.704
 20
160.2092
 30
0.0
 11
121.1629999999999
 21
161.1718999999999
 31
0.0
  0
LINE
  5
1F0
330
1E
100
AcDbEntity
  8
0
100
AcDbLine
 10
115.721
 20
159.6031
 30
0.0
 11
121.2679999999999
 21
160.5810999999999
 31
0.0
  0
LINE
  5
1F1
330
1E
100
AcDbEntity
  8
0
100
AcDbLine
 10
121.1629999999999
 20
161.1718999999999
 30
0.0
 11
126.6229999999999
 21
162.1346
 31
0.0
  0
LINE
  5
1F2
330
1E
100
AcDbEntity
  8
0
100
AcDbLine
 10
126.814
 20
161.559
 30
0.0
 11
132.014
 21
162.4759
 31
0.0
  0
LINE
  5
1F3
330
1E
100
AcDbEntity
  8
0
100
AcDbLine
 10
121.2679999999999
 20
160.5810999999999
 30
0.0
 11
126.814
 21
161.559
 31
0.0
  0
LINE
  5
1F4
330
1E
100
AcDbEntity
  8
0
100
AcDbLine
 10
115.633
 20
161.2096
 30
0.0
 11
118.2649999999999
 21
161.6737
 31
0.0
  0
LINE
  5
1F5
330
1E
100
AcDbEntity
  8
0
100
AcDbLine
 10
126.6229999999999
 20
162.1346
 30
0.0
 11
131.65
 21
163.0209
 31
0.0
  0
LINE
  5
1F6
330
1E
100
AcDbEntity
  8
0
100
AcDbLine
 10
132.014
 20
162.4759
 30
0.0
 11
136.607
 21
163.2857999999999
 31
0.0
  0
LINE
  5
1F7
330
1E
100
AcDbEntity
  8
0
100
AcDbLine
 10
131.65
 20
163.0209
 30
0.0
 11
136.07
 21
163.8002999999999
 31
0.0
  0
LINE
  5
1F8
330
1E
100
AcDbEntity
  8
0
100
AcDbLine
 10
126.349
 20
163.0991999999999
 30
0.0
 11
128.8869999999999
 21
163.5467
 31
0.0
  0
LINE
  5
1F9
330
1E
100
AcDbEntity
  8
0
100
AcDbLine
 10
123.717
 20
162.6350999999999
 30
0.0
 11
126.349
 21
163.0991999999999
 31
0.0
  0
LINE
  5
1FA
330
1E
100
AcDbEntity
  8
0
100
AcDbLine
 10
120.991
 20
162.1544
 30
0.0
 11
123.717
 21
162.6350999999999
 31
0.0
  0
LINE
  5
1FB
330
1E
100
AcDbEntity
  8
0
100
AcDbLine
 10
118.2649999999999
 20
161.6737
 30
0.0
 11
120.991
 21
162.1544
 31
0.0
  0
LINE
  5
1FC
330
1E
100
AcDbEntity
  8
0
100
AcDbLine
 10
115.472
 20
162.667
 30
0.0
 11
118.1579999999999
 21
163.1407
 31
0.0
  0
LINE
  5
1FD
330
1E
100
AcDbEntity
  8
0
100
AcDbLine
 10
136.607
 20
163.2857999999999
 30
0.0
 11
140.0739999999999
 21
163.897
 31
0.0
  0
LINE
  5
1FE
330
1E
100
AcDbEntity
  8
0
100
AcDbLine
 10
136.07
 20
163.8002999999999
 30
0.0
 11
139.4489999999999
 21
164.3961999999999
 31
0.0
  0
LINE
  5
1FF
330
1E
100
AcDbEntity
  8
0
100
AcDbLine
 10
142.1529999999999
 20
164.2637999999999
 30
0.0
 11
142.933
 21
164.4012999999999
 31
0.0
  0
LINE
  5
200
330
1E
100
AcDbEntity
  8
0
100
AcDbLine
 10
140.0739999999999
 20
163.897
 30
0.0
 11
142.1529999999999
 21
164.2637999999999
 31
0.0
  0
LINE
  5
201
330
1E
100
AcDbEntity
  8
0
100
AcDbLine
 10
139.4489999999999
 20
164.3961999999999
 30
0.0
 11
141.5289999999999
 21
164.763
 31
0.0
  0
LINE
  5
202
330
1E
100
AcDbEntity
  8
0
100
AcDbLine
 10
133.587
 20
164.3754999999999
 30
0.0
 11
135.562
 21
164.7236
 31
0.0
  0
LINE
  5
203
330
1E
100
AcDbEntity
  8
0
100
AcDbLine
 10
131.331
 20
163.9777
 30
0.0
 11
133.587
 21
164.3754999999999
 31
0.0
  0
LINE
  5
204
330
1E
100
AcDbEntity
  8
0
100
AcDbLine
 10
128.8869999999999
 20
163.5467
 30
0.0
 11
131.331
 21
163.9777
 31
0.0
  0
LINE
  5
205
330
1E
100
AcDbEntity
  8
0
100
AcDbLine
 10
121.0179999999999
 20
163.645
 30
0.0
 11
123.713
 21
165.0331999999999
 31
0.0
  0
LINE
  5
206
330
1E
100
AcDbEntity
  8
0
100
AcDbLine
 10
118.1579999999999
 20
163.1407
 30
0.0
 11
121.0179999999999
 21
163.645
 31
0.0
  0
LINE
  5
207
330
1E
100
AcDbEntity
  8
0
100
AcDbLine
 10
100.055839625544
 20
159.948773729214
 30
0.0
 11
100.31
 21
158.5078
 31
0.0
  0
LINE
  5
208
330
1E
100
AcDbEntity
  8
0
100
AcDbLine
 10
135.562
 20
164.7236
 30
0.0
 11
137.3479999999999
 21
165.0384999999999
 31
0.0
  0
LINE
  5
209
330
1E
100
AcDbEntity
  8
0
100
AcDbLine
 10
137.3479999999999
 20
165.0384999999999
 30
0.0
 11
138.9459999999999
 21
165.3202999999999
 31
0.0
  0
LINE
  5
20A
330
1E
100
AcDbEntity
  8
0
100
AcDbLine
 10
138.9459999999999
 20
165.3202999999999
 30
0.0
 11
140.0739999999999
 21
165.5192
 31
0.0
  0
LINE
  5
20B
330
1E
100
AcDbEntity
  8
0
100
AcDbLine
 10
140.0739999999999
 20
165.5192
 30
0.0
 11
140.92
 21
165.6684
 31
0.0
  0
LINE
  5
20C
330
1E
100
AcDbEntity
  8
0
100
AcDbLine
 10
141.5289999999999
 20
164.763
 30
0.0
 11
142.309
 21
164.9005
 31
0.0
  0
LINE
  5
20D
330
1E
100
AcDbEntity
  8
0
100
AcDbLine
 10
140.92
 20
165.6684
 30
0.0
 11
141.484
 21
165.7677999999999
 31
0.0
  0
LINE
  5
20E
330
1E
100
AcDbEntity
  8
0
100
AcDbLine
 10
141.484
 20
165.7677999999999
 30
0.0
 11
141.6719999999999
 21
165.8009999999999
 31
0.0
  0
LINE
  5
20F
330
1E
100
AcDbEntity
  8
0
100
AcDbLine
 10
123.713
 20
165.0331999999999
 30
0.0
 11
126.251
 21
166.2843999999999
 31
0.0
  0
LINE
  5
210
330
1E
100
AcDbEntity
  8
0
100
AcDbLine
 10
126.251
 20
166.2843999999999
 30
0.0
 11
128.77
 21
167.462
 31
0.0
  0
LINE
  5
211
330
1E
100
AcDbEntity
  8
0
100
AcDbLine
 10
128.77
 20
167.462
 30
0.0
 11
131.1229999999999
 21
168.6212999999999
 31
0.0
  0
LINE
  5
212
330
1E
100
AcDbEntity
  8
0
100
AcDbLine
 10
131.1229999999999
 20
168.6212999999999
 30
0.0
 11
133.418
 21
169.7253
 31
0.0
  0
LINE
  5
213
330
1E
100
AcDbEntity
  8
0
100
AcDbLine
 10
141.3229999999999
 20
167.7729999999999
 30
0.0
 11
141.8441838421099
 21
164.818561254218
 31
0.0
  0
LINE
  5
214
330
1E
100
AcDbEntity
  8
0
100
AcDbLine
 10
133.418
 20
169.7253
 30
0.0
 11
135.367
 21
170.6452999999999
 31
0.0
  0
LINE
  5
215
330
1E
100
AcDbEntity
  8
0
100
AcDbLine
 10
135.367
 20
170.6452999999999
 30
0.0
 11
137.187
 21
171.5285
 31
0.0
  0
LINE
  5
216
330
1E
100
AcDbEntity
  8
0
100
AcDbLine
 10
137.187
 20
171.5285
 30
0.0
 11
138.6949999999999
 21
172.2461
 31
0.0
  0
LINE
  5
217
330
1E
100
AcDbEntity
  8
0
100
AcDbLine
 10
138.6949999999999
 20
172.2461
 30
0.0
 11
139.7429999999999
 21
172.7428999999999
 31
0.0
  0
LINE
  5
218
330
1E
100
AcDbEntity
  8
0
100
AcDbLine
 10
139.334726932007
 20
172.549359866241
 30
0.0
 11
140.3319999999999
 21
170.6444999999999
 31
0.0
  0
LINE
  5
219
330
1E
100
AcDbEntity
  8
0
100
AcDbLine
 10
140.3319999999999
 20
170.6444999999999
 30
0.0
 11
141.3229999999999
 21
167.7729999999999
 31
0.0
  0
LINE
  5
21A
330
1E
100
AcDbEntity
  8
0
100
AcDbLine
 10
139.7429999999999
 20
172.7428999999999
 30
0.0
 11
140.626
 21
173.1845
 31
0.0
  0
LINE
  5
21B
330
1E
100
AcDbEntity
  8
0
100
AcDbLine
 10
139.3345214336769
 20
172.549262450621
 30
0.0
 11
140.3329999999999
 21
170.6420999999999
 31
0.0
  0
LINE
  5
21C
330
1E
100
AcDbEntity
  8
0
100
AcDbLine
 10
140.3329999999999
 20
170.6420999999999
 30
0.0
 11
141.3239999999999
 21
167.7706
 31
0.0
  0
LINE
  5
21D
330
1E
100
AcDbEntity
  8
0
100
AcDbLine
 10
141.3239999999999
 20
167.7706
 30
0.0
 11
141.6719999999999
 21
165.8009999999999
 31
0.0
  0
LINE
  5
21E
330
1E
100
AcDbEntity
  8
0
100
AcDbLine
 10
142.309
 20
164.9005
 30
0.0
 11
142.933
 21
164.4012999999999
 31
0.0
  0
LINE
  5
21F
330
1E
100
AcDbEntity
  8
0
100
AcDbLine
 10
142.933
 20
164.4012999999999
 30
0.0
 11
148.0213391532369
 21
135.2637598239609
 31
0.0
  0
LINE
  5
220
330
1E
100
AcDbEntity
  8
0
100
AcDbLine
 10
100.0179999999999
 20
157.4434
 30
0.0
 11
100.482629962873
 21
157.525305922942
 31
0.0
  0
LINE
  5
221
330
1E
100
AcDbEntity
  8
0
100
AcDbLine
 10
100.0179999999999
 20
157.4434
 30
0.0
 11
100.7979999999999
 21
157.5809
 31
0.0
  0
LINE
  5
222
330
1E
100
AcDbEntity
  8
0
100
AcDbLine
 10
99.6019
 20
156.7607999999999
 30
0.0
 11
103.910103799231
 21
132.417317330066
 31
0.0
  0
LINE
  5
223
330
1E
100
AcDbEntity
  8
0
100
AcDbLine
 10
99.6019
 20
156.7607999999999
 30
0.0
 11
100.0179999999999
 21
157.4434
 31
0.0
  0
LINE
  5
224
330
1E
100
AcDbEntity
  8
0
100
AcDbLine
 10
99.6019
 20
156.7607999999999
 30
0.0
 11
100.382
 21
156.8983
 31
0.0
  0
LINE
  5
225
330
1E
100
AcDbEntity
  8
0
100
AcDbLine
 10
95.69920000000001
 20
172.6909
 30
0.0
 11
95.747880889321
 21
172.7045452092919
 31
0.0
  0
LINE
  5
226
330
1E
100
AcDbEntity
  8
0
100
AcDbLine
 10
140.626
 20
173.1845
 30
0.0
 11
141.1399999999999
 21
173.4421
 31
0.0
  0
LINE
  5
227
330
1E
100
AcDbEntity
  8
0
100
AcDbLine
 10
95.6797
 20
172.7603
 30
0.0
 11
95.69920000000001
 21
172.6909
 31
0.0
  0
LINE
  5
228
330
1E
100
AcDbEntity
  8
0
100
AcDbLine
 10
95.62789999999999
 20
172.9452
 30
0.0
 11
95.6797
 21
172.7603
 31
0.0
  0
LINE
  5
229
330
1E
100
AcDbEntity
  8
0
100
AcDbLine
 10
141.1399999999999
 20
173.4421
 30
0.0
 11
141.361
 21
173.5525
 31
0.0
  0
LINE
  5
22A
330
1E
100
AcDbEntity
  8
0
100
AcDbLine
 10
95.54160000000001
 20
173.2533
 30
0.0
 11
95.62789999999999
 21
172.9452
 31
0.0
  0
LINE
  5
22B
330
1E
100
AcDbEntity
  8
0
100
AcDbLine
 10
95.42709999999999
 20
173.6615
 30
0.0
 11
95.54160000000001
 21
173.2533
 31
0.0
  0
LINE
  5
22C
330
1E
100
AcDbEntity
  8
0
100
AcDbLine
 10
95.29760000000001
 20
174.1237
 30
0.0
 11
95.42709999999999
 21
173.6615
 31
0.0
  0
LINE
  5
22D
330
1E
100
AcDbEntity
  8
0
100
AcDbLine
 10
95.1594
 20
174.6166999999999
 30
0.0
 11
95.37784427139602
 21
174.6779297319029
 31
0.0
  0
LINE
  5
22E
330
1E
100
AcDbEntity
  8
0
100
AcDbLine
 10
95.1594
 20
174.6166999999999
 30
0.0
 11
95.29760000000001
 21
174.1237
 31
0.0
  0
LINE
  5
23C
330
1E
100
AcDbEntity
  8
0
100
AcDbLine
 10
135.264
 20
201.8629999999999
 30
0.0
 11
141.361
 21
173.5525
 31
0.0
  0
LINE
  5
23D
330
1E
100
AcDbEntity
  8
0
100
AcDbLine
 10
126.319
 20
202.055
 30
0.0
 11
128.264
 21
202.055
 31
0.0
  0
LINE
  5
23E
330
1E
100
AcDbEntity
  8
0
100
AcDbLine
 10
124.083
 20
202.055
 30
0.0
 11
126.319
 21
202.055
 31
0.0
  0
LINE
  5
23F
330
1E
100
AcDbEntity
  8
0
100
AcDbLine
 10
121.652
 20
202.055
 30
0.0
 11
124.083
 21
202.055
 31
0.0
  0
LINE
  5
240
330
1E
100
AcDbEntity
  8
0
100
AcDbLine
 10
119.124
 20
202.055
 30
0.0
 11
121.652
 21
202.055
 31
0.0
  0
LINE
  5
241
330
1E
100
AcDbEntity
  8
0
100
AcDbLine
 10
116.4989999999999
 20
202.055
 30
0.0
 11
119.124
 21
202.055
 31
0.0
  0
LINE
  5
242
330
1E
100
AcDbEntity
  8
0
100
AcDbLine
 10
113.874
 20
202.055
 30
0.0
 11
116.4989999999999
 21
202.055
 31
0.0
  0
LINE
  5
243
330
1E
100
AcDbEntity
  8
0
100
AcDbLine
 10
128.264
 20
202.055
 30
0.0
 11
130.014
 21
202.055
 31
0.0
  0
LINE
  5
244
330
1E
100
AcDbEntity
  8
0
100
AcDbLine
 10
130.014
 20
202.055
 30
0.0
 11
131.5689999999999
 21
202.055
 31
0.0
  0
LINE
  5
245
330
1E
100
AcDbEntity
  8
0
100
AcDbLine
 10
131.5689999999999
 20
202.055
 30
0.0
 11
132.7359999999999
 21
202.055
 31
0.0
  0
LINE
  5
246
330
1E
100
AcDbEntity
  8
0
100
AcDbLine
 10
132.7359999999999
 20
202.055
 30
0.0
 11
133.514
 21
202.055
 31
0.0
  0
LINE
  5
247
330
1E
100
AcDbEntity
  8
0
100
AcDbLine
 10
133.514
 20
202.055
 30
0.0
 11
134.097
 21
202.055
 31
0.0
  0
LINE
  5
248
330
1E
100
AcDbEntity
  8
0
100
AcDbLine
 10
109.965
 20
202.085
 30
0.0
 11
110.061
 21
202.085
 31
0.0
  0
LINE
  5
249
330
1E
100
AcDbEntity
  8
0
100
AcDbLine
 10
110.061
 20
202.085
 30
0.0
 11
110.221
 21
202.085
 31
0.0
  0
LINE
  5
24A
330
1E
100
AcDbEntity
  8
0
100
AcDbLine
 10
110.221
 20
202.085
 30
0.0
 11
110.433
 21
202.085
 31
0.0
  0
LINE
  5
24B
330
1E
100
AcDbEntity
  8
0
100
AcDbLine
 10
110.433
 20
202.085
 30
0.0
 11
110.6729999999999
 21
202.085
 31
0.0
  0
LINE
  5
24C
330
1E
100
AcDbEntity
  8
0
100
AcDbLine
 10
111.797
 20
202.085
 30
0.0
 11
111.8929999999999
 21
202.085
 31
0.0
  0
LINE
  5
24D
330
1E
100
AcDbEntity
  8
0
100
AcDbLine
 10
111.637
 20
202.085
 30
0.0
 11
111.797
 21
202.085
 31
0.0
  0
LINE
  5
24E
330
1E
100
AcDbEntity
  8
0
100
AcDbLine
 10
111.4249999999999
 20
202.085
 30
0.0
 11
111.637
 21
202.085
 31
0.0
  0
LINE
  5
24F
330
1E
100
AcDbEntity
  8
0
100
AcDbLine
 10
111.185
 20
202.085
 30
0.0
 11
111.4249999999999
 21
202.085
 31
0.0
  0
LINE
  5
250
330
1E
100
AcDbEntity
  8
0
100
AcDbLine
 10
110.929
 20
202.085
 30
0.0
 11
111.185
 21
202.085
 31
0.0
  0
LINE
  5
251
330
1E
100
AcDbEntity
  8
0
100
AcDbLine
 10
110.6729999999999
 20
202.085
 30
0.0
 11
110.929
 21
202.085
 31
0.0
  0
LINE
  5
252
330
1E
100
AcDbEntity
  8
0
100
AcDbLine
 10
134.097
 20
202.055
 30
0.0
 11
134.292
 21
202.055
 31
0.0
  0
LINE
  5
253
330
1E
100
AcDbEntity
  8
0
100
AcDbLine
 10
134.292
 20
202.055
 30
0.0
 11
134.972
 21
201.997
 31
0.0
  0
LINE
  5
254
330
1E
100
AcDbEntity
  8
0
100
AcDbLine
 10
134.972
 20
201.997
 30
0.0
 11
135.264
 21
201.8629999999999
 31
0.0
  0
LINE
  5
255
330
1E
100
AcDbEntity
  8
0
100
AcDbLine
 10
95.02119999999999
 20
175.1097
 30
0.0
 11
95.1594
 21
174.6166999999999
 31
0.0
  0
LINE
  5
25A
330
1E
100
AcDbEntity
  8
0
100
AcDbLine
 10
5.795119425214819
 20
102.1532739955229
 30
0.0
 11
31.1377105838566
 21
95.7625162042242
 31
0.0
  0
LINE
  5
25B
330
1E
100
AcDbEntity
  8
0
100
AcDbLine
 10
53.0723
 20
96.12947124831492
 30
0.0
 11
75.07229999999999
 21
96.49752057975369
 31
0.0
  0
LINE
  5
25C
330
1E
100
AcDbEntity
  8
0
100
AcDbLine
 10
1.00812
 20
116.708
 30
0.0
 11
57.3234
 21
125.531597303331
 31
0.0
  0
LINE
  5
25D
330
1E
100
AcDbEntity
  8
0
100
AcDbLine
 10
57.3234
 20
125.531597303331
 30
0.0
 11
71.32340000000001
 21
127.60085897056
 31
0.0
  0
LINE
  5
25E
330
1E
100
AcDbEntity
  8
0
100
AcDbLine
 10
71.32340000000001
 20
127.60085897056
 30
0.0
 11
103.910103799231
 21
132.417317330066
 31
0.0
  0
LINE
  5
25F
330
1E
100
AcDbEntity
  8
0
100
AcDbLine
 10
103.910103799231
 20
132.417317330066
 30
0.0
 11
133.8799999999999
 21
136.847
 31
0.0
  0
ENDSEC
  0
SECTION
  2
OBJECTS
  0
DICTIONARY
  5
C
330
0
100
AcDbDictionary
281
     1
  3
ACAD_GROUP
350
D
  3
ACAD_LAYOUT
350
19
  3
ACAD_MLINESTYLE
350
16
  3
ACAD_PLOTSETTINGS
350
18
  3
ACAD_PLOTSTYLENAME
350
E
  3
AcDbVariableDictionary
350
260
  0
DICTIONARY
  5
D
102
{ACAD_REACTORS
330
C
102
}
330
C
100
AcDbDictionary
281
     1
  0
DICTIONARY
  5
19
102
{ACAD_REACTORS
330
C
102
}
330
C
100
AcDbDictionary
281
     1
  3
Layout1
350
1D
  3
Model
350
21
  0
DICTIONARY
  5
16
102
{ACAD_REACTORS
330
C
102
}
330
C
100
AcDbDictionary
281
     1
  3
Standard
350
17
  0
DICTIONARY
  5
18
102
{ACAD_REACTORS
330
C
102
}
330
C
100
AcDbDictionary
281
     1
  0
ACDBDICTIONARYWDFLT
  5
E
102
{ACAD_REACTORS
330
C
102
}
330
C
100
AcDbDictionary
281
     1
  3
Normal
350
F
100
AcDbDictionaryWithDefault
340
F
  0
DICTIONARY
  5
260
102
{ACAD_REACTORS
330
C
102
}
330
C
100
AcDbDictionary
281
     1
  3
DIMASSOC
350
261
  0
LAYOUT
  5
1D
102
{ACAD_REACTORS
330
19
102
}
330
19
100
AcDbPlotSettings
  1

  2
hp deskjet 980c series
  4

  6

 40
0.0
 41
0.0
 42
0.0
 43
0.0
 44
0.0
 45
0.0
 46
0.0
 47
0.0
 48
0.0
 49
0.0
140
0.0
141
0.0
142
1.0
143
1.0
 70
   688
 72
     0
 73
     0
 74
     5
  7

 75
    16
147
1.0
148
0.0
149
0.0
100
AcDbLayout
  1
Layout1
 70
     1
 71
     1
 10
0.0
 20
0.0
 11
12.0
 21
9.0
 12
0.0
 22
0.0
 32
0.0
 14
1.000000000000000E+20
 24
1.000000000000000E+20
 34
1.000000000000000E+20
 15
-1.000000000000000E+20
 25
-1.000000000000000E+20
 35
-1.000000000000000E+20
146
0.0
 13
0.0
 23
0.0
 33
0.0
 16
1.0
 26
0.0
 36
0.0
 17
0.0
 27
1.0
 37
0.0
 76
     0
330
1A
  0
LAYOUT
  5
21
102
{ACAD_REACTORS
330
19
102
}
330
19
100
AcDbPlotSettings
  1

  2
hp deskjet 980c series
  4

  6

 40
0.0
 41
0.0
 42
0.0
 43
0.0
 44
0.0
 45
0.0
 46
0.0
 47
0.0
 48
0.0
 49
0.0
140
0.0
141
0.0
142
1.0
143
1.0
 70
  1712
 72
     0
 73
     0
 74
     0
  7

 75
     0
147
1.0
148
0.0
149
0.0
100
AcDbLayout
  1
Model
 70
     1
 71
     0
 10
0.0
 20
0.0
 11
12.0
 21
9.0
 12
0.0
 22
0.0
 32
0.0
 14
0.0
 24
0.0
 34
0.0
 15
0.0
 25
0.0
 35
0.0
146
0.0
 13
0.0
 23
0.0
 33
0.0
 16
1.0
 26
0.0
 36
0.0
 17
0.0
 27
1.0
 37
0.0
 76
     0
330
1E
  0
MLINESTYLE
  5
17
102
{ACAD_REACTORS
330
16
102
}
330
16
100
AcDbMlineStyle
  2
STANDARD
 70
     0
  3

 62
   256
 51
90.0
 52
90.0
 71
     2
 49
0.5
 62
   256
  6
BYLAYER
 49
-0.5
 62
   256
  6
BYLAYER
  0
ACDBPLACEHOLDER
  5
F
102
{ACAD_REACTORS
330
E
102
}
330
E
  0
DICTIONARYVAR
  5
261
102
{ACAD_REACTORS
330
260
102
}
330
260
100
DictionaryVariables
280
     0
  1
1
  0
ENDSEC
  0
EOF
