  0
SECTION
  2
HEADER
  9
$ACADVER
  1
AC1015
  9
$ACADMAINTVER
 70
    13
  9
$DWGCODEPAGE
  3
ANSI_1252
  9
$INSBASE
 10
0.0
 20
0.0
 30
0.0
  9
$EXTMIN
 10
0.0000000000000027
 20
0.249999999999995
 30
0.0
  9
$EXTMAX
 10
49.0
 20
133.25
 30
0.0
  9
$LIMMIN
 10
0.0
 20
0.0
  9
$LIMMAX
 10
12.0
 20
9.0
  9
$ORTHOMODE
 70
     0
  9
$REGENMODE
 70
     1
  9
$FILLMODE
 70
     1
  9
$QTEXTMODE
 70
     0
  9
$MIRRTEXT
 70
     1
  9
$LTSCALE
 40
1.0
  9
$ATTMODE
 70
     1
  9
$TEXTSIZE
 40
0.2
  9
$TRACEWID
 40
0.05
  9
$TEXTSTYLE
  7
Standard
  9
$CLAYER
  8
0
  9
$CELTYPE
  6
Continuous
  9
$CECOLOR
 62
   256
  9
$CELTSCALE
 40
1.0
  9
$DISPSILH
 70
     0
  9
$DIMSCALE
 40
1.0
  9
$DIMASZ
 40
0.18
  9
$DIMEXO
 40
0.0625
  9
$DIMDLI
 40
0.38
  9
$DIMRND
 40
0.0
  9
$DIMDLE
 40
0.0
  9
$DIMEXE
 40
0.18
  9
$DIMTP
 40
0.0
  9
$DIMTM
 40
0.0
  9
$DIMTXT
 40
0.18
  9
$DIMCEN
 40
0.09
  9
$DIMTSZ
 40
0.0
  9
$DIMTOL
 70
     0
  9
$DIMLIM
 70
     0
  9
$DIMTIH
 70
     1
  9
$DIMTOH
 70
     1
  9
$DIMSE1
 70
     0
  9
$DIMSE2
 70
     0
  9
$DIMTAD
 70
     0
  9
$DIMZIN
 70
     0
  9
$DIMBLK
  1

  9
$DIMASO
 70
     1
  9
$DIMSHO
 70
     1
  9
$DIMPOST
  1

  9
$DIMAPOST
  1

  9
$DIMALT
 70
     0
  9
$DIMALTD
 70
     2
  9
$DIMALTF
 40
25.4
  9
$DIMLFAC
 40
1.0
  9
$DIMTOFL
 70
     0
  9
$DIMTVP
 40
0.0
  9
$DIMTIX
 70
     0
  9
$DIMSOXD
 70
     0
  9
$DIMSAH
 70
     0
  9
$DIMBLK1
  1

  9
$DIMBLK2
  1

  9
$DIMSTYLE
  2
Standard
  9
$DIMCLRD
 70
     0
  9
$DIMCLRE
 70
     0
  9
$DIMCLRT
 70
     0
  9
$DIMTFAC
 40
1.0
  9
$DIMGAP
 40
0.09
  9
$DIMJUST
 70
     0
  9
$DIMSD1
 70
     0
  9
$DIMSD2
 70
     0
  9
$DIMTOLJ
 70
     1
  9
$DIMTZIN
 70
     0
  9
$DIMALTZ
 70
     0
  9
$DIMALTTZ
 70
     0
  9
$DIMUPT
 70
     0
  9
$DIMDEC
 70
     4
  9
$DIMTDEC
 70
     4
  9
$DIMALTU
 70
     2
  9
$DIMALTTD
 70
     2
  9
$DIMTXSTY
  7
Standard
  9
$DIMAUNIT
 70
     0
  9
$DIMADEC
 70
     0
  9
$DIMALTRND
 40
0.0
  9
$DIMAZIN
 70
     0
  9
$DIMDSEP
 70
    46
  9
$DIMATFIT
 70
     3
  9
$DIMFRAC
 70
     0
  9
$DIMLDRBLK
  1

  9
$DIMLUNIT
 70
     2
  9
$DIMLWD
 70
    -2
  9
$DIMLWE
 70
    -2
  9
$DIMTMOVE
 70
     0
  9
$LUNITS
 70
     2
  9
$LUPREC
 70
     4
  9
$SKETCHINC
 40
0.1
  9
$FILLETRAD
 40
0.0
  9
$AUNITS
 70
     0
  9
$AUPREC
 70
     0
  9
$MENU
  1
.
  9
$ELEVATION
 40
0.0
  9
$PELEVATION
 40
0.0
  9
$THICKNESS
 40
0.0
  9
$LIMCHECK
 70
     0
  9
$CHAMFERA
 40
0.0
  9
$CHAMFERB
 40
0.0
  9
$CHAMFERC
 40
0.0
  9
$CHAMFERD
 40
0.0
  9
$SKPOLY
 70
     0
  9
$TDCREATE
 40
2454835.606138055
  9
$TDUCREATE
 40
2454835.564471388
  9
$TDUPDATE
 40
2454835.607281354
  9
$TDUUPDATE
 40
2454835.565614687
  9
$TDINDWG
 40
0.0011432986
  9
$TDUSRTIMER
 40
0.0011432986
  9
$USRTIMER
 70
     1
  9
$ANGBASE
 50
0.0
  9
$ANGDIR
 70
     0
  9
$PDMODE
 70
     0
  9
$PDSIZE
 40
0.0
  9
$PLINEWID
 40
0.0
  9
$SPLFRAME
 70
     0
  9
$SPLINETYPE
 70
     6
  9
$SPLINESEGS
 70
     8
  9
$HANDSEED
  5
229
  9
$SURFTAB1
 70
     6
  9
$SURFTAB2
 70
     6
  9
$SURFTYPE
 70
     6
  9
$SURFU
 70
     6
  9
$SURFV
 70
     6
  9
$UCSBASE
  2

  9
$UCSNAME
  2

  9
$UCSORG
 10
0.0
 20
0.0
 30
0.0
  9
$UCSXDIR
 10
1.0
 20
0.0
 30
0.0
  9
$UCSYDIR
 10
0.0
 20
1.0
 30
0.0
  9
$UCSORTHOREF
  2

  9
$UCSORTHOVIEW
 70
     1
  9
$UCSORGTOP
 10
0.0
 20
0.0
 30
0.0
  9
$UCSORGBOTTOM
 10
0.0
 20
0.0
 30
0.0
  9
$UCSORGLEFT
 10
0.0
 20
0.0
 30
0.0
  9
$UCSORGRIGHT
 10
0.0
 20
0.0
 30
0.0
  9
$UCSORGFRONT
 10
0.0
 20
0.0
 30
0.0
  9
$UCSORGBACK
 10
0.0
 20
0.0
 30
0.0
  9
$PUCSBASE
  2

  9
$PUCSNAME
  2

  9
$PUCSORG
 10
0.0
 20
0.0
 30
0.0
  9
$PUCSXDIR
 10
1.0
 20
0.0
 30
0.0
  9
$PUCSYDIR
 10
0.0
 20
1.0
 30
0.0
  9
$PUCSORTHOREF
  2

  9
$PUCSORTHOVIEW
 70
     0
  9
$PUCSORGTOP
 10
0.0
 20
0.0
 30
0.0
  9
$PUCSORGBOTTOM
 10
0.0
 20
0.0
 30
0.0
  9
$PUCSORGLEFT
 10
0.0
 20
0.0
 30
0.0
  9
$PUCSORGRIGHT
 10
0.0
 20
0.0
 30
0.0
  9
$PUCSORGFRONT
 10
0.0
 20
0.0
 30
0.0
  9
$PUCSORGBACK
 10
0.0
 20
0.0
 30
0.0
  9
$USERI1
 70
     0
  9
$USERI2
 70
     0
  9
$USERI3
 70
     0
  9
$USERI4
 70
     0
  9
$USERI5
 70
     0
  9
$USERR1
 40
0.0
  9
$USERR2
 40
0.0
  9
$USERR3
 40
0.0
  9
$USERR4
 40
0.0
  9
$USERR5
 40
0.0
  9
$WORLDVIEW
 70
     1
  9
$SHADEDGE
 70
     3
  9
$SHADEDIF
 70
    70
  9
$TILEMODE
 70
     1
  9
$MAXACTVP
 70
    64
  9
$PINSBASE
 10
0.0
 20
0.0
 30
0.0
  9
$PLIMCHECK
 70
     0
  9
$PEXTMIN
 10
1.000000000000000E+20
 20
1.000000000000000E+20
 30
1.000000000000000E+20
  9
$PEXTMAX
 10
-1.000000000000000E+20
 20
-1.000000000000000E+20
 30
-1.000000000000000E+20
  9
$PLIMMIN
 10
0.0
 20
0.0
  9
$PLIMMAX
 10
12.0
 20
9.0
  9
$UNITMODE
 70
     0
  9
$VISRETAIN
 70
     1
  9
$PLINEGEN
 70
     0
  9
$PSLTSCALE
 70
     1
  9
$TREEDEPTH
 70
  3020
  9
$CMLSTYLE
  2
Standard
  9
$CMLJUST
 70
     0
  9
$CMLSCALE
 40
1.0
  9
$PROXYGRAPHICS
 70
     1
  9
$MEASUREMENT
 70
     0
  9
$CELWEIGHT
370
    -1
  9
$ENDCAPS
280
     0
  9
$JOINSTYLE
280
     0
  9
$LWDISPLAY
290
     0
  9
$INSUNITS
 70
     0
  9
$HYPERLINKBASE
  1

  9
$STYLESHEET
  1

  9
$XEDIT
290
     1
  9
$CEPSNTYPE
380
     0
  9
$PSTYLEMODE
290
     1
  9
$FINGERPRINTGUID
  2
{68190762-22B0-4726-A01D-48DE7A38D8BC}
  9
$VERSIONGUID
  2
{A65A25F5-B6EA-4C8F-8646-102A78A8E9DE}
  9
$EXTNAMES
290
     1
  9
$PSVPSCALE
 40
0.0
  9
$OLESTARTUP
290
     0
  0
ENDSEC
  0
SECTION
  2
CLASSES
  0
CLASS
  1
ACDBDICTIONARYWDFLT
  2
AcDbDictionaryWithDefault
  3
AutoCAD 2000
 90
        0
280
     0
281
     0
  0
CLASS
  1
ACDBPLACEHOLDER
  2
AcDbPlaceHolder
  3
AutoCAD 2000
 90
        0
280
     0
281
     0
  0
CLASS
  1
LAYOUT
  2
AcDbLayout
  3
AutoCAD 2000
 90
        0
280
     0
281
     0
  0
CLASS
  1
DICTIONARYVAR
  2
AcDbDictionaryVar
  3
AutoCAD 2000
 90
        0
280
     0
281
     0
  0
ENDSEC
  0
SECTION
  2
TABLES
  0
TABLE
  2
VPORT
  5
8
330
0
100
AcDbSymbolTable
 70
     3
  0
VPORT
  5
228
330
8
100
AcDbSymbolTableRecord
100
AcDbViewportTableRecord
  2
*Active
 70
     0
 10
0.0
 20
0.0
 11
1.0
 21
1.0
 12
24.5
 22
66.75
 13
0.0
 23
0.0
 14
1.0
 24
1.0
 15
0.0
 25
0.0
 16
0.0
 26
0.0
 36
1.0
 17
0.0
 27
0.0
 37
0.0
 40
134.0204603580562
 41
2.078104993597951
 42
50.0
 43
0.0
 44
0.0
 50
0.0
 51
0.0
 71
     0
 72
   100
 73
     1
 74
     3
 75
     0
 76
     0
 77
     0
 78
     0
281
     0
 65
     1
110
0.0
120
0.0
130
0.0
111
1.0
121
0.0
131
0.0
112
0.0
122
1.0
132
0.0
 79
     1
146
0.0
  0
ENDTAB
  0
TABLE
  2
LTYPE
  5
5
330
0
100
AcDbSymbolTable
 70
     1
  0
LTYPE
  5
13
330
5
100
AcDbSymbolTableRecord
100
AcDbLinetypeTableRecord
  2
ByBlock
 70
     0
  3

 72
    65
 73
     0
 40
0.0
  0
LTYPE
  5
14
330
5
100
AcDbSymbolTableRecord
100
AcDbLinetypeTableRecord
  2
ByLayer
 70
     0
  3

 72
    65
 73
     0
 40
0.0
  0
LTYPE
  5
15
330
5
100
AcDbSymbolTableRecord
100
AcDbLinetypeTableRecord
  2
Continuous
 70
     0
  3
Solid line
 72
    65
 73
     0
 40
0.0
  0
ENDTAB
  0
TABLE
  2
LAYER
  5
2
330
0
100
AcDbSymbolTable
 70
     1
  0
LAYER
  5
10
330
2
100
AcDbSymbolTableRecord
100
AcDbLayerTableRecord
  2
0
 70
     0
 62
     7
  6
Continuous
370
    -3
390
F
  0
ENDTAB
  0
TABLE
  2
STYLE
  5
3
330
0
100
AcDbSymbolTable
 70
     1
  0
STYLE
  5
11
330
3
100
AcDbSymbolTableRecord
100
AcDbTextStyleTableRecord
  2
Standard
 70
     0
 40
0.0
 41
1.0
 50
0.0
 71
     0
 42
0.2
  3
txt
  4

  0
ENDTAB
  0
TABLE
  2
VIEW
  5
6
330
0
100
AcDbSymbolTable
 70
     0
  0
ENDTAB
  0
TABLE
  2
UCS
  5
7
330
0
100
AcDbSymbolTable
 70
     0
  0
ENDTAB
  0
TABLE
  2
APPID
  5
9
330
0
100
AcDbSymbolTable
 70
     1
  0
APPID
  5
12
330
9
100
AcDbSymbolTableRecord
100
AcDbRegAppTableRecord
  2
ACAD
 70
     0
  0
ENDTAB
  0
TABLE
  2
DIMSTYLE
  5
A
330
0
100
AcDbSymbolTable
 70
     1
100
AcDbDimStyleTable
 71
     0
  0
DIMSTYLE
105
1AB
330
A
100
AcDbSymbolTableRecord
100
AcDbDimStyleTableRecord
  2
Standard
 70
     0
340
11
  0
ENDTAB
  0
TABLE
  2
BLOCK_RECORD
  5
1
330
0
100
AcDbSymbolTable
 70
     1
  0
BLOCK_RECORD
  5
1E
330
1
100
AcDbSymbolTableRecord
100
AcDbBlockTableRecord
  2
*Model_Space
340
21
  0
BLOCK_RECORD
  5
1A
330
1
100
AcDbSymbolTableRecord
100
AcDbBlockTableRecord
  2
*Paper_Space
340
1D
  0
ENDTAB
  0
ENDSEC
  0
SECTION
  2
BLOCKS
  0
BLOCK
  5
1F
330
1E
100
AcDbEntity
  8
0
100
AcDbBlockBegin
  2
*Model_Space
 70
     0
 10
0.0
 20
0.0
 30
0.0
  3
*Model_Space
  1

  0
ENDBLK
  5
20
330
1E
100
AcDbEntity
  8
0
100
AcDbBlockEnd
  0
BLOCK
  5
1B
330
1A
100
AcDbEntity
 67
     1
  8
0
100
AcDbBlockBegin
  2
*Paper_Space
 70
     0
 10
0.0
 20
0.0
 30
0.0
  3
*Paper_Space
  1

  0
ENDBLK
  5
1C
330
1A
100
AcDbEntity
 67
     1
  8
0
100
AcDbBlockEnd
  0
ENDSEC
  0
SECTION
  2
ENTITIES
  0
LINE
  5
22
330
1E
100
AcDbEntity
  8
0
100
AcDbLine
 10
0.0000000000000027
 20
0.249999999999997
 30
0.0
 11
1.19429
 21
45.9397
 31
0.0
  0
LINE
  5
23
330
1E
100
AcDbEntity
  8
0
100
AcDbLine
 10
0.200000000000003
 20
0.249999999999997
 30
0.0
 11
0.8000000000000028
 21
0.249999999999996
 31
0.0
  0
LINE
  5
24
330
1E
100
AcDbEntity
  8
0
100
AcDbLine
 10
5.0
 20
0.249999999999996
 30
0.0
 11
7.2
 21
0.249999999999996
 31
0.0
  0
LINE
  5
25
330
1E
100
AcDbEntity
  8
0
100
AcDbLine
 10
3.2
 20
0.249999999999996
 30
0.0
 11
5.0
 21
0.249999999999996
 31
0.0
  0
LINE
  5
26
330
1E
100
AcDbEntity
  8
0
100
AcDbLine
 10
1.5
 20
0.249999999999996
 30
0.0
 11
3.2
 21
0.249999999999996
 31
0.0
  0
LINE
  5
27
330
1E
100
AcDbEntity
  8
0
100
AcDbLine
 10
0.8000000000000028
 20
0.249999999999996
 30
0.0
 11
1.5
 21
0.249999999999996
 31
0.0
  0
LINE
  5
28
330
1E
100
AcDbEntity
  8
0
100
AcDbLine
 10
0.200000000000003
 20
0.249999999999997
 30
0.0
 11
0.8000000000000028
 21
0.249999999999997
 31
0.0
  0
LINE
  5
29
330
1E
100
AcDbEntity
  8
0
100
AcDbLine
 10
1.19429
 20
45.9397
 30
0.0
 11
1.526909999999999
 21
56.505
 31
0.0
  0
LINE
  5
2A
330
1E
100
AcDbEntity
  8
0
100
AcDbLine
 10
1.71848
 20
63.7176
 30
0.0
 11
2.5
 21
92.4449
 31
0.0
  0
LINE
  5
2B
330
1E
100
AcDbEntity
  8
0
100
AcDbLine
 10
1.526909999999999
 20
56.505
 30
0.0
 11
1.71848
 21
63.7176
 31
0.0
  0
LINE
  5
2C
330
1E
100
AcDbEntity
  8
0
100
AcDbLine
 10
1.5
 20
0.249999999999997
 30
0.0
 11
3.2
 21
0.249999999999997
 31
0.0
  0
LINE
  5
2D
330
1E
100
AcDbEntity
  8
0
100
AcDbLine
 10
0.8000000000000028
 20
0.249999999999997
 30
0.0
 11
1.5
 21
0.249999999999997
 31
0.0
  0
LINE
  5
2E
330
1E
100
AcDbEntity
  8
0
100
AcDbLine
 10
0.200000000000003
 20
0.249999999999997
 30
0.0
 11
0.8000000000000028
 21
0.249999999999997
 31
0.0
  0
LINE
  5
34
330
1E
100
AcDbEntity
  8
0
100
AcDbLine
 10
2.5
 20
94.8374
 30
0.0
 11
2.763999999999999
 21
94.3331
 31
0.0
  0
LINE
  5
39
330
1E
100
AcDbEntity
  8
0
100
AcDbLine
 10
2.763999999999999
 20
94.3331
 30
0.0
 11
3.291999999999999
 21
93.85939999999999
 31
0.0
  0
LINE
  5
3A
330
1E
100
AcDbEntity
  8
0
100
AcDbLine
 10
2.7
 20
92.9485
 30
0.0
 11
3.0
 21
93.62050000000001
 31
0.0
  0
LINE
  5
3B
330
1E
100
AcDbEntity
  8
0
100
AcDbLine
 10
2.5
 20
92.4449
 30
0.0
 11
2.7
 21
92.9485
 31
0.0
  0
LINE
  5
3D
330
1E
100
AcDbEntity
  8
0
100
AcDbLine
 10
4.259999999999999
 20
93.3857
 30
0.0
 11
5.403999999999999
 21
92.94249999999999
 31
0.0
  0
LINE
  5
40
330
1E
100
AcDbEntity
  8
0
100
AcDbLine
 10
5.7
 20
73.43009999999999
 30
0.0
 11
6.2
 21
69.05289999999999
 31
0.0
  0
LINE
  5
42
330
1E
100
AcDbEntity
  8
0
100
AcDbLine
 10
5.403999999999999
 20
92.94249999999999
 30
0.0
 11
7.076
 21
92.51470000000001
 31
0.0
  0
LINE
  5
43
330
1E
100
AcDbEntity
  8
0
100
AcDbLine
 10
5.5
 20
77.2235
 30
0.0
 11
5.7
 21
73.4403
 31
0.0
  0
LINE
  5
44
330
1E
100
AcDbEntity
  8
0
100
AcDbLine
 10
5.5
 20
77.2235
 30
0.0
 11
5.7
 21
73.43009999999999
 31
0.0
  0
LINE
  5
45
330
1E
100
AcDbEntity
  8
0
100
AcDbLine
 10
5.0
 20
0.249999999999998
 30
0.0
 11
7.2
 21
0.249999999999998
 31
0.0
  0
LINE
  5
46
330
1E
100
AcDbEntity
  8
0
100
AcDbLine
 10
3.2
 20
0.249999999999997
 30
0.0
 11
5.0
 21
0.249999999999998
 31
0.0
  0
LINE
  5
47
330
1E
100
AcDbEntity
  8
0
100
AcDbLine
 10
6.2
 20
69.05289999999999
 30
0.0
 11
7.0
 21
65.1239
 31
0.0
  0
LINE
  5
48
330
1E
100
AcDbEntity
  8
0
100
AcDbLine
 10
8.0
 20
62.0384
 30
0.0
 11
9.5
 21
59.7742
 31
0.0
  0
LINE
  5
49
330
1E
100
AcDbEntity
  8
0
100
AcDbLine
 10
7.0
 20
65.1239
 30
0.0
 11
8.0
 21
62.0384
 31
0.0
  0
LINE
  5
4A
330
1E
100
AcDbEntity
  8
0
100
AcDbLine
 10
7.2
 20
0.249999999999998
 30
0.0
 11
9.599999999999999
 21
0.249999999999998
 31
0.0
  0
LINE
  5
4B
330
1E
100
AcDbEntity
  8
0
100
AcDbLine
 10
9.5
 20
59.7742
 30
0.0
 11
11.1
 21
57.66919999999999
 31
0.0
  0
LINE
  5
4C
330
1E
100
AcDbEntity
  8
0
100
AcDbLine
 10
9.599999999999999
 20
0.249999999999998
 30
0.0
 11
12.19999999999999
 21
0.249999999999998
 31
0.0
  0
LINE
  5
4D
330
1E
100
AcDbEntity
  8
0
100
AcDbLine
 10
8.3
 20
80.21259999999999
 30
0.0
 11
9.699999999999999
 21
79.86530000000001
 31
0.0
  0
LINE
  5
4E
330
1E
100
AcDbEntity
  8
0
100
AcDbLine
 10
7.299999999999999
 20
80.59459999999999
 30
0.0
 11
8.3
 21
80.21259999999999
 31
0.0
  0
LINE
  5
4F
330
1E
100
AcDbEntity
  8
0
100
AcDbLine
 10
6.5
 20
80.99400000000001
 30
0.0
 11
7.299999999999999
 21
80.59459999999999
 31
0.0
  0
LINE
  5
50
330
1E
100
AcDbEntity
  8
0
100
AcDbLine
 10
9.012
 20
92.1479
 30
0.0
 11
11.124
 21
91.81169999999999
 31
0.0
  0
LINE
  5
51
330
1E
100
AcDbEntity
  8
0
100
AcDbLine
 10
7.076
 20
92.51470000000001
 30
0.0
 11
9.012
 21
92.1479
 31
0.0
  0
LINE
  5
52
330
1E
100
AcDbEntity
  8
0
100
AcDbLine
 10
6.0
 20
81.4108
 30
0.0
 11
6.5
 21
80.99400000000001
 31
0.0
  0
LINE
  5
53
330
1E
100
AcDbEntity
  8
0
100
AcDbLine
 10
5.799999999999999
 20
81.8275
 30
0.0
 11
6.0
 21
81.4108
 31
0.0
  0
LINE
  5
57
330
1E
100
AcDbEntity
  8
0
100
AcDbLine
 10
3.291999999999999
 20
93.85939999999999
 30
0.0
 11
4.259999999999999
 21
93.3857
 31
0.0
  0
LINE
  5
62
330
1E
100
AcDbEntity
  8
0
100
AcDbLine
 10
3.0
 20
93.62050000000001
 30
0.0
 11
3.267908330355
 21
93.88101406043722
 31
0.0
  0
LINE
  5
64
330
1E
100
AcDbEntity
  8
0
100
AcDbLine
 10
0.200000000000003
 20
0.249999999999997
 30
0.0
 11
0.8000000000000028
 21
0.249999999999996
 31
0.0
  0
LINE
  5
65
330
1E
100
AcDbEntity
  8
0
100
AcDbLine
 10
0.0000000000000027
 20
0.249999999999997
 30
0.0
 11
0.200000000000003
 21
0.249999999999997
 31
0.0
  0
LINE
  5
66
330
1E
100
AcDbEntity
  8
0
100
AcDbLine
 10
0.0000000000000027
 20
0.249999999999997
 30
0.0
 11
0.200000000000003
 21
0.249999999999997
 31
0.0
  0
LINE
  5
67
330
1E
100
AcDbEntity
  8
0
100
AcDbLine
 10
0.0000000000000027
 20
0.249999999999997
 30
0.0
 11
1.19429
 21
45.9397
 31
0.0
  0
LINE
  5
68
330
1E
100
AcDbEntity
  8
0
100
AcDbLine
 10
7.2
 20
0.249999999999996
 30
0.0
 11
9.599999999999999
 21
0.249999999999996
 31
0.0
  0
LINE
  5
69
330
1E
100
AcDbEntity
  8
0
100
AcDbLine
 10
12.932
 20
53.5357
 30
0.0
 11
14.084
 21
50.7775
 31
0.0
  0
LINE
  5
6A
330
1E
100
AcDbEntity
  8
0
100
AcDbLine
 10
12.27999999999999
 20
55.5717
 30
0.0
 11
12.8147793506072
 21
54.33399432989279
 31
0.0
  0
LINE
  5
6B
330
1E
100
AcDbEntity
  8
0
100
AcDbLine
 10
14.37199999999999
 20
50.84459999999999
 30
0.0
 11
16.244
 21
48.50010000000001
 31
0.0
  0
LINE
  5
6C
330
1E
100
AcDbEntity
  8
0
100
AcDbLine
 10
13.22
 20
53.5108
 30
0.0
 11
14.37199999999999
 21
50.84459999999999
 31
0.0
  0
LINE
  5
6D
330
1E
100
AcDbEntity
  8
0
100
AcDbLine
 10
14.084
 20
50.7775
 30
0.0
 11
16.004
 21
48.34109999999999
 31
0.0
  0
LINE
  5
6E
330
1E
100
AcDbEntity
  8
0
100
AcDbLine
 10
13.216
 20
52.6224
 30
0.0
 11
13.4233413034655
 21
52.3592958479006
 31
0.0
  0
LINE
  5
6F
330
1E
100
AcDbEntity
  8
0
100
AcDbLine
 10
12.5
 20
58.7091
 30
0.0
 11
12.932
 21
61.6512
 31
0.0
  0
LINE
  5
70
330
1E
100
AcDbEntity
  8
0
100
AcDbLine
 10
12.5
 20
58.7091
 30
0.0
 11
12.5
 21
56.4777
 31
0.0
  0
LINE
  5
71
330
1E
100
AcDbEntity
  8
0
100
AcDbLine
 10
12.788
 20
56.4069
 30
0.0
 11
13.22
 21
59.303
 31
0.0
  0
LINE
  5
72
330
1E
100
AcDbEntity
  8
0
100
AcDbLine
 10
12.788
 20
56.4069
 30
0.0
 11
13.22
 21
53.5108
 31
0.0
  0
LINE
  5
73
330
1E
100
AcDbEntity
  8
0
100
AcDbLine
 10
12.5
 20
56.4777
 30
0.0
 11
12.5
 21
58.7091
 31
0.0
  0
LINE
  5
74
330
1E
100
AcDbEntity
  8
0
100
AcDbLine
 10
12.5
 20
56.4777
 30
0.0
 11
12.932
 21
59.4198
 31
0.0
  0
LINE
  5
75
330
1E
100
AcDbEntity
  8
0
100
AcDbLine
 10
12.5
 20
56.4777
 30
0.0
 11
12.932
 21
53.5357
 31
0.0
  0
LINE
  5
76
330
1E
100
AcDbEntity
  8
0
100
AcDbLine
 10
11.968
 20
55.6105
 30
0.0
 11
13.216
 21
52.6224
 31
0.0
  0
LINE
  5
77
330
1E
100
AcDbEntity
  8
0
100
AcDbLine
 10
11.812
 20
58.7091
 30
0.0
 11
12.27999999999999
 21
61.8465
 31
0.0
  0
LINE
  5
78
330
1E
100
AcDbEntity
  8
0
100
AcDbLine
 10
11.812
 20
58.7091
 30
0.0
 11
12.27999999999999
 21
55.5717
 31
0.0
  0
LINE
  5
79
330
1E
100
AcDbEntity
  8
0
100
AcDbLine
 10
13.22
 20
59.303
 30
0.0
 11
14.37199999999999
 21
61.9692
 31
0.0
  0
LINE
  5
7A
330
1E
100
AcDbEntity
  8
0
100
AcDbLine
 10
14.37199999999999
 20
61.9692
 30
0.0
 11
16.244
 21
64.3137
 31
0.0
  0
LINE
  5
7B
330
1E
100
AcDbEntity
  8
0
100
AcDbLine
 10
12.932
 20
61.6512
 30
0.0
 11
14.084
 21
64.40940000000001
 31
0.0
  0
LINE
  5
7C
330
1E
100
AcDbEntity
  8
0
100
AcDbLine
 10
12.932
 20
59.4198
 30
0.0
 11
14.084
 21
62.178
 31
0.0
  0
LINE
  5
7D
330
1E
100
AcDbEntity
  8
0
100
AcDbLine
 10
12.27999999999999
 20
61.8465
 30
0.0
 11
13.528
 21
64.73489999999999
 31
0.0
  0
LINE
  5
7E
330
1E
100
AcDbEntity
  8
0
100
AcDbLine
 10
14.084
 20
64.40940000000001
 30
0.0
 11
16.004
 21
66.8458
 31
0.0
  0
LINE
  5
7F
330
1E
100
AcDbEntity
  8
0
100
AcDbLine
 10
14.084
 20
62.178
 30
0.0
 11
16.004
 21
64.6144
 31
0.0
  0
LINE
  5
80
330
1E
100
AcDbEntity
  8
0
100
AcDbLine
 10
13.528
 20
64.73489999999999
 30
0.0
 11
15.556
 21
67.27479999999999
 31
0.0
  0
LINE
  5
83
330
1E
100
AcDbEntity
  8
0
100
AcDbLine
 10
13.216
 20
67.0981
 30
0.0
 11
15.296
 21
69.73739999999999
 31
0.0
  0
LINE
  5
84
330
1E
100
AcDbEntity
  8
0
100
AcDbLine
 10
13.216
 20
64.97289999999999
 30
0.0
 11
15.296
 21
67.61230000000001
 31
0.0
  0
LINE
  5
85
330
1E
100
AcDbEntity
  8
0
100
AcDbLine
 10
11.968
 20
64.11
 30
0.0
 11
13.216
 21
67.0981
 31
0.0
  0
LINE
  5
86
330
1E
100
AcDbEntity
  8
0
100
AcDbLine
 10
11.968
 20
61.9849
 30
0.0
 11
13.216
 21
64.97289999999999
 31
0.0
  0
LINE
  5
87
330
1E
100
AcDbEntity
  8
0
100
AcDbLine
 10
11.5
 20
60.9228
 30
0.0
 11
11.5
 21
58.7977
 31
0.0
  0
LINE
  5
88
330
1E
100
AcDbEntity
  8
0
100
AcDbLine
 10
11.5
 20
60.9228
 30
0.0
 11
11.968
 21
64.11
 31
0.0
  0
LINE
  5
89
330
1E
100
AcDbEntity
  8
0
100
AcDbLine
 10
11.5
 20
58.7977
 30
0.0
 11
11.968
 21
61.9849
 31
0.0
  0
LINE
  5
8A
330
1E
100
AcDbEntity
  8
0
100
AcDbLine
 10
11.5
 20
58.7977
 30
0.0
 11
11.968
 21
55.6105
 31
0.0
  0
LINE
  5
8B
330
1E
100
AcDbEntity
  8
0
100
AcDbLine
 10
11.5
 20
58.7977
 30
0.0
 11
11.5
 21
60.9228
 31
0.0
  0
LINE
  5
8C
330
1E
100
AcDbEntity
  8
0
100
AcDbLine
 10
11.1
 20
57.66919999999999
 30
0.0
 11
11.74491527121219
 21
57.1297642042571
 31
0.0
  0
LINE
  5
8D
330
1E
100
AcDbEntity
  8
0
100
AcDbLine
 10
12.19999999999999
 20
0.249999999999998
 30
0.0
 11
15.09999999999999
 21
0.249999999999998
 31
0.0
  0
LINE
  5
8E
330
1E
100
AcDbEntity
  8
0
100
AcDbLine
 10
15.09999999999999
 20
0.249999999999998
 30
0.0
 11
18.1
 21
0.249999999999998
 31
0.0
  0
LINE
  5
90
330
1E
100
AcDbEntity
  8
0
100
AcDbLine
 10
11.124
 20
91.81169999999999
 30
0.0
 11
13.588
 21
91.52140000000001
 31
0.0
  0
LINE
  5
92
330
1E
100
AcDbEntity
  8
0
100
AcDbLine
 10
9.699999999999999
 20
79.86530000000001
 30
0.0
 11
11.3
 21
79.5354
 31
0.0
  0
LINE
  5
94
330
1E
100
AcDbEntity
  8
0
100
AcDbLine
 10
13.588
 20
91.52140000000001
 30
0.0
 11
16.14
 21
91.3227
 31
0.0
  0
LINE
  5
A9
330
1E
100
AcDbEntity
  8
0
100
AcDbLine
 10
11.3
 20
79.5354
 30
0.0
 11
13.2
 21
79.25749999999999
 31
0.0
  0
LINE
  5
AA
330
1E
100
AcDbEntity
  8
0
100
AcDbLine
 10
13.2
 20
79.25749999999999
 30
0.0
 11
15.2
 21
79.0144
 31
0.0
  0
LINE
  5
AB
330
1E
100
AcDbEntity
  8
0
100
AcDbLine
 10
9.599999999999999
 20
0.249999999999996
 30
0.0
 11
12.19999999999999
 21
0.249999999999995
 31
0.0
  0
LINE
  5
AC
330
1E
100
AcDbEntity
  8
0
100
AcDbLine
 10
12.19999999999999
 20
0.249999999999995
 30
0.0
 11
15.09999999999999
 21
0.249999999999995
 31
0.0
  0
LINE
  5
AD
330
1E
100
AcDbEntity
  8
0
100
AcDbLine
 10
15.296
 20
69.73739999999999
 30
0.0
 11
18.052
 21
71.7295
 31
0.0
  0
LINE
  5
AE
330
1E
100
AcDbEntity
  8
0
100
AcDbLine
 10
16.004
 20
48.34109999999999
 30
0.0
 11
18.548
 21
46.50229999999999
 31
0.0
  0
LINE
  5
AF
330
1E
100
AcDbEntity
  8
0
100
AcDbLine
 10
16.004
 20
66.8458
 30
0.0
 11
18.548
 21
68.6845
 31
0.0
  0
LINE
  5
B0
330
1E
100
AcDbEntity
  8
0
100
AcDbLine
 10
16.244
 20
48.50010000000001
 30
0.0
 11
18.692
 21
46.70729999999999
 31
0.0
  0
LINE
  5
B1
330
1E
100
AcDbEntity
  8
0
100
AcDbLine
 10
18.692
 20
46.70729999999999
 30
0.0
 11
21.476
 21
45.6041
 31
0.0
  0
LINE
  5
B2
330
1E
100
AcDbEntity
  8
0
100
AcDbLine
 10
18.548
 20
46.50229999999999
 30
0.0
 11
21.428
 21
45.39909999999999
 31
0.0
  0
LINE
  5
B3
330
1E
100
AcDbEntity
  8
0
100
AcDbLine
 10
18.692
 20
66.1064
 30
0.0
 11
21.476
 21
67.2097
 31
0.0
  0
LINE
  5
B4
330
1E
100
AcDbEntity
  8
0
100
AcDbLine
 10
16.244
 20
64.3137
 30
0.0
 11
18.692
 21
66.1064
 31
0.0
  0
LINE
  5
B5
330
1E
100
AcDbEntity
  8
0
100
AcDbLine
 10
18.548
 20
68.6845
 30
0.0
 11
21.428
 21
69.7877
 31
0.0
  0
LINE
  5
B6
330
1E
100
AcDbEntity
  8
0
100
AcDbLine
 10
18.548
 20
66.45310000000001
 30
0.0
 11
21.428
 21
67.5563
 31
0.0
  0
LINE
  5
B7
330
1E
100
AcDbEntity
  8
0
100
AcDbLine
 10
16.004
 20
64.6144
 30
0.0
 11
18.548
 21
66.45310000000001
 31
0.0
  0
LINE
  5
B8
330
1E
100
AcDbEntity
  8
0
100
AcDbLine
 10
18.208
 20
69.21689999999999
 30
0.0
 11
21.224
 21
70.41209999999999
 31
0.0
  0
LINE
  5
B9
330
1E
100
AcDbEntity
  8
0
100
AcDbLine
 10
15.556
 20
67.27479999999999
 30
0.0
 11
18.208
 21
69.21689999999999
 31
0.0
  0
LINE
  5
BA
330
1E
100
AcDbEntity
  8
0
100
AcDbLine
 10
21.224
 20
70.41209999999999
 30
0.0
 11
24.5
 21
70.8604
 31
0.0
  0
LINE
  5
BB
330
1E
100
AcDbEntity
  8
0
100
AcDbLine
 10
21.17199999999999
 20
72.9247
 30
0.0
 11
24.5
 21
73.3729
 31
0.0
  0
LINE
  5
BC
330
1E
100
AcDbEntity
  8
0
100
AcDbLine
 10
21.17199999999999
 20
70.7995
 30
0.0
 11
24.5
 21
71.24769999999999
 31
0.0
  0
LINE
  5
BD
330
1E
100
AcDbEntity
  8
0
100
AcDbLine
 10
18.052
 20
71.7295
 30
0.0
 11
21.17199999999999
 21
72.9247
 31
0.0
  0
LINE
  5
BE
330
1E
100
AcDbEntity
  8
0
100
AcDbLine
 10
18.052
 20
69.60429999999999
 30
0.0
 11
21.17199999999999
 21
70.7995
 31
0.0
  0
LINE
  5
BF
330
1E
100
AcDbEntity
  8
0
100
AcDbLine
 10
15.296
 20
67.61230000000001
 30
0.0
 11
18.052
 21
69.60429999999999
 31
0.0
  0
LINE
  5
C0
330
1E
100
AcDbEntity
  8
0
100
AcDbLine
 10
18.1
 20
0.249999999999998
 30
0.0
 11
21.3
 21
0.249999999999998
 31
0.0
  0
LINE
  5
C1
330
1E
100
AcDbEntity
  8
0
100
AcDbLine
 10
21.3
 20
0.249999999999998
 30
0.0
 11
24.5
 21
0.249999999999998
 31
0.0
  0
LINE
  5
C3
330
1E
100
AcDbEntity
  8
0
100
AcDbLine
 10
16.14
 20
91.3227
 30
0.0
 11
18.868
 21
91.1546
 31
0.0
  0
LINE
  5
C6
330
1E
100
AcDbEntity
  8
0
100
AcDbLine
 10
15.2
 20
79.0144
 30
0.0
 11
17.4
 21
78.8408
 31
0.0
  0
LINE
  5
C7
330
1E
100
AcDbEntity
  8
0
100
AcDbLine
 10
18.868
 20
91.1546
 30
0.0
 11
21.596
 21
91.06299999999999
 31
0.0
  0
LINE
  5
CC
330
1E
100
AcDbEntity
  8
0
100
AcDbLine
 10
17.4
 20
78.8408
 30
0.0
 11
19.69999999999999
 21
78.70180000000001
 31
0.0
  0
LINE
  5
CD
330
1E
100
AcDbEntity
  8
0
100
AcDbLine
 10
19.69999999999999
 20
78.70180000000001
 30
0.0
 11
22.1
 21
78.61499999999999
 31
0.0
  0
LINE
  5
CE
330
1E
100
AcDbEntity
  8
0
100
AcDbLine
 10
15.09999999999999
 20
0.249999999999995
 30
0.0
 11
18.1
 21
0.249999999999995
 31
0.0
  0
LINE
  5
CF
330
1E
100
AcDbEntity
  8
0
100
AcDbLine
 10
18.1
 20
0.249999999999995
 30
0.0
 11
21.3
 21
0.249999999999995
 31
0.0
  0
LINE
  5
D0
330
1E
100
AcDbEntity
  8
0
100
AcDbLine
 10
21.476
 20
45.6041
 30
0.0
 11
24.5
 21
45.19029999999999
 31
0.0
  0
LINE
  5
D1
330
1E
100
AcDbEntity
  8
0
100
AcDbLine
 10
21.428
 20
45.39909999999999
 30
0.0
 11
24.5
 21
44.9854
 31
0.0
  0
LINE
  5
D2
330
1E
100
AcDbEntity
  8
0
100
AcDbLine
 10
21.476
 20
67.2097
 30
0.0
 11
24.5
 21
67.6234
 31
0.0
  0
LINE
  5
D3
330
1E
100
AcDbEntity
  8
0
100
AcDbLine
 10
21.428
 20
69.7877
 30
0.0
 11
24.5
 21
70.2015
 31
0.0
  0
LINE
  5
D4
330
1E
100
AcDbEntity
  8
0
100
AcDbLine
 10
21.428
 20
67.5563
 30
0.0
 11
24.5
 21
67.9701
 31
0.0
  0
LINE
  5
D5
330
1E
100
AcDbEntity
  8
0
100
AcDbLine
 10
24.5
 20
45.19029999999999
 30
0.0
 11
27.524
 21
45.6041
 31
0.0
  0
LINE
  5
D6
330
1E
100
AcDbEntity
  8
0
100
AcDbLine
 10
24.5
 20
44.9854
 30
0.0
 11
27.572
 21
45.39909999999999
 31
0.0
  0
LINE
  5
D7
330
1E
100
AcDbEntity
  8
0
100
AcDbLine
 10
24.5
 20
67.6234
 30
0.0
 11
27.524
 21
67.2097
 31
0.0
  0
LINE
  5
D8
330
1E
100
AcDbEntity
  8
0
100
AcDbLine
 10
24.5
 20
70.2015
 30
0.0
 11
27.572
 21
69.7877
 31
0.0
  0
LINE
  5
D9
330
1E
100
AcDbEntity
  8
0
100
AcDbLine
 10
24.5
 20
67.9701
 30
0.0
 11
27.572
 21
67.5563
 31
0.0
  0
LINE
  5
DA
330
1E
100
AcDbEntity
  8
0
100
AcDbLine
 10
24.5
 20
70.8604
 30
0.0
 11
27.776
 21
70.41209999999999
 31
0.0
  0
LINE
  5
DB
330
1E
100
AcDbEntity
  8
0
100
AcDbLine
 10
24.5
 20
71.24769999999999
 30
0.0
 11
27.828
 21
70.7995
 31
0.0
  0
LINE
  5
DC
330
1E
100
AcDbEntity
  8
0
100
AcDbLine
 10
24.5
 20
73.3729
 30
0.0
 11
27.828
 21
72.9247
 31
0.0
  0
LINE
  5
DD
330
1E
100
AcDbEntity
  8
0
100
AcDbLine
 10
24.5
 20
78.58029999999999
 30
0.0
 11
26.89999999999999
 21
78.61499999999999
 31
0.0
  0
LINE
  5
DE
330
1E
100
AcDbEntity
  8
0
100
AcDbLine
 10
24.5
 20
0.249999999999998
 30
0.0
 11
27.7
 21
0.249999999999998
 31
0.0
  0
LINE
  5
DF
330
1E
100
AcDbEntity
  8
0
100
AcDbLine
 10
30.89999999999999
 20
0.249999999999998
 30
0.0
 11
33.9
 21
0.249999999999998
 31
0.0
  0
LINE
  5
E0
330
1E
100
AcDbEntity
  8
0
100
AcDbLine
 10
27.524
 20
45.6041
 30
0.0
 11
30.308
 21
46.70729999999999
 31
0.0
  0
LINE
  5
E1
330
1E
100
AcDbEntity
  8
0
100
AcDbLine
 10
27.572
 20
45.39909999999999
 30
0.0
 11
30.45199999999999
 21
46.50229999999999
 31
0.0
  0
LINE
  5
E2
330
1E
100
AcDbEntity
  8
0
100
AcDbLine
 10
27.524
 20
67.2097
 30
0.0
 11
30.308
 21
66.1064
 31
0.0
  0
LINE
  5
E3
330
1E
100
AcDbEntity
  8
0
100
AcDbLine
 10
27.572
 20
69.7877
 30
0.0
 11
30.45199999999999
 21
68.6845
 31
0.0
  0
LINE
  5
E4
330
1E
100
AcDbEntity
  8
0
100
AcDbLine
 10
27.572
 20
67.5563
 30
0.0
 11
30.45199999999999
 21
66.45310000000001
 31
0.0
  0
LINE
  5
E5
330
1E
100
AcDbEntity
  8
0
100
AcDbLine
 10
27.776
 20
70.41209999999999
 30
0.0
 11
30.792
 21
69.21689999999999
 31
0.0
  0
LINE
  5
E6
330
1E
100
AcDbEntity
  8
0
100
AcDbLine
 10
30.308
 20
46.70729999999999
 30
0.0
 11
32.756
 21
48.50010000000001
 31
0.0
  0
LINE
  5
E7
330
1E
100
AcDbEntity
  8
0
100
AcDbLine
 10
30.45199999999999
 20
46.50229999999999
 30
0.0
 11
32.996
 21
48.34109999999999
 31
0.0
  0
LINE
  5
E8
330
1E
100
AcDbEntity
  8
0
100
AcDbLine
 10
30.308
 20
66.1064
 30
0.0
 11
32.756
 21
64.3137
 31
0.0
  0
LINE
  5
E9
330
1E
100
AcDbEntity
  8
0
100
AcDbLine
 10
30.45199999999999
 20
68.6845
 30
0.0
 11
32.996
 21
66.8458
 31
0.0
  0
LINE
  5
EA
330
1E
100
AcDbEntity
  8
0
100
AcDbLine
 10
30.45199999999999
 20
66.45310000000001
 30
0.0
 11
32.996
 21
64.6144
 31
0.0
  0
LINE
  5
EB
330
1E
100
AcDbEntity
  8
0
100
AcDbLine
 10
30.792
 20
69.21689999999999
 30
0.0
 11
33.444
 21
67.27479999999999
 31
0.0
  0
LINE
  5
EC
330
1E
100
AcDbEntity
  8
0
100
AcDbLine
 10
27.828
 20
70.7995
 30
0.0
 11
30.948
 21
69.60429999999999
 31
0.0
  0
LINE
  5
ED
330
1E
100
AcDbEntity
  8
0
100
AcDbLine
 10
27.828
 20
72.9247
 30
0.0
 11
30.948
 21
71.7295
 31
0.0
  0
LINE
  5
EE
330
1E
100
AcDbEntity
  8
0
100
AcDbLine
 10
26.89999999999999
 20
78.61499999999999
 30
0.0
 11
29.3
 21
78.70180000000001
 31
0.0
  0
LINE
  5
EF
330
1E
100
AcDbEntity
  8
0
100
AcDbLine
 10
27.7
 20
0.249999999999998
 30
0.0
 11
30.89999999999999
 21
0.249999999999998
 31
0.0
  0
LINE
  5
F0
330
1E
100
AcDbEntity
  8
0
100
AcDbLine
 10
36.79999999999999
 20
0.249999999999998
 30
0.0
 11
39.39999999999999
 21
0.249999999999998
 31
0.0
  0
LINE
  5
F1
330
1E
100
AcDbEntity
  8
0
100
AcDbLine
 10
32.756
 20
48.50010000000001
 30
0.0
 11
34.628
 21
50.84459999999999
 31
0.0
  0
LINE
  5
F2
330
1E
100
AcDbEntity
  8
0
100
AcDbLine
 10
34.628
 20
50.84459999999999
 30
0.0
 11
35.78
 21
53.5108
 31
0.0
  0
LINE
  5
F3
330
1E
100
AcDbEntity
  8
0
100
AcDbLine
 10
32.996
 20
48.34109999999999
 30
0.0
 11
34.916
 21
50.7775
 31
0.0
  0
LINE
  5
F4
330
1E
100
AcDbEntity
  8
0
100
AcDbLine
 10
32.756
 20
64.3137
 30
0.0
 11
34.628
 21
61.9692
 31
0.0
  0
LINE
  5
F5
330
1E
100
AcDbEntity
  8
0
100
AcDbLine
 10
34.916
 20
50.7775
 30
0.0
 11
36.068
 21
53.5357
 31
0.0
  0
LINE
  5
F6
330
1E
100
AcDbEntity
  8
0
100
AcDbLine
 10
34.628
 20
61.9692
 30
0.0
 11
35.78
 21
59.303
 31
0.0
  0
LINE
  5
F7
330
1E
100
AcDbEntity
  8
0
100
AcDbLine
 10
32.996
 20
66.8458
 30
0.0
 11
34.916
 21
64.40940000000001
 31
0.0
  0
LINE
  5
F8
330
1E
100
AcDbEntity
  8
0
100
AcDbLine
 10
32.996
 20
64.6144
 30
0.0
 11
34.916
 21
62.178
 31
0.0
  0
LINE
  5
F9
330
1E
100
AcDbEntity
  8
0
100
AcDbLine
 10
34.916
 20
64.40940000000001
 30
0.0
 11
36.068
 21
61.6512
 31
0.0
  0
LINE
  5
FA
330
1E
100
AcDbEntity
  8
0
100
AcDbLine
 10
34.916
 20
62.178
 30
0.0
 11
36.068
 21
59.4198
 31
0.0
  0
LINE
  5
FB
330
1E
100
AcDbEntity
  8
0
100
AcDbLine
 10
33.444
 20
67.27479999999999
 30
0.0
 11
35.472
 21
64.73489999999999
 31
0.0
  0
LINE
  5
FC
330
1E
100
AcDbEntity
  8
0
100
AcDbLine
 10
35.5766586965345
 20
52.3592958479006
 30
0.0
 11
35.784
 21
52.6224
 31
0.0
  0
LINE
  5
FD
330
1E
100
AcDbEntity
  8
0
100
AcDbLine
 10
35.78
 20
53.5108
 30
0.0
 11
36.21199999999999
 21
56.4069
 31
0.0
  0
LINE
  5
FE
330
1E
100
AcDbEntity
  8
0
100
AcDbLine
 10
35.78
 20
59.303
 30
0.0
 11
36.21199999999999
 21
56.4069
 31
0.0
  0
LINE
  5
FF
330
1E
100
AcDbEntity
  8
0
100
AcDbLine
 10
35.784
 20
52.6224
 30
0.0
 11
37.03199999999999
 21
55.6105
 31
0.0
  0
LINE
  5
100
330
1E
100
AcDbEntity
  8
0
100
AcDbLine
 10
35.472
 20
64.73489999999999
 30
0.0
 11
36.72
 21
61.8465
 31
0.0
  0
LINE
  5
101
330
1E
100
AcDbEntity
  8
0
100
AcDbLine
 10
30.948
 20
69.60429999999999
 30
0.0
 11
33.704
 21
67.61230000000001
 31
0.0
  0
LINE
  5
102
330
1E
100
AcDbEntity
  8
0
100
AcDbLine
 10
33.704
 20
67.61230000000001
 30
0.0
 11
35.784
 21
64.97289999999999
 31
0.0
  0
LINE
  5
103
330
1E
100
AcDbEntity
  8
0
100
AcDbLine
 10
35.784
 20
64.97289999999999
 30
0.0
 11
37.03199999999999
 21
61.9849
 31
0.0
  0
LINE
  5
104
330
1E
100
AcDbEntity
  8
0
100
AcDbLine
 10
30.948
 20
71.7295
 30
0.0
 11
33.704
 21
69.73739999999999
 31
0.0
  0
LINE
  5
105
330
1E
100
AcDbEntity
  8
0
100
AcDbLine
 10
33.704
 20
69.73739999999999
 30
0.0
 11
35.784
 21
67.0981
 31
0.0
  0
LINE
  5
106
330
1E
100
AcDbEntity
  8
0
100
AcDbLine
 10
36.068
 20
53.5357
 30
0.0
 11
36.5
 21
56.4777
 31
0.0
  0
LINE
  5
107
330
1E
100
AcDbEntity
  8
0
100
AcDbLine
 10
36.068
 20
61.6512
 30
0.0
 11
36.5
 21
58.7091
 31
0.0
  0
LINE
  5
108
330
1E
100
AcDbEntity
  8
0
100
AcDbLine
 10
36.5
 20
56.4777
 30
0.0
 11
36.5
 21
58.7091
 31
0.0
  0
LINE
  5
109
330
1E
100
AcDbEntity
  8
0
100
AcDbLine
 10
36.5
 20
58.7091
 30
0.0
 11
36.5
 21
56.4777
 31
0.0
  0
LINE
  5
10A
330
1E
100
AcDbEntity
  8
0
100
AcDbLine
 10
36.068
 20
59.4198
 30
0.0
 11
36.5
 21
56.4777
 31
0.0
  0
LINE
  5
10B
330
1E
100
AcDbEntity
  8
0
100
AcDbLine
 10
36.18522064939279
 20
54.33399432989279
 30
0.0
 11
36.72
 21
55.5717
 31
0.0
  0
LINE
  5
10C
330
1E
100
AcDbEntity
  8
0
100
AcDbLine
 10
36.72
 20
55.5717
 30
0.0
 11
37.188
 21
58.7091
 31
0.0
  0
LINE
  5
10F
330
1E
100
AcDbEntity
  8
0
100
AcDbLine
 10
36.72
 20
61.8465
 30
0.0
 11
37.188
 21
58.7091
 31
0.0
  0
LINE
  5
110
330
1E
100
AcDbEntity
  8
0
100
AcDbLine
 10
35.784
 20
67.0981
 30
0.0
 11
37.03199999999999
 21
64.11
 31
0.0
  0
LINE
  5
111
330
1E
100
AcDbEntity
  8
0
100
AcDbLine
 10
33.9
 20
0.249999999999998
 30
0.0
 11
36.79999999999999
 21
0.249999999999998
 31
0.0
  0
LINE
  5
112
330
1E
100
AcDbEntity
  8
0
100
AcDbLine
 10
37.03199999999999
 20
55.6105
 30
0.0
 11
37.5
 21
58.7977
 31
0.0
  0
LINE
  5
113
330
1E
100
AcDbEntity
  8
0
100
AcDbLine
 10
41.79999999999999
 20
0.249999999999998
 30
0.0
 11
44.0
 21
0.249999999999998
 31
0.0
  0
LINE
  5
114
330
1E
100
AcDbEntity
  8
0
100
AcDbLine
 10
39.39999999999999
 20
0.249999999999998
 30
0.0
 11
41.79999999999999
 21
0.249999999999998
 31
0.0
  0
LINE
  5
115
330
1E
100
AcDbEntity
  8
0
100
AcDbLine
 10
37.5
 20
58.7977
 30
0.0
 11
37.5
 21
60.9228
 31
0.0
  0
LINE
  5
116
330
1E
100
AcDbEntity
  8
0
100
AcDbLine
 10
37.9
 20
57.66919999999999
 30
0.0
 11
39.5
 21
59.7742
 31
0.0
  0
LINE
  5
117
330
1E
100
AcDbEntity
  8
0
100
AcDbLine
 10
37.03199999999999
 20
61.9849
 30
0.0
 11
37.5
 21
58.7977
 31
0.0
  0
LINE
  5
118
330
1E
100
AcDbEntity
  8
0
100
AcDbLine
 10
37.5
 20
60.9228
 30
0.0
 11
37.5
 21
58.7977
 31
0.0
  0
LINE
  5
119
330
1E
100
AcDbEntity
  8
0
100
AcDbLine
 10
37.03199999999999
 20
64.11
 30
0.0
 11
37.5
 21
60.9228
 31
0.0
  0
LINE
  5
11A
330
1E
100
AcDbEntity
  8
0
100
AcDbLine
 10
39.5
 20
59.7742
 30
0.0
 11
41.0
 21
62.0384
 31
0.0
  0
LINE
  5
11B
330
1E
100
AcDbEntity
  8
0
100
AcDbLine
 10
41.0
 20
62.0384
 30
0.0
 11
42.0
 21
65.1239
 31
0.0
  0
LINE
  5
11C
330
1E
100
AcDbEntity
  8
0
100
AcDbLine
 10
37.2550847287878
 20
57.1297642042572
 30
0.0
 11
37.9
 21
57.66919999999999
 31
0.0
  0
LINE
  5
11D
330
1E
100
AcDbEntity
  8
0
100
AcDbLine
 10
42.0
 20
65.1239
 30
0.0
 11
42.8
 21
69.05289999999999
 31
0.0
  0
LINE
  5
11E
330
1E
100
AcDbEntity
  8
0
100
AcDbLine
 10
42.8
 20
69.05289999999999
 30
0.0
 11
43.3
 21
73.43009999999999
 31
0.0
  0
LINE
  5
120
330
1E
100
AcDbEntity
  8
0
100
AcDbLine
 10
44.0
 20
0.249999999999998
 30
0.0
 11
45.8
 21
0.249999999999997
 31
0.0
  0
LINE
  5
121
330
1E
100
AcDbEntity
  8
0
100
AcDbLine
 10
45.8
 20
0.249999999999997
 30
0.0
 11
47.5
 21
0.249999999999997
 31
0.0
  0
LINE
  5
123
330
1E
100
AcDbEntity
  8
0
100
AcDbLine
 10
43.3
 20
73.43009999999999
 30
0.0
 11
43.5
 21
77.2235
 31
0.0
  0
LINE
  5
124
330
1E
100
AcDbEntity
  8
0
100
AcDbLine
 10
43.3
 20
73.4403
 30
0.0
 11
43.5
 21
77.2235
 31
0.0
  0
LINE
  5
126
330
1E
100
AcDbEntity
  8
0
100
AcDbLine
 10
47.5
 20
0.249999999999997
 30
0.0
 11
48.2
 21
0.249999999999997
 31
0.0
  0
LINE
  5
127
330
1E
100
AcDbEntity
  8
0
100
AcDbLine
 10
48.2
 20
0.249999999999997
 30
0.0
 11
48.79999999999999
 21
0.249999999999997
 31
0.0
  0
LINE
  5
128
330
1E
100
AcDbEntity
  8
0
100
AcDbLine
 10
47.4731
 20
56.505
 30
0.0
 11
47.80569999999999
 21
45.9397
 31
0.0
  0
LINE
  5
129
330
1E
100
AcDbEntity
  8
0
100
AcDbLine
 10
47.2815
 20
63.7176
 30
0.0
 11
47.4731
 21
56.505
 31
0.0
  0
LINE
  5
12A
330
1E
100
AcDbEntity
  8
0
100
AcDbLine
 10
47.80569999999999
 20
45.9397
 30
0.0
 11
49.0
 21
0.249999999999997
 31
0.0
  0
LINE
  5
12B
330
1E
100
AcDbEntity
  8
0
100
AcDbLine
 10
47.80569999999999
 20
45.9397
 30
0.0
 11
49.0
 21
0.249999999999997
 31
0.0
  0
LINE
  5
12C
330
1E
100
AcDbEntity
  8
0
100
AcDbLine
 10
48.79999999999999
 20
0.249999999999997
 30
0.0
 11
49.0
 21
0.249999999999997
 31
0.0
  0
LINE
  5
12D
330
1E
100
AcDbEntity
  8
0
100
AcDbLine
 10
48.79999999999999
 20
0.249999999999997
 30
0.0
 11
49.0
 21
0.249999999999997
 31
0.0
  0
LINE
  5
12E
330
1E
100
AcDbEntity
  8
0
100
AcDbLine
 10
48.2
 20
0.249999999999996
 30
0.0
 11
48.79999999999999
 21
0.249999999999997
 31
0.0
  0
LINE
  5
12F
330
1E
100
AcDbEntity
  8
0
100
AcDbLine
 10
47.5
 20
0.249999999999996
 30
0.0
 11
48.2
 21
0.249999999999996
 31
0.0
  0
LINE
  5
130
330
1E
100
AcDbEntity
  8
0
100
AcDbLine
 10
45.8
 20
0.249999999999996
 30
0.0
 11
47.5
 21
0.249999999999996
 31
0.0
  0
LINE
  5
131
330
1E
100
AcDbEntity
  8
0
100
AcDbLine
 10
44.0
 20
0.249999999999996
 30
0.0
 11
45.8
 21
0.249999999999996
 31
0.0
  0
LINE
  5
132
330
1E
100
AcDbEntity
  8
0
100
AcDbLine
 10
41.79999999999999
 20
0.249999999999996
 30
0.0
 11
44.0
 21
0.249999999999996
 31
0.0
  0
LINE
  5
133
330
1E
100
AcDbEntity
  8
0
100
AcDbLine
 10
39.39999999999999
 20
0.249999999999996
 30
0.0
 11
41.79999999999999
 21
0.249999999999996
 31
0.0
  0
LINE
  5
134
330
1E
100
AcDbEntity
  8
0
100
AcDbLine
 10
36.79999999999999
 20
0.249999999999995
 30
0.0
 11
39.39999999999999
 21
0.249999999999996
 31
0.0
  0
LINE
  5
135
330
1E
100
AcDbEntity
  8
0
100
AcDbLine
 10
33.9
 20
0.249999999999995
 30
0.0
 11
36.79999999999999
 21
0.249999999999995
 31
0.0
  0
LINE
  5
136
330
1E
100
AcDbEntity
  8
0
100
AcDbLine
 10
30.89999999999999
 20
0.249999999999995
 30
0.0
 11
33.9
 21
0.249999999999995
 31
0.0
  0
LINE
  5
137
330
1E
100
AcDbEntity
  8
0
100
AcDbLine
 10
27.7
 20
0.249999999999995
 30
0.0
 11
30.89999999999999
 21
0.249999999999995
 31
0.0
  0
LINE
  5
138
330
1E
100
AcDbEntity
  8
0
100
AcDbLine
 10
24.5
 20
0.249999999999995
 30
0.0
 11
27.7
 21
0.249999999999995
 31
0.0
  0
LINE
  5
139
330
1E
100
AcDbEntity
  8
0
100
AcDbLine
 10
21.596
 20
91.06299999999999
 30
0.0
 11
24.5
 21
91.0171
 31
0.0
  0
LINE
  5
13B
330
1E
100
AcDbEntity
  8
0
100
AcDbLine
 10
29.3
 20
78.70180000000001
 30
0.0
 11
31.6
 21
78.8408
 31
0.0
  0
LINE
  5
13C
330
1E
100
AcDbEntity
  8
0
100
AcDbLine
 10
24.5
 20
91.0171
 30
0.0
 11
27.404
 21
91.06299999999999
 31
0.0
  0
LINE
  5
13D
330
1E
100
AcDbEntity
  8
0
100
AcDbLine
 10
27.404
 20
91.06299999999999
 30
0.0
 11
30.13199999999999
 21
91.1546
 31
0.0
  0
LINE
  5
13E
330
1E
100
AcDbEntity
  8
0
100
AcDbLine
 10
37.7
 20
79.5354
 30
0.0
 11
39.29999999999999
 21
79.86530000000001
 31
0.0
  0
LINE
  5
13F
330
1E
100
AcDbEntity
  8
0
100
AcDbLine
 10
39.29999999999999
 20
79.86530000000001
 30
0.0
 11
40.7
 21
80.21259999999999
 31
0.0
  0
LINE
  5
140
330
1E
100
AcDbEntity
  8
0
100
AcDbLine
 10
40.7
 20
80.21259999999999
 30
0.0
 11
41.7
 21
80.59459999999999
 31
0.0
  0
LINE
  5
141
330
1E
100
AcDbEntity
  8
0
100
AcDbLine
 10
41.7
 20
80.59459999999999
 30
0.0
 11
42.5
 21
80.99400000000001
 31
0.0
  0
LINE
  5
142
330
1E
100
AcDbEntity
  8
0
100
AcDbLine
 10
42.5
 20
80.99400000000001
 30
0.0
 11
43.0
 21
81.4108
 31
0.0
  0
LINE
  5
143
330
1E
100
AcDbEntity
  8
0
100
AcDbLine
 10
43.0
 20
81.4108
 30
0.0
 11
43.2
 21
81.8275
 31
0.0
  0
LINE
  5
144
330
1E
100
AcDbEntity
  8
0
100
AcDbLine
 10
35.8
 20
79.25749999999999
 30
0.0
 11
37.7
 21
79.5354
 31
0.0
  0
LINE
  5
145
330
1E
100
AcDbEntity
  8
0
100
AcDbLine
 10
33.79999999999999
 20
79.0144
 30
0.0
 11
35.8
 21
79.25749999999999
 31
0.0
  0
LINE
  5
146
330
1E
100
AcDbEntity
  8
0
100
AcDbLine
 10
31.6
 20
78.8408
 30
0.0
 11
33.79999999999999
 21
79.0144
 31
0.0
  0
LINE
  5
147
330
1E
100
AcDbEntity
  8
0
100
AcDbLine
 10
30.13199999999999
 20
91.1546
 30
0.0
 11
32.86
 21
91.3227
 31
0.0
  0
LINE
  5
166
330
1E
100
AcDbEntity
  8
0
100
AcDbLine
 10
32.86
 20
91.3227
 30
0.0
 11
35.41199999999999
 21
91.52140000000001
 31
0.0
  0
LINE
  5
168
330
1E
100
AcDbEntity
  8
0
100
AcDbLine
 10
35.41199999999999
 20
91.52140000000001
 30
0.0
 11
37.87599999999999
 21
91.81169999999999
 31
0.0
  0
LINE
  5
169
330
1E
100
AcDbEntity
  8
0
100
AcDbLine
 10
37.87599999999999
 20
91.81169999999999
 30
0.0
 11
39.988
 21
92.1479
 31
0.0
  0
LINE
  5
16B
330
1E
100
AcDbEntity
  8
0
100
AcDbLine
 10
39.988
 20
92.1479
 30
0.0
 11
41.924
 21
92.51470000000001
 31
0.0
  0
LINE
  5
16C
330
1E
100
AcDbEntity
  8
0
100
AcDbLine
 10
41.924
 20
92.51470000000001
 30
0.0
 11
43.596
 21
92.94249999999999
 31
0.0
  0
LINE
  5
16F
330
1E
100
AcDbEntity
  8
0
100
AcDbLine
 10
43.596
 20
92.94249999999999
 30
0.0
 11
44.74
 21
93.3857
 31
0.0
  0
LINE
  5
174
330
1E
100
AcDbEntity
  8
0
100
AcDbLine
 10
44.74
 20
93.3857
 30
0.0
 11
45.708
 21
93.85939999999999
 31
0.0
  0
LINE
  5
18A
330
1E
100
AcDbEntity
  8
0
100
AcDbLine
 10
46.5
 20
92.4449
 30
0.0
 11
47.2815
 21
63.7176
 31
0.0
  0
LINE
  5
18B
330
1E
100
AcDbEntity
  8
0
100
AcDbLine
 10
46.29999999999999
 20
92.9485
 30
0.0
 11
46.5
 21
92.4449
 31
0.0
  0
LINE
  5
18D
330
1E
100
AcDbEntity
  8
0
100
AcDbLine
 10
46.0
 20
93.62050000000001
 30
0.0
 11
46.29999999999999
 21
92.9485
 31
0.0
  0
LINE
  5
18E
330
1E
100
AcDbEntity
  8
0
100
AcDbLine
 10
45.732091669645
 20
93.88101406043722
 30
0.0
 11
46.0
 21
93.62050000000001
 31
0.0
  0
LINE
  5
18F
330
1E
100
AcDbEntity
  8
0
100
AcDbLine
 10
45.708
 20
93.85939999999999
 30
0.0
 11
46.236
 21
94.3331
 31
0.0
  0
LINE
  5
195
330
1E
100
AcDbEntity
  8
0
100
AcDbLine
 10
46.236
 20
94.3331
 30
0.0
 11
46.5
 21
94.8374
 31
0.0
  0
LINE
  5
1A9
330
1E
100
AcDbEntity
  8
0
100
AcDbLine
 10
22.1
 20
78.61499999999999
 30
0.0
 11
24.5
 21
78.58029999999999
 31
0.0
  0
LINE
  5
1AA
330
1E
100
AcDbEntity
  8
0
100
AcDbLine
 10
21.3
 20
0.249999999999995
 30
0.0
 11
24.5
 21
0.249999999999995
 31
0.0
  0
LINE
  5
1E9
330
1E
100
AcDbEntity
  8
0
100
AcDbLine
 10
29.5239
 20
129.38
 30
0.0
 11
24.5
 21
129.1999999999999
 31
0.0
  0
LINE
  5
1EA
330
1E
100
AcDbEntity
  8
0
100
AcDbLine
 10
6.2498
 20
133.25
 30
0.0
 11
42.23749999999999
 21
133.25
 31
0.0
  0
LINE
  5
1EB
330
1E
100
AcDbEntity
  8
0
100
AcDbLine
 10
24.5
 20
107.735
 30
0.0
 11
25.01199999999998
 21
107.6659999999999
 31
0.0
  0
LINE
  5
1EC
330
1E
100
AcDbEntity
  8
0
100
AcDbLine
 10
24.5
 20
103.8829999999999
 30
0.0
 11
25.01199999999998
 21
103.9529999999998
 31
0.0
  0
LINE
  5
1ED
330
1E
100
AcDbEntity
  8
0
100
AcDbLine
 10
10.40170814842656
 20
130.0466650356897
 30
0.0
 11
5.239596668002491
 21
130.6085022873682
 31
0.0
  0
LINE
  5
1EE
330
1E
100
AcDbEntity
  8
0
100
AcDbLine
 10
2.127380000000002
 20
123.9349999999999
 30
0.0
 11
2.5
 21
94.8374
 31
0.0
  0
LINE
  5
1EF
330
1E
100
AcDbEntity
  8
0
100
AcDbLine
 10
1.943599999999996
 20
133.055
 30
0.0
 11
2.029510000000001
 21
128.8379999999999
 31
0.0
  0
LINE
  5
1F0
330
1E
100
AcDbEntity
  8
0
100
AcDbLine
 10
2.047487497829543
 20
128.7095535182659
 30
0.0
 11
2.111069999999998
 21
126.0499999999999
 31
0.0
  0
LINE
  5
1F1
330
1E
100
AcDbEntity
  8
0
100
AcDbLine
 10
2.111069999999998
 20
126.0499999999999
 30
0.0
 11
2.127380000000002
 21
123.9349999999999
 31
0.0
  0
LINE
  5
1F2
330
1E
100
AcDbEntity
  8
0
100
AcDbLine
 10
2.968899999999997
 20
133.247
 30
0.0
 11
6.044800000000002
 21
133.25
 31
0.0
  0
LINE
  5
1F3
330
1E
100
AcDbEntity
  8
0
100
AcDbLine
 10
5.239596668002491
 20
130.6085022873682
 30
0.0
 11
1.997493615015173
 21
130.9969788405719
 31
0.0
  0
LINE
  5
1F4
330
1E
100
AcDbEntity
  8
0
100
AcDbLine
 10
2.251199999999997
 20
133.19
 30
0.0
 11
2.968899999999997
 21
133.247
 31
0.0
  0
LINE
  5
1F5
330
1E
100
AcDbEntity
  8
0
100
AcDbLine
 10
1.943599999999996
 20
133.055
 30
0.0
 11
2.251199999999997
 21
133.19
 31
0.0
  0
LINE
  5
1F6
330
1E
100
AcDbEntity
  8
0
100
AcDbLine
 10
6.044800000000002
 20
133.25
 30
0.0
 11
6.2498
 21
133.25
 31
0.0
  0
LINE
  5
1F7
330
1E
100
AcDbEntity
  8
0
100
AcDbLine
 10
22.572
 20
106.302
 30
0.0
 11
22.76399999999999
 21
106.7639999999999
 31
0.0
  0
LINE
  5
1F8
330
1E
100
AcDbEntity
  8
0
100
AcDbLine
 10
22.572
 20
105.316
 30
0.0
 11
22.76399999999999
 21
104.854
 31
0.0
  0
LINE
  5
1F9
330
1E
100
AcDbEntity
  8
0
100
AcDbLine
 10
22.5
 20
105.8089999999999
 30
0.0
 11
22.572
 21
105.316
 31
0.0
  0
LINE
  5
1FA
330
1E
100
AcDbEntity
  8
0
100
AcDbLine
 10
22.5
 20
105.8089999999999
 30
0.0
 11
22.572
 21
106.302
 31
0.0
  0
LINE
  5
1FB
330
1E
100
AcDbEntity
  8
0
100
AcDbLine
 10
23.508
 20
107.481
 30
0.0
 11
23.988
 21
107.6659999999999
 31
0.0
  0
LINE
  5
1FC
330
1E
100
AcDbEntity
  8
0
100
AcDbLine
 10
23.508
 20
104.1379999999999
 30
0.0
 11
23.988
 21
103.9529999999998
 31
0.0
  0
LINE
  5
1FD
330
1E
100
AcDbEntity
  8
0
100
AcDbLine
 10
22.76399999999999
 20
104.854
 30
0.0
 11
23.084
 21
104.4459999999999
 31
0.0
  0
LINE
  5
1FE
330
1E
100
AcDbEntity
  8
0
100
AcDbLine
 10
23.084
 20
104.4459999999999
 30
0.0
 11
23.508
 21
104.1379999999999
 31
0.0
  0
LINE
  5
1FF
330
1E
100
AcDbEntity
  8
0
100
AcDbLine
 10
22.76399999999999
 20
106.7639999999999
 30
0.0
 11
23.084
 21
107.1729999999998
 31
0.0
  0
LINE
  5
200
330
1E
100
AcDbEntity
  8
0
100
AcDbLine
 10
23.084
 20
107.1729999999998
 30
0.0
 11
23.508
 21
107.481
 31
0.0
  0
LINE
  5
201
330
1E
100
AcDbEntity
  8
0
100
AcDbLine
 10
23.988
 20
103.9529999999998
 30
0.0
 11
24.5
 21
103.8829999999999
 31
0.0
  0
LINE
  5
202
330
1E
100
AcDbEntity
  8
0
100
AcDbLine
 10
23.988
 20
107.6659999999999
 30
0.0
 11
24.5
 21
107.735
 31
0.0
  0
LINE
  5
203
330
1E
100
AcDbEntity
  8
0
100
AcDbLine
 10
14.75979999999999
 20
129.6879999999999
 30
0.0
 11
17.0154
 21
129.5169999999999
 31
0.0
  0
LINE
  5
204
330
1E
100
AcDbEntity
  8
0
100
AcDbLine
 10
14.75979999999999
 20
129.6879999999999
 30
0.0
 11
10.40170814842656
 21
130.0466650356897
 31
0.0
  0
LINE
  5
205
330
1E
100
AcDbEntity
  8
0
100
AcDbLine
 10
19.4761
 20
129.38
 30
0.0
 11
24.5
 21
129.1999999999999
 31
0.0
  0
LINE
  5
206
330
1E
100
AcDbEntity
  8
0
100
AcDbLine
 10
17.0154
 20
129.5169999999999
 30
0.0
 11
19.4761
 21
129.38
 31
0.0
  0
LINE
  5
207
330
1E
100
AcDbEntity
  8
0
100
AcDbLine
 10
38.59829185157343
 20
130.0466650356897
 30
0.0
 11
43.76040333199751
 21
130.6085022873682
 31
0.0
  0
LINE
  5
208
330
1E
100
AcDbEntity
  8
0
100
AcDbLine
 10
26.236
 20
106.7639999999999
 30
0.0
 11
26.428
 21
106.302
 31
0.0
  0
LINE
  5
209
330
1E
100
AcDbEntity
  8
0
100
AcDbLine
 10
26.236
 20
104.854
 30
0.0
 11
26.428
 21
105.316
 31
0.0
  0
LINE
  5
20A
330
1E
100
AcDbEntity
  8
0
100
AcDbLine
 10
25.01199999999998
 20
107.6659999999999
 30
0.0
 11
25.49199999999999
 21
107.481
 31
0.0
  0
LINE
  5
20B
330
1E
100
AcDbEntity
  8
0
100
AcDbLine
 10
25.01199999999998
 20
103.9529999999998
 30
0.0
 11
25.49199999999999
 21
104.1379999999999
 31
0.0
  0
LINE
  5
20C
330
1E
100
AcDbEntity
  8
0
100
AcDbLine
 10
25.916
 20
104.4459999999999
 30
0.0
 11
26.236
 21
104.854
 31
0.0
  0
LINE
  5
20D
330
1E
100
AcDbEntity
  8
0
100
AcDbLine
 10
25.49199999999999
 20
104.1379999999999
 30
0.0
 11
25.916
 21
104.4459999999999
 31
0.0
  0
LINE
  5
20E
330
1E
100
AcDbEntity
  8
0
100
AcDbLine
 10
25.916
 20
107.1729999999998
 30
0.0
 11
26.236
 21
106.7639999999999
 31
0.0
  0
LINE
  5
20F
330
1E
100
AcDbEntity
  8
0
100
AcDbLine
 10
25.49199999999999
 20
107.481
 30
0.0
 11
25.916
 21
107.1729999999998
 31
0.0
  0
LINE
  5
210
330
1E
100
AcDbEntity
  8
0
100
AcDbLine
 10
26.428
 20
105.316
 30
0.0
 11
26.5
 21
105.8089999999999
 31
0.0
  0
LINE
  5
211
330
1E
100
AcDbEntity
  8
0
100
AcDbLine
 10
26.428
 20
106.302
 30
0.0
 11
26.5
 21
105.8089999999999
 31
0.0
  0
LINE
  5
212
330
1E
100
AcDbEntity
  8
0
100
AcDbLine
 10
34.2402
 20
129.6879999999999
 30
0.0
 11
31.9846
 21
129.5169999999999
 31
0.0
  0
LINE
  5
213
330
1E
100
AcDbEntity
  8
0
100
AcDbLine
 10
31.9846
 20
129.5169999999999
 30
0.0
 11
29.5239
 21
129.38
 31
0.0
  0
LINE
  5
214
330
1E
100
AcDbEntity
  8
0
100
AcDbLine
 10
34.2402
 20
129.6879999999999
 30
0.0
 11
38.59829185157343
 21
130.0466650356897
 31
0.0
  0
LINE
  5
215
330
1E
100
AcDbEntity
  8
0
100
AcDbLine
 10
46.5
 20
94.8374
 30
0.0
 11
46.8726
 21
123.9349999999999
 31
0.0
  0
LINE
  5
216
330
1E
100
AcDbEntity
  8
0
100
AcDbLine
 10
46.97049999999999
 20
128.8379999999999
 30
0.0
 11
47.05639999999998
 21
133.055
 31
0.0
  0
LINE
  5
217
330
1E
100
AcDbEntity
  8
0
100
AcDbLine
 10
46.88889999999999
 20
126.0499999999999
 30
0.0
 11
46.95248737650699
 21
128.7092810294429
 31
0.0
  0
LINE
  5
218
330
1E
100
AcDbEntity
  8
0
100
AcDbLine
 10
46.8726
 20
123.9349999999999
 30
0.0
 11
46.88889999999999
 21
126.0499999999999
 31
0.0
  0
LINE
  5
219
330
1E
100
AcDbEntity
  8
0
100
AcDbLine
 10
42.95519999999998
 20
133.25
 30
0.0
 11
46.0311
 21
133.247
 31
0.0
  0
LINE
  5
21A
330
1E
100
AcDbEntity
  8
0
100
AcDbLine
 10
42.23749999999999
 20
133.25
 30
0.0
 11
42.7502
 21
133.25
 31
0.0
  0
LINE
  5
21B
330
1E
100
AcDbEntity
  8
0
100
AcDbLine
 10
42.7502
 20
133.25
 30
0.0
 11
42.95519999999998
 21
133.25
 31
0.0
  0
LINE
  5
21C
330
1E
100
AcDbEntity
  8
0
100
AcDbLine
 10
43.76040333199751
 20
130.6085022873682
 30
0.0
 11
47.00250638498483
 21
130.9969788405719
 31
0.0
  0
LINE
  5
21D
330
1E
100
AcDbEntity
  8
0
100
AcDbLine
 10
46.0311
 20
133.247
 30
0.0
 11
46.7488
 21
133.19
 31
0.0
  0
LINE
  5
21E
330
1E
100
AcDbEntity
  8
0
100
AcDbLine
 10
46.7488
 20
133.19
 30
0.0
 11
47.05639999999998
 21
133.055
 31
0.0
  0
LINE
  5
21F
330
1E
100
AcDbEntity
  8
0
100
AcDbLine
 10
5.5
 20
77.2235
 30
0.0
 11
5.348815549225719
 21
83.11521779145062
 31
0.0
  0
LINE
  5
220
330
1E
100
AcDbEntity
  8
0
100
AcDbLine
 10
5.348815549225719
 20
83.11521779145062
 30
0.0
 11
5.799999999999999
 21
81.8275
 31
0.0
  0
LINE
  5
221
330
1E
100
AcDbEntity
  8
0
100
AcDbLine
 10
43.5
 20
77.2235
 30
0.0
 11
43.58863381289473
 21
82.67530902885715
 31
0.0
  0
LINE
  5
222
330
1E
100
AcDbEntity
  8
0
100
AcDbLine
 10
43.58863381289473
 20
82.67530902885715
 30
0.0
 11
43.2
 21
81.8275
 31
0.0
  0
LINE
  5
223
330
1E
100
AcDbEntity
  8
0
100
AcDbLine
 10
5.348815549225719
 20
83.11521779145062
 30
0.0
 11
2.5
 21
92.4449
 31
0.0
  0
LINE
  5
224
330
1E
100
AcDbEntity
  8
0
100
AcDbLine
 10
43.58863381289473
 20
82.67530902885715
 30
0.0
 11
46.5
 21
92.4449
 31
0.0
  0
ENDSEC
  0
SECTION
  2
OBJECTS
  0
DICTIONARY
  5
C
330
0
100
AcDbDictionary
281
     1
  3
ACAD_GROUP
350
D
  3
ACAD_LAYOUT
350
19
  3
ACAD_MLINESTYLE
350
16
  3
ACAD_PLOTSETTINGS
350
18
  3
ACAD_PLOTSTYLENAME
350
E
  3
AcDbVariableDictionary
350
225
  0
DICTIONARY
  5
D
102
{ACAD_REACTORS
330
C
102
}
330
C
100
AcDbDictionary
281
     1
  0
DICTIONARY
  5
19
102
{ACAD_REACTORS
330
C
102
}
330
C
100
AcDbDictionary
281
     1
  3
Layout1
350
1D
  3
Model
350
21
  0
DICTIONARY
  5
16
102
{ACAD_REACTORS
330
C
102
}
330
C
100
AcDbDictionary
281
     1
  3
Standard
350
17
  0
DICTIONARY
  5
18
102
{ACAD_REACTORS
330
C
102
}
330
C
100
AcDbDictionary
281
     1
  0
ACDBDICTIONARYWDFLT
  5
E
102
{ACAD_REACTORS
330
C
102
}
330
C
100
AcDbDictionary
281
     1
  3
Normal
350
F
100
AcDbDictionaryWithDefault
340
F
  0
DICTIONARY
  5
225
102
{ACAD_REACTORS
330
C
102
}
330
C
100
AcDbDictionary
281
     1
  3
DIMASSOC
350
226
  0
LAYOUT
  5
1D
102
{ACAD_REACTORS
330
19
102
}
330
19
100
AcDbPlotSettings
  1

  2
hp deskjet 980c series
  4

  6

 40
0.0
 41
0.0
 42
0.0
 43
0.0
 44
0.0
 45
0.0
 46
0.0
 47
0.0
 48
0.0
 49
0.0
140
0.0
141
0.0
142
1.0
143
1.0
 70
   688
 72
     0
 73
     0
 74
     5
  7

 75
    16
147
1.0
148
0.0
149
0.0
100
AcDbLayout
  1
Layout1
 70
     1
 71
     1
 10
0.0
 20
0.0
 11
12.0
 21
9.0
 12
0.0
 22
0.0
 32
0.0
 14
1.000000000000000E+20
 24
1.000000000000000E+20
 34
1.000000000000000E+20
 15
-1.000000000000000E+20
 25
-1.000000000000000E+20
 35
-1.000000000000000E+20
146
0.0
 13
0.0
 23
0.0
 33
0.0
 16
1.0
 26
0.0
 36
0.0
 17
0.0
 27
1.0
 37
0.0
 76
     0
330
1A
  0
LAYOUT
  5
21
102
{ACAD_REACTORS
330
19
102
}
330
19
100
AcDbPlotSettings
  1

  2
hp deskjet 980c series
  4

  6

 40
0.0
 41
0.0
 42
0.0
 43
0.0
 44
0.0
 45
0.0
 46
0.0
 47
0.0
 48
0.0
 49
0.0
140
0.0
141
0.0
142
1.0
143
1.0
 70
  1712
 72
     0
 73
     0
 74
     0
  7

 75
     0
147
1.0
148
0.0
149
0.0
100
AcDbLayout
  1
Model
 70
     1
 71
     0
 10
0.0
 20
0.0
 11
12.0
 21
9.0
 12
0.0
 22
0.0
 32
0.0
 14
0.0
 24
0.0
 34
0.0
 15
0.0
 25
0.0
 35
0.0
146
0.0
 13
0.0
 23
0.0
 33
0.0
 16
1.0
 26
0.0
 36
0.0
 17
0.0
 27
1.0
 37
0.0
 76
     0
330
1E
  0
MLINESTYLE
  5
17
102
{ACAD_REACTORS
330
16
102
}
330
16
100
AcDbMlineStyle
  2
STANDARD
 70
     0
  3

 62
   256
 51
90.0
 52
90.0
 71
     2
 49
0.5
 62
   256
  6
BYLAYER
 49
-0.5
 62
   256
  6
BYLAYER
  0
ACDBPLACEHOLDER
  5
F
102
{ACAD_REACTORS
330
E
102
}
330
E
  0
DICTIONARYVAR
  5
226
102
{ACAD_REACTORS
330
225
102
}
330
225
100
DictionaryVariables
280
     0
  1
1
  0
ENDSEC
  0
EOF
