  0
SECTION
  2
HEADER
  9
$ACADVER
  1
AC1015
  9
$ACADMAINTVER
 70
    13
  9
$DWGCODEPAGE
  3
ANSI_1252
  9
$INSBASE
 10
0.0
 20
0.0
 30
0.0
  9
$EXTMIN
 10
0.231765000000005
 20
-0.0864999999999978
 30
0.0
  9
$EXTMAX
 10
124.768235
 20
246.0865
 30
0.0
  9
$LIMMIN
 10
0.0
 20
0.0
  9
$LIMMAX
 10
12.0
 20
9.0
  9
$ORTHOMODE
 70
     0
  9
$REGENMODE
 70
     1
  9
$FILLMODE
 70
     1
  9
$QTEXTMODE
 70
     0
  9
$MIRRTEXT
 70
     1
  9
$LTSCALE
 40
1.0
  9
$ATTMODE
 70
     1
  9
$TEXTSIZE
 40
0.2
  9
$TRACEWID
 40
0.05
  9
$TEXTSTYLE
  7
Standard
  9
$CLAYER
  8
0
  9
$CELTYPE
  6
Continuous
  9
$CECOLOR
 62
   256
  9
$CELTSCALE
 40
1.0
  9
$DISPSILH
 70
     0
  9
$DIMSCALE
 40
1.0
  9
$DIMASZ
 40
0.18
  9
$DIMEXO
 40
0.0625
  9
$DIMDLI
 40
0.38
  9
$DIMRND
 40
0.0
  9
$DIMDLE
 40
0.0
  9
$DIMEXE
 40
0.18
  9
$DIMTP
 40
0.0
  9
$DIMTM
 40
0.0
  9
$DIMTXT
 40
0.18
  9
$DIMCEN
 40
0.09
  9
$DIMTSZ
 40
0.0
  9
$DIMTOL
 70
     0
  9
$DIMLIM
 70
     0
  9
$DIMTIH
 70
     1
  9
$DIMTOH
 70
     1
  9
$DIMSE1
 70
     0
  9
$DIMSE2
 70
     0
  9
$DIMTAD
 70
     0
  9
$DIMZIN
 70
     0
  9
$DIMBLK
  1

  9
$DIMASO
 70
     1
  9
$DIMSHO
 70
     1
  9
$DIMPOST
  1

  9
$DIMAPOST
  1

  9
$DIMALT
 70
     0
  9
$DIMALTD
 70
     2
  9
$DIMALTF
 40
25.4
  9
$DIMLFAC
 40
1.0
  9
$DIMTOFL
 70
     0
  9
$DIMTVP
 40
0.0
  9
$DIMTIX
 70
     0
  9
$DIMSOXD
 70
     0
  9
$DIMSAH
 70
     0
  9
$DIMBLK1
  1

  9
$DIMBLK2
  1

  9
$DIMSTYLE
  2
Standard
  9
$DIMCLRD
 70
     0
  9
$DIMCLRE
 70
     0
  9
$DIMCLRT
 70
     0
  9
$DIMTFAC
 40
1.0
  9
$DIMGAP
 40
0.09
  9
$DIMJUST
 70
     0
  9
$DIMSD1
 70
     0
  9
$DIMSD2
 70
     0
  9
$DIMTOLJ
 70
     1
  9
$DIMTZIN
 70
     0
  9
$DIMALTZ
 70
     0
  9
$DIMALTTZ
 70
     0
  9
$DIMUPT
 70
     0
  9
$DIMDEC
 70
     4
  9
$DIMTDEC
 70
     4
  9
$DIMALTU
 70
     2
  9
$DIMALTTD
 70
     2
  9
$DIMTXSTY
  7
Standard
  9
$DIMAUNIT
 70
     0
  9
$DIMADEC
 70
     0
  9
$DIMALTRND
 40
0.0
  9
$DIMAZIN
 70
     0
  9
$DIMDSEP
 70
    46
  9
$DIMATFIT
 70
     3
  9
$DIMFRAC
 70
     0
  9
$DIMLDRBLK
  1

  9
$DIMLUNIT
 70
     2
  9
$DIMLWD
 70
    -2
  9
$DIMLWE
 70
    -2
  9
$DIMTMOVE
 70
     0
  9
$LUNITS
 70
     2
  9
$LUPREC
 70
     4
  9
$SKETCHINC
 40
0.1
  9
$FILLETRAD
 40
0.0
  9
$AUNITS
 70
     0
  9
$AUPREC
 70
     0
  9
$MENU
  1
.
  9
$ELEVATION
 40
0.0
  9
$PELEVATION
 40
0.0
  9
$THICKNESS
 40
0.0
  9
$LIMCHECK
 70
     0
  9
$CHAMFERA
 40
0.0
  9
$CHAMFERB
 40
0.0
  9
$CHAMFERC
 40
0.0
  9
$CHAMFERD
 40
0.0
  9
$SKPOLY
 70
     0
  9
$TDCREATE
 40
2454833.617007731
  9
$TDUCREATE
 40
2454833.575341065
  9
$TDUPDATE
 40
2454833.628154108
  9
$TDUUPDATE
 40
2454833.586487442
  9
$TDINDWG
 40
0.0111463773
  9
$TDUSRTIMER
 40
0.0111463773
  9
$USRTIMER
 70
     1
  9
$ANGBASE
 50
0.0
  9
$ANGDIR
 70
     0
  9
$PDMODE
 70
     0
  9
$PDSIZE
 40
0.0
  9
$PLINEWID
 40
0.0
  9
$SPLFRAME
 70
     0
  9
$SPLINETYPE
 70
     6
  9
$SPLINESEGS
 70
     8
  9
$HANDSEED
  5
1BF
  9
$SURFTAB1
 70
     6
  9
$SURFTAB2
 70
     6
  9
$SURFTYPE
 70
     6
  9
$SURFU
 70
     6
  9
$SURFV
 70
     6
  9
$UCSBASE
  2

  9
$UCSNAME
  2

  9
$UCSORG
 10
0.0
 20
0.0
 30
0.0
  9
$UCSXDIR
 10
1.0
 20
0.0
 30
0.0
  9
$UCSYDIR
 10
0.0
 20
1.0
 30
0.0
  9
$UCSORTHOREF
  2

  9
$UCSORTHOVIEW
 70
     1
  9
$UCSORGTOP
 10
0.0
 20
0.0
 30
0.0
  9
$UCSORGBOTTOM
 10
0.0
 20
0.0
 30
0.0
  9
$UCSORGLEFT
 10
0.0
 20
0.0
 30
0.0
  9
$UCSORGRIGHT
 10
0.0
 20
0.0
 30
0.0
  9
$UCSORGFRONT
 10
0.0
 20
0.0
 30
0.0
  9
$UCSORGBACK
 10
0.0
 20
0.0
 30
0.0
  9
$PUCSBASE
  2

  9
$PUCSNAME
  2

  9
$PUCSORG
 10
0.0
 20
0.0
 30
0.0
  9
$PUCSXDIR
 10
1.0
 20
0.0
 30
0.0
  9
$PUCSYDIR
 10
0.0
 20
1.0
 30
0.0
  9
$PUCSORTHOREF
  2

  9
$PUCSORTHOVIEW
 70
     0
  9
$PUCSORGTOP
 10
0.0
 20
0.0
 30
0.0
  9
$PUCSORGBOTTOM
 10
0.0
 20
0.0
 30
0.0
  9
$PUCSORGLEFT
 10
0.0
 20
0.0
 30
0.0
  9
$PUCSORGRIGHT
 10
0.0
 20
0.0
 30
0.0
  9
$PUCSORGFRONT
 10
0.0
 20
0.0
 30
0.0
  9
$PUCSORGBACK
 10
0.0
 20
0.0
 30
0.0
  9
$USERI1
 70
     0
  9
$USERI2
 70
     0
  9
$USERI3
 70
     0
  9
$USERI4
 70
     0
  9
$USERI5
 70
     0
  9
$USERR1
 40
0.0
  9
$USERR2
 40
0.0
  9
$USERR3
 40
0.0
  9
$USERR4
 40
0.0
  9
$USERR5
 40
0.0
  9
$WORLDVIEW
 70
     1
  9
$SHADEDGE
 70
     3
  9
$SHADEDIF
 70
    70
  9
$TILEMODE
 70
     1
  9
$MAXACTVP
 70
    64
  9
$PINSBASE
 10
0.0
 20
0.0
 30
0.0
  9
$PLIMCHECK
 70
     0
  9
$PEXTMIN
 10
1.000000000000000E+20
 20
1.000000000000000E+20
 30
1.000000000000000E+20
  9
$PEXTMAX
 10
-1.000000000000000E+20
 20
-1.000000000000000E+20
 30
-1.000000000000000E+20
  9
$PLIMMIN
 10
0.0
 20
0.0
  9
$PLIMMAX
 10
12.0
 20
9.0
  9
$UNITMODE
 70
     0
  9
$VISRETAIN
 70
     1
  9
$PLINEGEN
 70
     0
  9
$PSLTSCALE
 70
     1
  9
$TREEDEPTH
 70
  3020
  9
$CMLSTYLE
  2
Standard
  9
$CMLJUST
 70
     0
  9
$CMLSCALE
 40
1.0
  9
$PROXYGRAPHICS
 70
     1
  9
$MEASUREMENT
 70
     0
  9
$CELWEIGHT
370
    -1
  9
$ENDCAPS
280
     0
  9
$JOINSTYLE
280
     0
  9
$LWDISPLAY
290
     0
  9
$INSUNITS
 70
     0
  9
$HYPERLINKBASE
  1

  9
$STYLESHEET
  1

  9
$XEDIT
290
     1
  9
$CEPSNTYPE
380
     0
  9
$PSTYLEMODE
290
     1
  9
$FINGERPRINTGUID
  2
{9EB0D3E3-35A0-45C3-AD7E-A298F54486AB}
  9
$VERSIONGUID
  2
{C77FD35D-A0B0-46CB-8364-5F6FFD7561C7}
  9
$EXTNAMES
290
     1
  9
$PSVPSCALE
 40
0.0
  9
$OLESTARTUP
290
     0
  0
ENDSEC
  0
SECTION
  2
CLASSES
  0
CLASS
  1
ACDBDICTIONARYWDFLT
  2
AcDbDictionaryWithDefault
  3
AutoCAD 2000
 90
        0
280
     0
281
     0
  0
CLASS
  1
ACDBPLACEHOLDER
  2
AcDbPlaceHolder
  3
AutoCAD 2000
 90
        0
280
     0
281
     0
  0
CLASS
  1
LAYOUT
  2
AcDbLayout
  3
AutoCAD 2000
 90
        0
280
     0
281
     0
  0
CLASS
  1
DICTIONARYVAR
  2
AcDbDictionaryVar
  3
AutoCAD 2000
 90
        0
280
     0
281
     0
  0
ENDSEC
  0
SECTION
  2
TABLES
  0
TABLE
  2
VPORT
  5
8
330
0
100
AcDbSymbolTable
 70
     2
  0
VPORT
  5
1BE
330
8
100
AcDbSymbolTableRecord
100
AcDbViewportTableRecord
  2
*Active
 70
     0
 10
0.0
 20
0.0
 11
1.0
 21
1.0
 12
62.5
 22
123.0
 13
0.0
 23
0.0
 14
1.0
 24
1.0
 15
0.0
 25
0.0
 16
0.0
 26
0.0
 36
1.0
 17
0.0
 27
0.0
 37
0.0
 40
248.0617953964194
 41
2.078104993597951
 42
50.0
 43
0.0
 44
0.0
 50
0.0
 51
0.0
 71
     0
 72
   100
 73
     1
 74
     3
 75
     0
 76
     0
 77
     0
 78
     0
281
     0
 65
     1
110
0.0
120
0.0
130
0.0
111
1.0
121
0.0
131
0.0
112
0.0
122
1.0
132
0.0
 79
     1
146
0.0
  0
ENDTAB
  0
TABLE
  2
LTYPE
  5
5
330
0
100
AcDbSymbolTable
 70
     1
  0
LTYPE
  5
13
330
5
100
AcDbSymbolTableRecord
100
AcDbLinetypeTableRecord
  2
ByBlock
 70
     0
  3

 72
    65
 73
     0
 40
0.0
  0
LTYPE
  5
14
330
5
100
AcDbSymbolTableRecord
100
AcDbLinetypeTableRecord
  2
ByLayer
 70
     0
  3

 72
    65
 73
     0
 40
0.0
  0
LTYPE
  5
15
330
5
100
AcDbSymbolTableRecord
100
AcDbLinetypeTableRecord
  2
Continuous
 70
     0
  3
Solid line
 72
    65
 73
     0
 40
0.0
  0
ENDTAB
  0
TABLE
  2
LAYER
  5
2
330
0
100
AcDbSymbolTable
 70
     1
  0
LAYER
  5
10
330
2
100
AcDbSymbolTableRecord
100
AcDbLayerTableRecord
  2
0
 70
     0
 62
     7
  6
Continuous
370
    -3
390
F
  0
ENDTAB
  0
TABLE
  2
STYLE
  5
3
330
0
100
AcDbSymbolTable
 70
     1
  0
STYLE
  5
11
330
3
100
AcDbSymbolTableRecord
100
AcDbTextStyleTableRecord
  2
Standard
 70
     0
 40
0.0
 41
1.0
 50
0.0
 71
     0
 42
0.2
  3
txt
  4

  0
ENDTAB
  0
TABLE
  2
VIEW
  5
6
330
0
100
AcDbSymbolTable
 70
     0
  0
ENDTAB
  0
TABLE
  2
UCS
  5
7
330
0
100
AcDbSymbolTable
 70
     0
  0
ENDTAB
  0
TABLE
  2
APPID
  5
9
330
0
100
AcDbSymbolTable
 70
     1
  0
APPID
  5
12
330
9
100
AcDbSymbolTableRecord
100
AcDbRegAppTableRecord
  2
ACAD
 70
     0
  0
ENDTAB
  0
TABLE
  2
DIMSTYLE
  5
A
330
0
100
AcDbSymbolTable
 70
     1
100
AcDbDimStyleTable
 71
     0
  0
DIMSTYLE
105
1B8
330
A
100
AcDbSymbolTableRecord
100
AcDbDimStyleTableRecord
  2
Standard
 70
     0
340
11
  0
ENDTAB
  0
TABLE
  2
BLOCK_RECORD
  5
1
330
0
100
AcDbSymbolTable
 70
     0
  0
BLOCK_RECORD
  5
1E
330
1
100
AcDbSymbolTableRecord
100
AcDbBlockTableRecord
  2
*Model_Space
340
21
  0
BLOCK_RECORD
  5
1A
330
1
100
AcDbSymbolTableRecord
100
AcDbBlockTableRecord
  2
*Paper_Space
340
1D
  0
ENDTAB
  0
ENDSEC
  0
SECTION
  2
BLOCKS
  0
BLOCK
  5
1F
330
1E
100
AcDbEntity
  8
0
100
AcDbBlockBegin
  2
*Model_Space
 70
     0
 10
0.0
 20
0.0
 30
0.0
  3
*Model_Space
  1

  0
ENDBLK
  5
20
330
1E
100
AcDbEntity
  8
0
100
AcDbBlockEnd
  0
BLOCK
  5
1B
330
1A
100
AcDbEntity
 67
     1
  8
0
100
AcDbBlockBegin
  2
*Paper_Space
 70
     0
 10
0.0
 20
0.0
 30
0.0
  3
*Paper_Space
  1

  0
ENDBLK
  5
1C
330
1A
100
AcDbEntity
 67
     1
  8
0
100
AcDbBlockEnd
  0
ENDSEC
  0
SECTION
  2
ENTITIES
  0
LINE
  5
22
330
1E
100
AcDbEntity
  8
0
100
AcDbLine
 10
1.61874500000001
 20
181.5545
 30
0.0
 11
2.272775000000009
 21
181.2665
 31
0.0
  0
LINE
  5
23
330
1E
100
AcDbEntity
  8
0
100
AcDbLine
 10
2.272775000000009
 20
181.2665
 30
0.0
 11
2.466705000000009
 21
181.1945
 31
0.0
  0
LINE
  5
24
330
1E
100
AcDbEntity
  8
0
100
AcDbLine
 10
2.272775000000009
 20
181.2665
 30
0.0
 11
2.983185000000009
 21
181.1585
 31
0.0
  0
LINE
  5
25
330
1E
100
AcDbEntity
  8
0
100
AcDbLine
 10
1.043655000000009
 20
182.0225
 30
0.0
 11
1.61874500000001
 21
181.5545
 31
0.0
  0
LINE
  5
26
330
1E
100
AcDbEntity
  8
0
100
AcDbLine
 10
0.6038750000000059
 20
182.6345
 30
0.0
 11
1.043655000000009
 21
182.0225
 31
0.0
  0
LINE
  5
27
330
1E
100
AcDbEntity
  8
0
100
AcDbLine
 10
0.333245000000005
 20
183.3305
 30
0.0
 11
0.6038750000000059
 21
182.6345
 31
0.0
  0
LINE
  5
28
330
1E
100
AcDbEntity
  8
0
100
AcDbLine
 10
2.466705000000009
 20
181.1945
 30
0.0
 11
3.188395000000009
 21
181.0864999999999
 31
0.0
  0
LINE
  5
29
330
1E
100
AcDbEntity
  8
0
100
AcDbLine
 10
2.983185000000009
 20
181.1585
 30
0.0
 11
3.693595000000009
 21
181.2665
 31
0.0
  0
LINE
  5
2A
330
1E
100
AcDbEntity
  8
0
100
AcDbLine
 10
3.693595000000009
 20
181.2665
 30
0.0
 11
4.347615000000009
 21
181.5545
 31
0.0
  0
LINE
  5
2B
330
1E
100
AcDbEntity
  8
0
100
AcDbLine
 10
4.347615000000009
 20
181.5545
 30
0.0
 11
4.922705000000009
 21
182.0225
 31
0.0
  0
LINE
  5
2C
330
1E
100
AcDbEntity
  8
0
100
AcDbLine
 10
4.922705000000009
 20
182.0225
 30
0.0
 11
5.362485000000009
 21
182.6345
 31
0.0
  0
LINE
  5
2D
330
1E
100
AcDbEntity
  8
0
100
AcDbLine
 10
5.362485000000009
 20
182.6345
 30
0.0
 11
5.633115000000009
 21
183.3305
 31
0.0
  0
LINE
  5
2E
330
1E
100
AcDbEntity
  8
0
100
AcDbLine
 10
5.633115000000009
 20
183.3305
 30
0.0
 11
5.734605000000009
 21
184.0864999999999
 31
0.0
  0
LINE
  5
2F
330
1E
100
AcDbEntity
  8
0
100
AcDbLine
 10
3.188395000000009
 20
181.0864999999999
 30
0.0
 11
6.539735000000009
 21
181.0864999999999
 31
0.0
  0
LINE
  5
30
330
1E
100
AcDbEntity
  8
0
100
AcDbLine
 10
0.6038750000000059
 20
185.5385
 30
0.0
 11
1.043655000000009
 21
186.1505
 31
0.0
  0
LINE
  5
31
330
1E
100
AcDbEntity
  8
0
100
AcDbLine
 10
0.333245000000005
 20
184.8424999999999
 30
0.0
 11
0.6038750000000059
 21
185.5385
 31
0.0
  0
LINE
  5
32
330
1E
100
AcDbEntity
  8
0
100
AcDbLine
 10
0.231765000000005
 20
184.0864999999999
 30
0.0
 11
0.333245000000005
 21
184.8424999999999
 31
0.0
  0
LINE
  5
33
330
1E
100
AcDbEntity
  8
0
100
AcDbLine
 10
0.231765000000005
 20
184.0864999999999
 30
0.0
 11
0.333245000000005
 21
183.3305
 31
0.0
  0
LINE
  5
34
330
1E
100
AcDbEntity
  8
0
100
AcDbLine
 10
1.61874500000001
 20
186.6185
 30
0.0
 11
2.272775000000009
 21
186.9064999999999
 31
0.0
  0
LINE
  5
35
330
1E
100
AcDbEntity
  8
0
100
AcDbLine
 10
1.043655000000009
 20
186.1505
 30
0.0
 11
1.61874500000001
 21
186.6185
 31
0.0
  0
LINE
  5
36
330
1E
100
AcDbEntity
  8
0
100
AcDbLine
 10
2.272775000000009
 20
186.9064999999999
 30
0.0
 11
2.466705000000009
 21
186.9785
 31
0.0
  0
LINE
  5
37
330
1E
100
AcDbEntity
  8
0
100
AcDbLine
 10
2.272775000000009
 20
186.9064999999999
 30
0.0
 11
2.983185000000009
 21
187.0144999999999
 31
0.0
  0
LINE
  5
38
330
1E
100
AcDbEntity
  8
0
100
AcDbLine
 10
2.466705000000009
 20
186.9785
 30
0.0
 11
3.188395000000009
 21
187.0865
 31
0.0
  0
LINE
  5
39
330
1E
100
AcDbEntity
  8
0
100
AcDbLine
 10
2.983185000000009
 20
187.0144999999999
 30
0.0
 11
3.693595000000009
 21
186.9064999999999
 31
0.0
  0
LINE
  5
3A
330
1E
100
AcDbEntity
  8
0
100
AcDbLine
 10
3.693595000000009
 20
186.9064999999999
 30
0.0
 11
4.347615000000009
 21
186.6185
 31
0.0
  0
LINE
  5
3B
330
1E
100
AcDbEntity
  8
0
100
AcDbLine
 10
4.347615000000009
 20
186.6185
 30
0.0
 11
4.922705000000009
 21
186.1505
 31
0.0
  0
LINE
  5
3C
330
1E
100
AcDbEntity
  8
0
100
AcDbLine
 10
4.922705000000009
 20
186.1505
 30
0.0
 11
5.362485000000009
 21
185.5385
 31
0.0
  0
LINE
  5
3D
330
1E
100
AcDbEntity
  8
0
100
AcDbLine
 10
5.362485000000009
 20
185.5385
 30
0.0
 11
5.633115000000009
 21
184.8424999999999
 31
0.0
  0
LINE
  5
3E
330
1E
100
AcDbEntity
  8
0
100
AcDbLine
 10
6.539735
 20
165.5865
 30
0.0
 11
37.616735
 21
165.5865
 31
0.0
  0
LINE
  5
3F
330
1E
100
AcDbEntity
  8
0
100
AcDbLine
 10
6.078235000000009
 20
166.6964999999999
 30
0.0
 11
6.078235000000009
 21
166.0304999999999
 31
0.0
  0
LINE
  5
40
330
1E
100
AcDbEntity
  8
0
100
AcDbLine
 10
6.078235000000009
 20
166.6964999999999
 30
0.0
 11
6.078235000000009
 21
168.4725
 31
0.0
  0
LINE
  5
41
330
1E
100
AcDbEntity
  8
0
100
AcDbLine
 10
6.078235000000009
 20
166.0304999999999
 30
0.0
 11
6.539735000000009
 21
165.5865
 31
0.0
  0
LINE
  5
42
330
1E
100
AcDbEntity
  8
0
100
AcDbLine
 10
6.078235000000009
 20
166.0304999999999
 30
0.0
 11
6.078235000000009
 21
166.6964999999999
 31
0.0
  0
LINE
  5
43
330
1E
100
AcDbEntity
  8
0
100
AcDbLine
 10
6.078235000000009
 20
168.4725
 30
0.0
 11
6.078235000000009
 21
166.6964999999999
 31
0.0
  0
LINE
  5
44
330
1E
100
AcDbEntity
  8
0
100
AcDbLine
 10
6.078235000000009
 20
168.4725
 30
0.0
 11
6.078235000000009
 21
171.3584999999999
 31
0.0
  0
LINE
  5
45
330
1E
100
AcDbEntity
  8
0
100
AcDbLine
 10
6.078235000000009
 20
171.3584999999999
 30
0.0
 11
6.078235000000009
 21
168.4725
 31
0.0
  0
LINE
  5
46
330
1E
100
AcDbEntity
  8
0
100
AcDbLine
 10
6.078235000000009
 20
171.3584999999999
 30
0.0
 11
6.078235000000009
 21
175.1325
 31
0.0
  0
LINE
  5
47
330
1E
100
AcDbEntity
  8
0
100
AcDbLine
 10
6.078235000000009
 20
175.1325
 30
0.0
 11
6.078235000000009
 21
171.3584999999999
 31
0.0
  0
LINE
  5
48
330
1E
100
AcDbEntity
  8
0
100
AcDbLine
 10
6.078235000000009
 20
175.1325
 30
0.0
 11
6.078235000000009
 21
179.4245
 31
0.0
  0
LINE
  5
49
330
1E
100
AcDbEntity
  8
0
100
AcDbLine
 10
6.078235000000009
 20
187.0865
 30
0.0
 11
6.078235000000009
 21
188.7485
 31
0.0
  0
LINE
  5
4A
330
1E
100
AcDbEntity
  8
0
100
AcDbLine
 10
6.078235000000009
 20
179.4245
 30
0.0
 11
6.078235000000009
 21
175.1325
 31
0.0
  0
LINE
  5
4B
330
1E
100
AcDbEntity
  8
0
100
AcDbLine
 10
6.078235000000009
 20
179.4245
 30
0.0
 11
6.078235000000009
 21
181.0864999999999
 31
0.0
  0
LINE
  5
4C
330
1E
100
AcDbEntity
  8
0
100
AcDbLine
 10
6.539735000000009
 20
166.2525
 30
0.0
 11
6.539735000000009
 21
168.0285
 31
0.0
  0
LINE
  5
4D
330
1E
100
AcDbEntity
  8
0
100
AcDbLine
 10
6.539735000000009
 20
166.2525
 30
0.0
 11
6.539735000000009
 21
165.5865
 31
0.0
  0
LINE
  5
4E
330
1E
100
AcDbEntity
  8
0
100
AcDbLine
 10
6.539735000000009
 20
168.0285
 30
0.0
 11
6.539735000000009
 21
170.9884999999999
 31
0.0
  0
LINE
  5
4F
330
1E
100
AcDbEntity
  8
0
100
AcDbLine
 10
6.539735000000009
 20
168.0285
 30
0.0
 11
6.539735000000009
 21
166.2525
 31
0.0
  0
LINE
  5
50
330
1E
100
AcDbEntity
  8
0
100
AcDbLine
 10
6.539735000000009
 20
170.9884999999999
 30
0.0
 11
6.539735000000009
 21
174.9105
 31
0.0
  0
LINE
  5
51
330
1E
100
AcDbEntity
  8
0
100
AcDbLine
 10
6.539735000000009
 20
170.9884999999999
 30
0.0
 11
6.539735000000009
 21
168.0285
 31
0.0
  0
LINE
  5
52
330
1E
100
AcDbEntity
  8
0
100
AcDbLine
 10
6.539735000000009
 20
174.9105
 30
0.0
 11
6.539735000000009
 21
179.3505
 31
0.0
  0
LINE
  5
53
330
1E
100
AcDbEntity
  8
0
100
AcDbLine
 10
6.539735000000009
 20
174.9105
 30
0.0
 11
6.539735000000009
 21
170.9884999999999
 31
0.0
  0
LINE
  5
54
330
1E
100
AcDbEntity
  8
0
100
AcDbLine
 10
6.539735000000009
 20
187.0865
 30
0.0
 11
6.539735000000009
 21
188.8225
 31
0.0
  0
LINE
  5
55
330
1E
100
AcDbEntity
  8
0
100
AcDbLine
 10
6.539735000000009
 20
181.0864999999999
 30
0.0
 11
6.539735000000009
 21
179.3505
 31
0.0
  0
LINE
  5
56
330
1E
100
AcDbEntity
  8
0
100
AcDbLine
 10
6.539735000000009
 20
179.3505
 30
0.0
 11
6.539735000000009
 21
181.0864999999999
 31
0.0
  0
LINE
  5
57
330
1E
100
AcDbEntity
  8
0
100
AcDbLine
 10
6.539735000000009
 20
179.3505
 30
0.0
 11
6.539735000000009
 21
174.9105
 31
0.0
  0
LINE
  5
58
330
1E
100
AcDbEntity
  8
0
100
AcDbLine
 10
6.078235000000009
 20
181.0864999999999
 30
0.0
 11
6.078235000000009
 21
179.4245
 31
0.0
  0
LINE
  5
59
330
1E
100
AcDbEntity
  8
0
100
AcDbLine
 10
6.539735000000009
 20
165.5865
 30
0.0
 11
37.616735
 21
165.5865
 31
0.0
  0
LINE
  5
5A
330
1E
100
AcDbEntity
  8
0
100
AcDbLine
 10
6.539735000000009
 20
165.5865
 30
0.0
 11
6.539735000000009
 21
166.2525
 31
0.0
  0
LINE
  5
5B
330
1E
100
AcDbEntity
  8
0
100
AcDbLine
 10
5.633115000000009
 20
184.8424999999999
 30
0.0
 11
5.734605000000009
 21
184.0864999999999
 31
0.0
  0
LINE
  5
5C
330
1E
100
AcDbEntity
  8
0
100
AcDbLine
 10
6.078235000000009
 20
202.1425
 30
0.0
 11
6.078235000000009
 21
201.4764999999999
 31
0.0
  0
LINE
  5
5D
330
1E
100
AcDbEntity
  8
0
100
AcDbLine
 10
6.078235000000009
 20
202.1425
 30
0.0
 11
6.539735000000009
 21
202.5865
 31
0.0
  0
LINE
  5
5E
330
1E
100
AcDbEntity
  8
0
100
AcDbLine
 10
6.078235000000009
 20
201.4764999999999
 30
0.0
 11
6.078235000000009
 21
199.7005
 31
0.0
  0
LINE
  5
5F
330
1E
100
AcDbEntity
  8
0
100
AcDbLine
 10
6.078235000000009
 20
201.4764999999999
 30
0.0
 11
6.078235000000009
 21
202.1425
 31
0.0
  0
LINE
  5
60
330
1E
100
AcDbEntity
  8
0
100
AcDbLine
 10
6.078235000000009
 20
199.7005
 30
0.0
 11
6.078235000000009
 21
196.8144999999999
 31
0.0
  0
LINE
  5
61
330
1E
100
AcDbEntity
  8
0
100
AcDbLine
 10
6.078235000000009
 20
199.7005
 30
0.0
 11
6.078235000000009
 21
201.4764999999999
 31
0.0
  0
LINE
  5
62
330
1E
100
AcDbEntity
  8
0
100
AcDbLine
 10
6.078235000000009
 20
196.8144999999999
 30
0.0
 11
6.078235000000009
 21
193.0405
 31
0.0
  0
LINE
  5
63
330
1E
100
AcDbEntity
  8
0
100
AcDbLine
 10
6.078235000000009
 20
196.8144999999999
 30
0.0
 11
6.078235000000009
 21
199.7005
 31
0.0
  0
LINE
  5
64
330
1E
100
AcDbEntity
  8
0
100
AcDbLine
 10
6.078235000000009
 20
193.0405
 30
0.0
 11
6.078235000000009
 21
188.7485
 31
0.0
  0
LINE
  5
65
330
1E
100
AcDbEntity
  8
0
100
AcDbLine
 10
6.078235000000009
 20
193.0405
 30
0.0
 11
6.078235000000009
 21
196.8144999999999
 31
0.0
  0
LINE
  5
66
330
1E
100
AcDbEntity
  8
0
100
AcDbLine
 10
6.078235000000009
 20
188.7485
 30
0.0
 11
6.078235000000009
 21
187.0865
 31
0.0
  0
LINE
  5
67
330
1E
100
AcDbEntity
  8
0
100
AcDbLine
 10
6.078235000000009
 20
188.7485
 30
0.0
 11
6.078235000000009
 21
193.0405
 31
0.0
  0
LINE
  5
68
330
1E
100
AcDbEntity
  8
0
100
AcDbLine
 10
6.539735000000009
 20
202.5865
 30
0.0
 11
37.616735
 21
202.5865
 31
0.0
  0
LINE
  5
69
330
1E
100
AcDbEntity
  8
0
100
AcDbLine
 10
6.539735000000009
 20
202.5865
 30
0.0
 11
6.539735000000009
 21
201.9204999999999
 31
0.0
  0
LINE
  5
6A
330
1E
100
AcDbEntity
  8
0
100
AcDbLine
 10
6.539735000000009
 20
201.9204999999999
 30
0.0
 11
6.539735000000009
 21
202.5865
 31
0.0
  0
LINE
  5
6B
330
1E
100
AcDbEntity
  8
0
100
AcDbLine
 10
6.539735000000009
 20
201.9204999999999
 30
0.0
 11
6.539735000000009
 21
200.1444999999999
 31
0.0
  0
LINE
  5
6C
330
1E
100
AcDbEntity
  8
0
100
AcDbLine
 10
6.539735000000009
 20
200.1444999999999
 30
0.0
 11
6.539735000000009
 21
201.9204999999999
 31
0.0
  0
LINE
  5
6D
330
1E
100
AcDbEntity
  8
0
100
AcDbLine
 10
6.539735000000009
 20
200.1444999999999
 30
0.0
 11
6.539735000000009
 21
197.1845
 31
0.0
  0
LINE
  5
6E
330
1E
100
AcDbEntity
  8
0
100
AcDbLine
 10
6.539735000000009
 20
197.1845
 30
0.0
 11
6.539735000000009
 21
200.1444999999999
 31
0.0
  0
LINE
  5
6F
330
1E
100
AcDbEntity
  8
0
100
AcDbLine
 10
6.539735000000009
 20
197.1845
 30
0.0
 11
6.539735000000009
 21
193.2624999999999
 31
0.0
  0
LINE
  5
70
330
1E
100
AcDbEntity
  8
0
100
AcDbLine
 10
6.539735000000009
 20
193.2624999999999
 30
0.0
 11
6.539735000000009
 21
197.1845
 31
0.0
  0
LINE
  5
71
330
1E
100
AcDbEntity
  8
0
100
AcDbLine
 10
6.539735000000009
 20
193.2624999999999
 30
0.0
 11
6.539735000000009
 21
188.8225
 31
0.0
  0
LINE
  5
72
330
1E
100
AcDbEntity
  8
0
100
AcDbLine
 10
6.539735000000009
 20
188.8225
 30
0.0
 11
6.539735000000009
 21
193.2624999999999
 31
0.0
  0
LINE
  5
73
330
1E
100
AcDbEntity
  8
0
100
AcDbLine
 10
6.539735000000009
 20
188.8225
 30
0.0
 11
6.539735000000009
 21
187.0865
 31
0.0
  0
LINE
  5
74
330
1E
100
AcDbEntity
  8
0
100
AcDbLine
 10
6.539735
 20
202.5865
 30
0.0
 11
37.616735
 21
202.5865
 31
0.0
  0
LINE
  5
75
330
1E
100
AcDbEntity
  8
0
100
AcDbLine
 10
3.188395000000009
 20
187.0865
 30
0.0
 11
6.539735000000009
 21
187.0865
 31
0.0
  0
LINE
  5
76
330
1E
100
AcDbEntity
  8
0
100
AcDbLine
 10
37.616735
 20
166.2525
 30
0.0
 11
37.616735
 21
165.5865
 31
0.0
  0
LINE
  5
77
330
1E
100
AcDbEntity
  8
0
100
AcDbLine
 10
37.616735
 20
166.2525
 30
0.0
 11
37.616735
 21
168.0285
 31
0.0
  0
LINE
  5
78
330
1E
100
AcDbEntity
  8
0
100
AcDbLine
 10
37.616735
 20
168.0285
 30
0.0
 11
37.616735
 21
166.2525
 31
0.0
  0
LINE
  5
79
330
1E
100
AcDbEntity
  8
0
100
AcDbLine
 10
37.616735
 20
168.0285
 30
0.0
 11
37.616735
 21
170.9884999999999
 31
0.0
  0
LINE
  5
7A
330
1E
100
AcDbEntity
  8
0
100
AcDbLine
 10
37.616735
 20
170.9884999999999
 30
0.0
 11
37.616735
 21
168.0285
 31
0.0
  0
LINE
  5
7B
330
1E
100
AcDbEntity
  8
0
100
AcDbLine
 10
37.616735
 20
170.9884999999999
 30
0.0
 11
37.616735
 21
174.9105
 31
0.0
  0
LINE
  5
7C
330
1E
100
AcDbEntity
  8
0
100
AcDbLine
 10
37.616735
 20
174.9105
 30
0.0
 11
37.616735
 21
170.9884999999999
 31
0.0
  0
LINE
  5
7D
330
1E
100
AcDbEntity
  8
0
100
AcDbLine
 10
37.616735
 20
174.9105
 30
0.0
 11
37.616735
 21
179.3505
 31
0.0
  0
LINE
  5
7E
330
1E
100
AcDbEntity
  8
0
100
AcDbLine
 10
37.616735
 20
179.3505
 30
0.0
 11
37.616735
 21
174.9105
 31
0.0
  0
LINE
  5
7F
330
1E
100
AcDbEntity
  8
0
100
AcDbLine
 10
37.616735
 20
179.3505
 30
0.0
 11
37.616735
 21
184.0864999999999
 31
0.0
  0
LINE
  5
80
330
1E
100
AcDbEntity
  8
0
100
AcDbLine
 10
38.07823499999999
 20
166.0304999999999
 30
0.0
 11
38.07823499999999
 21
166.6964999999999
 31
0.0
  0
LINE
  5
81
330
1E
100
AcDbEntity
  8
0
100
AcDbLine
 10
38.07823499999999
 20
166.0304999999999
 30
0.0
 11
38.539735
 21
165.5865
 31
0.0
  0
LINE
  5
82
330
1E
100
AcDbEntity
  8
0
100
AcDbLine
 10
38.07823499999999
 20
166.6964999999999
 30
0.0
 11
38.07823499999999
 21
166.0304999999999
 31
0.0
  0
LINE
  5
83
330
1E
100
AcDbEntity
  8
0
100
AcDbLine
 10
38.07823499999999
 20
166.6964999999999
 30
0.0
 11
38.07823499999999
 21
168.4725
 31
0.0
  0
LINE
  5
84
330
1E
100
AcDbEntity
  8
0
100
AcDbLine
 10
38.07823499999999
 20
168.4725
 30
0.0
 11
38.07823499999999
 21
166.6964999999999
 31
0.0
  0
LINE
  5
85
330
1E
100
AcDbEntity
  8
0
100
AcDbLine
 10
38.07823499999999
 20
168.4725
 30
0.0
 11
38.07823499999999
 21
171.3584999999999
 31
0.0
  0
LINE
  5
86
330
1E
100
AcDbEntity
  8
0
100
AcDbLine
 10
38.07823499999999
 20
171.3584999999999
 30
0.0
 11
38.07823499999999
 21
168.4725
 31
0.0
  0
LINE
  5
87
330
1E
100
AcDbEntity
  8
0
100
AcDbLine
 10
38.07823499999999
 20
171.3584999999999
 30
0.0
 11
38.07823499999999
 21
175.1325
 31
0.0
  0
LINE
  5
88
330
1E
100
AcDbEntity
  8
0
100
AcDbLine
 10
39.76873499999999
 20
38.73749999999999
 30
0.0
 11
41.268735
 21
29.2975
 31
0.0
  0
LINE
  5
89
330
1E
100
AcDbEntity
  8
0
100
AcDbLine
 10
39.76873499999999
 20
38.73749999999999
 30
0.0
 11
39.76873499999999
 21
41.2375
 31
0.0
  0
LINE
  5
8A
330
1E
100
AcDbEntity
  8
0
100
AcDbLine
 10
39.76873499999999
 20
41.2375
 30
0.0
 11
41.268735
 21
31.7975
 31
0.0
  0
LINE
  5
8B
330
1E
100
AcDbEntity
  8
0
100
AcDbLine
 10
39.76873499999999
 20
41.2375
 30
0.0
 11
39.76873499999999
 21
38.73749999999999
 31
0.0
  0
LINE
  5
8C
330
1E
100
AcDbEntity
  8
0
100
AcDbLine
 10
39.76873499999999
 20
41.2375
 30
0.0
 11
39.8084595762712
 21
41.48749999999999
 31
0.0
  0
LINE
  5
8D
330
1E
100
AcDbEntity
  8
0
100
AcDbLine
 10
41.268735
 20
29.2975
 30
0.0
 11
45.46873499999999
 21
20.4645
 31
0.0
  0
LINE
  5
8E
330
1E
100
AcDbEntity
  8
0
100
AcDbLine
 10
41.268735
 20
31.7975
 30
0.0
 11
45.46873499999999
 21
22.9645
 31
0.0
  0
LINE
  5
8F
330
1E
100
AcDbEntity
  8
0
100
AcDbLine
 10
41.268735
 20
51.1775
 30
0.0
 11
45.46873499999999
 21
60.0105
 31
0.0
  0
LINE
  5
90
330
1E
100
AcDbEntity
  8
0
100
AcDbLine
 10
41.268735
 20
32.2975
 30
0.0
 11
45.46873499999999
 21
23.4645
 31
0.0
  0
LINE
  5
91
330
1E
100
AcDbEntity
  8
0
100
AcDbLine
 10
39.76873499999999
 20
41.7375
 30
0.0
 11
41.268735
 21
32.2975
 31
0.0
  0
LINE
  5
92
330
1E
100
AcDbEntity
  8
0
100
AcDbLine
 10
39.76873499999999
 20
41.7375
 30
0.0
 11
41.268735
 21
51.1775
 31
0.0
  0
LINE
  5
93
330
1E
100
AcDbEntity
  8
0
100
AcDbLine
 10
38.539735
 20
166.2525
 30
0.0
 11
38.539735
 21
168.0285
 31
0.0
  0
LINE
  5
94
330
1E
100
AcDbEntity
  8
0
100
AcDbLine
 10
38.539735
 20
166.2525
 30
0.0
 11
38.539735
 21
165.5865
 31
0.0
  0
LINE
  5
95
330
1E
100
AcDbEntity
  8
0
100
AcDbLine
 10
38.539735
 20
168.0285
 30
0.0
 11
38.539735
 21
170.9884999999999
 31
0.0
  0
LINE
  5
96
330
1E
100
AcDbEntity
  8
0
100
AcDbLine
 10
38.539735
 20
168.0285
 30
0.0
 11
38.539735
 21
166.2525
 31
0.0
  0
LINE
  5
97
330
1E
100
AcDbEntity
  8
0
100
AcDbLine
 10
38.539735
 20
170.9884999999999
 30
0.0
 11
38.539735
 21
174.9105
 31
0.0
  0
LINE
  5
98
330
1E
100
AcDbEntity
  8
0
100
AcDbLine
 10
38.539735
 20
170.9884999999999
 30
0.0
 11
38.539735
 21
168.0285
 31
0.0
  0
LINE
  5
99
330
1E
100
AcDbEntity
  8
0
100
AcDbLine
 10
38.539735
 20
174.9105
 30
0.0
 11
38.539735
 21
179.3505
 31
0.0
  0
LINE
  5
9A
330
1E
100
AcDbEntity
  8
0
100
AcDbLine
 10
38.539735
 20
174.9105
 30
0.0
 11
38.539735
 21
170.9884999999999
 31
0.0
  0
LINE
  5
9B
330
1E
100
AcDbEntity
  8
0
100
AcDbLine
 10
38.539735
 20
179.3505
 30
0.0
 11
38.539735
 21
184.0864999999999
 31
0.0
  0
LINE
  5
9C
330
1E
100
AcDbEntity
  8
0
100
AcDbLine
 10
38.539735
 20
179.3505
 30
0.0
 11
38.539735
 21
174.9105
 31
0.0
  0
LINE
  5
9D
330
1E
100
AcDbEntity
  8
0
100
AcDbLine
 10
38.539735
 20
165.5865
 30
0.0
 11
68.39038721304909
 21
165.5865
 31
0.0
  0
LINE
  5
9E
330
1E
100
AcDbEntity
  8
0
100
AcDbLine
 10
38.539735
 20
165.5865
 30
0.0
 11
38.539735
 21
166.2525
 31
0.0
  0
LINE
  5
9F
330
1E
100
AcDbEntity
  8
0
100
AcDbLine
 10
38.07823499999999
 20
175.1325
 30
0.0
 11
38.07823499999999
 21
171.3584999999999
 31
0.0
  0
LINE
  5
A0
330
1E
100
AcDbEntity
  8
0
100
AcDbLine
 10
38.07823499999999
 20
175.1325
 30
0.0
 11
38.07823499999999
 21
179.4245
 31
0.0
  0
LINE
  5
A1
330
1E
100
AcDbEntity
  8
0
100
AcDbLine
 10
38.07823499999999
 20
179.4245
 30
0.0
 11
38.07823499999999
 21
175.1325
 31
0.0
  0
LINE
  5
A2
330
1E
100
AcDbEntity
  8
0
100
AcDbLine
 10
38.07823499999999
 20
179.4245
 30
0.0
 11
38.07823499999999
 21
184.0864999999999
 31
0.0
  0
LINE
  5
A3
330
1E
100
AcDbEntity
  8
0
100
AcDbLine
 10
37.616735
 20
165.5865
 30
0.0
 11
38.07823499999999
 21
166.0304999999999
 31
0.0
  0
LINE
  5
A4
330
1E
100
AcDbEntity
  8
0
100
AcDbLine
 10
37.616735
 20
165.5865
 30
0.0
 11
37.616735
 21
166.2525
 31
0.0
  0
LINE
  5
A5
330
1E
100
AcDbEntity
  8
0
100
AcDbLine
 10
38.539735
 20
184.0864999999999
 30
0.0
 11
38.539735
 21
179.3505
 31
0.0
  0
LINE
  5
A6
330
1E
100
AcDbEntity
  8
0
100
AcDbLine
 10
38.539735
 20
184.0864999999999
 30
0.0
 11
38.539735
 21
188.8225
 31
0.0
  0
LINE
  5
A7
330
1E
100
AcDbEntity
  8
0
100
AcDbLine
 10
38.07823499999999
 20
184.0864999999999
 30
0.0
 11
38.07823499999999
 21
179.4245
 31
0.0
  0
LINE
  5
A8
330
1E
100
AcDbEntity
  8
0
100
AcDbLine
 10
38.07823499999999
 20
184.0864999999999
 30
0.0
 11
38.07823499999999
 21
188.7485
 31
0.0
  0
LINE
  5
A9
330
1E
100
AcDbEntity
  8
0
100
AcDbLine
 10
37.616735
 20
184.0864999999999
 30
0.0
 11
37.616735
 21
179.3505
 31
0.0
  0
LINE
  5
AA
330
1E
100
AcDbEntity
  8
0
100
AcDbLine
 10
37.616735
 20
184.0864999999999
 30
0.0
 11
37.616735
 21
188.8225
 31
0.0
  0
LINE
  5
AB
330
1E
100
AcDbEntity
  8
0
100
AcDbLine
 10
41.478235
 20
181.2865
 30
0.0
 11
42.57823499999999
 21
178.5865
 31
0.0
  0
LINE
  5
AC
330
1E
100
AcDbEntity
  8
0
100
AcDbLine
 10
41.478235
 20
181.2865
 30
0.0
 11
42.57823499999999
 21
178.5865
 31
0.0
  0
LINE
  5
AD
330
1E
100
AcDbEntity
  8
0
100
AcDbLine
 10
41.078235
 20
184.0864999999999
 30
0.0
 11
41.478235
 21
181.2865
 31
0.0
  0
LINE
  5
AE
330
1E
100
AcDbEntity
  8
0
100
AcDbLine
 10
41.078235
 20
184.0864999999999
 30
0.0
 11
41.078235
 21
246.0865
 31
0.0
  0
LINE
  5
AF
330
1E
100
AcDbEntity
  8
0
100
AcDbLine
 10
41.078235
 20
184.0864999999999
 30
0.0
 11
41.478235
 21
181.2865
 31
0.0
  0
LINE
  5
B0
330
1E
100
AcDbEntity
  8
0
100
AcDbLine
 10
41.078235
 20
184.0864999999999
 30
0.0
 11
41.078235
 21
246.0865
 31
0.0
  0
LINE
  5
B1
330
1E
100
AcDbEntity
  8
0
100
AcDbLine
 10
42.26873499999999
 20
26.9715
 30
0.0
 11
46.368735
 21
18.3975
 31
0.0
  0
LINE
  5
B2
330
1E
100
AcDbEntity
  8
0
100
AcDbLine
 10
42.1393577025234
 20
27.4664975401453
 30
0.0
 11
42.26873499999999
 21
26.9715
 31
0.0
  0
LINE
  5
B3
330
1E
100
AcDbEntity
  8
0
100
AcDbLine
 10
44.27823499999999
 20
176.2864999999999
 30
0.0
 11
46.578235
 21
174.5865
 31
0.0
  0
LINE
  5
B4
330
1E
100
AcDbEntity
  8
0
100
AcDbLine
 10
44.27823499999999
 20
176.2864999999999
 30
0.0
 11
46.578235
 21
174.5865
 31
0.0
  0
LINE
  5
B5
330
1E
100
AcDbEntity
  8
0
100
AcDbLine
 10
42.57823499999999
 20
178.5865
 30
0.0
 11
44.27823499999999
 21
176.2864999999999
 31
0.0
  0
LINE
  5
B6
330
1E
100
AcDbEntity
  8
0
100
AcDbLine
 10
45.46873499999999
 20
20.4645
 30
0.0
 11
52.26873499999999
 21
12.7565
 31
0.0
  0
LINE
  5
B7
330
1E
100
AcDbEntity
  8
0
100
AcDbLine
 10
45.46873499999999
 20
60.0105
 30
0.0
 11
52.26873499999999
 21
67.7183
 31
0.0
  0
LINE
  5
B8
330
1E
100
AcDbEntity
  8
0
100
AcDbLine
 10
45.46873499999999
 20
22.9645
 30
0.0
 11
52.26873499999999
 21
15.2565
 31
0.0
  0
LINE
  5
B9
330
1E
100
AcDbEntity
  8
0
100
AcDbLine
 10
46.368735
 20
18.3975
 30
0.0
 11
52.968735
 21
10.8635
 31
0.0
  0
LINE
  5
BA
330
1E
100
AcDbEntity
  8
0
100
AcDbLine
 10
45.46873499999999
 20
23.4645
 30
0.0
 11
52.26873499999999
 21
15.7565
 31
0.0
  0
LINE
  5
BB
330
1E
100
AcDbEntity
  8
0
100
AcDbLine
 10
46.578235
 20
174.5865
 30
0.0
 11
49.27823499999999
 21
173.4865
 31
0.0
  0
LINE
  5
BC
330
1E
100
AcDbEntity
  8
0
100
AcDbLine
 10
49.27823499999999
 20
173.4865
 30
0.0
 11
52.07823499999999
 21
173.0865
 31
0.0
  0
LINE
  5
BD
330
1E
100
AcDbEntity
  8
0
100
AcDbLine
 10
49.27823499999999
 20
173.4865
 30
0.0
 11
52.07823499999999
 21
173.0865
 31
0.0
  0
LINE
  5
BE
330
1E
100
AcDbEntity
  8
0
100
AcDbLine
 10
46.578235
 20
174.5865
 30
0.0
 11
49.27823499999999
 21
173.4865
 31
0.0
  0
LINE
  5
BF
330
1E
100
AcDbEntity
  8
0
100
AcDbLine
 10
52.07823499999999
 20
173.0865
 30
0.0
 11
54.878235
 21
173.4865
 31
0.0
  0
LINE
  5
C0
330
1E
100
AcDbEntity
  8
0
100
AcDbLine
 10
52.26873499999999
 20
12.7565
 30
0.0
 11
61.168735
 21
6.867500000000009
 31
0.0
  0
LINE
  5
C2
330
1E
100
AcDbEntity
  8
0
100
AcDbLine
 10
53.668735
 20
10.2194999999999
 30
0.0
 11
62.26873499999999
 21
4.59049999999996
 31
0.0
  0
LINE
  5
C3
330
1E
100
AcDbEntity
  8
0
100
AcDbLine
 10
52.968735
 20
10.8635
 30
0.0
 11
53.668735
 21
10.2194999999999
 31
0.0
  0
LINE
  5
C6
330
1E
100
AcDbEntity
  8
0
100
AcDbLine
 10
52.26873499999999
 20
15.2565
 30
0.0
 11
61.168735
 21
9.367499999999999
 31
0.0
  0
LINE
  5
C7
330
1E
100
AcDbEntity
  8
0
100
AcDbLine
 10
52.26873499999999
 20
67.7183
 30
0.0
 11
59.55697807112489
 21
72.54082398268029
 31
0.0
  0
LINE
  5
C8
330
1E
100
AcDbEntity
  8
0
100
AcDbLine
 10
52.26873499999999
 20
67.7183
 30
0.0
 11
59.55697807112489
 21
72.54082398268029
 31
0.0
  0
LINE
  5
C9
330
1E
100
AcDbEntity
  8
0
100
AcDbLine
 10
52.26873499999999
 20
15.7565
 30
0.0
 11
61.168735
 21
9.86750000000001
 31
0.0
  0
LINE
  5
CA
330
1E
100
AcDbEntity
  8
0
100
AcDbLine
 10
52.07823499999999
 20
173.0865
 30
0.0
 11
54.878235
 21
173.4865
 31
0.0
  0
LINE
  5
CB
330
1E
100
AcDbEntity
  8
0
100
AcDbLine
 10
52.07823499999999
 20
173.5864999999999
 30
0.0
 11
54.77823499999999
 21
173.9864999999999
 31
0.0
  0
LINE
  5
CC
330
1E
100
AcDbEntity
  8
0
100
AcDbLine
 10
62.26873499999999
 20
4.59049999999996
 30
0.0
 11
71.868735
 21
1.212499999999989
 31
0.0
  0
LINE
  5
CD
330
1E
100
AcDbEntity
  8
0
100
AcDbLine
 10
71.368735
 20
3.230499999999949
 30
0.0
 11
82.26873499999999
 21
1.931499999999959
 31
0.0
  0
LINE
  5
CE
330
1E
100
AcDbEntity
  8
0
100
AcDbLine
 10
71.868735
 20
1.212499999999989
 30
0.0
 11
82.26873499999999
 21
-0.0864999999999978
 31
0.0
  0
LINE
  5
D0
330
1E
100
AcDbEntity
  8
0
100
AcDbLine
 10
71.368735
 20
5.73049999999994
 30
0.0
 11
82.26873499999999
 21
4.43149999999998
 31
0.0
  0
LINE
  5
D1
330
1E
100
AcDbEntity
  8
0
100
AcDbLine
 10
61.168735
 20
6.867500000000009
 30
0.0
 11
71.368735
 21
3.230499999999949
 31
0.0
  0
LINE
  5
D2
330
1E
100
AcDbEntity
  8
0
100
AcDbLine
 10
59.55697807112489
 20
72.54082398268029
 30
0.0
 11
61.162835
 21
75.1306
 31
0.0
  0
LINE
  5
D3
330
1E
100
AcDbEntity
  8
0
100
AcDbLine
 10
61.162835
 20
75.1306
 30
0.0
 11
64.07203910827999
 21
82.2517325626342
 31
0.0
  0
LINE
  5
D4
330
1E
100
AcDbEntity
  8
0
100
AcDbLine
 10
61.168735
 20
9.367499999999999
 30
0.0
 11
71.368735
 21
5.73049999999994
 31
0.0
  0
LINE
  5
D6
330
1E
100
AcDbEntity
  8
0
100
AcDbLine
 10
64.07203910827999
 20
82.2517325626342
 30
0.0
 11
65.604135
 21
88.26869999999999
 31
0.0
  0
LINE
  5
D7
330
1E
100
AcDbEntity
  8
0
100
AcDbLine
 10
65.604135
 20
88.26869999999999
 30
0.0
 11
67.24303499999999
 21
95.85449999999999
 31
0.0
  0
LINE
  5
D8
330
1E
100
AcDbEntity
  8
0
100
AcDbLine
 10
67.24303499999999
 20
95.85449999999999
 30
0.0
 11
68.13703499999999
 21
105.2505
 31
0.0
  0
LINE
  5
D9
330
1E
100
AcDbEntity
  8
0
100
AcDbLine
 10
67.24303499999999
 20
128.3825
 30
0.0
 11
67.54103499999999
 21
122.4634999999999
 31
0.0
  0
LINE
  5
DA
330
1E
100
AcDbEntity
  8
0
100
AcDbLine
 10
67.24303499999999
 20
142.0184999999999
 30
0.0
 11
67.46653499999999
 21
149.6585
 31
0.0
  0
LINE
  5
DB
330
1E
100
AcDbEntity
  8
0
100
AcDbLine
 10
67.54103499999999
 20
122.4634999999999
 30
0.0
 11
68.28603499999999
 21
113.2384999999999
 31
0.0
  0
LINE
  5
DC
330
1E
100
AcDbEntity
  8
0
100
AcDbLine
 10
67.09403499999999
 20
135.9815
 30
0.0
 11
67.24303499999999
 21
128.3825
 31
0.0
  0
LINE
  5
DD
330
1E
100
AcDbEntity
  8
0
100
AcDbLine
 10
67.09403499999999
 20
135.9815
 30
0.0
 11
67.24303499999999
 21
142.0184999999999
 31
0.0
  0
LINE
  5
DE
330
1E
100
AcDbEntity
  8
0
100
AcDbLine
 10
67.46653499999999
 20
149.6585
 30
0.0
 11
67.76453499999999
 21
157.82153
 31
0.0
  0
LINE
  5
DF
330
1E
100
AcDbEntity
  8
0
100
AcDbLine
 10
68.13703499999999
 20
105.2505
 30
0.0
 11
68.28603499999999
 21
113.2384999999999
 31
0.0
  0
LINE
  5
E0
330
1E
100
AcDbEntity
  8
0
100
AcDbLine
 10
67.76453499999999
 20
157.82153
 30
0.0
 11
68.50943499999999
 21
167.06353
 31
0.0
  0
LINE
  5
E1
330
1E
100
AcDbEntity
  8
0
100
AcDbLine
 10
68.50943499999999
 20
167.06353
 30
0.0
 11
69.26873499999999
 21
175.54053
 31
0.0
  0
LINE
  5
E2
330
1E
100
AcDbEntity
  8
0
100
AcDbLine
 10
61.168735
 20
9.86750000000001
 30
0.0
 11
71.368735
 21
6.230499999999949
 31
0.0
  0
LINE
  5
E3
330
1E
100
AcDbEntity
  8
0
100
AcDbLine
 10
71.368735
 20
6.230499999999949
 30
0.0
 11
82.26873499999999
 21
4.931499999999959
 31
0.0
  0
LINE
  5
E4
330
1E
100
AcDbEntity
  8
0
100
AcDbLine
 10
54.878235
 20
173.4865
 30
0.0
 11
57.578235
 21
174.5865
 31
0.0
  0
LINE
  5
E5
330
1E
100
AcDbEntity
  8
0
100
AcDbLine
 10
54.878235
 20
173.4865
 30
0.0
 11
57.578235
 21
174.5865
 31
0.0
  0
LINE
  5
E6
330
1E
100
AcDbEntity
  8
0
100
AcDbLine
 10
57.578235
 20
174.5865
 30
0.0
 11
59.878235
 21
176.2864999999999
 31
0.0
  0
LINE
  5
E7
330
1E
100
AcDbEntity
  8
0
100
AcDbLine
 10
54.77823499999999
 20
173.9864999999999
 30
0.0
 11
57.27823499999999
 21
174.9864999999999
 31
0.0
  0
LINE
  5
E8
330
1E
100
AcDbEntity
  8
0
100
AcDbLine
 10
57.27823499999999
 20
174.9864999999999
 30
0.0
 11
59.478235
 21
176.6864999999999
 31
0.0
  0
LINE
  5
E9
330
1E
100
AcDbEntity
  8
0
100
AcDbLine
 10
49.378235
 20
173.9864999999999
 30
0.0
 11
52.07823499999999
 21
173.5864999999999
 31
0.0
  0
LINE
  5
EA
330
1E
100
AcDbEntity
  8
0
100
AcDbLine
 10
59.878235
 20
176.2864999999999
 30
0.0
 11
61.578235
 21
178.5865
 31
0.0
  0
LINE
  5
EB
330
1E
100
AcDbEntity
  8
0
100
AcDbLine
 10
59.478235
 20
176.6864999999999
 30
0.0
 11
61.178235
 21
178.8865
 31
0.0
  0
LINE
  5
EC
330
1E
100
AcDbEntity
  8
0
100
AcDbLine
 10
69.736735
 20
178.2345
 30
0.0
 11
70.984735
 21
180.7595
 31
0.0
  0
LINE
  5
ED
330
1E
100
AcDbEntity
  8
0
100
AcDbLine
 10
69.26873499999999
 20
175.54053
 30
0.0
 11
69.736735
 21
178.2345
 31
0.0
  0
LINE
  5
EE
330
1E
100
AcDbEntity
  8
0
100
AcDbLine
 10
61.578235
 20
178.5865
 30
0.0
 11
62.678235
 21
181.2865
 31
0.0
  0
LINE
  5
EF
330
1E
100
AcDbEntity
  8
0
100
AcDbLine
 10
61.178235
 20
178.8865
 30
0.0
 11
62.178235
 21
181.3865
 31
0.0
  0
LINE
  5
F0
330
1E
100
AcDbEntity
  8
0
100
AcDbLine
 10
46.87823499999999
 20
174.9864999999999
 30
0.0
 11
49.378235
 21
173.9864999999999
 31
0.0
  0
LINE
  5
F1
330
1E
100
AcDbEntity
  8
0
100
AcDbLine
 10
44.678235
 20
176.6864999999999
 30
0.0
 11
46.87823499999999
 21
174.9864999999999
 31
0.0
  0
LINE
  5
F2
330
1E
100
AcDbEntity
  8
0
100
AcDbLine
 10
62.178235
 20
181.3865
 30
0.0
 11
62.578235
 21
184.0864999999999
 31
0.0
  0
LINE
  5
F3
330
1E
100
AcDbEntity
  8
0
100
AcDbLine
 10
73.064735
 20
182.9914999999999
 30
0.0
 11
75.82073499999999
 21
184.6745
 31
0.0
  0
LINE
  5
F4
330
1E
100
AcDbEntity
  8
0
100
AcDbLine
 10
70.984735
 20
180.7595
 30
0.0
 11
73.064735
 21
182.9914999999999
 31
0.0
  0
LINE
  5
F5
330
1E
100
AcDbEntity
  8
0
100
AcDbLine
 10
62.678235
 20
181.2865
 30
0.0
 11
63.078235
 21
184.0864999999999
 31
0.0
  0
LINE
  5
F6
330
1E
100
AcDbEntity
  8
0
100
AcDbLine
 10
63.078235
 20
184.0864999999999
 30
0.0
 11
63.078235
 21
246.0865
 31
0.0
  0
LINE
  5
F7
330
1E
100
AcDbEntity
  8
0
100
AcDbLine
 10
62.578235
 20
184.0864999999999
 30
0.0
 11
62.578235
 21
245.5865
 31
0.0
  0
LINE
  5
F8
330
1E
100
AcDbEntity
  8
0
100
AcDbLine
 10
42.97823499999999
 20
178.8865
 30
0.0
 11
44.678235
 21
176.6864999999999
 31
0.0
  0
LINE
  5
F9
330
1E
100
AcDbEntity
  8
0
100
AcDbLine
 10
41.978235
 20
181.3865
 30
0.0
 11
42.97823499999999
 21
178.8865
 31
0.0
  0
LINE
  5
FA
330
1E
100
AcDbEntity
  8
0
100
AcDbLine
 10
37.616735
 20
197.1845
 30
0.0
 11
37.616735
 21
193.2624999999999
 31
0.0
  0
LINE
  5
FB
330
1E
100
AcDbEntity
  8
0
100
AcDbLine
 10
37.616735
 20
197.1845
 30
0.0
 11
37.616735
 21
200.1444999999999
 31
0.0
  0
LINE
  5
FC
330
1E
100
AcDbEntity
  8
0
100
AcDbLine
 10
37.616735
 20
193.2624999999999
 30
0.0
 11
37.616735
 21
188.8225
 31
0.0
  0
LINE
  5
FD
330
1E
100
AcDbEntity
  8
0
100
AcDbLine
 10
37.616735
 20
193.2624999999999
 30
0.0
 11
37.616735
 21
197.1845
 31
0.0
  0
LINE
  5
FE
330
1E
100
AcDbEntity
  8
0
100
AcDbLine
 10
75.82073499999999
 20
184.6745
 30
0.0
 11
78.94073500000001
 21
185.6854999999999
 31
0.0
  0
LINE
  5
FF
330
1E
100
AcDbEntity
  8
0
100
AcDbLine
 10
38.07823499999999
 20
196.8144999999999
 30
0.0
 11
38.07823499999999
 21
193.0405
 31
0.0
  0
LINE
  5
100
330
1E
100
AcDbEntity
  8
0
100
AcDbLine
 10
38.07823499999999
 20
196.8144999999999
 30
0.0
 11
38.07823499999999
 21
199.7005
 31
0.0
  0
LINE
  5
101
330
1E
100
AcDbEntity
  8
0
100
AcDbLine
 10
38.539735
 20
197.1845
 30
0.0
 11
38.539735
 21
200.1444999999999
 31
0.0
  0
LINE
  5
102
330
1E
100
AcDbEntity
  8
0
100
AcDbLine
 10
38.539735
 20
197.1845
 30
0.0
 11
38.539735
 21
193.2624999999999
 31
0.0
  0
LINE
  5
103
330
1E
100
AcDbEntity
  8
0
100
AcDbLine
 10
38.539735
 20
193.2624999999999
 30
0.0
 11
38.539735
 21
197.1845
 31
0.0
  0
LINE
  5
104
330
1E
100
AcDbEntity
  8
0
100
AcDbLine
 10
38.539735
 20
193.2624999999999
 30
0.0
 11
38.539735
 21
188.8225
 31
0.0
  0
LINE
  5
105
330
1E
100
AcDbEntity
  8
0
100
AcDbLine
 10
38.539735
 20
188.8225
 30
0.0
 11
38.539735
 21
193.2624999999999
 31
0.0
  0
LINE
  5
106
330
1E
100
AcDbEntity
  8
0
100
AcDbLine
 10
38.539735
 20
188.8225
 30
0.0
 11
38.539735
 21
184.0864999999999
 31
0.0
  0
LINE
  5
107
330
1E
100
AcDbEntity
  8
0
100
AcDbLine
 10
38.07823499999999
 20
193.0405
 30
0.0
 11
38.07823499999999
 21
188.7485
 31
0.0
  0
LINE
  5
108
330
1E
100
AcDbEntity
  8
0
100
AcDbLine
 10
38.07823499999999
 20
193.0405
 30
0.0
 11
38.07823499999999
 21
196.8144999999999
 31
0.0
  0
LINE
  5
109
330
1E
100
AcDbEntity
  8
0
100
AcDbLine
 10
38.07823499999999
 20
188.7485
 30
0.0
 11
38.07823499999999
 21
184.0864999999999
 31
0.0
  0
LINE
  5
10A
330
1E
100
AcDbEntity
  8
0
100
AcDbLine
 10
38.07823499999999
 20
188.7485
 30
0.0
 11
38.07823499999999
 21
193.0405
 31
0.0
  0
LINE
  5
10B
330
1E
100
AcDbEntity
  8
0
100
AcDbLine
 10
37.616735
 20
188.8225
 30
0.0
 11
37.616735
 21
184.0864999999999
 31
0.0
  0
LINE
  5
10C
330
1E
100
AcDbEntity
  8
0
100
AcDbLine
 10
37.616735
 20
188.8225
 30
0.0
 11
37.616735
 21
193.2624999999999
 31
0.0
  0
LINE
  5
10D
330
1E
100
AcDbEntity
  8
0
100
AcDbLine
 10
41.578235
 20
184.0864999999999
 30
0.0
 11
41.978235
 21
181.3865
 31
0.0
  0
LINE
  5
10E
330
1E
100
AcDbEntity
  8
0
100
AcDbLine
 10
41.578235
 20
184.0864999999999
 30
0.0
 11
41.578235
 21
245.5865
 31
0.0
  0
LINE
  5
10F
330
1E
100
AcDbEntity
  8
0
100
AcDbLine
 10
82.26873499999999
 20
-0.0864999999999978
 30
0.0
 11
92.668735
 21
1.212499999999989
 31
0.0
  0
LINE
  5
111
330
1E
100
AcDbEntity
  8
0
100
AcDbLine
 10
82.26873499999999
 20
1.931499999999959
 30
0.0
 11
93.16873499999999
 21
3.230499999999949
 31
0.0
  0
LINE
  5
112
330
1E
100
AcDbEntity
  8
0
100
AcDbLine
 10
82.26873499999999
 20
4.43149999999998
 30
0.0
 11
93.16873499999999
 21
5.73049999999994
 31
0.0
  0
LINE
  5
113
330
1E
100
AcDbEntity
  8
0
100
AcDbLine
 10
82.26873499999999
 20
4.931499999999959
 30
0.0
 11
93.16873499999999
 21
6.230499999999949
 31
0.0
  0
LINE
  5
114
330
1E
100
AcDbEntity
  8
0
100
AcDbLine
 10
92.668735
 20
1.212499999999989
 30
0.0
 11
102.2682349999999
 21
4.59049999999996
 31
0.0
  0
LINE
  5
116
330
1E
100
AcDbEntity
  8
0
100
AcDbLine
 10
93.16873499999999
 20
3.230499999999949
 30
0.0
 11
103.368235
 21
6.867500000000009
 31
0.0
  0
LINE
  5
117
330
1E
100
AcDbEntity
  8
0
100
AcDbLine
 10
93.16873499999999
 20
5.73049999999994
 30
0.0
 11
103.368235
 21
9.367499999999999
 31
0.0
  0
LINE
  5
118
330
1E
100
AcDbEntity
  8
0
100
AcDbLine
 10
93.16873499999999
 20
6.230499999999949
 30
0.0
 11
103.368235
 21
9.86750000000001
 31
0.0
  0
LINE
  5
119
330
1E
100
AcDbEntity
  8
0
100
AcDbLine
 10
102.2682349999999
 20
4.59049999999996
 30
0.0
 11
110.868235
 21
10.2194999999999
 31
0.0
  0
LINE
  5
11B
330
1E
100
AcDbEntity
  8
0
100
AcDbLine
 10
103.368235
 20
6.867500000000009
 30
0.0
 11
112.268235
 21
12.7565
 31
0.0
  0
LINE
  5
11C
330
1E
100
AcDbEntity
  8
0
100
AcDbLine
 10
97.29423500000001
 20
95.85449999999999
 30
0.0
 11
98.93323500000001
 21
88.26869999999999
 31
0.0
  0
LINE
  5
11D
330
1E
100
AcDbEntity
  8
0
100
AcDbLine
 10
97.07123500000001
 20
149.6585
 30
0.0
 11
97.29423500000001
 21
142.0184999999999
 31
0.0
  0
LINE
  5
11E
330
1E
100
AcDbEntity
  8
0
100
AcDbLine
 10
96.77323499999999
 20
157.82153
 30
0.0
 11
97.07123500000001
 21
149.6585
 31
0.0
  0
LINE
  5
11F
330
1E
100
AcDbEntity
  8
0
100
AcDbLine
 10
97.29423500000001
 20
142.0184999999999
 30
0.0
 11
97.443235
 21
135.9815
 31
0.0
  0
LINE
  5
120
330
1E
100
AcDbEntity
  8
0
100
AcDbLine
 10
97.29423500000001
 20
128.3825
 30
0.0
 11
97.443235
 21
135.9815
 31
0.0
  0
LINE
  5
121
330
1E
100
AcDbEntity
  8
0
100
AcDbLine
 10
96.99623500000001
 20
122.4634999999999
 30
0.0
 11
97.29423500000001
 21
128.3825
 31
0.0
  0
LINE
  5
122
330
1E
100
AcDbEntity
  8
0
100
AcDbLine
 10
96.251235
 20
113.2384999999999
 30
0.0
 11
96.40023499999999
 21
105.2505
 31
0.0
  0
LINE
  5
123
330
1E
100
AcDbEntity
  8
0
100
AcDbLine
 10
96.251235
 20
113.2384999999999
 30
0.0
 11
96.99623500000001
 21
122.4634999999999
 31
0.0
  0
LINE
  5
124
330
1E
100
AcDbEntity
  8
0
100
AcDbLine
 10
96.40023499999999
 20
105.2505
 30
0.0
 11
97.29423500000001
 21
95.85449999999999
 31
0.0
  0
LINE
  5
125
330
1E
100
AcDbEntity
  8
0
100
AcDbLine
 10
100.46399619986
 20
82.25613930753091
 30
0.0
 11
103.374235
 21
75.1306
 31
0.0
  0
LINE
  5
126
330
1E
100
AcDbEntity
  8
0
100
AcDbLine
 10
98.93323500000001
 20
88.26869999999999
 30
0.0
 11
100.46399619986
 21
82.25613930753091
 31
0.0
  0
LINE
  5
127
330
1E
100
AcDbEntity
  8
0
100
AcDbLine
 10
103.368235
 20
9.367499999999999
 30
0.0
 11
112.268235
 21
15.2565
 31
0.0
  0
LINE
  5
128
330
1E
100
AcDbEntity
  8
0
100
AcDbLine
 10
110.868235
 20
10.2194999999999
 30
0.0
 11
111.568235
 21
10.8635
 31
0.0
  0
LINE
  5
129
330
1E
100
AcDbEntity
  8
0
100
AcDbLine
 10
111.568235
 20
10.8635
 30
0.0
 11
118.168235
 21
18.3975
 31
0.0
  0
LINE
  5
12C
330
1E
100
AcDbEntity
  8
0
100
AcDbLine
 10
112.268235
 20
12.7565
 30
0.0
 11
119.068235
 21
20.4645
 31
0.0
  0
LINE
  5
12D
330
1E
100
AcDbEntity
  8
0
100
AcDbLine
 10
112.268235
 20
15.2565
 30
0.0
 11
119.068235
 21
22.9645
 31
0.0
  0
LINE
  5
12E
330
1E
100
AcDbEntity
  8
0
100
AcDbLine
 10
118.168235
 20
18.3975
 30
0.0
 11
122.268235
 21
26.9715
 31
0.0
  0
LINE
  5
12F
330
1E
100
AcDbEntity
  8
0
100
AcDbLine
 10
119.068235
 20
20.4645
 30
0.0
 11
123.268235
 21
29.2975
 31
0.0
  0
LINE
  5
130
330
1E
100
AcDbEntity
  8
0
100
AcDbLine
 10
119.068235
 20
22.9645
 30
0.0
 11
123.268235
 21
31.7975
 31
0.0
  0
LINE
  5
131
330
1E
100
AcDbEntity
  8
0
100
AcDbLine
 10
112.268235
 20
15.7565
 30
0.0
 11
119.068235
 21
23.4645
 31
0.0
  0
LINE
  5
132
330
1E
100
AcDbEntity
  8
0
100
AcDbLine
 10
122.268235
 20
26.9715
 30
0.0
 11
122.397612297477
 21
27.4664975401453
 31
0.0
  0
LINE
  5
133
330
1E
100
AcDbEntity
  8
0
100
AcDbLine
 10
123.268235
 20
29.2975
 30
0.0
 11
124.768235
 21
38.73749999999999
 31
0.0
  0
LINE
  5
134
330
1E
100
AcDbEntity
  8
0
100
AcDbLine
 10
123.268235
 20
31.7975
 30
0.0
 11
124.768235
 21
41.2375
 31
0.0
  0
LINE
  5
135
330
1E
100
AcDbEntity
  8
0
100
AcDbLine
 10
119.068235
 20
23.4645
 30
0.0
 11
123.268235
 21
32.2975
 31
0.0
  0
LINE
  5
136
330
1E
100
AcDbEntity
  8
0
100
AcDbLine
 10
124.768235
 20
41.2375
 30
0.0
 11
124.768235
 21
38.73749999999999
 31
0.0
  0
LINE
  5
137
330
1E
100
AcDbEntity
  8
0
100
AcDbLine
 10
124.728510423729
 20
41.48749999999999
 30
0.0
 11
124.768235
 21
41.2375
 31
0.0
  0
LINE
  5
138
330
1E
100
AcDbEntity
  8
0
100
AcDbLine
 10
103.374235
 20
75.1306
 30
0.0
 11
104.9801615051799
 21
72.54071177651621
 31
0.0
  0
LINE
  5
139
330
1E
100
AcDbEntity
  8
0
100
AcDbLine
 10
104.9801615051799
 20
72.54071177651621
 30
0.0
 11
112.268235
 21
67.7183
 31
0.0
  0
LINE
  5
13A
330
1E
100
AcDbEntity
  8
0
100
AcDbLine
 10
112.268235
 20
67.7183
 30
0.0
 11
119.068235
 21
60.0105
 31
0.0
  0
LINE
  5
13B
330
1E
100
AcDbEntity
  8
0
100
AcDbLine
 10
119.068235
 20
60.0105
 30
0.0
 11
123.268235
 21
51.1775
 31
0.0
  0
LINE
  5
13C
330
1E
100
AcDbEntity
  8
0
100
AcDbLine
 10
123.268235
 20
51.1775
 30
0.0
 11
124.768235
 21
41.7375
 31
0.0
  0
LINE
  5
13D
330
1E
100
AcDbEntity
  8
0
100
AcDbLine
 10
124.768235
 20
38.73749999999999
 30
0.0
 11
124.768235
 21
41.2375
 31
0.0
  0
LINE
  5
13E
330
1E
100
AcDbEntity
  8
0
100
AcDbLine
 10
123.268235
 20
32.2975
 30
0.0
 11
124.768235
 21
41.7375
 31
0.0
  0
LINE
  5
13F
330
1E
100
AcDbEntity
  8
0
100
AcDbLine
 10
103.368235
 20
9.86750000000001
 30
0.0
 11
112.268235
 21
15.7565
 31
0.0
  0
LINE
  5
140
330
1E
100
AcDbEntity
  8
0
100
AcDbLine
 10
96.14713073209259
 20
165.5865
 30
0.0
 11
99.61623500000001
 21
165.5865
 31
0.0
  0
LINE
  5
141
330
1E
100
AcDbEntity
  8
0
100
AcDbLine
 10
96.14713073209259
 20
165.5865
 30
0.0
 11
99.61623500000001
 21
165.5865
 31
0.0
  0
LINE
  5
142
330
1E
100
AcDbEntity
  8
0
100
AcDbLine
 10
96.028035
 20
167.06353
 30
0.0
 11
96.77323499999999
 21
157.82153
 31
0.0
  0
LINE
  5
143
330
1E
100
AcDbEntity
  8
0
100
AcDbLine
 10
99.61623500000001
 20
166.2525
 30
0.0
 11
99.61623500000001
 21
165.5865
 31
0.0
  0
LINE
  5
144
330
1E
100
AcDbEntity
  8
0
100
AcDbLine
 10
99.61623500000001
 20
166.2525
 30
0.0
 11
99.61623500000001
 21
168.0285
 31
0.0
  0
LINE
  5
145
330
1E
100
AcDbEntity
  8
0
100
AcDbLine
 10
99.61623500000001
 20
168.0285
 30
0.0
 11
99.61623500000001
 21
166.2525
 31
0.0
  0
LINE
  5
146
330
1E
100
AcDbEntity
  8
0
100
AcDbLine
 10
99.61623500000001
 20
168.0285
 30
0.0
 11
99.61623500000001
 21
170.9884999999999
 31
0.0
  0
LINE
  5
147
330
1E
100
AcDbEntity
  8
0
100
AcDbLine
 10
99.61623500000001
 20
170.9884999999999
 30
0.0
 11
99.61623500000001
 21
168.0285
 31
0.0
  0
LINE
  5
148
330
1E
100
AcDbEntity
  8
0
100
AcDbLine
 10
99.61623500000001
 20
170.9884999999999
 30
0.0
 11
99.61623500000001
 21
174.9105
 31
0.0
  0
LINE
  5
149
330
1E
100
AcDbEntity
  8
0
100
AcDbLine
 10
94.80073500000001
 20
178.2345
 30
0.0
 11
95.26873499999998
 21
175.54053
 31
0.0
  0
LINE
  5
14A
330
1E
100
AcDbEntity
  8
0
100
AcDbLine
 10
93.552735
 20
180.7595
 30
0.0
 11
94.80073500000001
 21
178.2345
 31
0.0
  0
LINE
  5
14B
330
1E
100
AcDbEntity
  8
0
100
AcDbLine
 10
91.472735
 20
182.9914999999999
 30
0.0
 11
93.552735
 21
180.7595
 31
0.0
  0
LINE
  5
14C
330
1E
100
AcDbEntity
  8
0
100
AcDbLine
 10
95.26873499999998
 20
175.54053
 30
0.0
 11
96.028035
 21
167.06353
 31
0.0
  0
LINE
  5
14D
330
1E
100
AcDbEntity
  8
0
100
AcDbLine
 10
99.61623500000001
 20
174.9105
 30
0.0
 11
99.61623500000001
 21
170.9884999999999
 31
0.0
  0
LINE
  5
14E
330
1E
100
AcDbEntity
  8
0
100
AcDbLine
 10
99.61623500000001
 20
174.9105
 30
0.0
 11
99.61623500000001
 21
179.3505
 31
0.0
  0
LINE
  5
14F
330
1E
100
AcDbEntity
  8
0
100
AcDbLine
 10
99.61623500000001
 20
179.3505
 30
0.0
 11
99.61623500000001
 21
174.9105
 31
0.0
  0
LINE
  5
150
330
1E
100
AcDbEntity
  8
0
100
AcDbLine
 10
99.61623500000001
 20
179.3505
 30
0.0
 11
99.61623500000001
 21
184.0864999999999
 31
0.0
  0
LINE
  5
151
330
1E
100
AcDbEntity
  8
0
100
AcDbLine
 10
88.71673499999999
 20
184.6745
 30
0.0
 11
91.472735
 21
182.9914999999999
 31
0.0
  0
LINE
  5
152
330
1E
100
AcDbEntity
  8
0
100
AcDbLine
 10
99.61623500000001
 20
184.0864999999999
 30
0.0
 11
99.61623500000001
 21
179.3505
 31
0.0
  0
LINE
  5
153
330
1E
100
AcDbEntity
  8
0
100
AcDbLine
 10
99.61623500000001
 20
184.0864999999999
 30
0.0
 11
99.61623500000001
 21
188.8225
 31
0.0
  0
LINE
  5
154
330
1E
100
AcDbEntity
  8
0
100
AcDbLine
 10
100.0782349999999
 20
166.0304999999999
 30
0.0
 11
100.0782349999999
 21
166.6964999999999
 31
0.0
  0
LINE
  5
155
330
1E
100
AcDbEntity
  8
0
100
AcDbLine
 10
100.0782349999999
 20
166.6964999999999
 30
0.0
 11
100.0782349999999
 21
166.0304999999999
 31
0.0
  0
LINE
  5
156
330
1E
100
AcDbEntity
  8
0
100
AcDbLine
 10
100.0782349999999
 20
166.6964999999999
 30
0.0
 11
100.0782349999999
 21
168.4725
 31
0.0
  0
LINE
  5
157
330
1E
100
AcDbEntity
  8
0
100
AcDbLine
 10
100.0782349999999
 20
168.4725
 30
0.0
 11
100.0782349999999
 21
166.6964999999999
 31
0.0
  0
LINE
  5
158
330
1E
100
AcDbEntity
  8
0
100
AcDbLine
 10
100.0782349999999
 20
168.4725
 30
0.0
 11
100.0782349999999
 21
171.3584999999999
 31
0.0
  0
LINE
  5
159
330
1E
100
AcDbEntity
  8
0
100
AcDbLine
 10
100.0782349999999
 20
171.3584999999999
 30
0.0
 11
100.0782349999999
 21
168.4725
 31
0.0
  0
LINE
  5
15A
330
1E
100
AcDbEntity
  8
0
100
AcDbLine
 10
100.0782349999999
 20
171.3584999999999
 30
0.0
 11
100.0782349999999
 21
175.1325
 31
0.0
  0
LINE
  5
15B
330
1E
100
AcDbEntity
  8
0
100
AcDbLine
 10
100.0782349999999
 20
175.1325
 30
0.0
 11
100.0782349999999
 21
171.3584999999999
 31
0.0
  0
LINE
  5
15C
330
1E
100
AcDbEntity
  8
0
100
AcDbLine
 10
100.0782349999999
 20
175.1325
 30
0.0
 11
100.0782349999999
 21
179.4245
 31
0.0
  0
LINE
  5
15D
330
1E
100
AcDbEntity
  8
0
100
AcDbLine
 10
100.0782349999999
 20
179.4245
 30
0.0
 11
100.0782349999999
 21
175.1325
 31
0.0
  0
LINE
  5
15E
330
1E
100
AcDbEntity
  8
0
100
AcDbLine
 10
100.0782349999999
 20
179.4245
 30
0.0
 11
100.0782349999999
 21
184.0864999999999
 31
0.0
  0
LINE
  5
15F
330
1E
100
AcDbEntity
  8
0
100
AcDbLine
 10
100.0782349999999
 20
184.0864999999999
 30
0.0
 11
100.0782349999999
 21
179.4245
 31
0.0
  0
LINE
  5
160
330
1E
100
AcDbEntity
  8
0
100
AcDbLine
 10
100.0782349999999
 20
184.0864999999999
 30
0.0
 11
100.0782349999999
 21
188.7485
 31
0.0
  0
LINE
  5
161
330
1E
100
AcDbEntity
  8
0
100
AcDbLine
 10
99.61623500000001
 20
165.5865
 30
0.0
 11
100.0782349999999
 21
166.0304999999999
 31
0.0
  0
LINE
  5
162
330
1E
100
AcDbEntity
  8
0
100
AcDbLine
 10
99.61623500000001
 20
165.5865
 30
0.0
 11
99.61623500000001
 21
166.2525
 31
0.0
  0
LINE
  5
164
330
1E
100
AcDbEntity
  8
0
100
AcDbLine
 10
78.94073500000001
 20
185.6854999999999
 30
0.0
 11
82.26873499999999
 21
186.0645
 31
0.0
  0
LINE
  5
165
330
1E
100
AcDbEntity
  8
0
100
AcDbLine
 10
85.596735
 20
185.6854999999999
 30
0.0
 11
88.71673499999999
 21
184.6745
 31
0.0
  0
LINE
  5
166
330
1E
100
AcDbEntity
  8
0
100
AcDbLine
 10
82.26873499999999
 20
186.0645
 30
0.0
 11
85.596735
 21
185.6854999999999
 31
0.0
  0
LINE
  5
167
330
1E
100
AcDbEntity
  8
0
100
AcDbLine
 10
100.0782349999999
 20
188.7485
 30
0.0
 11
100.0782349999999
 21
184.0864999999999
 31
0.0
  0
LINE
  5
168
330
1E
100
AcDbEntity
  8
0
100
AcDbLine
 10
100.0782349999999
 20
188.7485
 30
0.0
 11
100.0782349999999
 21
193.0405
 31
0.0
  0
LINE
  5
169
330
1E
100
AcDbEntity
  8
0
100
AcDbLine
 10
99.61623500000001
 20
197.1845
 30
0.0
 11
99.61623500000001
 21
193.2624999999999
 31
0.0
  0
LINE
  5
16A
330
1E
100
AcDbEntity
  8
0
100
AcDbLine
 10
99.61623500000001
 20
197.1845
 30
0.0
 11
99.61623500000001
 21
200.1444999999999
 31
0.0
  0
LINE
  5
16B
330
1E
100
AcDbEntity
  8
0
100
AcDbLine
 10
100.0782349999999
 20
196.8144999999999
 30
0.0
 11
100.0782349999999
 21
193.0405
 31
0.0
  0
LINE
  5
16C
330
1E
100
AcDbEntity
  8
0
100
AcDbLine
 10
100.0782349999999
 20
196.8144999999999
 30
0.0
 11
100.0782349999999
 21
199.7005
 31
0.0
  0
LINE
  5
16D
330
1E
100
AcDbEntity
  8
0
100
AcDbLine
 10
100.0782349999999
 20
193.0405
 30
0.0
 11
100.0782349999999
 21
188.7485
 31
0.0
  0
LINE
  5
16E
330
1E
100
AcDbEntity
  8
0
100
AcDbLine
 10
100.0782349999999
 20
193.0405
 30
0.0
 11
100.0782349999999
 21
196.8144999999999
 31
0.0
  0
LINE
  5
16F
330
1E
100
AcDbEntity
  8
0
100
AcDbLine
 10
99.61623500000001
 20
193.2624999999999
 30
0.0
 11
99.61623500000001
 21
188.8225
 31
0.0
  0
LINE
  5
170
330
1E
100
AcDbEntity
  8
0
100
AcDbLine
 10
99.61623500000001
 20
193.2624999999999
 30
0.0
 11
99.61623500000001
 21
197.1845
 31
0.0
  0
LINE
  5
171
330
1E
100
AcDbEntity
  8
0
100
AcDbLine
 10
99.61623500000001
 20
188.8225
 30
0.0
 11
99.61623500000001
 21
184.0864999999999
 31
0.0
  0
LINE
  5
172
330
1E
100
AcDbEntity
  8
0
100
AcDbLine
 10
99.61623500000001
 20
188.8225
 30
0.0
 11
99.61623500000001
 21
193.2624999999999
 31
0.0
  0
LINE
  5
178
330
1E
100
AcDbEntity
  8
0
100
AcDbLine
 10
37.616735
 20
201.9204999999999
 30
0.0
 11
37.616735
 21
200.1444999999999
 31
0.0
  0
LINE
  5
179
330
1E
100
AcDbEntity
  8
0
100
AcDbLine
 10
37.616735
 20
201.9204999999999
 30
0.0
 11
37.616735
 21
202.5865
 31
0.0
  0
LINE
  5
17A
330
1E
100
AcDbEntity
  8
0
100
AcDbLine
 10
38.07823499999999
 20
202.1425
 30
0.0
 11
38.07823499999999
 21
201.4764999999999
 31
0.0
  0
LINE
  5
17B
330
1E
100
AcDbEntity
  8
0
100
AcDbLine
 10
38.07823499999999
 20
202.1425
 30
0.0
 11
38.539735
 21
202.5865
 31
0.0
  0
LINE
  5
17C
330
1E
100
AcDbEntity
  8
0
100
AcDbLine
 10
38.539735
 20
201.9204999999999
 30
0.0
 11
38.539735
 21
202.5865
 31
0.0
  0
LINE
  5
17D
330
1E
100
AcDbEntity
  8
0
100
AcDbLine
 10
38.539735
 20
201.9204999999999
 30
0.0
 11
38.539735
 21
200.1444999999999
 31
0.0
  0
LINE
  5
17E
330
1E
100
AcDbEntity
  8
0
100
AcDbLine
 10
38.539735
 20
200.1444999999999
 30
0.0
 11
38.539735
 21
201.9204999999999
 31
0.0
  0
LINE
  5
17F
330
1E
100
AcDbEntity
  8
0
100
AcDbLine
 10
38.539735
 20
200.1444999999999
 30
0.0
 11
38.539735
 21
197.1845
 31
0.0
  0
LINE
  5
180
330
1E
100
AcDbEntity
  8
0
100
AcDbLine
 10
38.539735
 20
202.5865
 30
0.0
 11
41.078235
 21
202.5865
 31
0.0
  0
LINE
  5
181
330
1E
100
AcDbEntity
  8
0
100
AcDbLine
 10
38.539735
 20
202.5865
 30
0.0
 11
41.078235
 21
202.5865
 31
0.0
  0
LINE
  5
182
330
1E
100
AcDbEntity
  8
0
100
AcDbLine
 10
38.539735
 20
202.5865
 30
0.0
 11
38.539735
 21
201.9204999999999
 31
0.0
  0
LINE
  5
183
330
1E
100
AcDbEntity
  8
0
100
AcDbLine
 10
38.07823499999999
 20
201.4764999999999
 30
0.0
 11
38.07823499999999
 21
199.7005
 31
0.0
  0
LINE
  5
184
330
1E
100
AcDbEntity
  8
0
100
AcDbLine
 10
38.07823499999999
 20
201.4764999999999
 30
0.0
 11
38.07823499999999
 21
202.1425
 31
0.0
  0
LINE
  5
185
330
1E
100
AcDbEntity
  8
0
100
AcDbLine
 10
38.07823499999999
 20
199.7005
 30
0.0
 11
38.07823499999999
 21
196.8144999999999
 31
0.0
  0
LINE
  5
186
330
1E
100
AcDbEntity
  8
0
100
AcDbLine
 10
38.07823499999999
 20
199.7005
 30
0.0
 11
38.07823499999999
 21
201.4764999999999
 31
0.0
  0
LINE
  5
187
330
1E
100
AcDbEntity
  8
0
100
AcDbLine
 10
37.616735
 20
200.1444999999999
 30
0.0
 11
37.616735
 21
197.1845
 31
0.0
  0
LINE
  5
188
330
1E
100
AcDbEntity
  8
0
100
AcDbLine
 10
37.616735
 20
200.1444999999999
 30
0.0
 11
37.616735
 21
201.9204999999999
 31
0.0
  0
LINE
  5
189
330
1E
100
AcDbEntity
  8
0
100
AcDbLine
 10
37.616735
 20
202.5865
 30
0.0
 11
38.07823499999999
 21
202.1425
 31
0.0
  0
LINE
  5
18A
330
1E
100
AcDbEntity
  8
0
100
AcDbLine
 10
37.616735
 20
202.5865
 30
0.0
 11
37.616735
 21
201.9204999999999
 31
0.0
  0
LINE
  5
18B
330
1E
100
AcDbEntity
  8
0
100
AcDbLine
 10
63.078235
 20
202.5865
 30
0.0
 11
99.61623500000001
 21
202.5865
 31
0.0
  0
LINE
  5
18C
330
1E
100
AcDbEntity
  8
0
100
AcDbLine
 10
41.078235
 20
202.5865
 30
0.0
 11
41.078235
 21
246.0865
 31
0.0
  0
LINE
  5
18D
330
1E
100
AcDbEntity
  8
0
100
AcDbLine
 10
62.578235
 20
245.5865
 30
0.0
 11
63.078235
 21
246.0865
 31
0.0
  0
LINE
  5
18E
330
1E
100
AcDbEntity
  8
0
100
AcDbLine
 10
62.578235
 20
245.5865
 30
0.0
 11
62.578235
 21
184.0864999999999
 31
0.0
  0
LINE
  5
18F
330
1E
100
AcDbEntity
  8
0
100
AcDbLine
 10
52.07823499999999
 20
245.5865
 30
0.0
 11
62.578235
 21
245.5865
 31
0.0
  0
LINE
  5
190
330
1E
100
AcDbEntity
  8
0
100
AcDbLine
 10
41.578235
 20
245.5865
 30
0.0
 11
52.07823499999999
 21
245.5865
 31
0.0
  0
LINE
  5
191
330
1E
100
AcDbEntity
  8
0
100
AcDbLine
 10
41.578235
 20
245.5865
 30
0.0
 11
41.578235
 21
184.0864999999999
 31
0.0
  0
LINE
  5
192
330
1E
100
AcDbEntity
  8
0
100
AcDbLine
 10
41.078235
 20
246.0865
 30
0.0
 11
41.078235
 21
184.0864999999999
 31
0.0
  0
LINE
  5
193
330
1E
100
AcDbEntity
  8
0
100
AcDbLine
 10
63.078235
 20
246.0865
 30
0.0
 11
63.078235
 21
184.0864999999999
 31
0.0
  0
LINE
  5
194
330
1E
100
AcDbEntity
  8
0
100
AcDbLine
 10
52.07823499999999
 20
246.0865
 30
0.0
 11
63.078235
 21
246.0865
 31
0.0
  0
LINE
  5
195
330
1E
100
AcDbEntity
  8
0
100
AcDbLine
 10
41.078235
 20
246.0865
 30
0.0
 11
41.578235
 21
245.5865
 31
0.0
  0
LINE
  5
196
330
1E
100
AcDbEntity
  8
0
100
AcDbLine
 10
41.078235
 20
246.0865
 30
0.0
 11
52.07823499999999
 21
246.0865
 31
0.0
  0
LINE
  5
197
330
1E
100
AcDbEntity
  8
0
100
AcDbLine
 10
41.078235
 20
246.0865
 30
0.0
 11
41.078235
 21
184.0864999999999
 31
0.0
  0
LINE
  5
198
330
1E
100
AcDbEntity
  8
0
100
AcDbLine
 10
41.078235
 20
246.0865
 30
0.0
 11
41.078235
 21
202.5865
 31
0.0
  0
LINE
  5
199
330
1E
100
AcDbEntity
  8
0
100
AcDbLine
 10
73.567035
 20
226.0816
 30
0.0
 11
73.830135
 21
222.9386
 31
0.0
  0
LINE
  5
19A
330
1E
100
AcDbEntity
  8
0
100
AcDbLine
 10
73.567035
 20
226.0816
 30
0.0
 11
74.60303499999999
 21
228.9876
 31
0.0
  0
LINE
  5
19B
330
1E
100
AcDbEntity
  8
0
100
AcDbLine
 10
73.830135
 20
222.9386
 30
0.0
 11
74.4270526899481
 21
221.771044015259
 31
0.0
  0
LINE
  5
19C
330
1E
100
AcDbEntity
  8
0
100
AcDbLine
 10
99.61623500000001
 20
201.9204999999999
 30
0.0
 11
99.61623500000001
 21
200.1444999999999
 31
0.0
  0
LINE
  5
19D
330
1E
100
AcDbEntity
  8
0
100
AcDbLine
 10
99.61623500000001
 20
201.9204999999999
 30
0.0
 11
99.61623500000001
 21
202.5865
 31
0.0
  0
LINE
  5
19E
330
1E
100
AcDbEntity
  8
0
100
AcDbLine
 10
99.61623500000001
 20
200.1444999999999
 30
0.0
 11
99.61623500000001
 21
197.1845
 31
0.0
  0
LINE
  5
19F
330
1E
100
AcDbEntity
  8
0
100
AcDbLine
 10
99.61623500000001
 20
200.1444999999999
 30
0.0
 11
99.61623500000001
 21
201.9204999999999
 31
0.0
  0
LINE
  5
1A0
330
1E
100
AcDbEntity
  8
0
100
AcDbLine
 10
100.0782349999999
 20
202.1425
 30
0.0
 11
100.0782349999999
 21
201.4764999999999
 31
0.0
  0
LINE
  5
1A1
330
1E
100
AcDbEntity
  8
0
100
AcDbLine
 10
100.0782349999999
 20
201.4764999999999
 30
0.0
 11
100.0782349999999
 21
199.7005
 31
0.0
  0
LINE
  5
1A2
330
1E
100
AcDbEntity
  8
0
100
AcDbLine
 10
100.0782349999999
 20
201.4764999999999
 30
0.0
 11
100.0782349999999
 21
202.1425
 31
0.0
  0
LINE
  5
1A3
330
1E
100
AcDbEntity
  8
0
100
AcDbLine
 10
100.0782349999999
 20
199.7005
 30
0.0
 11
100.0782349999999
 21
196.8144999999999
 31
0.0
  0
LINE
  5
1A4
330
1E
100
AcDbEntity
  8
0
100
AcDbLine
 10
100.0782349999999
 20
199.7005
 30
0.0
 11
100.0782349999999
 21
201.4764999999999
 31
0.0
  0
LINE
  5
1A5
330
1E
100
AcDbEntity
  8
0
100
AcDbLine
 10
99.61623500000001
 20
202.5865
 30
0.0
 11
100.0782349999999
 21
202.1425
 31
0.0
  0
LINE
  5
1A6
330
1E
100
AcDbEntity
  8
0
100
AcDbLine
 10
99.61623500000001
 20
202.5865
 30
0.0
 11
99.61623500000001
 21
201.9204999999999
 31
0.0
  0
LINE
  5
1A7
330
1E
100
AcDbEntity
  8
0
100
AcDbLine
 10
90.31193499999998
 20
208.1956
 30
0.0
 11
90.366835
 21
214.5955999999999
 31
0.0
  0
LINE
  5
1A8
330
1E
100
AcDbEntity
  8
0
100
AcDbLine
 10
90.26411501097701
 20
202.5865
 30
0.0
 11
90.31193499999998
 21
208.1956
 31
0.0
  0
LINE
  5
1A9
330
1E
100
AcDbEntity
  8
0
100
AcDbLine
 10
90.40783499999999
 20
219.4955999999999
 30
0.0
 11
90.436835
 21
222.7946
 31
0.0
  0
LINE
  5
1AA
330
1E
100
AcDbEntity
  8
0
100
AcDbLine
 10
90.366835
 20
214.5955999999999
 30
0.0
 11
90.40783499999999
 21
219.4955999999999
 31
0.0
  0
LINE
  5
1AB
330
1E
100
AcDbEntity
  8
0
100
AcDbLine
 10
89.878835
 20
227.7995999999999
 30
0.0
 11
90.45303500000001
 21
224.6956
 31
0.0
  0
LINE
  5
1AC
330
1E
100
AcDbEntity
  8
0
100
AcDbLine
 10
90.436835
 20
222.7946
 30
0.0
 11
90.45303500000001
 21
224.6956
 31
0.0
  0
LINE
  5
1AD
330
1E
100
AcDbEntity
  8
0
100
AcDbLine
 10
85.616035
 20
232.1365999999999
 30
0.0
 11
88.099935
 21
230.3155999999999
 31
0.0
  0
LINE
  5
1AE
330
1E
100
AcDbEntity
  8
0
100
AcDbLine
 10
88.099935
 20
230.3155999999999
 30
0.0
 11
89.878835
 21
227.7995999999999
 31
0.0
  0
LINE
  5
1AF
330
1E
100
AcDbEntity
  8
0
100
AcDbLine
 10
82.482535
 20
233.0715999999999
 30
0.0
 11
85.616035
 21
232.1365999999999
 31
0.0
  0
LINE
  5
1B0
330
1E
100
AcDbEntity
  8
0
100
AcDbLine
 10
79.338735
 20
232.8086
 30
0.0
 11
82.482535
 21
233.0715999999999
 31
0.0
  0
LINE
  5
1B1
330
1E
100
AcDbEntity
  8
0
100
AcDbLine
 10
76.540935
 20
231.3795999999999
 30
0.0
 11
79.338735
 21
232.8086
 31
0.0
  0
LINE
  5
1B2
330
1E
100
AcDbEntity
  8
0
100
AcDbLine
 10
74.60303499999999
 20
228.9876
 30
0.0
 11
76.540935
 21
231.3795999999999
 31
0.0
  0
LINE
  5
1B3
330
1E
100
AcDbEntity
  8
0
100
AcDbLine
 10
74.43693499999999
 20
222.9316
 30
0.0
 11
74.45283499999999
 21
224.8305999999999
 31
0.0
  0
LINE
  5
1B4
330
1E
100
AcDbEntity
  8
0
100
AcDbLine
 10
74.40883499999999
 20
219.6315999999999
 30
0.0
 11
74.43693499999999
 21
222.9316
 31
0.0
  0
LINE
  5
1B5
330
1E
100
AcDbEntity
  8
0
100
AcDbLine
 10
74.366935
 20
214.7316
 30
0.0
 11
74.40883499999999
 21
219.6315999999999
 31
0.0
  0
LINE
  5
1B6
330
1E
100
AcDbEntity
  8
0
100
AcDbLine
 10
74.313035
 20
208.3326
 30
0.0
 11
74.366935
 21
214.7316
 31
0.0
  0
LINE
  5
1B7
330
1E
100
AcDbEntity
  8
0
100
AcDbLine
 10
74.26384877636881
 20
202.5865
 30
0.0
 11
74.313035
 21
208.3326
 31
0.0
  0
ENDSEC
  0
SECTION
  2
OBJECTS
  0
DICTIONARY
  5
C
330
0
100
AcDbDictionary
281
     1
  3
ACAD_GROUP
350
D
  3
ACAD_LAYOUT
350
19
  3
ACAD_MLINESTYLE
350
16
  3
ACAD_PLOTSETTINGS
350
18
  3
ACAD_PLOTSTYLENAME
350
E
  3
AcDbVariableDictionary
350
1BC
  0
DICTIONARY
  5
D
102
{ACAD_REACTORS
330
C
102
}
330
C
100
AcDbDictionary
281
     1
  0
DICTIONARY
  5
19
102
{ACAD_REACTORS
330
C
102
}
330
C
100
AcDbDictionary
281
     1
  3
Layout1
350
1D
  3
Model
350
21
  0
DICTIONARY
  5
16
102
{ACAD_REACTORS
330
C
102
}
330
C
100
AcDbDictionary
281
     1
  3
Standard
350
17
  0
DICTIONARY
  5
18
102
{ACAD_REACTORS
330
C
102
}
330
C
100
AcDbDictionary
281
     1
  0
ACDBDICTIONARYWDFLT
  5
E
102
{ACAD_REACTORS
330
C
102
}
330
C
100
AcDbDictionary
281
     1
  3
Normal
350
F
100
AcDbDictionaryWithDefault
340
F
  0
DICTIONARY
  5
1BC
102
{ACAD_REACTORS
330
C
102
}
330
C
100
AcDbDictionary
281
     1
  3
DIMASSOC
350
1BD
  0
LAYOUT
  5
1D
102
{ACAD_REACTORS
330
19
102
}
330
19
100
AcDbPlotSettings
  1

  2
hp deskjet 980c series
  4

  6

 40
0.0
 41
0.0
 42
0.0
 43
0.0
 44
0.0
 45
0.0
 46
0.0
 47
0.0
 48
0.0
 49
0.0
140
0.0
141
0.0
142
1.0
143
1.0
 70
   688
 72
     0
 73
     0
 74
     5
  7

 75
    16
147
1.0
148
0.0
149
0.0
100
AcDbLayout
  1
Layout1
 70
     1
 71
     1
 10
0.0
 20
0.0
 11
12.0
 21
9.0
 12
0.0
 22
0.0
 32
0.0
 14
1.000000000000000E+20
 24
1.000000000000000E+20
 34
1.000000000000000E+20
 15
-1.000000000000000E+20
 25
-1.000000000000000E+20
 35
-1.000000000000000E+20
146
0.0
 13
0.0
 23
0.0
 33
0.0
 16
1.0
 26
0.0
 36
0.0
 17
0.0
 27
1.0
 37
0.0
 76
     0
330
1A
  0
LAYOUT
  5
21
102
{ACAD_REACTORS
330
19
102
}
330
19
100
AcDbPlotSettings
  1

  2
hp deskjet 980c series
  4

  6

 40
0.0
 41
0.0
 42
0.0
 43
0.0
 44
0.0
 45
0.0
 46
0.0
 47
0.0
 48
0.0
 49
0.0
140
0.0
141
0.0
142
1.0
143
1.0
 70
  1712
 72
     0
 73
     0
 74
     0
  7

 75
     0
147
1.0
148
0.0
149
0.0
100
AcDbLayout
  1
Model
 70
     1
 71
     0
 10
0.0
 20
0.0
 11
12.0
 21
9.0
 12
0.0
 22
0.0
 32
0.0
 14
0.0
 24
0.0
 34
0.0
 15
0.0
 25
0.0
 35
0.0
146
0.0
 13
0.0
 23
0.0
 33
0.0
 16
1.0
 26
0.0
 36
0.0
 17
0.0
 27
1.0
 37
0.0
 76
     0
330
1E
  0
MLINESTYLE
  5
17
102
{ACAD_REACTORS
330
16
102
}
330
16
100
AcDbMlineStyle
  2
STANDARD
 70
     0
  3

 62
   256
 51
90.0
 52
90.0
 71
     2
 49
0.5
 62
   256
  6
BYLAYER
 49
-0.5
 62
   256
  6
BYLAYER
  0
ACDBPLACEHOLDER
  5
F
102
{ACAD_REACTORS
330
E
102
}
330
E
  0
DICTIONARYVAR
  5
1BD
102
{ACAD_REACTORS
330
1BC
102
}
330
1BC
100
DictionaryVariables
280
     0
  1
1
  0
ENDSEC
  0
EOF
