  0
SECTION
  2
HEADER
  9
$ACADVER
  1
AC1015
  9
$ACADMAINTVER
 70
    13
  9
$DWGCODEPAGE
  3
ANSI_1252
  9
$INSBASE
 10
0.0
 20
0.0
 30
0.0
  9
$EXTMIN
 10
-0.0864999999999978
 20
0.0184999999999974
 30
0.0
  9
$EXTMAX
 10
246.0865
 20
1026.9815
 30
0.0
  9
$LIMMIN
 10
0.0
 20
0.0
  9
$LIMMAX
 10
12.0
 20
9.0
  9
$ORTHOMODE
 70
     0
  9
$REGENMODE
 70
     1
  9
$FILLMODE
 70
     1
  9
$QTEXTMODE
 70
     0
  9
$MIRRTEXT
 70
     1
  9
$LTSCALE
 40
1.0
  9
$ATTMODE
 70
     1
  9
$TEXTSIZE
 40
0.2
  9
$TRACEWID
 40
0.05
  9
$TEXTSTYLE
  7
Standard
  9
$CLAYER
  8
0
  9
$CELTYPE
  6
Continuous
  9
$CECOLOR
 62
   256
  9
$CELTSCALE
 40
1.0
  9
$DISPSILH
 70
     0
  9
$DIMSCALE
 40
1.0
  9
$DIMASZ
 40
0.18
  9
$DIMEXO
 40
0.0625
  9
$DIMDLI
 40
0.38
  9
$DIMRND
 40
0.0
  9
$DIMDLE
 40
0.0
  9
$DIMEXE
 40
0.18
  9
$DIMTP
 40
0.0
  9
$DIMTM
 40
0.0
  9
$DIMTXT
 40
0.18
  9
$DIMCEN
 40
0.09
  9
$DIMTSZ
 40
0.0
  9
$DIMTOL
 70
     0
  9
$DIMLIM
 70
     0
  9
$DIMTIH
 70
     1
  9
$DIMTOH
 70
     1
  9
$DIMSE1
 70
     0
  9
$DIMSE2
 70
     0
  9
$DIMTAD
 70
     0
  9
$DIMZIN
 70
     0
  9
$DIMBLK
  1

  9
$DIMASO
 70
     1
  9
$DIMSHO
 70
     1
  9
$DIMPOST
  1

  9
$DIMAPOST
  1

  9
$DIMALT
 70
     0
  9
$DIMALTD
 70
     2
  9
$DIMALTF
 40
25.4
  9
$DIMLFAC
 40
1.0
  9
$DIMTOFL
 70
     0
  9
$DIMTVP
 40
0.0
  9
$DIMTIX
 70
     0
  9
$DIMSOXD
 70
     0
  9
$DIMSAH
 70
     0
  9
$DIMBLK1
  1

  9
$DIMBLK2
  1

  9
$DIMSTYLE
  2
Standard
  9
$DIMCLRD
 70
     0
  9
$DIMCLRE
 70
     0
  9
$DIMCLRT
 70
     0
  9
$DIMTFAC
 40
1.0
  9
$DIMGAP
 40
0.09
  9
$DIMJUST
 70
     0
  9
$DIMSD1
 70
     0
  9
$DIMSD2
 70
     0
  9
$DIMTOLJ
 70
     1
  9
$DIMTZIN
 70
     0
  9
$DIMALTZ
 70
     0
  9
$DIMALTTZ
 70
     0
  9
$DIMUPT
 70
     0
  9
$DIMDEC
 70
     4
  9
$DIMTDEC
 70
     4
  9
$DIMALTU
 70
     2
  9
$DIMALTTD
 70
     2
  9
$DIMTXSTY
  7
Standard
  9
$DIMAUNIT
 70
     0
  9
$DIMADEC
 70
     0
  9
$DIMALTRND
 40
0.0
  9
$DIMAZIN
 70
     0
  9
$DIMDSEP
 70
    46
  9
$DIMATFIT
 70
     3
  9
$DIMFRAC
 70
     0
  9
$DIMLDRBLK
  1

  9
$DIMLUNIT
 70
     2
  9
$DIMLWD
 70
    -2
  9
$DIMLWE
 70
    -2
  9
$DIMTMOVE
 70
     0
  9
$LUNITS
 70
     2
  9
$LUPREC
 70
     4
  9
$SKETCHINC
 40
0.1
  9
$FILLETRAD
 40
0.0
  9
$AUNITS
 70
     0
  9
$AUPREC
 70
     0
  9
$MENU
  1
.
  9
$ELEVATION
 40
0.0
  9
$PELEVATION
 40
0.0
  9
$THICKNESS
 40
0.0
  9
$LIMCHECK
 70
     0
  9
$CHAMFERA
 40
0.0
  9
$CHAMFERB
 40
0.0
  9
$CHAMFERC
 40
0.0
  9
$CHAMFERD
 40
0.0
  9
$SKPOLY
 70
     0
  9
$TDCREATE
 40
2454833.617012615
  9
$TDUCREATE
 40
2454833.575345949
  9
$TDUPDATE
 40
2454833.619642106
  9
$TDUUPDATE
 40
2454833.577975439
  9
$TDINDWG
 40
0.0026296644
  9
$TDUSRTIMER
 40
0.0026296644
  9
$USRTIMER
 70
     1
  9
$ANGBASE
 50
0.0
  9
$ANGDIR
 70
     0
  9
$PDMODE
 70
     0
  9
$PDSIZE
 40
0.0
  9
$PLINEWID
 40
0.0
  9
$SPLFRAME
 70
     0
  9
$SPLINETYPE
 70
     6
  9
$SPLINESEGS
 70
     8
  9
$HANDSEED
  5
403
  9
$SURFTAB1
 70
     6
  9
$SURFTAB2
 70
     6
  9
$SURFTYPE
 70
     6
  9
$SURFU
 70
     6
  9
$SURFV
 70
     6
  9
$UCSBASE
  2

  9
$UCSNAME
  2

  9
$UCSORG
 10
0.0
 20
0.0
 30
0.0
  9
$UCSXDIR
 10
1.0
 20
0.0
 30
0.0
  9
$UCSYDIR
 10
0.0
 20
1.0
 30
0.0
  9
$UCSORTHOREF
  2

  9
$UCSORTHOVIEW
 70
     1
  9
$UCSORGTOP
 10
0.0
 20
0.0
 30
0.0
  9
$UCSORGBOTTOM
 10
0.0
 20
0.0
 30
0.0
  9
$UCSORGLEFT
 10
0.0
 20
0.0
 30
0.0
  9
$UCSORGRIGHT
 10
0.0
 20
0.0
 30
0.0
  9
$UCSORGFRONT
 10
0.0
 20
0.0
 30
0.0
  9
$UCSORGBACK
 10
0.0
 20
0.0
 30
0.0
  9
$PUCSBASE
  2

  9
$PUCSNAME
  2

  9
$PUCSORG
 10
0.0
 20
0.0
 30
0.0
  9
$PUCSXDIR
 10
1.0
 20
0.0
 30
0.0
  9
$PUCSYDIR
 10
0.0
 20
1.0
 30
0.0
  9
$PUCSORTHOREF
  2

  9
$PUCSORTHOVIEW
 70
     0
  9
$PUCSORGTOP
 10
0.0
 20
0.0
 30
0.0
  9
$PUCSORGBOTTOM
 10
0.0
 20
0.0
 30
0.0
  9
$PUCSORGLEFT
 10
0.0
 20
0.0
 30
0.0
  9
$PUCSORGRIGHT
 10
0.0
 20
0.0
 30
0.0
  9
$PUCSORGFRONT
 10
0.0
 20
0.0
 30
0.0
  9
$PUCSORGBACK
 10
0.0
 20
0.0
 30
0.0
  9
$USERI1
 70
     0
  9
$USERI2
 70
     0
  9
$USERI3
 70
     0
  9
$USERI4
 70
     0
  9
$USERI5
 70
     0
  9
$USERR1
 40
0.0
  9
$USERR2
 40
0.0
  9
$USERR3
 40
0.0
  9
$USERR4
 40
0.0
  9
$USERR5
 40
0.0
  9
$WORLDVIEW
 70
     1
  9
$SHADEDGE
 70
     3
  9
$SHADEDIF
 70
    70
  9
$TILEMODE
 70
     1
  9
$MAXACTVP
 70
    64
  9
$PINSBASE
 10
0.0
 20
0.0
 30
0.0
  9
$PLIMCHECK
 70
     0
  9
$PEXTMIN
 10
1.000000000000000E+20
 20
1.000000000000000E+20
 30
1.000000000000000E+20
  9
$PEXTMAX
 10
-1.000000000000000E+20
 20
-1.000000000000000E+20
 30
-1.000000000000000E+20
  9
$PLIMMIN
 10
0.0
 20
0.0
  9
$PLIMMAX
 10
12.0
 20
9.0
  9
$UNITMODE
 70
     0
  9
$VISRETAIN
 70
     1
  9
$PLINEGEN
 70
     0
  9
$PSLTSCALE
 70
     1
  9
$TREEDEPTH
 70
  3020
  9
$CMLSTYLE
  2
Standard
  9
$CMLJUST
 70
     0
  9
$CMLSCALE
 40
1.0
  9
$PROXYGRAPHICS
 70
     1
  9
$MEASUREMENT
 70
     0
  9
$CELWEIGHT
370
    -1
  9
$ENDCAPS
280
     0
  9
$JOINSTYLE
280
     0
  9
$LWDISPLAY
290
     0
  9
$INSUNITS
 70
     0
  9
$HYPERLINKBASE
  1

  9
$STYLESHEET
  1

  9
$XEDIT
290
     1
  9
$CEPSNTYPE
380
     0
  9
$PSTYLEMODE
290
     1
  9
$FINGERPRINTGUID
  2
{846CD970-4661-47B7-95BB-8578BDD8700F}
  9
$VERSIONGUID
  2
{C6A01C6F-DEC0-4D69-9300-34E689248A63}
  9
$EXTNAMES
290
     1
  9
$PSVPSCALE
 40
0.0
  9
$OLESTARTUP
290
     0
  0
ENDSEC
  0
SECTION
  2
CLASSES
  0
CLASS
  1
ACDBDICTIONARYWDFLT
  2
AcDbDictionaryWithDefault
  3
AutoCAD 2000
 90
        0
280
     0
281
     0
  0
CLASS
  1
ACDBPLACEHOLDER
  2
AcDbPlaceHolder
  3
AutoCAD 2000
 90
        0
280
     0
281
     0
  0
CLASS
  1
LAYOUT
  2
AcDbLayout
  3
AutoCAD 2000
 90
        0
280
     0
281
     0
  0
CLASS
  1
DICTIONARYVAR
  2
AcDbDictionaryVar
  3
AutoCAD 2000
 90
        0
280
     0
281
     0
  0
ENDSEC
  0
SECTION
  2
TABLES
  0
TABLE
  2
VPORT
  5
8
330
0
100
AcDbSymbolTable
 70
     2
  0
VPORT
  5
402
330
8
100
AcDbSymbolTableRecord
100
AcDbViewportTableRecord
  2
*Active
 70
     0
 10
0.0
 20
0.0
 11
1.0
 21
1.0
 12
123.0
 22
513.5000000000001
 13
0.0
 23
0.0
 14
1.0
 24
1.0
 15
0.0
 25
0.0
 16
0.0
 26
0.0
 36
1.0
 17
0.0
 27
0.0
 37
0.0
 40
1034.842511508951
 41
2.078104993597951
 42
50.0
 43
0.0
 44
0.0
 50
0.0
 51
0.0
 71
     0
 72
   100
 73
     1
 74
     3
 75
     0
 76
     0
 77
     0
 78
     0
281
     0
 65
     1
110
0.0
120
0.0
130
0.0
111
1.0
121
0.0
131
0.0
112
0.0
122
1.0
132
0.0
 79
     1
146
0.0
  0
ENDTAB
  0
TABLE
  2
LTYPE
  5
5
330
0
100
AcDbSymbolTable
 70
     1
  0
LTYPE
  5
13
330
5
100
AcDbSymbolTableRecord
100
AcDbLinetypeTableRecord
  2
ByBlock
 70
     0
  3

 72
    65
 73
     0
 40
0.0
  0
LTYPE
  5
14
330
5
100
AcDbSymbolTableRecord
100
AcDbLinetypeTableRecord
  2
ByLayer
 70
     0
  3

 72
    65
 73
     0
 40
0.0
  0
LTYPE
  5
15
330
5
100
AcDbSymbolTableRecord
100
AcDbLinetypeTableRecord
  2
Continuous
 70
     0
  3
Solid line
 72
    65
 73
     0
 40
0.0
  0
ENDTAB
  0
TABLE
  2
LAYER
  5
2
330
0
100
AcDbSymbolTable
 70
     1
  0
LAYER
  5
10
330
2
100
AcDbSymbolTableRecord
100
AcDbLayerTableRecord
  2
0
 70
     0
 62
     7
  6
Continuous
370
    -3
390
F
  0
ENDTAB
  0
TABLE
  2
STYLE
  5
3
330
0
100
AcDbSymbolTable
 70
     1
  0
STYLE
  5
11
330
3
100
AcDbSymbolTableRecord
100
AcDbTextStyleTableRecord
  2
Standard
 70
     0
 40
0.0
 41
1.0
 50
0.0
 71
     0
 42
0.2
  3
txt
  4

  0
ENDTAB
  0
TABLE
  2
VIEW
  5
6
330
0
100
AcDbSymbolTable
 70
     0
  0
ENDTAB
  0
TABLE
  2
UCS
  5
7
330
0
100
AcDbSymbolTable
 70
     0
  0
ENDTAB
  0
TABLE
  2
APPID
  5
9
330
0
100
AcDbSymbolTable
 70
     1
  0
APPID
  5
12
330
9
100
AcDbSymbolTableRecord
100
AcDbRegAppTableRecord
  2
ACAD
 70
     0
  0
ENDTAB
  0
TABLE
  2
DIMSTYLE
  5
A
330
0
100
AcDbSymbolTable
 70
     1
100
AcDbDimStyleTable
 71
     0
  0
DIMSTYLE
105
3FC
330
A
100
AcDbSymbolTableRecord
100
AcDbDimStyleTableRecord
  2
Standard
 70
     0
340
11
  0
ENDTAB
  0
TABLE
  2
BLOCK_RECORD
  5
1
330
0
100
AcDbSymbolTable
 70
     0
  0
BLOCK_RECORD
  5
1E
330
1
100
AcDbSymbolTableRecord
100
AcDbBlockTableRecord
  2
*Model_Space
340
21
  0
BLOCK_RECORD
  5
1A
330
1
100
AcDbSymbolTableRecord
100
AcDbBlockTableRecord
  2
*Paper_Space
340
1D
  0
ENDTAB
  0
ENDSEC
  0
SECTION
  2
BLOCKS
  0
BLOCK
  5
1F
330
1E
100
AcDbEntity
  8
0
100
AcDbBlockBegin
  2
*Model_Space
 70
     0
 10
0.0
 20
0.0
 30
0.0
  3
*Model_Space
  1

  0
ENDBLK
  5
20
330
1E
100
AcDbEntity
  8
0
100
AcDbBlockEnd
  0
BLOCK
  5
1B
330
1A
100
AcDbEntity
 67
     1
  8
0
100
AcDbBlockBegin
  2
*Paper_Space
 70
     0
 10
0.0
 20
0.0
 30
0.0
  3
*Paper_Space
  1

  0
ENDBLK
  5
1C
330
1A
100
AcDbEntity
 67
     1
  8
0
100
AcDbBlockEnd
  0
ENDSEC
  0
SECTION
  2
ENTITIES
  0
LINE
  5
22
330
1E
100
AcDbEntity
  8
0
100
AcDbLine
 10
-0.0864999999999978
 20
834.8815
 30
0.0
 11
0.297499999999975
 21
837.5415
 31
0.0
  0
LINE
  5
23
330
1E
100
AcDbEntity
  8
0
100
AcDbLine
 10
-0.0864999999999978
 20
834.8815
 30
0.0
 11
0.328499999999953
 21
830.6015
 31
0.0
  0
LINE
  5
26
330
1E
100
AcDbEntity
  8
0
100
AcDbLine
 10
1.792499999999979
 20
825.1314999999999
 30
0.0
 11
3.62984315542571
 21
821.6068257755189
 31
0.0
  0
LINE
  5
28
330
1E
100
AcDbEntity
  8
0
100
AcDbLine
 10
0.841499999999994
 20
828.6815
 30
0.0
 11
1.127499999999959
 21
828.9815
 31
0.0
  0
LINE
  5
29
330
1E
100
AcDbEntity
  8
0
100
AcDbLine
 10
0.841499999999994
 20
828.6815
 30
0.0
 11
1.792499999999979
 21
825.1314999999999
 31
0.0
  0
LINE
  5
2E
330
1E
100
AcDbEntity
  8
0
100
AcDbLine
 10
0.328499999999953
 20
830.6015
 30
0.0
 11
0.6944999999999531
 21
829.2315
 31
0.0
  0
LINE
  5
2F
330
1E
100
AcDbEntity
  8
0
100
AcDbLine
 10
0.297499999999975
 20
837.5415
 30
0.0
 11
1.864499999999949
 21
841.2614999999998
 31
0.0
  0
LINE
  5
30
330
1E
100
AcDbEntity
  8
0
100
AcDbLine
 10
1.864499999999949
 20
841.2614999999998
 30
0.0
 11
2.547499999999979
 21
841.4414999999999
 31
0.0
  0
LINE
  5
31
330
1E
100
AcDbEntity
  8
0
100
AcDbLine
 10
1.864499999999949
 20
841.2614999999998
 30
0.0
 11
3.16349999999997
 21
840.5115
 31
0.0
  0
LINE
  5
32
330
1E
100
AcDbEntity
  8
0
100
AcDbLine
 10
3.16349999999997
 20
840.5115
 30
0.0
 11
6.80049999999998
 21
838.4115000000001
 31
0.0
  0
LINE
  5
33
330
1E
100
AcDbEntity
  8
0
100
AcDbLine
 10
2.95449999999997
 20
821.1214999999999
 30
0.0
 11
3.27549999999996
 21
820.5014999999999
 31
0.0
  0
LINE
  5
36
330
1E
100
AcDbEntity
  8
0
100
AcDbLine
 10
2.817499999999999
 20
821.3815
 30
0.0
 11
2.95449999999997
 21
821.1214999999999
 31
0.0
  0
LINE
  5
37
330
1E
100
AcDbEntity
  8
0
100
AcDbLine
 10
2.817499999999999
 20
821.3815
 30
0.0
 11
3.27549999999996
 21
820.5014999999999
 31
0.0
  0
LINE
  5
38
330
1E
100
AcDbEntity
  8
0
100
AcDbLine
 10
2.817499999999999
 20
821.3815
 30
0.0
 11
3.549870612459339
 21
821.7602414072299
 31
0.0
  0
LINE
  5
39
330
1E
100
AcDbEntity
  8
0
100
AcDbLine
 10
2.817499999999999
 20
821.3815
 30
0.0
 11
3.549870612459339
 21
821.7602414072299
 31
0.0
  0
LINE
  5
3A
330
1E
100
AcDbEntity
  8
0
100
AcDbLine
 10
2.547499999999979
 20
841.4414999999999
 30
0.0
 11
3.84649999999999
 21
840.6914999999999
 31
0.0
  0
LINE
  5
3B
330
1E
100
AcDbEntity
  8
0
100
AcDbLine
 10
3.27549999999996
 20
820.5014999999999
 30
0.0
 11
3.59549999999997
 21
819.8714999999999
 31
0.0
  0
LINE
  5
3D
330
1E
100
AcDbEntity
  8
0
100
AcDbLine
 10
4.3155
 20
819.4615
 30
0.0
 11
4.602499999999969
 21
819.1015
 31
0.0
  0
LINE
  5
40
330
1E
100
AcDbEntity
  8
0
100
AcDbLine
 10
3.71049999999997
 20
820.6815
 30
0.0
 11
3.945499999999979
 21
820.1114999999999
 31
0.0
  0
LINE
  5
41
330
1E
100
AcDbEntity
  8
0
100
AcDbLine
 10
3.71049999999997
 20
820.6815
 30
0.0
 11
3.73749999999999
 21
820.8515
 31
0.0
  0
LINE
  5
43
330
1E
100
AcDbEntity
  8
0
100
AcDbLine
 10
3.945499999999979
 20
820.1114999999999
 30
0.0
 11
4.3155
 21
819.4615
 31
0.0
  0
LINE
  5
44
330
1E
100
AcDbEntity
  8
0
100
AcDbLine
 10
4.39449999999997
 20
819.8515
 30
0.0
 11
4.629499999999949
 21
819.2815000000001
 31
0.0
  0
LINE
  5
46
330
1E
100
AcDbEntity
  8
0
100
AcDbLine
 10
4.024499999999959
 20
820.5014999999999
 30
0.0
 11
4.39449999999997
 21
819.8515
 31
0.0
  0
LINE
  5
48
330
1E
100
AcDbEntity
  8
0
100
AcDbLine
 10
3.73749999999999
 20
820.8515
 30
0.0
 11
4.024499999999959
 21
820.5014999999999
 31
0.0
  0
LINE
  5
4A
330
1E
100
AcDbEntity
  8
0
100
AcDbLine
 10
3.732499999999959
 20
819.6115
 30
0.0
 11
4.11784849906192
 21
819.808725609756
 31
0.0
  0
LINE
  5
4B
330
1E
100
AcDbEntity
  8
0
100
AcDbLine
 10
3.59549999999997
 20
819.8714999999999
 30
0.0
 11
3.732499999999959
 21
819.6115
 31
0.0
  0
LINE
  5
4D
330
1E
100
AcDbEntity
  8
0
100
AcDbLine
 10
3.84649999999999
 20
840.6914999999999
 30
0.0
 11
7.39749999999999
 21
838.6414999999999
 31
0.0
  0
LINE
  5
4E
330
1E
100
AcDbEntity
  8
0
100
AcDbLine
 10
3.230499999999949
 20
841.6214999999999
 30
0.0
 11
6.867500000000009
 21
839.5215
 31
0.0
  0
LINE
  5
4F
330
1E
100
AcDbEntity
  8
0
100
AcDbLine
 10
1.931499999999959
 20
842.3714999999999
 30
0.0
 11
4.43149999999998
 21
846.7014999999999
 31
0.0
  0
LINE
  5
50
330
1E
100
AcDbEntity
  8
0
100
AcDbLine
 10
1.931499999999959
 20
842.3714999999999
 30
0.0
 11
2.547499999999979
 21
841.4414999999999
 31
0.0
  0
LINE
  5
51
330
1E
100
AcDbEntity
  8
0
100
AcDbLine
 10
1.931499999999959
 20
842.3714999999999
 30
0.0
 11
3.230499999999949
 21
841.6214999999999
 31
0.0
  0
LINE
  5
52
330
1E
100
AcDbEntity
  8
0
100
AcDbLine
 10
4.87770703847174
 20
819.249579345257
 30
0.0
 11
7.10852410646106
 21
816.100768079846
 31
0.0
  0
LINE
  5
55
330
1E
100
AcDbEntity
  8
0
100
AcDbLine
 10
4.602499999999969
 20
819.1015
 30
0.0
 11
4.629499999999949
 21
819.2815000000001
 31
0.0
  0
LINE
  5
56
330
1E
100
AcDbEntity
  8
0
100
AcDbLine
 10
4.602499999999969
 20
819.1015
 30
0.0
 11
5.346373703202499
 21
819.5017525935949
 31
0.0
  0
LINE
  5
58
330
1E
100
AcDbEntity
  8
0
100
AcDbLine
 10
6.84549999999999
 20
815.4315
 30
0.0
 11
7.2925
 21
814.8514999999999
 31
0.0
  0
LINE
  5
5A
330
1E
100
AcDbEntity
  8
0
100
AcDbLine
 10
6.242499999999981
 20
819.2215
 30
0.0
 11
6.364499999999959
 21
818.7115
 31
0.0
  0
LINE
  5
5B
330
1E
100
AcDbEntity
  8
0
100
AcDbLine
 10
6.242499999999981
 20
819.2215
 30
0.0
 11
6.43849999999997
 21
819.2915000000001
 31
0.0
  0
LINE
  5
5D
330
1E
100
AcDbEntity
  8
0
100
AcDbLine
 10
6.364499999999959
 20
818.7115
 30
0.0
 11
6.74649999999998
 21
818.0514999999999
 31
0.0
  0
LINE
  5
5E
330
1E
100
AcDbEntity
  8
0
100
AcDbLine
 10
6.43849999999997
 20
819.2915000000001
 30
0.0
 11
6.849499999999981
 21
818.8715
 31
0.0
  0
LINE
  5
60
330
1E
100
AcDbEntity
  8
0
100
AcDbLine
 10
6.74649999999998
 20
818.0514999999999
 30
0.0
 11
7.157499999999959
 21
817.6314999999998
 31
0.0
  0
LINE
  5
61
330
1E
100
AcDbEntity
  8
0
100
AcDbLine
 10
6.80049999999998
 20
838.4115000000001
 30
0.0
 11
12.5165
 21
835.1115
 31
0.0
  0
LINE
  5
62
330
1E
100
AcDbEntity
  8
0
100
AcDbLine
 10
6.849499999999981
 20
818.8715
 30
0.0
 11
7.23049999999994
 21
818.2114999999999
 31
0.0
  0
LINE
  5
64
330
1E
100
AcDbEntity
  8
0
100
AcDbLine
 10
6.589499999999969
 20
815.7115000000001
 30
0.0
 11
6.687499999999981
 21
815.5215
 31
0.0
  0
LINE
  5
65
330
1E
100
AcDbEntity
  8
0
100
AcDbLine
 10
6.589499999999969
 20
815.7115000000001
 30
0.0
 11
7.10852410646106
 21
816.100768079846
 31
0.0
  0
LINE
  5
66
330
1E
100
AcDbEntity
  8
0
100
AcDbLine
 10
6.589499999999969
 20
815.7115000000001
 30
0.0
 11
6.84549999999999
 21
815.4315
 31
0.0
  0
LINE
  5
67
330
1E
100
AcDbEntity
  8
0
100
AcDbLine
 10
6.589499999999969
 20
815.7115000000001
 30
0.0
 11
7.278933272394849
 21
816.2285749542959
 31
0.0
  0
LINE
  5
68
330
1E
100
AcDbEntity
  8
0
100
AcDbLine
 10
6.687499999999981
 20
815.5215
 30
0.0
 11
7.066499999999959
 21
814.9815
 31
0.0
  0
LINE
  5
69
330
1E
100
AcDbEntity
  8
0
100
AcDbLine
 10
6.687499999999981
 20
815.5215
 30
0.0
 11
6.73241525423725
 21
815.5551864406779
 31
0.0
  0
LINE
  5
6A
330
1E
100
AcDbEntity
  8
0
100
AcDbLine
 10
7.768499999999959
 20
814.1214999999998
 30
0.0
 11
8.18829091531613
 21
814.433719493266
 31
0.0
  0
LINE
  5
6B
330
1E
100
AcDbEntity
  8
0
100
AcDbLine
 10
8.000499999999949
 20
814.7615
 30
0.0
 11
8.27549999999997
 21
814.2815
 31
0.0
  0
LINE
  5
6C
330
1E
100
AcDbEntity
  8
0
100
AcDbLine
 10
8.000499999999949
 20
814.7615
 30
0.0
 11
8.0715
 21
814.8614999999999
 31
0.0
  0
LINE
  5
6D
330
1E
100
AcDbEntity
  8
0
100
AcDbLine
 10
8.000499999999949
 20
814.7615
 30
0.0
 11
8.091401542387218
 21
814.83291009769
 31
0.0
  0
LINE
  5
6E
330
1E
100
AcDbEntity
  8
0
100
AcDbLine
 10
8.000499999999949
 20
814.7615
 30
0.0
 11
8.091401542387218
 21
814.83291009769
 31
0.0
  0
LINE
  5
6F
330
1E
100
AcDbEntity
  8
0
100
AcDbLine
 10
8.0715
 20
814.8614999999999
 30
0.0
 11
8.46449999999996
 21
814.4914999999999
 31
0.0
  0
LINE
  5
71
330
1E
100
AcDbEntity
  8
0
100
AcDbLine
 10
7.5125
 20
814.4015000000001
 30
0.0
 11
7.768499999999959
 21
814.1214999999998
 31
0.0
  0
LINE
  5
72
330
1E
100
AcDbEntity
  8
0
100
AcDbLine
 10
7.5125
 20
814.4015000000001
 30
0.0
 11
7.56525541795658
 21
814.441066563468
 31
0.0
  0
LINE
  5
73
330
1E
100
AcDbEntity
  8
0
100
AcDbLine
 10
7.671499999999981
 20
814.3114999999999
 30
0.0
 11
7.768499999999959
 21
814.1214999999998
 31
0.0
  0
LINE
  5
75
330
1E
100
AcDbEntity
  8
0
100
AcDbLine
 10
7.2925
 20
814.8514999999999
 30
0.0
 11
7.671499999999981
 21
814.3114999999999
 31
0.0
  0
LINE
  5
77
330
1E
100
AcDbEntity
  8
0
100
AcDbLine
 10
7.157499999999959
 20
817.6314999999998
 30
0.0
 11
7.3525
 21
817.7015
 31
0.0
  0
LINE
  5
79
330
1E
100
AcDbEntity
  8
0
100
AcDbLine
 10
7.23049999999994
 20
818.2114999999999
 30
0.0
 11
7.3525
 21
817.7015
 31
0.0
  0
LINE
  5
7B
330
1E
100
AcDbEntity
  8
0
100
AcDbLine
 10
7.066499999999959
 20
814.9815
 30
0.0
 11
7.5125
 21
814.4015000000001
 31
0.0
  0
LINE
  5
7C
330
1E
100
AcDbEntity
  8
0
100
AcDbLine
 10
7.066499999999959
 20
814.9815
 30
0.0
 11
7.112418234912329
 21
815.0159386761838
 31
0.0
  0
LINE
  5
7D
330
1E
100
AcDbEntity
  8
0
100
AcDbLine
 10
8.46449999999996
 20
814.4914999999999
 30
0.0
 11
8.93849999999999
 21
813.9015
 31
0.0
  0
LINE
  5
7F
330
1E
100
AcDbEntity
  8
0
100
AcDbLine
 10
8.18829091531613
 20
814.433719493266
 30
0.0
 11
8.27549999999997
 21
814.2815
 31
0.0
  0
LINE
  5
80
330
1E
100
AcDbEntity
  8
0
100
AcDbLine
 10
8.27549999999997
 20
814.2815
 30
0.0
 11
8.750499999999949
 21
813.6915
 31
0.0
  0
LINE
  5
82
330
1E
100
AcDbEntity
  8
0
100
AcDbLine
 10
9.29668222716358
 20
813.443536125747
 30
0.0
 11
11.1835
 21
811.4015
 31
0.0
  0
LINE
  5
83
330
1E
100
AcDbEntity
  8
0
100
AcDbLine
 10
9.29668222716358
 20
813.443536125747
 30
0.0
 11
11.1835
 21
811.4015
 31
0.0
  0
LINE
  5
85
330
1E
100
AcDbEntity
  8
0
100
AcDbLine
 10
9.142499999999991
 20
813.3214999999999
 30
0.0
 11
9.21449999999996
 21
813.4215000000001
 31
0.0
  0
LINE
  5
87
330
1E
100
AcDbEntity
  8
0
100
AcDbLine
 10
8.93849999999999
 20
813.9015
 30
0.0
 11
9.21449999999996
 21
813.4215000000001
 31
0.0
  0
LINE
  5
89
330
1E
100
AcDbEntity
  8
0
100
AcDbLine
 10
8.750499999999949
 20
813.6915
 30
0.0
 11
9.142499999999991
 21
813.3214999999999
 31
0.0
  0
LINE
  5
8B
330
1E
100
AcDbEntity
  8
0
100
AcDbLine
 10
7.39749999999999
 20
838.6414999999999
 30
0.0
 11
13.1135
 21
835.3415
 31
0.0
  0
LINE
  5
8C
330
1E
100
AcDbEntity
  8
0
100
AcDbLine
 10
6.867500000000009
 20
839.5215
 30
0.0
 11
12.7565
 21
836.1214999999999
 31
0.0
  0
LINE
  5
8E
330
1E
100
AcDbEntity
  8
0
100
AcDbLine
 10
23.0135
 20
802.4915
 30
0.0
 11
24.5075
 21
801.6515
 31
0.0
  0
LINE
  5
8F
330
1E
100
AcDbEntity
  8
0
100
AcDbLine
 10
27.77649999999999
 20
799.7415
 30
0.0
 11
28.6425
 21
799.2415
 31
0.0
  0
LINE
  5
90
330
1E
100
AcDbEntity
  8
0
100
AcDbLine
 10
26.7375
 20
800.3415
 30
0.0
 11
27.77649999999999
 21
799.7415
 31
0.0
  0
LINE
  5
91
330
1E
100
AcDbEntity
  8
0
100
AcDbLine
 10
26.1987271451327
 20
800.652629656324
 30
0.0
 11
26.7375
 21
800.3415
 31
0.0
  0
LINE
  5
93
330
1E
100
AcDbEntity
  8
0
100
AcDbLine
 10
25.9885
 20
800.6615
 30
0.0
 11
26.2255
 21
800.6515
 31
0.0
  0
LINE
  5
95
330
1E
100
AcDbEntity
  8
0
100
AcDbLine
 10
25.3365
 20
801.3614999999999
 30
0.0
 11
25.9465
 21
800.9515
 31
0.0
  0
LINE
  5
97
330
1E
100
AcDbEntity
  8
0
100
AcDbLine
 10
25.9465
 20
800.9515
 30
0.0
 11
26.2255
 21
800.6515
 31
0.0
  0
LINE
  5
99
330
1E
100
AcDbEntity
  8
0
100
AcDbLine
 10
25.39649999999999
 20
800.9415
 30
0.0
 11
25.9885
 21
800.6615
 31
0.0
  0
LINE
  5
9B
330
1E
100
AcDbEntity
  8
0
100
AcDbLine
 10
24.7865
 20
801.3514999999999
 30
0.0
 11
25.39649999999999
 21
800.9415
 31
0.0
  0
LINE
  5
9D
330
1E
100
AcDbEntity
  8
0
100
AcDbLine
 10
24.5075
 20
801.6515
 30
0.0
 11
24.7445
 21
801.6415
 31
0.0
  0
LINE
  5
9E
330
1E
100
AcDbEntity
  8
0
100
AcDbLine
 10
24.5075
 20
801.6515
 30
0.0
 11
24.7865
 21
801.3514999999999
 31
0.0
  0
LINE
  5
A0
330
1E
100
AcDbEntity
  8
0
100
AcDbLine
 10
24.7445
 20
801.6415
 30
0.0
 11
25.3365
 21
801.3614999999999
 31
0.0
  0
LINE
  5
A2
330
1E
100
AcDbEntity
  8
0
100
AcDbLine
 10
27.2841714710253
 20
800.0258090638929
 30
0.0
 11
27.3905
 21
799.8515
 31
0.0
  0
LINE
  5
A3
330
1E
100
AcDbEntity
  8
0
100
AcDbLine
 10
27.3905
 20
799.8515
 30
0.0
 11
27.9335
 21
799.4815
 31
0.0
  0
LINE
  5
A4
330
1E
100
AcDbEntity
  8
0
100
AcDbLine
 10
27.3905
 20
799.8515
 30
0.0
 11
27.4375732469683
 21
799.9372228602689
 31
0.0
  0
LINE
  5
A5
330
1E
100
AcDbEntity
  8
0
100
AcDbLine
 10
28.6425
 20
799.2415
 30
0.0
 11
29.5085
 21
798.7414999999999
 31
0.0
  0
LINE
  5
A6
330
1E
100
AcDbEntity
  8
0
100
AcDbLine
 10
27.9335
 20
799.4815
 30
0.0
 11
28.5925
 21
799.1615
 31
0.0
  0
LINE
  5
A7
330
1E
100
AcDbEntity
  8
0
100
AcDbLine
 10
27.9335
 20
799.4815
 30
0.0
 11
28.0041103852664
 21
799.6100852279059
 31
0.0
  0
LINE
  5
A8
330
1E
100
AcDbEntity
  8
0
100
AcDbLine
 10
28.5925
 20
799.1615
 30
0.0
 11
28.9296432211101
 21
799.0757129208369
 31
0.0
  0
LINE
  5
A9
330
1E
100
AcDbEntity
  8
0
100
AcDbLine
 10
28.5925
 20
799.1615
 30
0.0
 11
28.6378917027336
 21
799.2441606797149
 31
0.0
  0
LINE
  5
AA
330
1E
100
AcDbEntity
  8
0
100
AcDbLine
 10
23.4165
 20
802.1414999999999
 30
0.0
 11
23.4739454976303
 21
802.2259786729859
 31
0.0
  0
LINE
  5
AB
330
1E
100
AcDbEntity
  8
0
100
AcDbLine
 10
23.4165
 20
802.1414999999999
 30
0.0
 11
23.4729461555146
 21
802.2265558507749
 31
0.0
  0
LINE
  5
AC
330
1E
100
AcDbEntity
  8
0
100
AcDbLine
 10
22.8405
 20
802.5914999999999
 30
0.0
 11
23.0135
 21
802.4915
 31
0.0
  0
LINE
  5
AE
330
1E
100
AcDbEntity
  8
0
100
AcDbLine
 10
23.8045
 20
803.0415000000001
 30
0.0
 11
23.98649999999999
 21
803.1314999999999
 31
0.0
  0
LINE
  5
AF
330
1E
100
AcDbEntity
  8
0
100
AcDbLine
 10
22.9295
 20
802.3714999999999
 30
0.0
 11
23.4165
 21
802.1414999999999
 31
0.0
  0
LINE
  5
B1
330
1E
100
AcDbEntity
  8
0
100
AcDbLine
 10
22.2965
 20
802.7915
 30
0.0
 11
22.9295
 21
802.3714999999999
 31
0.0
  0
LINE
  5
B3
330
1E
100
AcDbEntity
  8
0
100
AcDbLine
 10
11.6705
 20
810.2415
 30
0.0
 11
12.2225
 21
809.7315
 31
0.0
  0
LINE
  5
B5
330
1E
100
AcDbEntity
  8
0
100
AcDbLine
 10
12.1195
 20
809.9814999999999
 30
0.0
 11
12.5365
 21
809.5515
 31
0.0
  0
LINE
  5
B7
330
1E
100
AcDbEntity
  8
0
100
AcDbLine
 10
11.5675
 20
810.4915
 30
0.0
 11
12.1195
 21
809.9814999999999
 31
0.0
  0
LINE
  5
B9
330
1E
100
AcDbEntity
  8
0
100
AcDbLine
 10
11.1835
 20
811.4015
 30
0.0
 11
11.51669468432319
 21
811.12331521651
 31
0.0
  0
LINE
  5
BA
330
1E
100
AcDbEntity
  8
0
100
AcDbLine
 10
10.8405
 20
812.8015000000001
 30
0.0
 11
11.30049999999999
 21
812.2115
 31
0.0
  0
LINE
  5
BC
330
1E
100
AcDbEntity
  8
0
100
AcDbLine
 10
10.3785
 20
816.3914999999999
 30
0.0
 11
10.3915
 21
816.8215
 31
0.0
  0
LINE
  5
BD
330
1E
100
AcDbEntity
  8
0
100
AcDbLine
 10
10.3785
 20
816.3914999999999
 30
0.0
 11
10.7335
 21
815.7515
 31
0.0
  0
LINE
  5
BE
330
1E
100
AcDbEntity
  8
0
100
AcDbLine
 10
10.3915
 20
816.8215
 30
0.0
 11
10.74649999999999
 21
816.8115
 31
0.0
  0
LINE
  5
C1
330
1E
100
AcDbEntity
  8
0
100
AcDbLine
 10
10.74649999999999
 20
816.8115
 30
0.0
 11
11.2485
 21
816.3315
 31
0.0
  0
LINE
  5
C3
330
1E
100
AcDbEntity
  8
0
100
AcDbLine
 10
10.7335
 20
815.7515
 30
0.0
 11
11.2355
 21
815.2714999999998
 31
0.0
  0
LINE
  5
C4
330
1E
100
AcDbEntity
  8
0
100
AcDbLine
 10
10.6955
 20
813.2115
 30
0.0
 11
10.8405
 21
812.8015000000001
 31
0.0
  0
LINE
  5
C5
330
1E
100
AcDbEntity
  8
0
100
AcDbLine
 10
10.6955
 20
813.2115
 30
0.0
 11
10.9355
 21
813.2015
 31
0.0
  0
LINE
  5
C7
330
1E
100
AcDbEntity
  8
0
100
AcDbLine
 10
10.9355
 20
813.2015
 30
0.0
 11
11.4345
 21
812.7815
 31
0.0
  0
LINE
  5
C9
330
1E
100
AcDbEntity
  8
0
100
AcDbLine
 10
11.30049999999999
 20
812.2115
 30
0.0
 11
11.7995
 21
811.7914999999999
 31
0.0
  0
LINE
  5
CA
330
1E
100
AcDbEntity
  8
0
100
AcDbLine
 10
11.7995
 20
811.7914999999999
 30
0.0
 11
12.0385
 21
811.7914999999999
 31
0.0
  0
LINE
  5
CC
330
1E
100
AcDbEntity
  8
0
100
AcDbLine
 10
11.8945
 20
812.1914999999999
 30
0.0
 11
12.0385
 21
811.7914999999999
 31
0.0
  0
LINE
  5
CF
330
1E
100
AcDbEntity
  8
0
100
AcDbLine
 10
11.2485
 20
816.3315
 30
0.0
 11
11.60349999999999
 21
815.6914999999999
 31
0.0
  0
LINE
  5
D1
330
1E
100
AcDbEntity
  8
0
100
AcDbLine
 10
11.5905
 20
815.2614999999999
 30
0.0
 11
11.60349999999999
 21
815.6914999999999
 31
0.0
  0
LINE
  5
D3
330
1E
100
AcDbEntity
  8
0
100
AcDbLine
 10
11.2355
 20
815.2714999999998
 30
0.0
 11
11.5905
 21
815.2614999999999
 31
0.0
  0
LINE
  5
D4
330
1E
100
AcDbEntity
  8
0
100
AcDbLine
 10
11.4345
 20
812.7815
 30
0.0
 11
11.8945
 21
812.1914999999999
 31
0.0
  0
LINE
  5
D6
330
1E
100
AcDbEntity
  8
0
100
AcDbLine
 10
11.2025
 20
810.7915
 30
0.0
 11
11.51669468432319
 21
811.12331521651
 31
0.0
  0
LINE
  5
D7
330
1E
100
AcDbEntity
  8
0
100
AcDbLine
 10
11.2025
 20
810.7915
 30
0.0
 11
11.5675
 21
810.4915
 31
0.0
  0
LINE
  5
D8
330
1E
100
AcDbEntity
  8
0
100
AcDbLine
 10
11.2025
 20
810.7915
 30
0.0
 11
11.2535
 21
810.6715000000001
 31
0.0
  0
LINE
  5
D9
330
1E
100
AcDbEntity
  8
0
100
AcDbLine
 10
11.2025
 20
810.7915
 30
0.0
 11
11.62226591557819
 21
811.234807048498
 31
0.0
  0
LINE
  5
DA
330
1E
100
AcDbEntity
  8
0
100
AcDbLine
 10
11.2535
 20
810.6715000000001
 30
0.0
 11
11.6705
 21
810.2415
 31
0.0
  0
LINE
  5
DB
330
1E
100
AcDbEntity
  8
0
100
AcDbLine
 10
11.2535
 20
810.6715000000001
 30
0.0
 11
11.2950602912259
 21
810.715423048307
 31
0.0
  0
LINE
  5
DC
330
1E
100
AcDbEntity
  8
0
100
AcDbLine
 10
11.2535
 20
810.6715000000001
 30
0.0
 11
11.2950602912259
 21
810.715423048307
 31
0.0
  0
LINE
  5
DD
330
1E
100
AcDbEntity
  8
0
100
AcDbLine
 10
21.06749999999999
 20
803.5014999999999
 30
0.0
 11
21.4887194912091
 21
804.0871333167929
 31
0.0
  0
LINE
  5
DE
330
1E
100
AcDbEntity
  8
0
100
AcDbLine
 10
21.20729083364849
 20
803.6958551314111
 30
0.0
 11
22.8405
 21
802.5914999999999
 31
0.0
  0
LINE
  5
DF
330
1E
100
AcDbEntity
  8
0
100
AcDbLine
 10
20.96649999999999
 20
803.6915
 30
0.0
 11
21.06749999999999
 21
803.5014999999999
 31
0.0
  0
LINE
  5
E1
330
1E
100
AcDbEntity
  8
0
100
AcDbLine
 10
20.7175
 20
803.6515000000001
 30
0.0
 11
21.06749999999999
 21
803.5014999999999
 31
0.0
  0
LINE
  5
E3
330
1E
100
AcDbEntity
  8
0
100
AcDbLine
 10
20.4535
 20
804.1214999999999
 30
0.0
 11
20.96649999999999
 21
803.6915
 31
0.0
  0
LINE
  5
E5
330
1E
100
AcDbEntity
  8
0
100
AcDbLine
 10
20.10549999999989
 20
804.0615
 30
0.0
 11
20.7175
 21
803.6515000000001
 31
0.0
  0
LINE
  5
E7
330
1E
100
AcDbEntity
  8
0
100
AcDbLine
 10
23.6675
 20
803.5114999999999
 30
0.0
 11
23.98649999999999
 21
803.1314999999999
 31
0.0
  0
LINE
  5
E9
330
1E
100
AcDbEntity
  8
0
100
AcDbLine
 10
23.24749999999999
 20
803.2815000000001
 30
0.0
 11
23.8045
 21
803.0415000000001
 31
0.0
  0
LINE
  5
EA
330
1E
100
AcDbEntity
  8
0
100
AcDbLine
 10
23.0525
 20
803.9514999999999
 30
0.0
 11
23.6675
 21
803.5114999999999
 31
0.0
  0
LINE
  5
EC
330
1E
100
AcDbEntity
  8
0
100
AcDbLine
 10
22.6325
 20
803.7214999999999
 30
0.0
 11
23.24749999999999
 21
803.2815000000001
 31
0.0
  0
LINE
  5
EE
330
1E
100
AcDbEntity
  8
0
100
AcDbLine
 10
22.3135
 20
804.0915
 30
0.0
 11
22.4965
 21
804.1814999999999
 31
0.0
  0
LINE
  5
EF
330
1E
100
AcDbEntity
  8
0
100
AcDbLine
 10
22.3135
 20
804.0915
 30
0.0
 11
22.6325
 21
803.7214999999999
 31
0.0
  0
LINE
  5
F1
330
1E
100
AcDbEntity
  8
0
100
AcDbLine
 10
22.4965
 20
804.1814999999999
 30
0.0
 11
23.0525
 21
803.9514999999999
 31
0.0
  0
LINE
  5
F4
330
1E
100
AcDbEntity
  8
0
100
AcDbLine
 10
26.0735
 20
804.3314999999999
 30
0.0
 11
26.26449999999989
 21
803.9015
 31
0.0
  0
LINE
  5
F6
330
1E
100
AcDbEntity
  8
0
100
AcDbLine
 10
25.9405
 20
803.7614999999998
 30
0.0
 11
26.26449999999989
 21
803.9015
 31
0.0
  0
LINE
  5
F7
330
1E
100
AcDbEntity
  8
0
100
AcDbLine
 10
25.3115
 20
803.9915
 30
0.0
 11
25.9405
 21
803.7614999999998
 31
0.0
  0
LINE
  5
F8
330
1E
100
AcDbEntity
  8
0
100
AcDbLine
 10
19.84049999999999
 20
804.5315
 30
0.0
 11
20.4535
 21
804.1214999999999
 31
0.0
  0
LINE
  5
FA
330
1E
100
AcDbEntity
  8
0
100
AcDbLine
 10
19.5925
 20
804.4814999999999
 30
0.0
 11
20.10549999999989
 21
804.0615
 31
0.0
  0
LINE
  5
FC
330
1E
100
AcDbEntity
  8
0
100
AcDbLine
 10
19.49149999999999
 20
804.6715
 30
0.0
 11
19.84049999999999
 21
804.5315
 31
0.0
  0
LINE
  5
FD
330
1E
100
AcDbEntity
  8
0
100
AcDbLine
 10
19.49149999999999
 20
804.6715
 30
0.0
 11
19.5925
 21
804.4814999999999
 31
0.0
  0
LINE
  5
FF
330
1E
100
AcDbEntity
  8
0
100
AcDbLine
 10
24.7385
 20
804.4615
 30
0.0
 11
25.3115
 21
803.9915
 31
0.0
  0
LINE
  5
100
330
1E
100
AcDbEntity
  8
0
100
AcDbLine
 10
19.0915
 20
804.6414999999999
 30
0.0
 11
19.3363519687366
 21
804.960960041787
 31
0.0
  0
LINE
  5
101
330
1E
100
AcDbEntity
  8
0
100
AcDbLine
 10
17.6465
 20
805.4814999999999
 30
0.0
 11
18.06554118801339
 21
806.0019437831899
 31
0.0
  0
LINE
  5
102
330
1E
100
AcDbEntity
  8
0
100
AcDbLine
 10
17.6265
 20
805.4315
 30
0.0
 11
17.6465
 21
805.4814999999999
 31
0.0
  0
LINE
  5
104
330
1E
100
AcDbEntity
  8
0
100
AcDbLine
 10
17.1825
 20
805.7415
 30
0.0
 11
17.6265
 21
805.4315
 31
0.0
  0
LINE
  5
106
330
1E
100
AcDbEntity
  8
0
100
AcDbLine
 10
17.25049999999989
 20
805.8415
 30
0.0
 11
17.6465
 21
805.4814999999999
 31
0.0
  0
LINE
  5
108
330
1E
100
AcDbEntity
  8
0
100
AcDbLine
 10
17.982457123716
 20
805.8764464046449
 30
0.0
 11
19.5808572464148
 21
804.7956287029581
 31
0.0
  0
LINE
  5
109
330
1E
100
AcDbEntity
  8
0
100
AcDbLine
 10
17.7394275362319
 20
805.57265942029
 30
0.0
 11
17.7775
 21
805.5315
 31
0.0
  0
LINE
  5
10A
330
1E
100
AcDbEntity
  8
0
100
AcDbLine
 10
17.7775
 20
805.5315
 30
0.0
 11
18.3535
 21
805.0715
 31
0.0
  0
LINE
  5
10C
330
1E
100
AcDbEntity
  8
0
100
AcDbLine
 10
25.5005
 20
804.8015000000001
 30
0.0
 11
26.0735
 21
804.3314999999999
 31
0.0
  0
LINE
  5
10E
330
1E
100
AcDbEntity
  8
0
100
AcDbLine
 10
24.5475
 20
804.8914999999999
 30
0.0
 11
24.8715
 21
805.0214999999999
 31
0.0
  0
LINE
  5
10F
330
1E
100
AcDbEntity
  8
0
100
AcDbLine
 10
24.5475
 20
804.8914999999999
 30
0.0
 11
24.7385
 21
804.4615
 31
0.0
  0
LINE
  5
111
330
1E
100
AcDbEntity
  8
0
100
AcDbLine
 10
24.8715
 20
805.0214999999999
 30
0.0
 11
25.5005
 21
804.8015000000001
 31
0.0
  0
LINE
  5
113
330
1E
100
AcDbEntity
  8
0
100
AcDbLine
 10
28.8125
 20
805.3115
 30
0.0
 11
29.33749999999999
 21
804.8215
 31
0.0
  0
LINE
  5
114
330
1E
100
AcDbEntity
  8
0
100
AcDbLine
 10
28.74249999999999
 20
805.7915000000001
 30
0.0
 11
29.1915
 21
805.9715
 31
0.0
  0
LINE
  5
115
330
1E
100
AcDbEntity
  8
0
100
AcDbLine
 10
28.74249999999999
 20
805.7915000000001
 30
0.0
 11
28.8125
 21
805.3115
 31
0.0
  0
LINE
  5
116
330
1E
100
AcDbEntity
  8
0
100
AcDbLine
 10
28.74249999999999
 20
805.7915000000001
 30
0.0
 11
28.82901189047739
 21
805.9416871106979
 31
0.0
  0
LINE
  5
117
330
1E
100
AcDbEntity
  8
0
100
AcDbLine
 10
29.1915
 20
805.9715
 30
0.0
 11
29.8795
 21
805.7615
 31
0.0
  0
LINE
  5
118
330
1E
100
AcDbEntity
  8
0
100
AcDbLine
 10
18.3535
 20
805.0715
 30
0.0
 11
18.9015
 21
804.6915
 31
0.0
  0
LINE
  5
11A
330
1E
100
AcDbEntity
  8
0
100
AcDbLine
 10
18.9015
 20
804.6915
 30
0.0
 11
19.0915
 21
804.6414999999999
 31
0.0
  0
LINE
  5
11C
330
1E
100
AcDbEntity
  8
0
100
AcDbLine
 10
16.9675
 20
805.8115
 30
0.0
 11
17.0184561816768
 21
805.873837870244
 31
0.0
  0
LINE
  5
11D
330
1E
100
AcDbEntity
  8
0
100
AcDbLine
 10
15.4065
 20
808.0814999999999
 30
0.0
 11
15.92249999999999
 21
807.5915
 31
0.0
  0
LINE
  5
11F
330
1E
100
AcDbEntity
  8
0
100
AcDbLine
 10
13.0092242655371
 20
809.877199843315
 30
0.0
 11
16.49070484152219
 21
806.970506051903
 31
0.0
  0
LINE
  5
120
330
1E
100
AcDbEntity
  8
0
100
AcDbLine
 10
14.5975
 20
810.6315
 30
0.0
 11
14.6044999999999
 21
810.9515
 31
0.0
  0
LINE
  5
121
330
1E
100
AcDbEntity
  8
0
100
AcDbLine
 10
14.5975
 20
810.6315
 30
0.0
 11
15.0035
 21
810.0815
 31
0.0
  0
LINE
  5
122
330
1E
100
AcDbEntity
  8
0
100
AcDbLine
 10
14.9995
 20
810.8615
 30
0.0
 11
15.5655
 21
810.3914999999998
 31
0.0
  0
LINE
  5
124
330
1E
100
AcDbEntity
  8
0
100
AcDbLine
 10
15.0035
 20
810.0815
 30
0.0
 11
15.5695
 21
809.6114999999999
 31
0.0
  0
LINE
  5
125
330
1E
100
AcDbEntity
  8
0
100
AcDbLine
 10
14.6044999999999
 20
810.9515
 30
0.0
 11
14.9995
 21
810.8615
 31
0.0
  0
LINE
  5
127
330
1E
100
AcDbEntity
  8
0
100
AcDbLine
 10
15.2584999999999
 20
808.3614999999999
 30
0.0
 11
15.5445
 21
808.2815
 31
0.0
  0
LINE
  5
128
330
1E
100
AcDbEntity
  8
0
100
AcDbLine
 10
15.2584999999999
 20
808.3614999999999
 30
0.0
 11
15.4065
 21
808.0814999999999
 31
0.0
  0
LINE
  5
12A
330
1E
100
AcDbEntity
  8
0
100
AcDbLine
 10
12.5875
 20
809.4314999999999
 30
0.0
 11
13.11073873462859
 21
809.984485543157
 31
0.0
  0
LINE
  5
12B
330
1E
100
AcDbEntity
  8
0
100
AcDbLine
 10
12.5365
 20
809.5515
 30
0.0
 11
12.5875
 21
809.4314999999999
 31
0.0
  0
LINE
  5
131
330
1E
100
AcDbEntity
  8
0
100
AcDbLine
 10
15.5655
 20
810.3914999999998
 30
0.0
 11
15.9715
 21
809.8414999999999
 31
0.0
  0
LINE
  5
133
330
1E
100
AcDbEntity
  8
0
100
AcDbLine
 10
15.6944999999999
 20
813.3214999999999
 30
0.0
 11
15.85449999999999
 21
813.6715
 31
0.0
  0
LINE
  5
134
330
1E
100
AcDbEntity
  8
0
100
AcDbLine
 10
15.6944999999999
 20
813.3214999999999
 30
0.0
 11
15.9845
 21
812.7214999999999
 31
0.0
  0
LINE
  5
135
330
1E
100
AcDbEntity
  8
0
100
AcDbLine
 10
15.85449999999999
 20
813.6715
 30
0.0
 11
16.3515
 21
813.5715000000001
 31
0.0
  0
LINE
  5
137
330
1E
100
AcDbEntity
  8
0
100
AcDbLine
 10
15.9845
 20
812.7214999999999
 30
0.0
 11
16.5375
 21
812.2115
 31
0.0
  0
LINE
  5
139
330
1E
100
AcDbEntity
  8
0
100
AcDbLine
 10
15.9655
 20
809.5214999999999
 30
0.0
 11
15.9715
 21
809.8414999999999
 31
0.0
  0
LINE
  5
13B
330
1E
100
AcDbEntity
  8
0
100
AcDbLine
 10
15.5695
 20
809.6114999999999
 30
0.0
 11
15.9655
 21
809.5214999999999
 31
0.0
  0
LINE
  5
13C
330
1E
100
AcDbEntity
  8
0
100
AcDbLine
 10
15.5445
 20
808.2815
 30
0.0
 11
16.1155
 21
807.8714999999998
 31
0.0
  0
LINE
  5
13E
330
1E
100
AcDbEntity
  8
0
100
AcDbLine
 10
15.92249999999999
 20
807.5915
 30
0.0
 11
16.4935
 21
807.1815
 31
0.0
  0
LINE
  5
13F
330
1E
100
AcDbEntity
  8
0
100
AcDbLine
 10
15.4365
 20
807.0714999999999
 30
0.0
 11
15.5875
 21
806.9314999999999
 31
0.0
  0
LINE
  5
140
330
1E
100
AcDbEntity
  8
0
100
AcDbLine
 10
15.4365
 20
807.0714999999999
 30
0.0
 11
15.8475840435093
 21
807.574404709897
 31
0.0
  0
LINE
  5
141
330
1E
100
AcDbEntity
  8
0
100
AcDbLine
 10
15.5875
 20
806.9314999999999
 30
0.0
 11
16.0895
 21
806.5115
 31
0.0
  0
LINE
  5
143
330
1E
100
AcDbEntity
  8
0
100
AcDbLine
 10
16.1915
 20
806.5815
 30
0.0
 11
16.58749999999999
 21
806.2215
 31
0.0
  0
LINE
  5
144
330
1E
100
AcDbEntity
  8
0
100
AcDbLine
 10
16.58749999999999
 20
806.2215
 30
0.0
 11
17.1825
 21
805.7415
 31
0.0
  0
LINE
  5
146
330
1E
100
AcDbEntity
  8
0
100
AcDbLine
 10
16.6555
 20
806.3114999999999
 30
0.0
 11
17.25049999999989
 21
805.8415
 31
0.0
  0
LINE
  5
148
330
1E
100
AcDbEntity
  8
0
100
AcDbLine
 10
16.2115
 20
806.6214999999999
 30
0.0
 11
16.6555
 21
806.3114999999999
 31
0.0
  0
LINE
  5
149
330
1E
100
AcDbEntity
  8
0
100
AcDbLine
 10
16.2115
 20
806.6214999999999
 30
0.0
 11
16.6291457142857
 21
807.1435571428571
 31
0.0
  0
LINE
  5
14C
330
1E
100
AcDbEntity
  8
0
100
AcDbLine
 10
20.70349999999999
 20
806.7915000000001
 30
0.0
 11
20.86949999999999
 21
807.0114999999999
 31
0.0
  0
LINE
  5
14E
330
1E
100
AcDbEntity
  8
0
100
AcDbLine
 10
20.17549999999999
 20
806.9515
 30
0.0
 11
20.70349999999999
 21
806.7915000000001
 31
0.0
  0
LINE
  5
14F
330
1E
100
AcDbEntity
  8
0
100
AcDbLine
 10
16.1155
 20
807.8714999999998
 30
0.0
 11
16.63149999999999
 21
807.3814999999999
 31
0.0
  0
LINE
  5
151
330
1E
100
AcDbEntity
  8
0
100
AcDbLine
 10
16.63149999999999
 20
807.3814999999999
 30
0.0
 11
16.7795
 21
807.1014999999999
 31
0.0
  0
LINE
  5
153
330
1E
100
AcDbEntity
  8
0
100
AcDbLine
 10
16.4935
 20
807.1815
 30
0.0
 11
16.7795
 21
807.1014999999999
 31
0.0
  0
LINE
  5
155
330
1E
100
AcDbEntity
  8
0
100
AcDbLine
 10
19.96349999999999
 20
807.9914999999999
 30
0.0
 11
20.55549999999999
 21
807.5115
 31
0.0
  0
LINE
  5
157
330
1E
100
AcDbEntity
  8
0
100
AcDbLine
 10
20.55549999999999
 20
807.5115
 30
0.0
 11
20.86949999999999
 21
807.0114999999999
 31
0.0
  0
LINE
  5
159
330
1E
100
AcDbEntity
  8
0
100
AcDbLine
 10
19.5835
 20
807.4315
 30
0.0
 11
20.17549999999999
 21
806.9515
 31
0.0
  0
LINE
  5
15A
330
1E
100
AcDbEntity
  8
0
100
AcDbLine
 10
19.2695
 20
807.9315000000001
 30
0.0
 11
19.4355
 21
808.1615000000001
 31
0.0
  0
LINE
  5
15B
330
1E
100
AcDbEntity
  8
0
100
AcDbLine
 10
19.2695
 20
807.9315000000001
 30
0.0
 11
19.5835
 21
807.4315
 31
0.0
  0
LINE
  5
15C
330
1E
100
AcDbEntity
  8
0
100
AcDbLine
 10
19.4355
 20
808.1615000000001
 30
0.0
 11
19.96349999999999
 21
807.9914999999999
 31
0.0
  0
LINE
  5
15E
330
1E
100
AcDbEntity
  8
0
100
AcDbLine
 10
22.15149999999999
 20
809.1615
 30
0.0
 11
22.71249999999999
 21
808.6515
 31
0.0
  0
LINE
  5
15F
330
1E
100
AcDbEntity
  8
0
100
AcDbLine
 10
16.3515
 20
813.5715000000001
 30
0.0
 11
16.9045
 21
813.0615
 31
0.0
  0
LINE
  5
163
330
1E
100
AcDbEntity
  8
0
100
AcDbLine
 10
16.9045
 20
813.0615
 30
0.0
 11
17.19449999999989
 21
812.4615
 31
0.0
  0
LINE
  5
165
330
1E
100
AcDbEntity
  8
0
100
AcDbLine
 10
17.03449999999989
 20
812.1114999999999
 30
0.0
 11
17.19449999999989
 21
812.4615
 31
0.0
  0
LINE
  5
167
330
1E
100
AcDbEntity
  8
0
100
AcDbLine
 10
16.5375
 20
812.2115
 30
0.0
 11
17.03449999999989
 21
812.1114999999999
 31
0.0
  0
LINE
  5
168
330
1E
100
AcDbEntity
  8
0
100
AcDbLine
 10
21.9585
 20
809.7115
 30
0.0
 11
22.2665
 21
809.9714999999999
 31
0.0
  0
LINE
  5
169
330
1E
100
AcDbEntity
  8
0
100
AcDbLine
 10
21.9585
 20
809.7115
 30
0.0
 11
22.15149999999999
 21
809.1615
 31
0.0
  0
LINE
  5
16B
330
1E
100
AcDbEntity
  8
0
100
AcDbLine
 10
23.3225
 20
808.4815
 30
0.0
 11
23.6315
 21
808.7415
 31
0.0
  0
LINE
  5
16C
330
1E
100
AcDbEntity
  8
0
100
AcDbLine
 10
22.8765
 20
809.8015
 30
0.0
 11
23.4375
 21
809.2915000000001
 31
0.0
  0
LINE
  5
170
330
1E
100
AcDbEntity
  8
0
100
AcDbLine
 10
28.8845
 20
825.6615
 30
0.0
 11
38.2375
 21
820.2614999999999
 31
0.0
  0
LINE
  5
172
330
1E
100
AcDbEntity
  8
0
100
AcDbLine
 10
23.4375
 20
809.2915000000001
 30
0.0
 11
23.6315
 21
808.7415
 31
0.0
  0
LINE
  5
173
330
1E
100
AcDbEntity
  8
0
100
AcDbLine
 10
22.71249999999999
 20
808.6515
 30
0.0
 11
23.3225
 21
808.4815
 31
0.0
  0
LINE
  5
174
330
1E
100
AcDbEntity
  8
0
100
AcDbLine
 10
22.2665
 20
809.9714999999999
 30
0.0
 11
22.8765
 21
809.8015
 31
0.0
  0
LINE
  5
175
330
1E
100
AcDbEntity
  8
0
100
AcDbLine
 10
16.0895
 20
806.5115
 30
0.0
 11
16.6585
 21
806.0515
 31
0.0
  0
LINE
  5
177
330
1E
100
AcDbEntity
  8
0
100
AcDbLine
 10
16.6585
 20
806.0515
 30
0.0
 11
16.9675
 21
805.8115
 31
0.0
  0
LINE
  5
179
330
1E
100
AcDbEntity
  8
0
100
AcDbLine
 10
12.2225
 20
809.7315
 30
0.0
 11
12.5875
 21
809.4314999999999
 31
0.0
  0
LINE
  5
17B
330
1E
100
AcDbEntity
  8
0
100
AcDbLine
 10
21.8845
 20
803.1615
 30
0.0
 11
22.2965
 21
802.7915
 31
0.0
  0
LINE
  5
17C
330
1E
100
AcDbEntity
  8
0
100
AcDbLine
 10
21.8845
 20
803.1615
 30
0.0
 11
21.9195131395688
 21
803.214259525378
 31
0.0
  0
LINE
  5
17D
330
1E
100
AcDbEntity
  8
0
100
AcDbLine
 10
29.5085
 20
798.7414999999999
 30
0.0
 11
30.0023329914323
 21
798.4567528055991
 31
0.0
  0
LINE
  5
17E
330
1E
100
AcDbEntity
  8
0
100
AcDbLine
 10
30.0085
 20
798.4715
 30
0.0
 11
30.5345
 21
798.3015
 31
0.0
  0
LINE
  5
180
330
1E
100
AcDbEntity
  8
0
100
AcDbLine
 10
29.96249999999999
 20
798.3615
 30
0.0
 11
30.4005
 21
798.0615
 31
0.0
  0
LINE
  5
181
330
1E
100
AcDbEntity
  8
0
100
AcDbLine
 10
29.96249999999999
 20
798.3615
 30
0.0
 11
30.0085
 21
798.4715
 31
0.0
  0
LINE
  5
182
330
1E
100
AcDbEntity
  8
0
100
AcDbLine
 10
29.96249999999999
 20
798.3615
 30
0.0
 11
30.01498019514969
 21
798.467773887789
 31
0.0
  0
LINE
  5
183
330
1E
100
AcDbEntity
  8
0
100
AcDbLine
 10
30.5345
 20
798.3015
 30
0.0
 11
31.2175
 21
797.9614999999999
 31
0.0
  0
LINE
  5
185
330
1E
100
AcDbEntity
  8
0
100
AcDbLine
 10
30.4005
 20
798.0615
 30
0.0
 11
31.0835
 21
797.7184999999999
 31
0.0
  0
LINE
  5
187
330
1E
100
AcDbEntity
  8
0
100
AcDbLine
 10
31.0835
 20
797.7184999999999
 30
0.0
 11
31.6095
 21
797.5465
 31
0.0
  0
LINE
  5
189
330
1E
100
AcDbEntity
  8
0
100
AcDbLine
 10
31.63772320181069
 20
797.6035571562798
 30
0.0
 11
34.4414691056379
 21
796.2398847981129
 31
0.0
  0
LINE
  5
18B
330
1E
100
AcDbEntity
  8
0
100
AcDbLine
 10
31.6095
 20
797.5465
 30
0.0
 11
31.6555
 21
797.6525
 31
0.0
  0
LINE
  5
18D
330
1E
100
AcDbEntity
  8
0
100
AcDbLine
 10
31.2175
 20
797.9614999999999
 30
0.0
 11
31.6555
 21
797.6525
 31
0.0
  0
LINE
  5
18F
330
1E
100
AcDbEntity
  8
0
100
AcDbLine
 10
30.05549999999999
 20
801.7115
 30
0.0
 11
30.1015
 21
801.3614999999999
 31
0.0
  0
LINE
  5
190
330
1E
100
AcDbEntity
  8
0
100
AcDbLine
 10
30.05549999999999
 20
801.7115
 30
0.0
 11
30.5245
 21
801.7614999999999
 31
0.0
  0
LINE
  5
192
330
1E
100
AcDbEntity
  8
0
100
AcDbLine
 10
30.5245
 20
801.7614999999999
 30
0.0
 11
31.2165
 21
801.5015
 31
0.0
  0
LINE
  5
194
330
1E
100
AcDbEntity
  8
0
100
AcDbLine
 10
30.1015
 20
801.3614999999999
 30
0.0
 11
30.6115
 21
800.9315
 31
0.0
  0
LINE
  5
195
330
1E
100
AcDbEntity
  8
0
100
AcDbLine
 10
30.5305
 20
799.3515
 30
0.0
 11
30.5455
 21
799.1515
 31
0.0
  0
LINE
  5
196
330
1E
100
AcDbEntity
  8
0
100
AcDbLine
 10
30.5305
 20
799.3515
 30
0.0
 11
31.0175
 21
799.2614999999999
 31
0.0
  0
LINE
  5
198
330
1E
100
AcDbEntity
  8
0
100
AcDbLine
 10
30.6115
 20
800.9315
 30
0.0
 11
31.30349999999999
 21
800.6714999999999
 31
0.0
  0
LINE
  5
199
330
1E
100
AcDbEntity
  8
0
100
AcDbLine
 10
31.30349999999999
 20
800.6714999999999
 30
0.0
 11
31.7725
 21
800.7215
 31
0.0
  0
LINE
  5
19A
330
1E
100
AcDbEntity
  8
0
100
AcDbLine
 10
31.2165
 20
801.5015
 30
0.0
 11
31.7265
 21
801.0614999999999
 31
0.0
  0
LINE
  5
19C
330
1E
100
AcDbEntity
  8
0
100
AcDbLine
 10
31.0175
 20
799.2614999999999
 30
0.0
 11
31.70449999999989
 21
798.9514999999999
 31
0.0
  0
LINE
  5
19E
330
1E
100
AcDbEntity
  8
0
100
AcDbLine
 10
30.5455
 20
799.1515
 30
0.0
 11
31.0294999999999
 21
798.7915
 31
0.0
  0
LINE
  5
1A0
330
1E
100
AcDbEntity
  8
0
100
AcDbLine
 10
31.0294999999999
 20
798.7915
 30
0.0
 11
31.7165
 21
798.4715
 31
0.0
  0
LINE
  5
1A2
330
1E
100
AcDbEntity
  8
0
100
AcDbLine
 10
31.7265
 20
801.0614999999999
 30
0.0
 11
31.7725
 21
800.7215
 31
0.0
  0
LINE
  5
1A4
330
1E
100
AcDbEntity
  8
0
100
AcDbLine
 10
31.7165
 20
798.4715
 30
0.0
 11
32.20349999999999
 21
798.3814999999999
 31
0.0
  0
LINE
  5
1A6
330
1E
100
AcDbEntity
  8
0
100
AcDbLine
 10
31.70449999999989
 20
798.9514999999999
 30
0.0
 11
32.1895
 21
798.5915
 31
0.0
  0
LINE
  5
1A8
330
1E
100
AcDbEntity
  8
0
100
AcDbLine
 10
30.47449999999999
 20
804.7914999999999
 30
0.0
 11
30.5648439270651
 21
804.9483396355709
 31
0.0
  0
LINE
  5
1A9
330
1E
100
AcDbEntity
  8
0
100
AcDbLine
 10
30.0255
 20
804.6115
 30
0.0
 11
30.47449999999999
 21
804.7914999999999
 31
0.0
  0
LINE
  5
1AA
330
1E
100
AcDbEntity
  8
0
100
AcDbLine
 10
29.8795
 20
805.7615
 30
0.0
 11
30.40449999999999
 21
805.2714999999999
 31
0.0
  0
LINE
  5
1AB
330
1E
100
AcDbEntity
  8
0
100
AcDbLine
 10
30.40449999999999
 20
805.2714999999999
 30
0.0
 11
30.47449999999999
 21
804.7914999999999
 31
0.0
  0
LINE
  5
1AC
330
1E
100
AcDbEntity
  8
0
100
AcDbLine
 10
29.33749999999999
 20
804.8215
 30
0.0
 11
30.0255
 21
804.6115
 31
0.0
  0
LINE
  5
1AD
330
1E
100
AcDbEntity
  8
0
100
AcDbLine
 10
29.2215
 20
826.0415
 30
0.0
 11
38.48749999999999
 21
820.6915
 31
0.0
  0
LINE
  5
1AE
330
1E
100
AcDbEntity
  8
0
100
AcDbLine
 10
20.05149999999999
 20
830.7615
 30
0.0
 11
28.8845
 21
825.6615
 31
0.0
  0
LINE
  5
1AF
330
1E
100
AcDbEntity
  8
0
100
AcDbLine
 10
20.6475
 20
830.9915
 30
0.0
 11
29.2215
 21
826.0415
 31
0.0
  0
LINE
  5
1B0
330
1E
100
AcDbEntity
  8
0
100
AcDbLine
 10
29.2975
 20
826.5715
 30
0.0
 11
38.73749999999999
 21
821.1214999999999
 31
0.0
  0
LINE
  5
1B2
330
1E
100
AcDbEntity
  8
0
100
AcDbLine
 10
32.1895
 20
798.5915
 30
0.0
 11
32.20349999999999
 21
798.3814999999999
 31
0.0
  0
LINE
  5
1B5
330
1E
100
AcDbEntity
  8
0
100
AcDbLine
 10
12.5165
 20
835.1115
 30
0.0
 11
20.05149999999999
 21
830.7615
 31
0.0
  0
LINE
  5
1B6
330
1E
100
AcDbEntity
  8
0
100
AcDbLine
 10
13.1135
 20
835.3415
 30
0.0
 11
20.6475
 21
830.9915
 31
0.0
  0
LINE
  5
1B7
330
1E
100
AcDbEntity
  8
0
100
AcDbLine
 10
12.7565
 20
836.1214999999999
 30
0.0
 11
20.4645
 21
831.6715
 31
0.0
  0
LINE
  5
1B8
330
1E
100
AcDbEntity
  8
0
100
AcDbLine
 10
20.4645
 20
831.6715
 30
0.0
 11
29.2975
 21
826.5715
 31
0.0
  0
LINE
  5
1C0
330
1E
100
AcDbEntity
  8
0
100
AcDbLine
 10
35.0255
 20
795.4425
 30
0.0
 11
35.7155
 21
795.1765
 31
0.0
  0
LINE
  5
1C2
330
1E
100
AcDbEntity
  8
0
100
AcDbLine
 10
34.42849999999999
 20
795.7304999999999
 30
0.0
 11
35.0255
 21
795.4425
 31
0.0
  0
LINE
  5
1C4
330
1E
100
AcDbEntity
  8
0
100
AcDbLine
 10
34.2875
 20
795.8685
 30
0.0
 11
34.66149999999999
 21
795.7844999999999
 31
0.0
  0
LINE
  5
1C5
330
1E
100
AcDbEntity
  8
0
100
AcDbLine
 10
34.2875
 20
795.8685
 30
0.0
 11
34.42849999999999
 21
795.7304999999999
 31
0.0
  0
LINE
  5
1C6
330
1E
100
AcDbEntity
  8
0
100
AcDbLine
 10
34.2875
 20
795.8685
 30
0.0
 11
34.5526653543316
 21
796.5080983218659
 31
0.0
  0
LINE
  5
1C7
330
1E
100
AcDbEntity
  8
0
100
AcDbLine
 10
34.66149999999999
 20
795.7844999999999
 30
0.0
 11
35.3515
 21
795.5185
 31
0.0
  0
LINE
  5
1C9
330
1E
100
AcDbEntity
  8
0
100
AcDbLine
 10
35.3515
 20
795.5185
 30
0.0
 11
35.94749999999999
 21
795.2304999999999
 31
0.0
  0
LINE
  5
1CE
330
1E
100
AcDbEntity
  8
0
100
AcDbLine
 10
32.3125
 20
797.0095
 30
0.0
 11
32.61249999999999
 21
796.7785
 31
0.0
  0
LINE
  5
1CF
330
1E
100
AcDbEntity
  8
0
100
AcDbLine
 10
32.3125
 20
797.0095
 30
0.0
 11
32.4105167321024
 21
797.227689580552
 31
0.0
  0
LINE
  5
1D0
330
1E
100
AcDbEntity
  8
0
100
AcDbLine
 10
32.61249999999999
 20
796.7785
 30
0.0
 11
33.2735
 21
796.4534999999999
 31
0.0
  0
LINE
  5
1D2
330
1E
100
AcDbEntity
  8
0
100
AcDbLine
 10
35.45049999999999
 20
798.5915
 30
0.0
 11
36.04249999999999
 21
798.5714999999999
 31
0.0
  0
LINE
  5
1D4
330
1E
100
AcDbEntity
  8
0
100
AcDbLine
 10
35.3385
 20
798.3414999999999
 30
0.0
 11
35.7475
 21
797.9635
 31
0.0
  0
LINE
  5
1D5
330
1E
100
AcDbEntity
  8
0
100
AcDbLine
 10
35.3385
 20
798.3414999999999
 30
0.0
 11
35.45049999999999
 21
798.5915
 31
0.0
  0
LINE
  5
1D7
330
1E
100
AcDbEntity
  8
0
100
AcDbLine
 10
35.5695
 20
801.8515
 30
0.0
 11
36.1425
 21
801.9614999999999
 31
0.0
  0
LINE
  5
1D8
330
1E
100
AcDbEntity
  8
0
100
AcDbLine
 10
35.49949999999999
 20
801.4514999999999
 30
0.0
 11
35.94749999999999
 21
801.0114999999998
 31
0.0
  0
LINE
  5
1D9
330
1E
100
AcDbEntity
  8
0
100
AcDbLine
 10
35.49949999999999
 20
801.4514999999999
 30
0.0
 11
35.5695
 21
801.8515
 31
0.0
  0
LINE
  5
1DA
330
1E
100
AcDbEntity
  8
0
100
AcDbLine
 10
34.1165
 20
796.2315
 30
0.0
 11
34.1779184534283
 21
796.368069288336
 31
0.0
  0
LINE
  5
1DB
330
1E
100
AcDbEntity
  8
0
100
AcDbLine
 10
33.2735
 20
796.4534999999999
 30
0.0
 11
33.9015
 21
796.2234999999999
 31
0.0
  0
LINE
  5
1DD
330
1E
100
AcDbEntity
  8
0
100
AcDbLine
 10
33.9015
 20
796.2234999999999
 30
0.0
 11
34.1165
 21
796.2315
 31
0.0
  0
LINE
  5
1DF
330
1E
100
AcDbEntity
  8
0
100
AcDbLine
 10
38.21949999999999
 20
793.9185
 30
0.0
 11
38.45945597163079
 21
794.553517854203
 31
0.0
  0
LINE
  5
1E0
330
1E
100
AcDbEntity
  8
0
100
AcDbLine
 10
38.02049999999999
 20
793.9775
 30
0.0
 11
38.21949999999999
 21
793.9185
 31
0.0
  0
LINE
  5
1E1
330
1E
100
AcDbEntity
  8
0
100
AcDbLine
 10
36.7205
 20
794.4634999999999
 30
0.0
 11
37.4045
 21
794.2015
 31
0.0
  0
LINE
  5
1E2
330
1E
100
AcDbEntity
  8
0
100
AcDbLine
 10
36.36249999999999
 20
794.6135
 30
0.0
 11
36.5615
 21
794.5555
 31
0.0
  0
LINE
  5
1E3
330
1E
100
AcDbEntity
  8
0
100
AcDbLine
 10
36.36249999999999
 20
794.6135
 30
0.0
 11
36.7205
 21
794.4634999999999
 31
0.0
  0
LINE
  5
1E4
330
1E
100
AcDbEntity
  8
0
100
AcDbLine
 10
36.36249999999999
 20
794.6135
 30
0.0
 11
36.5934557379397
 21
795.2255654188181
 31
0.0
  0
LINE
  5
1E5
330
1E
100
AcDbEntity
  8
0
100
AcDbLine
 10
36.5615
 20
794.5555
 30
0.0
 11
37.1785
 21
794.3315
 31
0.0
  0
LINE
  5
1E7
330
1E
100
AcDbEntity
  8
0
100
AcDbLine
 10
37.4045
 20
794.2015
 30
0.0
 11
38.02049999999999
 21
793.9775
 31
0.0
  0
LINE
  5
1E8
330
1E
100
AcDbEntity
  8
0
100
AcDbLine
 10
37.1785
 20
794.3315
 30
0.0
 11
37.86249999999999
 21
794.0685
 31
0.0
  0
LINE
  5
1EA
330
1E
100
AcDbEntity
  8
0
100
AcDbLine
 10
37.86249999999999
 20
794.0685
 30
0.0
 11
38.21949999999999
 21
793.9185
 31
0.0
  0
LINE
  5
1EC
330
1E
100
AcDbEntity
  8
0
100
AcDbLine
 10
38.4303966543525
 20
794.4766154742481
 30
0.0
 11
41.86426493327259
 21
793.215704424166
 31
0.0
  0
LINE
  5
1ED
330
1E
100
AcDbEntity
  8
0
100
AcDbLine
 10
38.4275
 20
794.5984999999999
 30
0.0
 11
39.1105
 21
794.3985
 31
0.0
  0
LINE
  5
1F0
330
1E
100
AcDbEntity
  8
0
100
AcDbLine
 10
36.2088133129557
 20
795.380292479282
 30
0.0
 11
36.58314064576149
 21
795.1982289634839
 31
0.0
  0
LINE
  5
1F1
330
1E
100
AcDbEntity
  8
0
100
AcDbLine
 10
35.94749999999999
 20
795.2304999999999
 30
0.0
 11
36.0895
 21
795.0924999999999
 31
0.0
  0
LINE
  5
1F3
330
1E
100
AcDbEntity
  8
0
100
AcDbLine
 10
35.7155
 20
795.1765
 30
0.0
 11
36.0895
 21
795.0924999999999
 31
0.0
  0
LINE
  5
1F5
330
1E
100
AcDbEntity
  8
0
100
AcDbLine
 10
36.04249999999999
 20
798.5714999999999
 30
0.0
 11
36.7535
 21
798.3015
 31
0.0
  0
LINE
  5
1F7
330
1E
100
AcDbEntity
  8
0
100
AcDbLine
 10
35.7475
 20
797.9635
 30
0.0
 11
36.4585
 21
797.6905
 31
0.0
  0
LINE
  5
1F8
330
1E
100
AcDbEntity
  8
0
100
AcDbLine
 10
36.4585
 20
797.6905
 30
0.0
 11
37.05049999999999
 21
797.6695
 31
0.0
  0
LINE
  5
1F9
330
1E
100
AcDbEntity
  8
0
100
AcDbLine
 10
36.7535
 20
798.3015
 30
0.0
 11
37.1625
 21
797.9255000000001
 31
0.0
  0
LINE
  5
1FB
330
1E
100
AcDbEntity
  8
0
100
AcDbLine
 10
36.1425
 20
801.9614999999999
 30
0.0
 11
36.86549999999999
 21
801.7314999999999
 31
0.0
  0
LINE
  5
1FC
330
1E
100
AcDbEntity
  8
0
100
AcDbLine
 10
35.94749999999999
 20
801.0114999999998
 30
0.0
 11
36.67049999999999
 21
800.7815
 31
0.0
  0
LINE
  5
1FD
330
1E
100
AcDbEntity
  8
0
100
AcDbLine
 10
36.67049999999999
 20
800.7815
 30
0.0
 11
37.2425
 21
800.8815
 31
0.0
  0
LINE
  5
1FF
330
1E
100
AcDbEntity
  8
0
100
AcDbLine
 10
37.05049999999999
 20
797.6695
 30
0.0
 11
37.1625
 21
797.9255000000001
 31
0.0
  0
LINE
  5
200
330
1E
100
AcDbEntity
  8
0
100
AcDbLine
 10
37.2425
 20
800.8815
 30
0.0
 11
37.31349999999999
 21
801.2814999999999
 31
0.0
  0
LINE
  5
202
330
1E
100
AcDbEntity
  8
0
100
AcDbLine
 10
36.86549999999999
 20
801.7314999999999
 30
0.0
 11
37.31349999999999
 21
801.2814999999999
 31
0.0
  0
LINE
  5
204
330
1E
100
AcDbEntity
  8
0
100
AcDbLine
 10
37.56949999999999
 20
795.0934999999999
 30
0.0
 11
37.7845
 21
794.8875000000001
 31
0.0
  0
LINE
  5
205
330
1E
100
AcDbEntity
  8
0
100
AcDbLine
 10
37.56949999999999
 20
795.0934999999999
 30
0.0
 11
37.8865
 21
795.1055
 31
0.0
  0
LINE
  5
207
330
1E
100
AcDbEntity
  8
0
100
AcDbLine
 10
38.56949999999999
 20
794.9044999999999
 30
0.0
 11
39.2125
 21
794.6164999999999
 31
0.0
  0
LINE
  5
209
330
1E
100
AcDbEntity
  8
0
100
AcDbLine
 10
38.2375
 20
820.2614999999999
 30
0.0
 11
47.5905
 21
814.8614999999999
 31
0.0
  0
LINE
  5
20A
330
1E
100
AcDbEntity
  8
0
100
AcDbLine
 10
37.8865
 20
795.1055
 30
0.0
 11
38.56949999999999
 21
794.9044999999999
 31
0.0
  0
LINE
  5
20C
330
1E
100
AcDbEntity
  8
0
100
AcDbLine
 10
37.7845
 20
794.8875000000001
 30
0.0
 11
38.4275
 21
794.5984999999999
 31
0.0
  0
LINE
  5
20E
330
1E
100
AcDbEntity
  8
0
100
AcDbLine
 10
36.1965
 20
794.7664999999999
 30
0.0
 11
36.3914322020781
 21
794.690174433553
 31
0.0
  0
LINE
  5
210
330
1E
100
AcDbEntity
  8
0
100
AcDbLine
 10
35.70349999999999
 20
794.9945
 30
0.0
 11
36.1965
 21
794.7664999999999
 31
0.0
  0
LINE
  5
211
330
1E
100
AcDbEntity
  8
0
100
AcDbLine
 10
35.70349999999999
 20
794.9945
 30
0.0
 11
35.7697289761772
 21
795.1643202299499
 31
0.0
  0
LINE
  5
212
330
1E
100
AcDbEntity
  8
0
100
AcDbLine
 10
38.48749999999999
 20
820.6915
 30
0.0
 11
47.7545
 21
815.3415
 31
0.0
  0
LINE
  5
214
330
1E
100
AcDbEntity
  8
0
100
AcDbLine
 10
39.1105
 20
794.3985
 30
0.0
 11
39.4275
 21
794.4094999999999
 31
0.0
  0
LINE
  5
216
330
1E
100
AcDbEntity
  8
0
100
AcDbLine
 10
41.0325
 20
795.6915
 30
0.0
 11
41.7185
 21
795.4335
 31
0.0
  0
LINE
  5
219
330
1E
100
AcDbEntity
  8
0
100
AcDbLine
 10
40.3485
 20
795.7654999999999
 30
0.0
 11
41.0325
 21
795.6915
 31
0.0
  0
LINE
  5
21B
330
1E
100
AcDbEntity
  8
0
100
AcDbLine
 10
40.0775
 20
795.6014999999999
 30
0.0
 11
40.3535
 21
795.3044999999999
 31
0.0
  0
LINE
  5
21C
330
1E
100
AcDbEntity
  8
0
100
AcDbLine
 10
40.0775
 20
795.6014999999999
 30
0.0
 11
40.3485
 21
795.7654999999999
 31
0.0
  0
LINE
  5
21E
330
1E
100
AcDbEntity
  8
0
100
AcDbLine
 10
40.3535
 20
795.3044999999999
 30
0.0
 11
41.0395
 21
795.0454999999999
 31
0.0
  0
LINE
  5
21F
330
1E
100
AcDbEntity
  8
0
100
AcDbLine
 10
41.0395
 20
795.0454999999999
 30
0.0
 11
41.7225
 21
794.9724999999999
 31
0.0
  0
LINE
  5
220
330
1E
100
AcDbEntity
  8
0
100
AcDbLine
 10
39.2125
 20
794.6164999999999
 30
0.0
 11
39.4275
 21
794.4094999999999
 31
0.0
  0
LINE
  5
222
330
1E
100
AcDbEntity
  8
0
100
AcDbLine
 10
38.73749999999999
 20
821.1214999999999
 30
0.0
 11
48.1775
 21
815.6715
 31
0.0
  0
LINE
  5
224
330
1E
100
AcDbEntity
  8
0
100
AcDbLine
 10
41.8125
 20
792.6445
 30
0.0
 11
42.39849999999999
 21
792.5004999999999
 31
0.0
  0
LINE
  5
226
330
1E
100
AcDbEntity
  8
0
100
AcDbLine
 10
41.7865
 20
797.8234999999999
 30
0.0
 11
42.1215
 21
797.4425
 31
0.0
  0
LINE
  5
227
330
1E
100
AcDbEntity
  8
0
100
AcDbLine
 10
41.7865
 20
797.8234999999999
 30
0.0
 11
42.0065
 21
798.1314999999999
 31
0.0
  0
LINE
  5
229
330
1E
100
AcDbEntity
  8
0
100
AcDbLine
 10
42.0065
 20
798.1314999999999
 30
0.0
 11
42.67549999999999
 21
798.1815
 31
0.0
  0
LINE
  5
22B
330
1E
100
AcDbEntity
  8
0
100
AcDbLine
 10
42.1215
 20
797.4425
 30
0.0
 11
42.8365
 21
797.2175
 31
0.0
  0
LINE
  5
22D
330
1E
100
AcDbEntity
  8
0
100
AcDbLine
 10
41.7225
 20
794.9724999999999
 30
0.0
 11
41.9945
 21
795.1365
 31
0.0
  0
LINE
  5
22E
330
1E
100
AcDbEntity
  8
0
100
AcDbLine
 10
41.7185
 20
795.4335
 30
0.0
 11
41.9945
 21
795.1365
 31
0.0
  0
LINE
  5
230
330
1E
100
AcDbEntity
  8
0
100
AcDbLine
 10
41.6905
 20
792.6314999999999
 30
0.0
 11
42.1265
 21
792.4624999999999
 31
0.0
  0
LINE
  5
231
330
1E
100
AcDbEntity
  8
0
100
AcDbLine
 10
41.6905
 20
792.6314999999999
 30
0.0
 11
41.8125
 21
792.6445
 31
0.0
  0
LINE
  5
232
330
1E
100
AcDbEntity
  8
0
100
AcDbLine
 10
41.6905
 20
792.6314999999999
 30
0.0
 11
41.90623262370059
 21
793.3568014220379
 31
0.0
  0
LINE
  5
233
330
1E
100
AcDbEntity
  8
0
100
AcDbLine
 10
43.5545
 20
792.1095
 30
0.0
 11
43.72835418474919
 21
792.6943100344638
 31
0.0
  0
LINE
  5
234
330
1E
100
AcDbEntity
  8
0
100
AcDbLine
 10
43.5545
 20
792.1095
 30
0.0
 11
43.72835418474919
 21
792.6943100344638
 31
0.0
  0
LINE
  5
235
330
1E
100
AcDbEntity
  8
0
100
AcDbLine
 10
43.4315
 20
792.0974999999999
 30
0.0
 11
43.5545
 21
792.1095
 31
0.0
  0
LINE
  5
237
330
1E
100
AcDbEntity
  8
0
100
AcDbLine
 10
42.8465
 20
792.2414999999999
 30
0.0
 11
43.4315
 21
792.0974999999999
 31
0.0
  0
LINE
  5
239
330
1E
100
AcDbEntity
  8
0
100
AcDbLine
 10
43.6846403012425
 20
792.547265442141
 30
0.0
 11
44.0925
 21
792.3975
 31
0.0
  0
LINE
  5
23A
330
1E
100
AcDbEntity
  8
0
100
AcDbLine
 10
44.0925
 20
792.3975
 30
0.0
 11
46.80799992146659
 21
791.784341653582
 31
0.0
  0
LINE
  5
23B
330
1E
100
AcDbEntity
  8
0
100
AcDbLine
 10
44.7415
 20
792.9085
 30
0.0
 11
45.48049999999999
 21
792.8024999999999
 31
0.0
  0
LINE
  5
23C
330
1E
100
AcDbEntity
  8
0
100
AcDbLine
 10
44.12349999999999
 20
793.1275
 30
0.0
 11
44.7415
 21
792.9085
 31
0.0
  0
LINE
  5
23E
330
1E
100
AcDbEntity
  8
0
100
AcDbLine
 10
44.0035
 20
793.3345
 30
0.0
 11
44.42549999999999
 21
793.4115
 31
0.0
  0
LINE
  5
23F
330
1E
100
AcDbEntity
  8
0
100
AcDbLine
 10
44.0035
 20
793.3345
 30
0.0
 11
44.12349999999999
 21
793.1275
 31
0.0
  0
LINE
  5
241
330
1E
100
AcDbEntity
  8
0
100
AcDbLine
 10
44.42549999999999
 20
793.4115
 30
0.0
 11
45.16449999999999
 21
793.3065
 31
0.0
  0
LINE
  5
244
330
1E
100
AcDbEntity
  8
0
100
AcDbLine
 10
45.78249999999999
 20
793.0864999999999
 30
0.0
 11
45.9025
 21
792.8795
 31
0.0
  0
LINE
  5
246
330
1E
100
AcDbEntity
  8
0
100
AcDbLine
 10
45.48049999999999
 20
792.8024999999999
 30
0.0
 11
45.9025
 21
792.8795
 31
0.0
  0
LINE
  5
248
330
1E
100
AcDbEntity
  8
0
100
AcDbLine
 10
45.16449999999999
 20
793.3065
 30
0.0
 11
45.78249999999999
 21
793.0864999999999
 31
0.0
  0
LINE
  5
24A
330
1E
100
AcDbEntity
  8
0
100
AcDbLine
 10
42.67549999999999
 20
798.1815
 30
0.0
 11
43.3915
 21
797.9605
 31
0.0
  0
LINE
  5
24C
330
1E
100
AcDbEntity
  8
0
100
AcDbLine
 10
42.8365
 20
797.2175
 30
0.0
 11
43.5065
 21
797.2685
 31
0.0
  0
LINE
  5
24E
330
1E
100
AcDbEntity
  8
0
100
AcDbLine
 10
43.5065
 20
797.2685
 30
0.0
 11
43.72549999999999
 21
797.5795
 31
0.0
  0
LINE
  5
24F
330
1E
100
AcDbEntity
  8
0
100
AcDbLine
 10
43.3915
 20
797.9605
 30
0.0
 11
43.72549999999999
 21
797.5795
 31
0.0
  0
LINE
  5
251
330
1E
100
AcDbEntity
  8
0
100
AcDbLine
 10
42.39849999999999
 20
792.5004999999999
 30
0.0
 11
43.11749999999999
 21
792.2785
 31
0.0
  0
LINE
  5
253
330
1E
100
AcDbEntity
  8
0
100
AcDbLine
 10
43.11749999999999
 20
792.2785
 30
0.0
 11
43.5545
 21
792.1095
 31
0.0
  0
LINE
  5
255
330
1E
100
AcDbEntity
  8
0
100
AcDbLine
 10
48.0445
 20
791.3224999999999
 30
0.0
 11
48.5985
 21
791.3235
 31
0.0
  0
LINE
  5
257
330
1E
100
AcDbEntity
  8
0
100
AcDbLine
 10
46.8285
 20
791.7034999999999
 30
0.0
 11
47.3815
 21
791.7045
 31
0.0
  0
LINE
  5
259
330
1E
100
AcDbEntity
  8
0
100
AcDbLine
 10
47.5905
 20
814.8614999999999
 30
0.0
 11
56.4245
 21
809.7614999999999
 31
0.0
  0
LINE
  5
25A
330
1E
100
AcDbEntity
  8
0
100
AcDbLine
 10
47.59749999999999
 20
794.9065
 30
0.0
 11
48.3305
 21
794.9205
 31
0.0
  0
LINE
  5
25C
330
1E
100
AcDbEntity
  8
0
100
AcDbLine
 10
47.23149999999999
 20
794.6805
 30
0.0
 11
47.4245
 21
794.3814999999999
 31
0.0
  0
LINE
  5
25D
330
1E
100
AcDbEntity
  8
0
100
AcDbLine
 10
47.23149999999999
 20
794.6805
 30
0.0
 11
47.59749999999999
 21
794.9065
 31
0.0
  0
LINE
  5
25F
330
1E
100
AcDbEntity
  8
0
100
AcDbLine
 10
47.4245
 20
794.3814999999999
 30
0.0
 11
48.0885
 21
794.1855
 31
0.0
  0
LINE
  5
260
330
1E
100
AcDbEntity
  8
0
100
AcDbLine
 10
48.0885
 20
794.1855
 30
0.0
 11
48.82249999999999
 21
794.1994999999999
 31
0.0
  0
LINE
  5
261
330
1E
100
AcDbEntity
  8
0
100
AcDbLine
 10
47.3815
 20
791.7045
 30
0.0
 11
48.1345
 21
791.5915
 31
0.0
  0
LINE
  5
263
330
1E
100
AcDbEntity
  8
0
100
AcDbLine
 10
48.1345
 20
791.5915
 30
0.0
 11
48.64650000000001
 21
791.4335
 31
0.0
  0
LINE
  5
265
330
1E
100
AcDbEntity
  8
0
100
AcDbLine
 10
47.29249999999999
 20
791.4355
 30
0.0
 11
48.0445
 21
791.3224999999999
 31
0.0
  0
LINE
  5
267
330
1E
100
AcDbEntity
  8
0
100
AcDbLine
 10
46.7805
 20
791.5934999999999
 30
0.0
 11
47.29249999999999
 21
791.4355
 31
0.0
  0
LINE
  5
268
330
1E
100
AcDbEntity
  8
0
100
AcDbLine
 10
46.7805
 20
791.5934999999999
 30
0.0
 11
46.80799992146659
 21
791.784341653582
 31
0.0
  0
LINE
  5
269
330
1E
100
AcDbEntity
  8
0
100
AcDbLine
 10
46.7805
 20
791.5934999999999
 30
0.0
 11
46.8285
 21
791.7034999999999
 31
0.0
  0
LINE
  5
26B
330
1E
100
AcDbEntity
  8
0
100
AcDbLine
 10
48.1545
 20
790.8005000000001
 30
0.0
 11
48.52949999999999
 21
790.7214999999999
 31
0.0
  0
LINE
  5
26C
330
1E
100
AcDbEntity
  8
0
100
AcDbLine
 10
48.1545
 20
790.8005000000001
 30
0.0
 11
48.3715
 21
790.8125
 31
0.0
  0
LINE
  5
26D
330
1E
100
AcDbEntity
  8
0
100
AcDbLine
 10
48.1545
 20
790.8005000000001
 30
0.0
 11
48.216661038507
 21
791.3228107599969
 31
0.0
  0
LINE
  5
26E
330
1E
100
AcDbEntity
  8
0
100
AcDbLine
 10
42.1265
 20
792.4624999999999
 30
0.0
 11
42.8465
 21
792.2414999999999
 31
0.0
  0
LINE
  5
270
330
1E
100
AcDbEntity
  8
0
100
AcDbLine
 10
47.7545
 20
815.3415
 30
0.0
 11
56.3275
 21
810.3914999999998
 31
0.0
  0
LINE
  5
271
330
1E
100
AcDbEntity
  8
0
100
AcDbLine
 10
50.1275
 20
790.5784999999999
 30
0.0
 11
50.2289717727254
 21
791.431120869977
 31
0.0
  0
LINE
  5
272
330
1E
100
AcDbEntity
  8
0
100
AcDbLine
 10
49.75249999999999
 20
790.6575
 30
0.0
 11
50.1275
 21
790.5784999999999
 31
0.0
  0
LINE
  5
274
330
1E
100
AcDbEntity
  8
0
100
AcDbLine
 10
49.9105
 20
790.5655
 30
0.0
 11
50.1275
 21
790.5784999999999
 31
0.0
  0
LINE
  5
276
330
1E
100
AcDbEntity
  8
0
100
AcDbLine
 10
49.2535
 20
790.6235
 30
0.0
 11
49.9105
 21
790.5655
 31
0.0
  0
LINE
  5
278
330
1E
100
AcDbEntity
  8
0
100
AcDbLine
 10
48.3305
 20
794.9205
 30
0.0
 11
48.9955
 21
794.7245
 31
0.0
  0
LINE
  5
27A
330
1E
100
AcDbEntity
  8
0
100
AcDbLine
 10
48.3715
 20
790.8125
 30
0.0
 11
49.02750000000001
 21
790.7544999999999
 31
0.0
  0
LINE
  5
27C
330
1E
100
AcDbEntity
  8
0
100
AcDbLine
 10
50.2037422384535
 20
791.2191286392089
 30
0.0
 11
54.0462765207471
 21
790.8629229064709
 31
0.0
  0
LINE
  5
27D
330
1E
100
AcDbEntity
  8
0
100
AcDbLine
 10
49.02750000000001
 20
790.7544999999999
 30
0.0
 11
49.75249999999999
 21
790.6575
 31
0.0
  0
LINE
  5
280
330
1E
100
AcDbEntity
  8
0
100
AcDbLine
 10
48.82249999999999
 20
794.1994999999999
 30
0.0
 11
49.18849999999999
 21
794.4255
 31
0.0
  0
LINE
  5
282
330
1E
100
AcDbEntity
  8
0
100
AcDbLine
 10
48.9955
 20
794.7245
 30
0.0
 11
49.18849999999999
 21
794.4255
 31
0.0
  0
LINE
  5
286
330
1E
100
AcDbEntity
  8
0
100
AcDbLine
 10
48.5985
 20
791.3235
 30
0.0
 11
48.64650000000001
 21
791.4335
 31
0.0
  0
LINE
  5
288
330
1E
100
AcDbEntity
  8
0
100
AcDbLine
 10
48.52949999999999
 20
790.7214999999999
 30
0.0
 11
49.2535
 21
790.6235
 31
0.0
  0
LINE
  5
28A
330
1E
100
AcDbEntity
  8
0
100
AcDbLine
 10
48.1775
 20
815.6715
 30
0.0
 11
57.0105
 21
810.5715
 31
0.0
  0
LINE
  5
28C
330
1E
100
AcDbEntity
  8
0
100
AcDbLine
 10
52.0755
 20
791.8835
 30
0.0
 11
52.8355
 21
791.8825
 31
0.0
  0
LINE
  5
28D
330
1E
100
AcDbEntity
  8
0
100
AcDbLine
 10
51.5015
 20
792.0275
 30
0.0
 11
52.0755
 21
791.8835
 31
0.0
  0
LINE
  5
28E
330
1E
100
AcDbEntity
  8
0
100
AcDbLine
 10
51.4685
 20
792.2335
 30
0.0
 11
51.9695
 21
792.3825
 31
0.0
  0
LINE
  5
28F
330
1E
100
AcDbEntity
  8
0
100
AcDbLine
 10
51.4685
 20
792.2335
 30
0.0
 11
51.5015
 21
792.0275
 31
0.0
  0
LINE
  5
291
330
1E
100
AcDbEntity
  8
0
100
AcDbLine
 10
51.9695
 20
792.3825
 30
0.0
 11
52.7305
 21
792.3804999999999
 31
0.0
  0
LINE
  5
295
330
1E
100
AcDbEntity
  8
0
100
AcDbLine
 10
53.30449999999999
 20
792.2365
 30
0.0
 11
53.3365
 21
792.0304999999999
 31
0.0
  0
LINE
  5
297
330
1E
100
AcDbEntity
  8
0
100
AcDbLine
 10
52.8355
 20
791.8825
 30
0.0
 11
53.3365
 21
792.0304999999999
 31
0.0
  0
LINE
  5
298
330
1E
100
AcDbEntity
  8
0
100
AcDbLine
 10
52.7305
 20
792.3804999999999
 30
0.0
 11
53.30449999999999
 21
792.2365
 31
0.0
  0
LINE
  5
29A
330
1E
100
AcDbEntity
  8
0
100
AcDbLine
 10
54.0462765207471
 20
790.8629229064709
 30
0.0
 11
54.0565
 21
790.5515
 31
0.0
  0
LINE
  5
29B
330
1E
100
AcDbEntity
  8
0
100
AcDbLine
 10
55.9255
 20
790.0984999999999
 30
0.0
 11
56.6255
 21
790.1314999999999
 31
0.0
  0
LINE
  5
29C
330
1E
100
AcDbEntity
  8
0
100
AcDbLine
 10
55.2265
 20
790.0644999999999
 30
0.0
 11
55.9255
 21
790.0984999999999
 31
0.0
  0
LINE
  5
29D
330
1E
100
AcDbEntity
  8
0
100
AcDbLine
 10
54.9275
 20
790.0495
 30
0.0
 11
55.2265
 21
790.0644999999999
 31
0.0
  0
LINE
  5
29E
330
1E
100
AcDbEntity
  8
0
100
AcDbLine
 10
56.6255
 20
790.1314999999999
 30
0.0
 11
56.9245
 21
790.1464999999999
 31
0.0
  0
LINE
  5
2A0
330
1E
100
AcDbEntity
  8
0
100
AcDbLine
 10
54.1925
 20
790.6615
 30
0.0
 11
54.8065
 21
790.7445
 31
0.0
  0
LINE
  5
2A3
330
1E
100
AcDbEntity
  8
0
100
AcDbLine
 10
54.8065
 20
790.7445
 30
0.0
 11
55.5555
 21
790.7494999999999
 31
0.0
  0
LINE
  5
2A4
330
1E
100
AcDbEntity
  8
0
100
AcDbLine
 10
55.8695
 20
790.5685
 30
0.0
 11
56.0045
 21
790.6775
 31
0.0
  0
LINE
  5
2A5
330
1E
100
AcDbEntity
  8
0
100
AcDbLine
 10
55.25549999999999
 20
790.4855
 30
0.0
 11
55.8695
 21
790.5685
 31
0.0
  0
LINE
  5
2AA
330
1E
100
AcDbEntity
  8
0
100
AcDbLine
 10
56.4245
 20
809.7614999999999
 30
0.0
 11
63.9585
 21
805.4115000000001
 31
0.0
  0
LINE
  5
2AC
330
1E
100
AcDbEntity
  8
0
100
AcDbLine
 10
55.5555
 20
790.7494999999999
 30
0.0
 11
56.0045
 21
790.6775
 31
0.0
  0
LINE
  5
2B0
330
1E
100
AcDbEntity
  8
0
100
AcDbLine
 10
54.9064459574465
 20
790.483169866205
 30
0.0
 11
54.9275
 21
790.0495
 31
0.0
  0
LINE
  5
2B1
330
1E
100
AcDbEntity
  8
0
100
AcDbLine
 10
56.8845862484721
 20
790.968640985079
 30
0.0
 11
56.9245
 21
790.1464999999999
 31
0.0
  0
LINE
  5
2B2
330
1E
100
AcDbEntity
  8
0
100
AcDbLine
 10
56.8845862484721
 20
790.968640985079
 30
0.0
 11
60.68249999999999
 21
791.1325
 31
0.0
  0
LINE
  5
2B3
330
1E
100
AcDbEntity
  8
0
100
AcDbLine
 10
54.5065
 20
790.4805
 30
0.0
 11
54.9064459574465
 21
790.483169866205
 31
0.0
  0
LINE
  5
2B4
330
1E
100
AcDbEntity
  8
0
100
AcDbLine
 10
54.5065
 20
790.4805
 30
0.0
 11
55.25549999999999
 21
790.4855
 31
0.0
  0
LINE
  5
2B5
330
1E
100
AcDbEntity
  8
0
100
AcDbLine
 10
54.0565
 20
790.5515
 30
0.0
 11
54.5065
 21
790.4805
 31
0.0
  0
LINE
  5
2B6
330
1E
100
AcDbEntity
  8
0
100
AcDbLine
 10
54.0565
 20
790.5515
 30
0.0
 11
54.1925
 21
790.6615
 31
0.0
  0
LINE
  5
2B7
330
1E
100
AcDbEntity
  8
0
100
AcDbLine
 10
56.3275
 20
810.3914999999998
 30
0.0
 11
63.8625
 21
806.0415
 31
0.0
  0
LINE
  5
2BA
330
1E
100
AcDbEntity
  8
0
100
AcDbLine
 10
57.0105
 20
810.5715
 30
0.0
 11
64.7185
 21
806.1215
 31
0.0
  0
LINE
  5
2BC
330
1E
100
AcDbEntity
  8
0
100
AcDbLine
 10
117.1894999999999
 20
761.6145
 30
0.0
 11
123.2485
 21
749.8084999999999
 31
0.0
  0
LINE
  5
2BD
330
1E
100
AcDbEntity
  8
0
100
AcDbLine
 10
128.5124999999999
 20
740.7155
 30
0.0
 11
136.0405
 21
729.3015
 31
0.0
  0
LINE
  5
2BE
330
1E
100
AcDbEntity
  8
0
100
AcDbLine
 10
123.2485
 20
749.8084999999999
 30
0.0
 11
128.5124999999999
 21
740.7155
 31
0.0
  0
LINE
  5
2BF
330
1E
100
AcDbEntity
  8
0
100
AcDbLine
 10
136.0405
 20
729.3015
 30
0.0
 11
145.0105
 21
717.9915
 31
0.0
  0
LINE
  5
2C0
330
1E
100
AcDbEntity
  8
0
100
AcDbLine
 10
145.0105
 20
717.9915
 30
0.0
 11
155.0455
 21
706.3905
 31
0.0
  0
LINE
  5
2C1
330
1E
100
AcDbEntity
  8
0
100
AcDbLine
 10
113.3705
 20
768.7525
 30
0.0
 11
117.1894999999999
 21
761.6145
 31
0.0
  0
LINE
  5
2C2
330
1E
100
AcDbEntity
  8
0
100
AcDbLine
 10
146.6385
 20
765.5795
 30
0.0
 11
153.1044999999999
 21
757.5344999999999
 31
0.0
  0
LINE
  5
2C4
330
1E
100
AcDbEntity
  8
0
100
AcDbLine
 10
155.0455
 20
706.3905
 30
0.0
 11
165.190529
 21
695.8334999999999
 31
0.0
  0
LINE
  5
2C7
330
1E
100
AcDbEntity
  8
0
100
AcDbLine
 10
153.1044999999999
 20
757.5344999999999
 30
0.0
 11
161.3565299999999
 21
747.1644999999999
 31
0.0
  0
LINE
  5
2C8
330
1E
100
AcDbEntity
  8
0
100
AcDbLine
 10
100.8275
 20
784.6385
 30
0.0
 11
106.9795
 21
777.9634999999999
 31
0.0
  0
LINE
  5
2C9
330
1E
100
AcDbEntity
  8
0
100
AcDbLine
 10
106.9795
 20
777.9634999999999
 30
0.0
 11
113.3705
 21
768.7525
 31
0.0
  0
LINE
  5
2CA
330
1E
100
AcDbEntity
  8
0
100
AcDbLine
 10
60.68249999999999
 20
791.1325
 30
0.0
 11
64.23449999999999
 21
792.0845
 31
0.0
  0
LINE
  5
2CB
330
1E
100
AcDbEntity
  8
0
100
AcDbLine
 10
64.23449999999999
 20
792.0845
 30
0.0
 11
64.34748912093279
 21
792.4804618751281
 31
0.0
  0
LINE
  5
2CC
330
1E
100
AcDbEntity
  8
0
100
AcDbLine
 10
64.7805
 20
792.2305
 30
0.0
 11
66.14650000000001
 21
792.5964999999999
 31
0.0
  0
LINE
  5
2CE
330
1E
100
AcDbEntity
  8
0
100
AcDbLine
 10
0.6944999999999553
 20
829.2315
 30
0.0
 11
64.7805
 21
792.2305
 31
0.0
  0
LINE
  5
2CF
330
1E
100
AcDbEntity
  8
0
100
AcDbLine
 10
64.34748912093279
 20
792.4804618751281
 30
0.0
 11
64.7805
 21
792.2305
 31
0.0
  0
LINE
  5
2D0
330
1E
100
AcDbEntity
  8
0
100
AcDbLine
 10
66.14650000000001
 20
792.5964999999999
 30
0.0
 11
70.0616
 21
794.3775
 31
0.0
  0
LINE
  5
2D6
330
1E
100
AcDbEntity
  8
0
100
AcDbLine
 10
70.0616
 20
794.3775
 30
0.0
 11
72.1776
 21
796.0425
 31
0.0
  0
LINE
  5
2D7
330
1E
100
AcDbEntity
  8
0
100
AcDbLine
 10
72.1776
 20
796.0425
 30
0.0
 11
74.6106
 21
799.2614999999999
 31
0.0
  0
LINE
  5
2D8
330
1E
100
AcDbEntity
  8
0
100
AcDbLine
 10
76.6497
 20
799.4115
 30
0.0
 11
85.24230000000001
 21
795.2074999999999
 31
0.0
  0
LINE
  5
2D9
330
1E
100
AcDbEntity
  8
0
100
AcDbLine
 10
85.24230000000001
 20
795.2074999999999
 30
0.0
 11
92.25050000000001
 21
790.9044999999999
 31
0.0
  0
LINE
  5
2DA
330
1E
100
AcDbEntity
  8
0
100
AcDbLine
 10
92.25050000000001
 20
790.9044999999999
 30
0.0
 11
100.8275
 21
784.6385
 31
0.0
  0
LINE
  5
2DB
330
1E
100
AcDbEntity
  8
0
100
AcDbLine
 10
132.0755
 20
783.0035
 30
0.0
 11
138.4584999999999
 21
775.8655
 31
0.0
  0
LINE
  5
2DC
330
1E
100
AcDbEntity
  8
0
100
AcDbLine
 10
121.1375
 20
794.8705
 30
0.0
 11
132.0755
 21
783.0035
 31
0.0
  0
LINE
  5
2DD
330
1E
100
AcDbEntity
  8
0
100
AcDbLine
 10
138.4584999999999
 20
775.8655
 30
0.0
 11
146.6385
 21
765.5795
 31
0.0
  0
LINE
  5
2DE
330
1E
100
AcDbEntity
  8
0
100
AcDbLine
 10
165.567529
 20
696.1104999999999
 30
0.0
 11
166.574529
 21
696.8484999999999
 31
0.0
  0
LINE
  5
2DF
330
1E
100
AcDbEntity
  8
0
100
AcDbLine
 10
165.190529
 20
695.8334999999999
 30
0.0
 11
166.64253
 21
695.6235
 31
0.0
  0
LINE
  5
2E0
330
1E
100
AcDbEntity
  8
0
100
AcDbLine
 10
165.190529
 20
695.8334999999999
 30
0.0
 11
165.567529
 21
696.1104999999999
 31
0.0
  0
LINE
  5
2E1
330
1E
100
AcDbEntity
  8
0
100
AcDbLine
 10
161.3565299999999
 20
747.1644999999999
 30
0.0
 11
169.37553
 21
735.5534999999999
 31
0.0
  0
LINE
  5
2E2
330
1E
100
AcDbEntity
  8
0
100
AcDbLine
 10
63.9585
 20
805.4115000000001
 30
0.0
 11
69.6743
 21
802.1114999999999
 31
0.0
  0
LINE
  5
2E3
330
1E
100
AcDbEntity
  8
0
100
AcDbLine
 10
63.8625
 20
806.0415
 30
0.0
 11
69.5779
 21
802.7414999999999
 31
0.0
  0
LINE
  5
2E4
330
1E
100
AcDbEntity
  8
0
100
AcDbLine
 10
64.7185
 20
806.1215
 30
0.0
 11
70.60729999999999
 21
802.7214999999999
 31
0.0
  0
LINE
  5
2E5
330
1E
100
AcDbEntity
  8
0
100
AcDbLine
 10
69.6743
 20
802.1114999999999
 30
0.0
 11
73.3116
 21
800.0114999999999
 31
0.0
  0
LINE
  5
2E6
330
1E
100
AcDbEntity
  8
0
100
AcDbLine
 10
73.3116
 20
800.0114999999999
 30
0.0
 11
74.6106
 21
799.2614999999999
 31
0.0
  0
LINE
  5
2E7
330
1E
100
AcDbEntity
  8
0
100
AcDbLine
 10
73.1286
 20
800.6915000000001
 30
0.0
 11
74.42759999999999
 21
799.9414999999999
 31
0.0
  0
LINE
  5
2E8
330
1E
100
AcDbEntity
  8
0
100
AcDbLine
 10
69.5779
 20
802.7414999999999
 30
0.0
 11
73.1286
 21
800.6915000000001
 31
0.0
  0
LINE
  5
2E9
330
1E
100
AcDbEntity
  8
0
100
AcDbLine
 10
70.60729999999999
 20
802.7214999999999
 30
0.0
 11
74.2446
 21
800.6214999999999
 31
0.0
  0
LINE
  5
2EA
330
1E
100
AcDbEntity
  8
0
100
AcDbLine
 10
74.2446
 20
800.6214999999999
 30
0.0
 11
75.5437
 21
799.8714999999999
 31
0.0
  0
LINE
  5
2EE
330
1E
100
AcDbEntity
  8
0
100
AcDbLine
 10
75.5725437259123
 20
799.993513596165
 30
0.0
 11
76.6497
 21
799.4115
 31
0.0
  0
LINE
  5
2EF
330
1E
100
AcDbEntity
  8
0
100
AcDbLine
 10
114.9175
 20
800.9914999999999
 30
0.0
 11
121.1375
 21
794.8705
 31
0.0
  0
LINE
  5
2F0
330
1E
100
AcDbEntity
  8
0
100
AcDbLine
 10
106.0314999999999
 20
809.4115
 30
0.0
 11
114.9175
 21
800.9914999999999
 31
0.0
  0
LINE
  5
2F1
330
1E
100
AcDbEntity
  8
0
100
AcDbLine
 10
74.42759999999999
 20
799.9414999999999
 30
0.0
 11
75.5437
 21
799.8714999999999
 31
0.0
  0
LINE
  5
2F2
330
1E
100
AcDbEntity
  8
0
100
AcDbLine
 10
74.42759999999999
 20
799.9414999999999
 30
0.0
 11
74.6106
 21
799.2614999999999
 31
0.0
  0
LINE
  5
2F3
330
1E
100
AcDbEntity
  8
0
100
AcDbLine
 10
75.5437
 20
799.8714999999999
 30
0.0
 11
75.6042541055574
 21
799.976379710826
 31
0.0
  0
LINE
  5
2F5
330
1E
100
AcDbEntity
  8
0
100
AcDbLine
 10
98.9155
 20
815.9715
 30
0.0
 11
106.0314999999999
 21
809.4115
 31
0.0
  0
LINE
  5
2F8
330
1E
100
AcDbEntity
  8
0
100
AcDbLine
 10
90.39649999999999
 20
822.7615
 30
0.0
 11
98.9155
 21
815.9715
 31
0.0
  0
LINE
  5
2FB
330
1E
100
AcDbEntity
  8
0
100
AcDbLine
 10
72.12050000000001
 20
836.3015
 30
0.0
 11
83.5759
 21
828.1414999999999
 31
0.0
  0
LINE
  5
2FC
330
1E
100
AcDbEntity
  8
0
100
AcDbLine
 10
83.5759
 20
828.1414999999999
 30
0.0
 11
90.39649999999999
 21
822.7615
 31
0.0
  0
LINE
  5
2FF
330
1E
100
AcDbEntity
  8
0
100
AcDbLine
 10
59.5622128488784
 20
844.314576784563
 30
0.0
 11
59.87149999999999
 21
844.1214999999999
 31
0.0
  0
LINE
  5
300
330
1E
100
AcDbEntity
  8
0
100
AcDbLine
 10
59.87149999999999
 20
844.1214999999999
 30
0.0
 11
72.12050000000001
 21
836.3015
 31
0.0
  0
LINE
  5
306
330
1E
100
AcDbEntity
  8
0
100
AcDbLine
 10
4.43149999999998
 20
846.7014999999999
 30
0.0
 11
5.114499999999969
 21
846.8914999999999
 31
0.0
  0
LINE
  5
308
330
1E
100
AcDbEntity
  8
0
100
AcDbLine
 10
9.952499999999989
 20
850.6814999999999
 30
0.0
 11
17.8335
 21
854.1515
 31
0.0
  0
LINE
  5
309
330
1E
100
AcDbEntity
  8
0
100
AcDbLine
 10
17.8335
 20
854.1515
 30
0.0
 11
26.7835
 21
855.4015000000001
 31
0.0
  0
LINE
  5
30A
330
1E
100
AcDbEntity
  8
0
100
AcDbLine
 10
26.7835
 20
855.4015000000001
 30
0.0
 11
35.9215
 21
854.9414999999999
 31
0.0
  0
LINE
  5
30B
330
1E
100
AcDbEntity
  8
0
100
AcDbLine
 10
35.9215
 20
854.9414999999999
 30
0.0
 11
45.07249999999999
 21
852.4615
 31
0.0
  0
LINE
  5
30C
330
1E
100
AcDbEntity
  8
0
100
AcDbLine
 10
45.07249999999999
 20
852.4615
 30
0.0
 11
54.2375
 21
847.9715
 31
0.0
  0
LINE
  5
30D
330
1E
100
AcDbEntity
  8
0
100
AcDbLine
 10
54.2375
 20
847.9715
 30
0.0
 11
62.7085
 21
842.2814999999999
 31
0.0
  0
LINE
  5
30E
330
1E
100
AcDbEntity
  8
0
100
AcDbLine
 10
4.931499999999959
 20
847.5715
 30
0.0
 11
5.114499999999969
 21
846.8914999999999
 31
0.0
  0
LINE
  5
310
330
1E
100
AcDbEntity
  8
0
100
AcDbLine
 10
4.931499999999959
 20
847.5715
 30
0.0
 11
9.952499999999989
 21
850.6814999999999
 31
0.0
  0
LINE
  5
311
330
1E
100
AcDbEntity
  8
0
100
AcDbLine
 10
166.6964999999999
 20
691.1434999999999
 30
0.0
 11
168.4725
 21
695.4355
 31
0.0
  0
LINE
  5
312
330
1E
100
AcDbEntity
  8
0
100
AcDbLine
 10
166.0304999999999
 20
686.4815
 30
0.0
 11
166.6964999999999
 21
681.8194999999999
 31
0.0
  0
LINE
  5
313
330
1E
100
AcDbEntity
  8
0
100
AcDbLine
 10
166.0304999999999
 20
686.4815
 30
0.0
 11
166.6964999999999
 21
691.1434999999999
 31
0.0
  0
LINE
  5
314
330
1E
100
AcDbEntity
  8
0
100
AcDbLine
 10
166.6964999999999
 20
681.8194999999999
 30
0.0
 11
168.4725
 21
677.5275
 31
0.0
  0
LINE
  5
315
330
1E
100
AcDbEntity
  8
0
100
AcDbLine
 10
166.574529
 20
696.8484999999999
 30
0.0
 11
168.25153
 21
698.0785
 31
0.0
  0
LINE
  5
316
330
1E
100
AcDbEntity
  8
0
100
AcDbLine
 10
166.64253
 20
695.6235
 30
0.0
 11
166.974640895169
 21
695.864517621065
 31
0.0
  0
LINE
  5
317
330
1E
100
AcDbEntity
  8
0
100
AcDbLine
 10
166.64253
 20
695.6235
 30
0.0
 11
166.99253
 21
695.8775000000001
 31
0.0
  0
LINE
  5
318
330
1E
100
AcDbEntity
  8
0
100
AcDbLine
 10
166.2525
 20
691.2174999999999
 30
0.0
 11
167.676631987623
 21
694.777829969057
 31
0.0
  0
LINE
  5
319
330
1E
100
AcDbEntity
  8
0
100
AcDbLine
 10
166.2525
 20
691.2174999999999
 30
0.0
 11
167.676631987623
 21
694.777829969057
 31
0.0
  0
LINE
  5
31A
330
1E
100
AcDbEntity
  8
0
100
AcDbLine
 10
166.2525
 20
691.2174999999999
 30
0.0
 11
168.0285
 21
695.6575
 31
0.0
  0
LINE
  5
31B
330
1E
100
AcDbEntity
  8
0
100
AcDbLine
 10
165.5865
 20
686.4815
 30
0.0
 11
166.2525
 21
681.7454999999999
 31
0.0
  0
LINE
  5
31C
330
1E
100
AcDbEntity
  8
0
100
AcDbLine
 10
165.5865
 20
686.4815
 30
0.0
 11
166.2525
 21
691.2174999999999
 31
0.0
  0
LINE
  5
31D
330
1E
100
AcDbEntity
  8
0
100
AcDbLine
 10
166.2525
 20
681.7454999999999
 30
0.0
 11
168.0285
 21
677.3055
 31
0.0
  0
LINE
  5
31E
330
1E
100
AcDbEntity
  8
0
100
AcDbLine
 10
173.5864999999999
 20
67.98149999999999
 30
0.0
 11
173.9864999999999
 21
67.98149999999999
 31
0.0
  0
LINE
  5
31F
330
1E
100
AcDbEntity
  8
0
100
AcDbLine
 10
173.9864999999999
 20
67.98149999999999
 30
0.0
 11
174.9864999999999
 21
67.98149999999999
 31
0.0
  0
LINE
  5
320
330
1E
100
AcDbEntity
  8
0
100
AcDbLine
 10
174.9864999999999
 20
67.98149999999999
 30
0.0
 11
176.6864999999999
 21
67.98149999999999
 31
0.0
  0
LINE
  5
321
330
1E
100
AcDbEntity
  8
0
100
AcDbLine
 10
173.4865
 20
68.4815
 30
0.0
 11
174.5865
 21
68.4815
 31
0.0
  0
LINE
  5
322
330
1E
100
AcDbEntity
  8
0
100
AcDbLine
 10
174.5865
 20
68.4815
 30
0.0
 11
176.2864999999999
 21
68.4815
 31
0.0
  0
LINE
  5
323
330
1E
100
AcDbEntity
  8
0
100
AcDbLine
 10
176.2864999999999
 20
68.4815
 30
0.0
 11
178.5865
 21
68.4815
 31
0.0
  0
LINE
  5
324
330
1E
100
AcDbEntity
  8
0
100
AcDbLine
 10
173.4865
 20
119.4814999999999
 30
0.0
 11
174.5865
 21
119.4814999999999
 31
0.0
  0
LINE
  5
325
330
1E
100
AcDbEntity
  8
0
100
AcDbLine
 10
174.5865
 20
119.4814999999999
 30
0.0
 11
176.2864999999999
 21
119.4814999999999
 31
0.0
  0
LINE
  5
326
330
1E
100
AcDbEntity
  8
0
100
AcDbLine
 10
176.2864999999999
 20
119.4814999999999
 30
0.0
 11
178.5865
 21
119.4814999999999
 31
0.0
  0
LINE
  5
327
330
1E
100
AcDbEntity
  8
0
100
AcDbLine
 10
176.6864999999999
 20
67.98149999999999
 30
0.0
 11
178.8865
 21
67.98149999999999
 31
0.0
  0
LINE
  5
328
330
1E
100
AcDbEntity
  8
0
100
AcDbLine
 10
173.0865
 20
68.4815
 30
0.0
 11
173.0865
 21
119.4814999999999
 31
0.0
  0
LINE
  5
329
330
1E
100
AcDbEntity
  8
0
100
AcDbLine
 10
173.0865
 20
68.4815
 30
0.0
 11
173.5864999999999
 21
67.98149999999999
 31
0.0
  0
LINE
  5
32A
330
1E
100
AcDbEntity
  8
0
100
AcDbLine
 10
173.0865
 20
68.4815
 30
0.0
 11
173.4865
 21
68.4815
 31
0.0
  0
LINE
  5
32B
330
1E
100
AcDbEntity
  8
0
100
AcDbLine
 10
173.5864999999999
 20
119.9815
 30
0.0
 11
173.9864999999999
 21
119.9815
 31
0.0
  0
LINE
  5
32C
330
1E
100
AcDbEntity
  8
0
100
AcDbLine
 10
173.9864999999999
 20
119.9815
 30
0.0
 11
174.9864999999999
 21
119.9815
 31
0.0
  0
LINE
  5
32D
330
1E
100
AcDbEntity
  8
0
100
AcDbLine
 10
168.4725
 20
695.4355
 30
0.0
 11
171.3584999999999
 21
699.2095
 31
0.0
  0
LINE
  5
32E
330
1E
100
AcDbEntity
  8
0
100
AcDbLine
 10
167.92453
 20
696.5555000000001
 30
0.0
 11
169.47753
 21
697.6835
 31
0.0
  0
LINE
  5
32F
330
1E
100
AcDbEntity
  8
0
100
AcDbLine
 10
166.99253
 20
695.8775000000001
 30
0.0
 11
167.92453
 21
696.5555000000001
 31
0.0
  0
LINE
  5
330
330
1E
100
AcDbEntity
  8
0
100
AcDbLine
 10
168.25153
 20
698.0785
 30
0.0
 11
170.47353
 21
699.7084999999999
 31
0.0
  0
LINE
  5
331
330
1E
100
AcDbEntity
  8
0
100
AcDbLine
 10
168.0285
 20
695.6575
 30
0.0
 11
170.9884999999999
 21
699.5795000000001
 31
0.0
  0
LINE
  5
332
330
1E
100
AcDbEntity
  8
0
100
AcDbLine
 10
169.47753
 20
697.6835
 30
0.0
 11
169.654822557582
 21
697.812377388797
 31
0.0
  0
LINE
  5
333
330
1E
100
AcDbEntity
  8
0
100
AcDbLine
 10
170.47353
 20
699.7084999999999
 30
0.0
 11
172.98953
 21
701.5534999999999
 31
0.0
  0
LINE
  5
334
330
1E
100
AcDbEntity
  8
0
100
AcDbLine
 10
168.4725
 20
677.5275
 30
0.0
 11
171.3584999999999
 21
673.7535
 31
0.0
  0
LINE
  5
335
330
1E
100
AcDbEntity
  8
0
100
AcDbLine
 10
168.0285
 20
677.3055
 30
0.0
 11
170.9884999999999
 21
673.3835
 31
0.0
  0
LINE
  5
336
330
1E
100
AcDbEntity
  8
0
100
AcDbLine
 10
173.4865
 20
120.4825
 30
0.0
 11
174.5865
 21
120.4825
 31
0.0
  0
LINE
  5
337
330
1E
100
AcDbEntity
  8
0
100
AcDbLine
 10
174.5865
 20
120.4825
 30
0.0
 11
176.2864999999999
 21
120.4825
 31
0.0
  0
LINE
  5
338
330
1E
100
AcDbEntity
  8
0
100
AcDbLine
 10
173.0865
 20
120.4825
 30
0.0
 11
173.5864999999999
 21
119.9815
 31
0.0
  0
LINE
  5
339
330
1E
100
AcDbEntity
  8
0
100
AcDbLine
 10
173.0865
 20
120.4825
 30
0.0
 11
173.0865
 21
671.800103773585
 31
0.0
  0
LINE
  5
33A
330
1E
100
AcDbEntity
  8
0
100
AcDbLine
 10
173.0865
 20
120.4825
 30
0.0
 11
173.4865
 21
120.4825
 31
0.0
  0
LINE
  5
33B
330
1E
100
AcDbEntity
  8
0
100
AcDbLine
 10
176.2864999999999
 20
120.4825
 30
0.0
 11
178.5865
 21
120.4825
 31
0.0
  0
LINE
  5
33C
330
1E
100
AcDbEntity
  8
0
100
AcDbLine
 10
174.9105
 20
670.4234999999999
 30
0.0
 11
179.3505
 21
668.6475
 31
0.0
  0
LINE
  5
33D
330
1E
100
AcDbEntity
  8
0
100
AcDbLine
 10
171.3584999999999
 20
699.2095
 30
0.0
 11
175.1325
 21
702.0955
 31
0.0
  0
LINE
  5
33E
330
1E
100
AcDbEntity
  8
0
100
AcDbLine
 10
170.9884999999999
 20
699.5795000000001
 30
0.0
 11
174.9105
 21
702.5394999999999
 31
0.0
  0
LINE
  5
33F
330
1E
100
AcDbEntity
  8
0
100
AcDbLine
 10
172.98953
 20
701.5534999999999
 30
0.0
 11
175.54053
 21
703.4244999999999
 31
0.0
  0
LINE
  5
340
330
1E
100
AcDbEntity
  8
0
100
AcDbLine
 10
175.1325
 20
702.0955
 30
0.0
 11
179.4245
 21
703.8714999999999
 31
0.0
  0
LINE
  5
341
330
1E
100
AcDbEntity
  8
0
100
AcDbLine
 10
175.54053
 20
703.4244999999999
 30
0.0
 11
178.2345
 21
705.3785
 31
0.0
  0
LINE
  5
342
330
1E
100
AcDbEntity
  8
0
100
AcDbLine
 10
174.9105
 20
702.5394999999999
 30
0.0
 11
179.3505
 21
704.3155
 31
0.0
  0
LINE
  5
343
330
1E
100
AcDbEntity
  8
0
100
AcDbLine
 10
171.3584999999999
 20
673.7535
 30
0.0
 11
175.1325
 21
670.8674999999999
 31
0.0
  0
LINE
  5
344
330
1E
100
AcDbEntity
  8
0
100
AcDbLine
 10
175.1325
 20
670.8674999999999
 30
0.0
 11
179.4245
 21
669.0915
 31
0.0
  0
LINE
  5
345
330
1E
100
AcDbEntity
  8
0
100
AcDbLine
 10
170.9884999999999
 20
673.3835
 30
0.0
 11
173.0865
 21
671.800103773585
 31
0.0
  0
LINE
  5
346
330
1E
100
AcDbEntity
  8
0
100
AcDbLine
 10
170.9884999999999
 20
673.3835
 30
0.0
 11
174.9105
 21
670.4234999999999
 31
0.0
  0
LINE
  5
347
330
1E
100
AcDbEntity
  8
0
100
AcDbLine
 10
174.9864999999999
 20
119.9815
 30
0.0
 11
176.6864999999999
 21
119.9815
 31
0.0
  0
LINE
  5
348
330
1E
100
AcDbEntity
  8
0
100
AcDbLine
 10
176.6864999999999
 20
119.9815
 30
0.0
 11
178.8865
 21
119.9815
 31
0.0
  0
LINE
  5
349
330
1E
100
AcDbEntity
  8
0
100
AcDbLine
 10
173.0865
 20
119.4814999999999
 30
0.0
 11
173.5864999999999
 21
119.9815
 31
0.0
  0
LINE
  5
34A
330
1E
100
AcDbEntity
  8
0
100
AcDbLine
 10
173.0865
 20
119.4814999999999
 30
0.0
 11
173.4865
 21
119.4814999999999
 31
0.0
  0
LINE
  5
34B
330
1E
100
AcDbEntity
  8
0
100
AcDbLine
 10
178.8865
 20
67.98149999999999
 30
0.0
 11
181.3865
 21
67.98149999999999
 31
0.0
  0
LINE
  5
34C
330
1E
100
AcDbEntity
  8
0
100
AcDbLine
 10
181.3865
 20
67.98149999999999
 30
0.0
 11
184.0864999999999
 21
67.98149999999999
 31
0.0
  0
LINE
  5
34D
330
1E
100
AcDbEntity
  8
0
100
AcDbLine
 10
178.5865
 20
68.4815
 30
0.0
 11
181.2865
 21
68.4815
 31
0.0
  0
LINE
  5
34E
330
1E
100
AcDbEntity
  8
0
100
AcDbLine
 10
178.5865
 20
119.4814999999999
 30
0.0
 11
181.2865
 21
119.4814999999999
 31
0.0
  0
LINE
  5
34F
330
1E
100
AcDbEntity
  8
0
100
AcDbLine
 10
181.2865
 20
68.4815
 30
0.0
 11
184.0864999999999
 21
68.4815
 31
0.0
  0
LINE
  5
350
330
1E
100
AcDbEntity
  8
0
100
AcDbLine
 10
184.0864999999999
 20
68.4815
 30
0.0
 11
217.115514160623
 21
68.4815
 31
0.0
  0
LINE
  5
351
330
1E
100
AcDbEntity
  8
0
100
AcDbLine
 10
181.2865
 20
119.4814999999999
 30
0.0
 11
184.0864999999999
 21
119.4814999999999
 31
0.0
  0
LINE
  5
352
330
1E
100
AcDbEntity
  8
0
100
AcDbLine
 10
184.0864999999999
 20
119.4814999999999
 30
0.0
 11
217.0762311493469
 21
119.4814999999999
 31
0.0
  0
LINE
  5
353
330
1E
100
AcDbEntity
  8
0
100
AcDbLine
 10
178.8865
 20
119.9815
 30
0.0
 11
181.3865
 21
119.9815
 31
0.0
  0
LINE
  5
354
330
1E
100
AcDbEntity
  8
0
100
AcDbLine
 10
178.5865
 20
120.4825
 30
0.0
 11
181.2865
 21
120.4825
 31
0.0
  0
LINE
  5
355
330
1E
100
AcDbEntity
  8
0
100
AcDbLine
 10
184.0864999999999
 20
120.4825
 30
0.0
 11
186.8865
 21
120.4825
 31
0.0
  0
LINE
  5
356
330
1E
100
AcDbEntity
  8
0
100
AcDbLine
 10
181.2865
 20
120.4825
 30
0.0
 11
184.0864999999999
 21
120.4825
 31
0.0
  0
LINE
  5
357
330
1E
100
AcDbEntity
  8
0
100
AcDbLine
 10
181.3865
 20
119.9815
 30
0.0
 11
184.0864999999999
 21
119.9815
 31
0.0
  0
LINE
  5
358
330
1E
100
AcDbEntity
  8
0
100
AcDbLine
 10
191.8865
 20
120.4825
 30
0.0
 11
193.5864999999999
 21
120.4825
 31
0.0
  0
LINE
  5
359
330
1E
100
AcDbEntity
  8
0
100
AcDbLine
 10
189.5865
 20
120.4825
 30
0.0
 11
191.8865
 21
120.4825
 31
0.0
  0
LINE
  5
35A
330
1E
100
AcDbEntity
  8
0
100
AcDbLine
 10
186.8865
 20
120.4825
 30
0.0
 11
189.5865
 21
120.4825
 31
0.0
  0
LINE
  5
35B
330
1E
100
AcDbEntity
  8
0
100
AcDbLine
 10
184.0864999999999
 20
667.9814999999999
 30
0.0
 11
188.8225
 21
668.6475
 31
0.0
  0
LINE
  5
35C
330
1E
100
AcDbEntity
  8
0
100
AcDbLine
 10
184.0864999999999
 20
119.9815
 30
0.0
 11
217.075846021786
 21
119.9815
 31
0.0
  0
LINE
  5
35D
330
1E
100
AcDbEntity
  8
0
100
AcDbLine
 10
184.0864999999999
 20
67.98149999999999
 30
0.0
 11
217.115899288185
 21
67.98149999999999
 31
0.0
  0
LINE
  5
35E
330
1E
100
AcDbEntity
  8
0
100
AcDbLine
 10
194.5864999999999
 20
119.9815
 30
0.0
 11
195.0865
 21
120.4825
 31
0.0
  0
LINE
  5
35F
330
1E
100
AcDbEntity
  8
0
100
AcDbLine
 10
195.0865
 20
120.4825
 30
0.0
 11
195.0865
 21
645.088581331477
 31
0.0
  0
LINE
  5
360
330
1E
100
AcDbEntity
  8
0
100
AcDbLine
 10
195.0865
 20
120.4825
 30
0.0
 11
195.0865
 21
645.088581331477
 31
0.0
  0
LINE
  5
361
330
1E
100
AcDbEntity
  8
0
100
AcDbLine
 10
194.6865
 20
120.4825
 30
0.0
 11
195.0865
 21
120.4825
 31
0.0
  0
LINE
  5
362
330
1E
100
AcDbEntity
  8
0
100
AcDbLine
 10
193.5864999999999
 20
120.4825
 30
0.0
 11
194.6865
 21
120.4825
 31
0.0
  0
LINE
  5
363
330
1E
100
AcDbEntity
  8
0
100
AcDbLine
 10
193.3635999999999
 20
650.0594999999999
 30
0.0
 11
201.2646
 21
627.2635
 31
0.0
  0
LINE
  5
364
330
1E
100
AcDbEntity
  8
0
100
AcDbLine
 10
177.6651350364959
 20
703.6413540145989
 30
0.0
 11
178.6154999999999
 21
704.3365
 31
0.0
  0
LINE
  5
365
330
1E
100
AcDbEntity
  8
0
100
AcDbLine
 10
179.4245
 20
703.8714999999999
 30
0.0
 11
184.0864999999999
 21
704.5374999999999
 31
0.0
  0
LINE
  5
366
330
1E
100
AcDbEntity
  8
0
100
AcDbLine
 10
179.3505
 20
704.3155
 30
0.0
 11
184.0864999999999
 21
704.9814999999999
 31
0.0
  0
LINE
  5
367
330
1E
100
AcDbEntity
  8
0
100
AcDbLine
 10
179.3505
 20
668.6475
 30
0.0
 11
184.0864999999999
 21
667.9814999999999
 31
0.0
  0
LINE
  5
368
330
1E
100
AcDbEntity
  8
0
100
AcDbLine
 10
184.0864999999999
 20
668.4255
 30
0.0
 11
188.7485
 21
669.0915
 31
0.0
  0
LINE
  5
369
330
1E
100
AcDbEntity
  8
0
100
AcDbLine
 10
179.4245
 20
669.0915
 30
0.0
 11
184.0864999999999
 21
668.4255
 31
0.0
  0
LINE
  5
36A
330
1E
100
AcDbEntity
  8
0
100
AcDbLine
 10
185.7163952674929
 20
668.210704021991
 30
0.0
 11
193.3635999999999
 21
650.0594999999999
 31
0.0
  0
LINE
  5
36B
330
1E
100
AcDbEntity
  8
0
100
AcDbLine
 10
193.2624999999999
 20
670.4234999999999
 30
0.0
 11
197.1845
 21
673.3835
 31
0.0
  0
LINE
  5
36C
330
1E
100
AcDbEntity
  8
0
100
AcDbLine
 10
193.0405
 20
670.8674999999999
 30
0.0
 11
196.8144999999999
 21
673.7535
 31
0.0
  0
LINE
  5
36D
330
1E
100
AcDbEntity
  8
0
100
AcDbLine
 10
188.8225
 20
668.6475
 30
0.0
 11
193.2624999999999
 21
670.4234999999999
 31
0.0
  0
LINE
  5
36E
330
1E
100
AcDbEntity
  8
0
100
AcDbLine
 10
188.7485
 20
669.0915
 30
0.0
 11
193.0405
 21
670.8674999999999
 31
0.0
  0
LINE
  5
36F
330
1E
100
AcDbEntity
  8
0
100
AcDbLine
 10
188.7485
 20
703.8714999999999
 30
0.0
 11
193.0405
 21
702.0955
 31
0.0
  0
LINE
  5
370
330
1E
100
AcDbEntity
  8
0
100
AcDbLine
 10
195.0865
 20
701.162896226415
 30
0.0
 11
195.0865
 21
974.4815
 31
0.0
  0
LINE
  5
371
330
1E
100
AcDbEntity
  8
0
100
AcDbLine
 10
193.0405
 20
702.0955
 30
0.0
 11
196.8144999999999
 21
699.2095
 31
0.0
  0
LINE
  5
372
330
1E
100
AcDbEntity
  8
0
100
AcDbLine
 10
193.2624999999999
 20
702.5394999999999
 30
0.0
 11
197.1845
 21
699.5795000000001
 31
0.0
  0
LINE
  5
373
330
1E
100
AcDbEntity
  8
0
100
AcDbLine
 10
188.8225
 20
704.3155
 30
0.0
 11
193.2624999999999
 21
702.5394999999999
 31
0.0
  0
LINE
  5
374
330
1E
100
AcDbEntity
  8
0
100
AcDbLine
 10
195.0865
 20
701.162896226415
 30
0.0
 11
197.1845
 21
699.5795000000001
 31
0.0
  0
LINE
  5
375
330
1E
100
AcDbEntity
  8
0
100
AcDbLine
 10
195.0865
 20
701.162896226415
 30
0.0
 11
195.0865
 21
974.4815
 31
0.0
  0
LINE
  5
378
330
1E
100
AcDbEntity
  8
0
100
AcDbLine
 10
197.1845
 20
673.3835
 30
0.0
 11
200.1444999999999
 21
677.3055
 31
0.0
  0
LINE
  5
379
330
1E
100
AcDbEntity
  8
0
100
AcDbLine
 10
196.8144999999999
 20
673.7535
 30
0.0
 11
199.7005
 21
677.5275
 31
0.0
  0
LINE
  5
37A
330
1E
100
AcDbEntity
  8
0
100
AcDbLine
 10
201.2646
 20
627.2635
 30
0.0
 11
207.4645999999999
 21
602.8665
 31
0.0
  0
LINE
  5
37B
330
1E
100
AcDbEntity
  8
0
100
AcDbLine
 10
216.7635999999999
 20
525.3614999999999
 30
0.0
 11
217.1656
 21
3.456500000000009
 31
0.0
  0
LINE
  5
37C
330
1E
100
AcDbEntity
  8
0
100
AcDbLine
 10
216.7635999999999
 20
525.3614999999999
 30
0.0
 11
217.1656
 21
3.456499999999979
 31
0.0
  0
LINE
  5
37D
330
1E
100
AcDbEntity
  8
0
100
AcDbLine
 10
226.0816
 20
0.0184999999999974
 30
0.0
 11
228.9876
 21
0.527499999999986
 31
0.0
  0
LINE
  5
37E
330
1E
100
AcDbEntity
  8
0
100
AcDbLine
 10
231.3795999999999
 20
1.478500000000019
 30
0.0
 11
232.8086
 21
2.85250000000002
 31
0.0
  0
LINE
  5
37F
330
1E
100
AcDbEntity
  8
0
100
AcDbLine
 10
228.9876
 20
0.527499999999986
 30
0.0
 11
231.3795999999999
 21
1.478500000000019
 31
0.0
  0
LINE
  5
380
330
1E
100
AcDbEntity
  8
0
100
AcDbLine
 10
222.9386
 20
0.1475
 30
0.0
 11
226.0816
 21
0.0184999999999974
 31
0.0
  0
LINE
  5
381
330
1E
100
AcDbEntity
  8
0
100
AcDbLine
 10
220.1395999999999
 20
0.850499999999986
 30
0.0
 11
222.9386
 21
0.1475
 31
0.0
  0
LINE
  5
382
330
1E
100
AcDbEntity
  8
0
100
AcDbLine
 10
232.0415999999999
 20
5.8215
 30
0.0
 11
233.0715999999999
 21
4.3935
 31
0.0
  0
LINE
  5
383
330
1E
100
AcDbEntity
  8
0
100
AcDbLine
 10
230.1055999999999
 20
6.99749999999999
 30
0.0
 11
232.0415999999999
 21
5.8215
 31
0.0
  0
LINE
  5
384
330
1E
100
AcDbEntity
  8
0
100
AcDbLine
 10
227.3115999999999
 20
7.70149999999999
 30
0.0
 11
230.1055999999999
 21
6.99749999999999
 31
0.0
  0
LINE
  5
385
330
1E
100
AcDbEntity
  8
0
100
AcDbLine
 10
224.1686
 20
7.832500000000019
 30
0.0
 11
227.3115999999999
 21
7.70149999999999
 31
0.0
  0
LINE
  5
386
330
1E
100
AcDbEntity
  8
0
100
AcDbLine
 10
221.2585999999999
 20
7.327500000000009
 30
0.0
 11
224.1686
 21
7.832500000000019
 31
0.0
  0
LINE
  5
387
330
1E
100
AcDbEntity
  8
0
100
AcDbLine
 10
218.8635999999999
 20
6.375500000000019
 30
0.0
 11
221.2585999999999
 21
7.327500000000009
 31
0.0
  0
LINE
  5
388
330
1E
100
AcDbEntity
  8
0
100
AcDbLine
 10
217.4306
 20
5.001500000000019
 30
0.0
 11
218.8635999999999
 21
6.375500000000019
 31
0.0
  0
LINE
  5
389
330
1E
100
AcDbEntity
  8
0
100
AcDbLine
 10
232.7636
 20
525.3655
 30
0.0
 11
233.0715999999999
 21
4.3935
 31
0.0
  0
LINE
  5
38A
330
1E
100
AcDbEntity
  8
0
100
AcDbLine
 10
233.034006609184
 20
67.98149999999999
 30
0.0
 11
245.5865
 21
67.98149999999999
 31
0.0
  0
LINE
  5
38B
330
1E
100
AcDbEntity
  8
0
100
AcDbLine
 10
233.033711007885
 20
68.4815
 30
0.0
 11
246.0865
 21
68.4815
 31
0.0
  0
LINE
  5
38C
330
1E
100
AcDbEntity
  8
0
100
AcDbLine
 10
233.033711007885
 20
68.4815
 30
0.0
 11
246.0865
 21
68.4815
 31
0.0
  0
LINE
  5
38D
330
1E
100
AcDbEntity
  8
0
100
AcDbLine
 10
246.0865
 20
119.4814999999999
 30
0.0
 11
246.0865
 21
68.4815
 31
0.0
  0
LINE
  5
38E
330
1E
100
AcDbEntity
  8
0
100
AcDbLine
 10
246.0865
 20
68.4815
 30
0.0
 11
246.0865
 21
119.4814999999999
 31
0.0
  0
LINE
  5
38F
330
1E
100
AcDbEntity
  8
0
100
AcDbLine
 10
233.003559675376
 20
119.4814999999999
 30
0.0
 11
246.0865
 21
119.4814999999999
 31
0.0
  0
LINE
  5
390
330
1E
100
AcDbEntity
  8
0
100
AcDbLine
 10
245.5865
 20
119.9815
 30
0.0
 11
246.0865
 21
119.4814999999999
 31
0.0
  0
LINE
  5
391
330
1E
100
AcDbEntity
  8
0
100
AcDbLine
 10
233.003264074077
 20
119.9815
 30
0.0
 11
245.5865
 21
119.9815
 31
0.0
  0
LINE
  5
392
330
1E
100
AcDbEntity
  8
0
100
AcDbLine
 10
245.5865
 20
67.98149999999999
 30
0.0
 11
246.0865
 21
68.4815
 31
0.0
  0
LINE
  5
393
330
1E
100
AcDbEntity
  8
0
100
AcDbLine
 10
232.8086
 20
2.85250000000002
 30
0.0
 11
233.0715999999999
 21
4.3935
 31
0.0
  0
LINE
  5
394
330
1E
100
AcDbEntity
  8
0
100
AcDbLine
 10
218.1996
 20
2.026499999999979
 30
0.0
 11
220.1395999999999
 21
0.850499999999986
 31
0.0
  0
LINE
  5
395
330
1E
100
AcDbEntity
  8
0
100
AcDbLine
 10
217.1656
 20
3.456499999999979
 30
0.0
 11
218.1996
 21
2.026499999999979
 31
0.0
  0
LINE
  5
396
330
1E
100
AcDbEntity
  8
0
100
AcDbLine
 10
217.1656
 20
3.456499999999979
 30
0.0
 11
217.4306
 21
5.001500000000019
 31
0.0
  0
LINE
  5
397
330
1E
100
AcDbEntity
  8
0
100
AcDbLine
 10
230.7636
 20
559.7664999999999
 30
0.0
 11
232.7636
 21
525.3655
 31
0.0
  0
LINE
  5
398
330
1E
100
AcDbEntity
  8
0
100
AcDbLine
 10
214.9626
 20
556.9625
 30
0.0
 11
216.7635999999999
 21
525.3614999999999
 31
0.0
  0
LINE
  5
399
330
1E
100
AcDbEntity
  8
0
100
AcDbLine
 10
227.0636
 20
584.1644999999999
 30
0.0
 11
230.7636
 21
559.7664999999999
 31
0.0
  0
LINE
  5
39A
330
1E
100
AcDbEntity
  8
0
100
AcDbLine
 10
212.0636
 20
578.6595
 30
0.0
 11
214.9626
 21
556.9625
 31
0.0
  0
LINE
  5
39B
330
1E
100
AcDbEntity
  8
0
100
AcDbLine
 10
221.9636
 20
609.5615
 30
0.0
 11
227.0636
 21
584.1644999999999
 31
0.0
  0
LINE
  5
39C
330
1E
100
AcDbEntity
  8
0
100
AcDbLine
 10
207.4645999999999
 20
602.8665
 30
0.0
 11
212.0636
 21
578.6595
 31
0.0
  0
LINE
  5
39D
330
1E
100
AcDbEntity
  8
0
100
AcDbLine
 10
215.1635999999999
 20
635.2694999999999
 30
0.0
 11
221.9636
 21
609.5615
 31
0.0
  0
LINE
  5
39E
330
1E
100
AcDbEntity
  8
0
100
AcDbLine
 10
206.7645999999999
 20
658.7555
 30
0.0
 11
215.1635999999999
 21
635.2694999999999
 31
0.0
  0
LINE
  5
39F
330
1E
100
AcDbEntity
  8
0
100
AcDbLine
 10
196.8144999999999
 20
699.2095
 30
0.0
 11
199.7005
 21
695.4355
 31
0.0
  0
LINE
  5
3A0
330
1E
100
AcDbEntity
  8
0
100
AcDbLine
 10
197.1845
 20
699.5795000000001
 30
0.0
 11
200.1444999999999
 21
695.6575
 31
0.0
  0
LINE
  5
3A1
330
1E
100
AcDbEntity
  8
0
100
AcDbLine
 10
200.1444999999999
 20
677.3055
 30
0.0
 11
201.9204999999999
 21
681.7454999999999
 31
0.0
  0
LINE
  5
3A2
330
1E
100
AcDbEntity
  8
0
100
AcDbLine
 10
199.7005
 20
695.4355
 30
0.0
 11
201.4764999999999
 21
691.1434999999999
 31
0.0
  0
LINE
  5
3A3
330
1E
100
AcDbEntity
  8
0
100
AcDbLine
 10
201.4764999999999
 20
691.1434999999999
 30
0.0
 11
202.1425
 21
686.4815
 31
0.0
  0
LINE
  5
3A4
330
1E
100
AcDbEntity
  8
0
100
AcDbLine
 10
201.9204999999999
 20
691.2174999999999
 30
0.0
 11
202.5865
 21
686.4815
 31
0.0
  0
LINE
  5
3A5
330
1E
100
AcDbEntity
  8
0
100
AcDbLine
 10
200.1444999999999
 20
695.6575
 30
0.0
 11
201.9204999999999
 21
691.2174999999999
 31
0.0
  0
LINE
  5
3A6
330
1E
100
AcDbEntity
  8
0
100
AcDbLine
 10
201.4764999999999
 20
681.8194999999999
 30
0.0
 11
202.1425
 21
686.4815
 31
0.0
  0
LINE
  5
3A7
330
1E
100
AcDbEntity
  8
0
100
AcDbLine
 10
201.9204999999999
 20
681.7454999999999
 30
0.0
 11
202.5865
 21
686.4815
 31
0.0
  0
LINE
  5
3A8
330
1E
100
AcDbEntity
  8
0
100
AcDbLine
 10
199.7005
 20
677.5275
 30
0.0
 11
201.4764999999999
 21
681.8194999999999
 31
0.0
  0
LINE
  5
3A9
330
1E
100
AcDbEntity
  8
0
100
AcDbLine
 10
198.7082345119419
 20
676.2299220540779
 30
0.0
 11
199.7005
 21
677.5275
 31
0.0
  0
LINE
  5
3AA
330
1E
100
AcDbEntity
  8
0
100
AcDbLine
 10
198.9450602034909
 20
675.716242269626
 30
0.0
 11
206.7645999999999
 21
658.7555
 31
0.0
  0
LINE
  5
3AB
330
1E
100
AcDbEntity
  8
0
100
AcDbLine
 10
178.6154999999999
 20
704.3365
 30
0.0
 11
180.9395
 21
706.0375
 31
0.0
  0
LINE
  5
3AC
330
1E
100
AcDbEntity
  8
0
100
AcDbLine
 10
178.2345
 20
705.3785
 30
0.0
 11
180.7595
 21
707.2095
 31
0.0
  0
LINE
  5
3AD
330
1E
100
AcDbEntity
  8
0
100
AcDbLine
 10
180.9395
 20
706.0375
 30
0.0
 11
182.9925
 21
707.5395
 31
0.0
  0
LINE
  5
3AE
330
1E
100
AcDbEntity
  8
0
100
AcDbLine
 10
180.7595
 20
707.2095
 30
0.0
 11
182.9914999999999
 21
708.8275
 31
0.0
  0
LINE
  5
3AF
330
1E
100
AcDbEntity
  8
0
100
AcDbLine
 10
184.0864999999999
 20
704.5374999999999
 30
0.0
 11
188.7485
 21
703.8714999999999
 31
0.0
  0
LINE
  5
3B0
330
1E
100
AcDbEntity
  8
0
100
AcDbLine
 10
184.0864999999999
 20
704.9814999999999
 30
0.0
 11
188.8225
 21
704.3155
 31
0.0
  0
LINE
  5
3B1
330
1E
100
AcDbEntity
  8
0
100
AcDbLine
 10
183.3550999999999
 20
706.5834999999999
 30
0.0
 11
185.0004999999999
 21
707.5334999999999
 31
0.0
  0
LINE
  5
3B2
330
1E
100
AcDbEntity
  8
0
100
AcDbLine
 10
181.2766
 20
705.3835
 30
0.0
 11
183.3550999999999
 21
706.5834999999999
 31
0.0
  0
LINE
  5
3B3
330
1E
100
AcDbEntity
  8
0
100
AcDbLine
 10
179.45139928117
 20
704.329688961414
 30
0.0
 11
181.2766
 21
705.3835
 31
0.0
  0
LINE
  5
3B4
330
1E
100
AcDbEntity
  8
0
100
AcDbLine
 10
169.37553
 20
735.5534999999999
 30
0.0
 11
178.0424999999999
 21
723.1855
 31
0.0
  0
LINE
  5
3B5
330
1E
100
AcDbEntity
  8
0
100
AcDbLine
 10
173.0865
 20
974.4815
 30
0.0
 11
173.5864999999999
 21
974.9814999999999
 31
0.0
  0
LINE
  5
3B6
330
1E
100
AcDbEntity
  8
0
100
AcDbLine
 10
173.0865
 20
974.4815
 30
0.0
 11
173.0865
 21
730.25784569867
 31
0.0
  0
LINE
  5
3B7
330
1E
100
AcDbEntity
  8
0
100
AcDbLine
 10
173.0865
 20
974.4815
 30
0.0
 11
173.4865
 21
974.4815
 31
0.0
  0
LINE
  5
3B8
330
1E
100
AcDbEntity
  8
0
100
AcDbLine
 10
173.0865
 20
730.25784569867
 30
0.0
 11
173.0865
 21
974.4815
 31
0.0
  0
LINE
  5
3B9
330
1E
100
AcDbEntity
  8
0
100
AcDbLine
 10
173.4865
 20
974.4815
 30
0.0
 11
174.5865
 21
974.4815
 31
0.0
  0
LINE
  5
3BA
330
1E
100
AcDbEntity
  8
0
100
AcDbLine
 10
173.4865
 20
975.4815
 30
0.0
 11
174.5865
 21
975.4815
 31
0.0
  0
LINE
  5
3BB
330
1E
100
AcDbEntity
  8
0
100
AcDbLine
 10
174.5865
 20
974.4815
 30
0.0
 11
176.2864999999999
 21
974.4815
 31
0.0
  0
LINE
  5
3BC
330
1E
100
AcDbEntity
  8
0
100
AcDbLine
 10
173.5864999999999
 20
974.9814999999999
 30
0.0
 11
173.9864999999999
 21
974.9814999999999
 31
0.0
  0
LINE
  5
3BD
330
1E
100
AcDbEntity
  8
0
100
AcDbLine
 10
173.9864999999999
 20
974.9814999999999
 30
0.0
 11
174.9864999999999
 21
974.9814999999999
 31
0.0
  0
LINE
  5
3BE
330
1E
100
AcDbEntity
  8
0
100
AcDbLine
 10
176.2864999999999
 20
974.4815
 30
0.0
 11
178.5865
 21
974.4815
 31
0.0
  0
LINE
  5
3BF
330
1E
100
AcDbEntity
  8
0
100
AcDbLine
 10
174.9864999999999
 20
974.9814999999999
 30
0.0
 11
176.6864999999999
 21
974.9814999999999
 31
0.0
  0
LINE
  5
3C0
330
1E
100
AcDbEntity
  8
0
100
AcDbLine
 10
174.5865
 20
975.4815
 30
0.0
 11
176.2864999999999
 21
975.4815
 31
0.0
  0
LINE
  5
3C1
330
1E
100
AcDbEntity
  8
0
100
AcDbLine
 10
176.2864999999999
 20
975.4815
 30
0.0
 11
178.5865
 21
975.4815
 31
0.0
  0
LINE
  5
3C2
330
1E
100
AcDbEntity
  8
0
100
AcDbLine
 10
173.4865
 20
1026.4815
 30
0.0
 11
174.5865
 21
1026.4815
 31
0.0
  0
LINE
  5
3C3
330
1E
100
AcDbEntity
  8
0
100
AcDbLine
 10
174.5865
 20
1026.4815
 30
0.0
 11
176.2864999999999
 21
1026.4815
 31
0.0
  0
LINE
  5
3C4
330
1E
100
AcDbEntity
  8
0
100
AcDbLine
 10
178.0424999999999
 20
723.1855
 30
0.0
 11
186.0645
 21
711.0565
 31
0.0
  0
LINE
  5
3C5
330
1E
100
AcDbEntity
  8
0
100
AcDbLine
 10
178.5865
 20
974.4815
 30
0.0
 11
181.2865
 21
974.4815
 31
0.0
  0
LINE
  5
3C6
330
1E
100
AcDbEntity
  8
0
100
AcDbLine
 10
176.6864999999999
 20
974.9814999999999
 30
0.0
 11
178.8865
 21
974.9814999999999
 31
0.0
  0
LINE
  5
3C7
330
1E
100
AcDbEntity
  8
0
100
AcDbLine
 10
181.2865
 20
974.4815
 30
0.0
 11
184.0864999999999
 21
974.4815
 31
0.0
  0
LINE
  5
3C8
330
1E
100
AcDbEntity
  8
0
100
AcDbLine
 10
178.8865
 20
974.9814999999999
 30
0.0
 11
181.3865
 21
974.9814999999999
 31
0.0
  0
LINE
  5
3C9
330
1E
100
AcDbEntity
  8
0
100
AcDbLine
 10
178.5865
 20
975.4815
 30
0.0
 11
181.2865
 21
975.4815
 31
0.0
  0
LINE
  5
3CA
330
1E
100
AcDbEntity
  8
0
100
AcDbLine
 10
181.2865
 20
975.4815
 30
0.0
 11
184.0864999999999
 21
975.4815
 31
0.0
  0
LINE
  5
3CB
330
1E
100
AcDbEntity
  8
0
100
AcDbLine
 10
176.2864999999999
 20
1026.4815
 30
0.0
 11
178.5865
 21
1026.4815
 31
0.0
  0
LINE
  5
3CC
330
1E
100
AcDbEntity
  8
0
100
AcDbLine
 10
178.5865
 20
1026.4815
 30
0.0
 11
181.2865
 21
1026.4815
 31
0.0
  0
LINE
  5
3CD
330
1E
100
AcDbEntity
  8
0
100
AcDbLine
 10
182.9925
 20
707.5395
 30
0.0
 11
184.5415
 21
708.6735
 31
0.0
  0
LINE
  5
3CE
330
1E
100
AcDbEntity
  8
0
100
AcDbLine
 10
182.9914999999999
 20
708.8275
 30
0.0
 11
184.6745
 21
710.0484999999999
 31
0.0
  0
LINE
  5
3CF
330
1E
100
AcDbEntity
  8
0
100
AcDbLine
 10
184.0864999999999
 20
974.4815
 30
0.0
 11
186.8865
 21
974.4815
 31
0.0
  0
LINE
  5
3D0
330
1E
100
AcDbEntity
  8
0
100
AcDbLine
 10
181.3865
 20
974.9814999999999
 30
0.0
 11
184.0864999999999
 21
974.9814999999999
 31
0.0
  0
LINE
  5
3D1
330
1E
100
AcDbEntity
  8
0
100
AcDbLine
 10
184.5415
 20
708.6735
 30
0.0
 11
185.4714999999999
 21
709.3545
 31
0.0
  0
LINE
  5
3D2
330
1E
100
AcDbEntity
  8
0
100
AcDbLine
 10
184.6745
 20
710.0484999999999
 30
0.0
 11
185.6854999999999
 21
710.7815
 31
0.0
  0
LINE
  5
3D3
330
1E
100
AcDbEntity
  8
0
100
AcDbLine
 10
185.6854999999999
 20
710.7815
 30
0.0
 11
186.0645
 21
711.0565
 31
0.0
  0
LINE
  5
3D4
330
1E
100
AcDbEntity
  8
0
100
AcDbLine
 10
185.4714999999999
 20
709.3545
 30
0.0
 11
185.8195
 21
709.6095
 31
0.0
  0
LINE
  5
3D5
330
1E
100
AcDbEntity
  8
0
100
AcDbLine
 10
185.8195
 20
709.6095
 30
0.0
 11
186.0645
 21
711.0565
 31
0.0
  0
LINE
  5
3D6
330
1E
100
AcDbEntity
  8
0
100
AcDbLine
 10
184.198777943224
 20
708.4225982489461
 30
0.0
 11
184.8729014160179
 21
707.4598287621349
 31
0.0
  0
LINE
  5
3D7
330
1E
100
AcDbEntity
  8
0
100
AcDbLine
 10
184.198777943224
 20
708.4225982489461
 30
0.0
 11
184.5415
 21
708.6735
 31
0.0
  0
LINE
  5
3D8
330
1E
100
AcDbEntity
  8
0
100
AcDbLine
 10
184.0864999999999
 20
974.9814999999999
 30
0.0
 11
245.5865
 21
974.9814999999999
 31
0.0
  0
LINE
  5
3D9
330
1E
100
AcDbEntity
  8
0
100
AcDbLine
 10
184.0864999999999
 20
974.9814999999999
 30
0.0
 11
186.7864999999999
 21
974.9814999999999
 31
0.0
  0
LINE
  5
3DA
330
1E
100
AcDbEntity
  8
0
100
AcDbLine
 10
184.0864999999999
 20
975.4815
 30
0.0
 11
246.0865
 21
975.4815
 31
0.0
  0
LINE
  5
3DB
330
1E
100
AcDbEntity
  8
0
100
AcDbLine
 10
181.2865
 20
1026.4815
 30
0.0
 11
184.0864999999999
 21
1026.4815
 31
0.0
  0
LINE
  5
3DC
330
1E
100
AcDbEntity
  8
0
100
AcDbLine
 10
184.0864999999999
 20
1026.4815
 30
0.0
 11
246.0865
 21
1026.4815
 31
0.0
  0
LINE
  5
3DD
330
1E
100
AcDbEntity
  8
0
100
AcDbLine
 10
173.0865
 20
975.4815
 30
0.0
 11
173.0865
 21
1026.4815
 31
0.0
  0
LINE
  5
3DE
330
1E
100
AcDbEntity
  8
0
100
AcDbLine
 10
173.0865
 20
975.4815
 30
0.0
 11
173.5864999999999
 21
974.9814999999999
 31
0.0
  0
LINE
  5
3DF
330
1E
100
AcDbEntity
  8
0
100
AcDbLine
 10
173.0865
 20
975.4815
 30
0.0
 11
173.4865
 21
975.4815
 31
0.0
  0
LINE
  5
3E0
330
1E
100
AcDbEntity
  8
0
100
AcDbLine
 10
173.5864999999999
 20
1026.9815
 30
0.0
 11
173.9864999999999
 21
1026.9815
 31
0.0
  0
LINE
  5
3E1
330
1E
100
AcDbEntity
  8
0
100
AcDbLine
 10
173.9864999999999
 20
1026.9815
 30
0.0
 11
174.9864999999999
 21
1026.9815
 31
0.0
  0
LINE
  5
3E2
330
1E
100
AcDbEntity
  8
0
100
AcDbLine
 10
174.9864999999999
 20
1026.9815
 30
0.0
 11
176.6864999999999
 21
1026.9815
 31
0.0
  0
LINE
  5
3E3
330
1E
100
AcDbEntity
  8
0
100
AcDbLine
 10
176.6864999999999
 20
1026.9815
 30
0.0
 11
178.8865
 21
1026.9815
 31
0.0
  0
LINE
  5
3E4
330
1E
100
AcDbEntity
  8
0
100
AcDbLine
 10
178.8865
 20
1026.9815
 30
0.0
 11
181.3865
 21
1026.9815
 31
0.0
  0
LINE
  5
3E5
330
1E
100
AcDbEntity
  8
0
100
AcDbLine
 10
181.3865
 20
1026.9815
 30
0.0
 11
184.0864999999999
 21
1026.9815
 31
0.0
  0
LINE
  5
3E6
330
1E
100
AcDbEntity
  8
0
100
AcDbLine
 10
184.0864999999999
 20
1026.9815
 30
0.0
 11
245.5865
 21
1026.9815
 31
0.0
  0
LINE
  5
3E7
330
1E
100
AcDbEntity
  8
0
100
AcDbLine
 10
173.0865
 20
1026.4815
 30
0.0
 11
173.5864999999999
 21
1026.9815
 31
0.0
  0
LINE
  5
3E8
330
1E
100
AcDbEntity
  8
0
100
AcDbLine
 10
173.0865
 20
1026.4815
 30
0.0
 11
173.4865
 21
1026.4815
 31
0.0
  0
LINE
  5
3E9
330
1E
100
AcDbEntity
  8
0
100
AcDbLine
 10
186.7864999999999
 20
974.9814999999999
 30
0.0
 11
189.2865
 21
974.9814999999999
 31
0.0
  0
LINE
  5
3EA
330
1E
100
AcDbEntity
  8
0
100
AcDbLine
 10
194.6865
 20
974.4815
 30
0.0
 11
195.0865
 21
974.4815
 31
0.0
  0
LINE
  5
3EB
330
1E
100
AcDbEntity
  8
0
100
AcDbLine
 10
193.5864999999999
 20
974.4815
 30
0.0
 11
194.6865
 21
974.4815
 31
0.0
  0
LINE
  5
3EC
330
1E
100
AcDbEntity
  8
0
100
AcDbLine
 10
191.8865
 20
974.4815
 30
0.0
 11
193.5864999999999
 21
974.4815
 31
0.0
  0
LINE
  5
3ED
330
1E
100
AcDbEntity
  8
0
100
AcDbLine
 10
194.1864999999999
 20
974.9814999999999
 30
0.0
 11
194.5864999999999
 21
974.9814999999999
 31
0.0
  0
LINE
  5
3EE
330
1E
100
AcDbEntity
  8
0
100
AcDbLine
 10
193.1864999999999
 20
974.9814999999999
 30
0.0
 11
194.1864999999999
 21
974.9814999999999
 31
0.0
  0
LINE
  5
3EF
330
1E
100
AcDbEntity
  8
0
100
AcDbLine
 10
191.4864999999999
 20
974.9814999999999
 30
0.0
 11
193.1864999999999
 21
974.9814999999999
 31
0.0
  0
LINE
  5
3F0
330
1E
100
AcDbEntity
  8
0
100
AcDbLine
 10
189.2865
 20
974.9814999999999
 30
0.0
 11
191.4864999999999
 21
974.9814999999999
 31
0.0
  0
LINE
  5
3F1
330
1E
100
AcDbEntity
  8
0
100
AcDbLine
 10
189.5865
 20
974.4815
 30
0.0
 11
191.8865
 21
974.4815
 31
0.0
  0
LINE
  5
3F2
330
1E
100
AcDbEntity
  8
0
100
AcDbLine
 10
186.8865
 20
974.4815
 30
0.0
 11
189.5865
 21
974.4815
 31
0.0
  0
LINE
  5
3F3
330
1E
100
AcDbEntity
  8
0
100
AcDbLine
 10
245.5865
 20
1026.9815
 30
0.0
 11
246.0865
 21
1026.4815
 31
0.0
  0
LINE
  5
3F4
330
1E
100
AcDbEntity
  8
0
100
AcDbLine
 10
194.5864999999999
 20
974.9814999999999
 30
0.0
 11
245.5865
 21
974.9814999999999
 31
0.0
  0
LINE
  5
3F5
330
1E
100
AcDbEntity
  8
0
100
AcDbLine
 10
194.5864999999999
 20
974.9814999999999
 30
0.0
 11
195.0865
 21
974.4815
 31
0.0
  0
LINE
  5
3F6
330
1E
100
AcDbEntity
  8
0
100
AcDbLine
 10
246.0865
 20
975.4815
 30
0.0
 11
246.0865
 21
1026.4815
 31
0.0
  0
LINE
  5
3F7
330
1E
100
AcDbEntity
  8
0
100
AcDbLine
 10
245.5865
 20
974.9814999999999
 30
0.0
 11
246.0865
 21
975.4815
 31
0.0
  0
LINE
  5
3F8
330
1E
100
AcDbEntity
  8
0
100
AcDbLine
 10
186.2996
 20
708.2835
 30
0.0
 11
188.2953953070719
 21
704.3896240974429
 31
0.0
  0
LINE
  5
3F9
330
1E
100
AcDbEntity
  8
0
100
AcDbLine
 10
185.9532
 20
708.0834999999999
 30
0.0
 11
186.2996
 21
708.2835
 31
0.0
  0
LINE
  5
3FA
330
1E
100
AcDbEntity
  8
0
100
AcDbLine
 10
185.0004999999999
 20
707.5334999999999
 30
0.0
 11
185.9532
 21
708.0834999999999
 31
0.0
  0
LINE
  5
3FB
330
1E
100
AcDbEntity
  8
0
100
AcDbLine
 10
166.974640895169
 20
695.864517621065
 30
0.0
 11
167.676631987623
 21
694.777829969057
 31
0.0
  0
ENDSEC
  0
SECTION
  2
OBJECTS
  0
DICTIONARY
  5
C
330
0
100
AcDbDictionary
281
     1
  3
ACAD_GROUP
350
D
  3
ACAD_LAYOUT
350
19
  3
ACAD_MLINESTYLE
350
16
  3
ACAD_PLOTSETTINGS
350
18
  3
ACAD_PLOTSTYLENAME
350
E
  3
AcDbVariableDictionary
350
400
  0
DICTIONARY
  5
D
102
{ACAD_REACTORS
330
C
102
}
330
C
100
AcDbDictionary
281
     1
  0
DICTIONARY
  5
19
102
{ACAD_REACTORS
330
C
102
}
330
C
100
AcDbDictionary
281
     1
  3
Layout1
350
1D
  3
Model
350
21
  0
DICTIONARY
  5
16
102
{ACAD_REACTORS
330
C
102
}
330
C
100
AcDbDictionary
281
     1
  3
Standard
350
17
  0
DICTIONARY
  5
18
102
{ACAD_REACTORS
330
C
102
}
330
C
100
AcDbDictionary
281
     1
  0
ACDBDICTIONARYWDFLT
  5
E
102
{ACAD_REACTORS
330
C
102
}
330
C
100
AcDbDictionary
281
     1
  3
Normal
350
F
100
AcDbDictionaryWithDefault
340
F
  0
DICTIONARY
  5
400
102
{ACAD_REACTORS
330
C
102
}
330
C
100
AcDbDictionary
281
     1
  3
DIMASSOC
350
401
  0
LAYOUT
  5
1D
102
{ACAD_REACTORS
330
19
102
}
330
19
100
AcDbPlotSettings
  1

  2
hp deskjet 980c series
  4

  6

 40
0.0
 41
0.0
 42
0.0
 43
0.0
 44
0.0
 45
0.0
 46
0.0
 47
0.0
 48
0.0
 49
0.0
140
0.0
141
0.0
142
1.0
143
1.0
 70
   688
 72
     0
 73
     0
 74
     5
  7

 75
    16
147
1.0
148
0.0
149
0.0
100
AcDbLayout
  1
Layout1
 70
     1
 71
     1
 10
0.0
 20
0.0
 11
12.0
 21
9.0
 12
0.0
 22
0.0
 32
0.0
 14
1.000000000000000E+20
 24
1.000000000000000E+20
 34
1.000000000000000E+20
 15
-1.000000000000000E+20
 25
-1.000000000000000E+20
 35
-1.000000000000000E+20
146
0.0
 13
0.0
 23
0.0
 33
0.0
 16
1.0
 26
0.0
 36
0.0
 17
0.0
 27
1.0
 37
0.0
 76
     0
330
1A
  0
LAYOUT
  5
21
102
{ACAD_REACTORS
330
19
102
}
330
19
100
AcDbPlotSettings
  1

  2
hp deskjet 980c series
  4

  6

 40
0.0
 41
0.0
 42
0.0
 43
0.0
 44
0.0
 45
0.0
 46
0.0
 47
0.0
 48
0.0
 49
0.0
140
0.0
141
0.0
142
1.0
143
1.0
 70
  1712
 72
     0
 73
     0
 74
     0
  7

 75
     0
147
1.0
148
0.0
149
0.0
100
AcDbLayout
  1
Model
 70
     1
 71
     0
 10
0.0
 20
0.0
 11
12.0
 21
9.0
 12
0.0
 22
0.0
 32
0.0
 14
0.0
 24
0.0
 34
0.0
 15
0.0
 25
0.0
 35
0.0
146
0.0
 13
0.0
 23
0.0
 33
0.0
 16
1.0
 26
0.0
 36
0.0
 17
0.0
 27
1.0
 37
0.0
 76
     0
330
1E
  0
MLINESTYLE
  5
17
102
{ACAD_REACTORS
330
16
102
}
330
16
100
AcDbMlineStyle
  2
STANDARD
 70
     0
  3

 62
   256
 51
90.0
 52
90.0
 71
     2
 49
0.5
 62
   256
  6
BYLAYER
 49
-0.5
 62
   256
  6
BYLAYER
  0
ACDBPLACEHOLDER
  5
F
102
{ACAD_REACTORS
330
E
102
}
330
E
  0
DICTIONARYVAR
  5
401
102
{ACAD_REACTORS
330
400
102
}
330
400
100
DictionaryVariables
280
     0
  1
1
  0
ENDSEC
  0
EOF
