  0
SECTION
  2
HEADER
  9
$ACADVER
  1
AC1015
  9
$ACADMAINTVER
 70
    13
  9
$DWGCODEPAGE
  3
ANSI_1252
  9
$INSBASE
 10
0.0
 20
0.0
 30
0.0
  9
$EXTMIN
 10
0.231765000000005
 20
0.0184999999999689
 30
0.0
  9
$EXTMAX
 10
124.768235
 20
1026.9815
 30
0.0
  9
$LIMMIN
 10
0.0
 20
0.0
  9
$LIMMAX
 10
12.0
 20
9.0
  9
$ORTHOMODE
 70
     0
  9
$REGENMODE
 70
     1
  9
$FILLMODE
 70
     1
  9
$QTEXTMODE
 70
     0
  9
$MIRRTEXT
 70
     1
  9
$LTSCALE
 40
1.0
  9
$ATTMODE
 70
     1
  9
$TEXTSIZE
 40
0.2
  9
$TRACEWID
 40
0.05
  9
$TEXTSTYLE
  7
Standard
  9
$CLAYER
  8
0
  9
$CELTYPE
  6
Continuous
  9
$CECOLOR
 62
   256
  9
$CELTSCALE
 40
1.0
  9
$DISPSILH
 70
     0
  9
$DIMSCALE
 40
1.0
  9
$DIMASZ
 40
0.18
  9
$DIMEXO
 40
0.0625
  9
$DIMDLI
 40
0.38
  9
$DIMRND
 40
0.0
  9
$DIMDLE
 40
0.0
  9
$DIMEXE
 40
0.18
  9
$DIMTP
 40
0.0
  9
$DIMTM
 40
0.0
  9
$DIMTXT
 40
0.18
  9
$DIMCEN
 40
0.09
  9
$DIMTSZ
 40
0.0
  9
$DIMTOL
 70
     0
  9
$DIMLIM
 70
     0
  9
$DIMTIH
 70
     1
  9
$DIMTOH
 70
     1
  9
$DIMSE1
 70
     0
  9
$DIMSE2
 70
     0
  9
$DIMTAD
 70
     0
  9
$DIMZIN
 70
     0
  9
$DIMBLK
  1

  9
$DIMASO
 70
     1
  9
$DIMSHO
 70
     1
  9
$DIMPOST
  1

  9
$DIMAPOST
  1

  9
$DIMALT
 70
     0
  9
$DIMALTD
 70
     2
  9
$DIMALTF
 40
25.4
  9
$DIMLFAC
 40
1.0
  9
$DIMTOFL
 70
     0
  9
$DIMTVP
 40
0.0
  9
$DIMTIX
 70
     0
  9
$DIMSOXD
 70
     0
  9
$DIMSAH
 70
     0
  9
$DIMBLK1
  1

  9
$DIMBLK2
  1

  9
$DIMSTYLE
  2
Standard
  9
$DIMCLRD
 70
     0
  9
$DIMCLRE
 70
     0
  9
$DIMCLRT
 70
     0
  9
$DIMTFAC
 40
1.0
  9
$DIMGAP
 40
0.09
  9
$DIMJUST
 70
     0
  9
$DIMSD1
 70
     0
  9
$DIMSD2
 70
     0
  9
$DIMTOLJ
 70
     1
  9
$DIMTZIN
 70
     0
  9
$DIMALTZ
 70
     0
  9
$DIMALTTZ
 70
     0
  9
$DIMUPT
 70
     0
  9
$DIMDEC
 70
     4
  9
$DIMTDEC
 70
     4
  9
$DIMALTU
 70
     2
  9
$DIMALTTD
 70
     2
  9
$DIMTXSTY
  7
Standard
  9
$DIMAUNIT
 70
     0
  9
$DIMADEC
 70
     0
  9
$DIMALTRND
 40
0.0
  9
$DIMAZIN
 70
     0
  9
$DIMDSEP
 70
    46
  9
$DIMATFIT
 70
     3
  9
$DIMFRAC
 70
     0
  9
$DIMLDRBLK
  1

  9
$DIMLUNIT
 70
     2
  9
$DIMLWD
 70
    -2
  9
$DIMLWE
 70
    -2
  9
$DIMTMOVE
 70
     0
  9
$LUNITS
 70
     2
  9
$LUPREC
 70
     4
  9
$SKETCHINC
 40
0.1
  9
$FILLETRAD
 40
0.0
  9
$AUNITS
 70
     0
  9
$AUPREC
 70
     0
  9
$MENU
  1
.
  9
$ELEVATION
 40
0.0
  9
$PELEVATION
 40
0.0
  9
$THICKNESS
 40
0.0
  9
$LIMCHECK
 70
     0
  9
$CHAMFERA
 40
0.0
  9
$CHAMFERB
 40
0.0
  9
$CHAMFERC
 40
0.0
  9
$CHAMFERD
 40
0.0
  9
$SKPOLY
 70
     0
  9
$TDCREATE
 40
2454833.617009907
  9
$TDUCREATE
 40
2454833.575343240
  9
$TDUPDATE
 40
2454833.625713785
  9
$TDUUPDATE
 40
2454833.584047118
  9
$TDINDWG
 40
0.0087038773
  9
$TDUSRTIMER
 40
0.0087038773
  9
$USRTIMER
 70
     1
  9
$ANGBASE
 50
0.0
  9
$ANGDIR
 70
     0
  9
$PDMODE
 70
     0
  9
$PDSIZE
 40
0.0
  9
$PLINEWID
 40
0.0
  9
$SPLFRAME
 70
     0
  9
$SPLINETYPE
 70
     6
  9
$SPLINESEGS
 70
     8
  9
$HANDSEED
  5
620
  9
$SURFTAB1
 70
     6
  9
$SURFTAB2
 70
     6
  9
$SURFTYPE
 70
     6
  9
$SURFU
 70
     6
  9
$SURFV
 70
     6
  9
$UCSBASE
  2

  9
$UCSNAME
  2

  9
$UCSORG
 10
0.0
 20
0.0
 30
0.0
  9
$UCSXDIR
 10
1.0
 20
0.0
 30
0.0
  9
$UCSYDIR
 10
0.0
 20
1.0
 30
0.0
  9
$UCSORTHOREF
  2

  9
$UCSORTHOVIEW
 70
     1
  9
$UCSORGTOP
 10
0.0
 20
0.0
 30
0.0
  9
$UCSORGBOTTOM
 10
0.0
 20
0.0
 30
0.0
  9
$UCSORGLEFT
 10
0.0
 20
0.0
 30
0.0
  9
$UCSORGRIGHT
 10
0.0
 20
0.0
 30
0.0
  9
$UCSORGFRONT
 10
0.0
 20
0.0
 30
0.0
  9
$UCSORGBACK
 10
0.0
 20
0.0
 30
0.0
  9
$PUCSBASE
  2

  9
$PUCSNAME
  2

  9
$PUCSORG
 10
0.0
 20
0.0
 30
0.0
  9
$PUCSXDIR
 10
1.0
 20
0.0
 30
0.0
  9
$PUCSYDIR
 10
0.0
 20
1.0
 30
0.0
  9
$PUCSORTHOREF
  2

  9
$PUCSORTHOVIEW
 70
     0
  9
$PUCSORGTOP
 10
0.0
 20
0.0
 30
0.0
  9
$PUCSORGBOTTOM
 10
0.0
 20
0.0
 30
0.0
  9
$PUCSORGLEFT
 10
0.0
 20
0.0
 30
0.0
  9
$PUCSORGRIGHT
 10
0.0
 20
0.0
 30
0.0
  9
$PUCSORGFRONT
 10
0.0
 20
0.0
 30
0.0
  9
$PUCSORGBACK
 10
0.0
 20
0.0
 30
0.0
  9
$USERI1
 70
     0
  9
$USERI2
 70
     0
  9
$USERI3
 70
     0
  9
$USERI4
 70
     0
  9
$USERI5
 70
     0
  9
$USERR1
 40
0.0
  9
$USERR2
 40
0.0
  9
$USERR3
 40
0.0
  9
$USERR4
 40
0.0
  9
$USERR5
 40
0.0
  9
$WORLDVIEW
 70
     1
  9
$SHADEDGE
 70
     3
  9
$SHADEDIF
 70
    70
  9
$TILEMODE
 70
     1
  9
$MAXACTVP
 70
    64
  9
$PINSBASE
 10
0.0
 20
0.0
 30
0.0
  9
$PLIMCHECK
 70
     0
  9
$PEXTMIN
 10
1.000000000000000E+20
 20
1.000000000000000E+20
 30
1.000000000000000E+20
  9
$PEXTMAX
 10
-1.000000000000000E+20
 20
-1.000000000000000E+20
 30
-1.000000000000000E+20
  9
$PLIMMIN
 10
0.0
 20
0.0
  9
$PLIMMAX
 10
12.0
 20
9.0
  9
$UNITMODE
 70
     0
  9
$VISRETAIN
 70
     1
  9
$PLINEGEN
 70
     0
  9
$PSLTSCALE
 70
     1
  9
$TREEDEPTH
 70
  3020
  9
$CMLSTYLE
  2
Standard
  9
$CMLJUST
 70
     0
  9
$CMLSCALE
 40
1.0
  9
$PROXYGRAPHICS
 70
     1
  9
$MEASUREMENT
 70
     0
  9
$CELWEIGHT
370
    -1
  9
$ENDCAPS
280
     0
  9
$JOINSTYLE
280
     0
  9
$LWDISPLAY
290
     0
  9
$INSUNITS
 70
     0
  9
$HYPERLINKBASE
  1

  9
$STYLESHEET
  1

  9
$XEDIT
290
     1
  9
$CEPSNTYPE
380
     0
  9
$PSTYLEMODE
290
     1
  9
$FINGERPRINTGUID
  2
{2E48E0B7-9A2D-434E-975A-B54E820FE0A4}
  9
$VERSIONGUID
  2
{B4CEE42F-74D2-457A-9FDD-F10BAAEA8FF1}
  9
$EXTNAMES
290
     1
  9
$PSVPSCALE
 40
0.0
  9
$OLESTARTUP
290
     0
  0
ENDSEC
  0
SECTION
  2
CLASSES
  0
CLASS
  1
ACDBDICTIONARYWDFLT
  2
AcDbDictionaryWithDefault
  3
AutoCAD 2000
 90
        0
280
     0
281
     0
  0
CLASS
  1
ACDBPLACEHOLDER
  2
AcDbPlaceHolder
  3
AutoCAD 2000
 90
        0
280
     0
281
     0
  0
CLASS
  1
LAYOUT
  2
AcDbLayout
  3
AutoCAD 2000
 90
        0
280
     0
281
     0
  0
CLASS
  1
DICTIONARYVAR
  2
AcDbDictionaryVar
  3
AutoCAD 2000
 90
        0
280
     0
281
     0
  0
ENDSEC
  0
SECTION
  2
TABLES
  0
TABLE
  2
VPORT
  5
8
330
0
100
AcDbSymbolTable
 70
     2
  0
VPORT
  5
61F
330
8
100
AcDbSymbolTableRecord
100
AcDbViewportTableRecord
  2
*Active
 70
     0
 10
0.0
 20
0.0
 11
1.0
 21
1.0
 12
62.5
 22
513.5000000000001
 13
0.0
 23
0.0
 14
1.0
 24
1.0
 15
0.0
 25
0.0
 16
0.0
 26
0.0
 36
1.0
 17
0.0
 27
0.0
 37
0.0
 40
1034.842511508951
 41
2.078104993597951
 42
50.0
 43
0.0
 44
0.0
 50
0.0
 51
0.0
 71
     0
 72
   100
 73
     1
 74
     3
 75
     0
 76
     0
 77
     0
 78
     0
281
     0
 65
     1
110
0.0
120
0.0
130
0.0
111
1.0
121
0.0
131
0.0
112
0.0
122
1.0
132
0.0
 79
     1
146
0.0
  0
ENDTAB
  0
TABLE
  2
LTYPE
  5
5
330
0
100
AcDbSymbolTable
 70
     1
  0
LTYPE
  5
13
330
5
100
AcDbSymbolTableRecord
100
AcDbLinetypeTableRecord
  2
ByBlock
 70
     0
  3

 72
    65
 73
     0
 40
0.0
  0
LTYPE
  5
14
330
5
100
AcDbSymbolTableRecord
100
AcDbLinetypeTableRecord
  2
ByLayer
 70
     0
  3

 72
    65
 73
     0
 40
0.0
  0
LTYPE
  5
15
330
5
100
AcDbSymbolTableRecord
100
AcDbLinetypeTableRecord
  2
Continuous
 70
     0
  3
Solid line
 72
    65
 73
     0
 40
0.0
  0
ENDTAB
  0
TABLE
  2
LAYER
  5
2
330
0
100
AcDbSymbolTable
 70
     1
  0
LAYER
  5
10
330
2
100
AcDbSymbolTableRecord
100
AcDbLayerTableRecord
  2
0
 70
     0
 62
     7
  6
Continuous
370
    -3
390
F
  0
ENDTAB
  0
TABLE
  2
STYLE
  5
3
330
0
100
AcDbSymbolTable
 70
     1
  0
STYLE
  5
11
330
3
100
AcDbSymbolTableRecord
100
AcDbTextStyleTableRecord
  2
Standard
 70
     0
 40
0.0
 41
1.0
 50
0.0
 71
     0
 42
0.2
  3
txt
  4

  0
ENDTAB
  0
TABLE
  2
VIEW
  5
6
330
0
100
AcDbSymbolTable
 70
     0
  0
ENDTAB
  0
TABLE
  2
UCS
  5
7
330
0
100
AcDbSymbolTable
 70
     0
  0
ENDTAB
  0
TABLE
  2
APPID
  5
9
330
0
100
AcDbSymbolTable
 70
     1
  0
APPID
  5
12
330
9
100
AcDbSymbolTableRecord
100
AcDbRegAppTableRecord
  2
ACAD
 70
     0
  0
ENDTAB
  0
TABLE
  2
DIMSTYLE
  5
A
330
0
100
AcDbSymbolTable
 70
     1
100
AcDbDimStyleTable
 71
     0
  0
DIMSTYLE
105
614
330
A
100
AcDbSymbolTableRecord
100
AcDbDimStyleTableRecord
  2
Standard
 70
     0
340
11
  0
ENDTAB
  0
TABLE
  2
BLOCK_RECORD
  5
1
330
0
100
AcDbSymbolTable
 70
     0
  0
BLOCK_RECORD
  5
1E
330
1
100
AcDbSymbolTableRecord
100
AcDbBlockTableRecord
  2
*Model_Space
340
21
  0
BLOCK_RECORD
  5
1A
330
1
100
AcDbSymbolTableRecord
100
AcDbBlockTableRecord
  2
*Paper_Space
340
1D
  0
ENDTAB
  0
ENDSEC
  0
SECTION
  2
BLOCKS
  0
BLOCK
  5
1F
330
1E
100
AcDbEntity
  8
0
100
AcDbBlockBegin
  2
*Model_Space
 70
     0
 10
0.0
 20
0.0
 30
0.0
  3
*Model_Space
  1

  0
ENDBLK
  5
20
330
1E
100
AcDbEntity
  8
0
100
AcDbBlockEnd
  0
BLOCK
  5
1B
330
1A
100
AcDbEntity
 67
     1
  8
0
100
AcDbBlockBegin
  2
*Paper_Space
 70
     0
 10
0.0
 20
0.0
 30
0.0
  3
*Paper_Space
  1

  0
ENDBLK
  5
1C
330
1A
100
AcDbEntity
 67
     1
  8
0
100
AcDbBlockEnd
  0
ENDSEC
  0
SECTION
  2
ENTITIES
  0
LINE
  5
22
330
1E
100
AcDbEntity
  8
0
100
AcDbLine
 10
0.333245000000005
 20
714.6224999999999
 30
0.0
 11
0.6038750000000059
 21
714.7215
 31
0.0
  0
LINE
  5
23
330
1E
100
AcDbEntity
  8
0
100
AcDbLine
 10
0.231765000000005
 20
714.5855
 30
0.0
 11
0.369315000000006
 21
713.9974999999999
 31
0.0
  0
LINE
  5
24
330
1E
100
AcDbEntity
  8
0
100
AcDbLine
 10
0.231765000000005
 20
714.5855
 30
0.0
 11
0.333245000000005
 21
714.6224999999999
 31
0.0
  0
LINE
  5
25
330
1E
100
AcDbEntity
  8
0
100
AcDbLine
 10
0.6038750000000059
 20
714.7215
 30
0.0
 11
1.043655000000009
 21
714.8814999999999
 31
0.0
  0
LINE
  5
26
330
1E
100
AcDbEntity
  8
0
100
AcDbLine
 10
2.272775000000009
 20
715.3284999999999
 30
0.0
 11
2.983185000000009
 21
715.5874999999999
 31
0.0
  0
LINE
  5
27
330
1E
100
AcDbEntity
  8
0
100
AcDbLine
 10
1.61874500000001
 20
715.0905
 30
0.0
 11
2.272775000000009
 21
715.3284999999999
 31
0.0
  0
LINE
  5
28
330
1E
100
AcDbEntity
  8
0
100
AcDbLine
 10
1.043655000000009
 20
714.8814999999999
 30
0.0
 11
1.61874500000001
 21
715.0905
 31
0.0
  0
LINE
  5
29
330
1E
100
AcDbEntity
  8
0
100
AcDbLine
 10
0.369315000000006
 20
713.9974999999999
 30
0.0
 11
6.078235000000009
 21
698.311899350412
 31
0.0
  0
LINE
  5
2A
330
1E
100
AcDbEntity
  8
0
100
AcDbLine
 10
2.983185000000009
 20
715.5874999999999
 30
0.0
 11
3.693595000000009
 21
715.8455
 31
0.0
  0
LINE
  5
2B
330
1E
100
AcDbEntity
  8
0
100
AcDbLine
 10
3.693595000000009
 20
715.8455
 30
0.0
 11
4.347615000000009
 21
716.0834999999999
 31
0.0
  0
LINE
  5
2C
330
1E
100
AcDbEntity
  8
0
100
AcDbLine
 10
4.347615000000009
 20
716.0834999999999
 30
0.0
 11
4.922705000000009
 21
716.2935
 31
0.0
  0
LINE
  5
2D
330
1E
100
AcDbEntity
  8
0
100
AcDbLine
 10
5.362485000000009
 20
716.4534999999999
 30
0.0
 11
5.633115000000009
 21
716.5515
 31
0.0
  0
LINE
  5
2E
330
1E
100
AcDbEntity
  8
0
100
AcDbLine
 10
4.922705000000009
 20
716.2935
 30
0.0
 11
5.362485000000009
 21
716.4534999999999
 31
0.0
  0
LINE
  5
2F
330
1E
100
AcDbEntity
  8
0
100
AcDbLine
 10
5.734605000000009
 20
716.5884999999999
 30
0.0
 11
6.007475000000009
 21
716.0495
 31
0.0
  0
LINE
  5
30
330
1E
100
AcDbEntity
  8
0
100
AcDbLine
 10
5.633115000000009
 20
716.5515
 30
0.0
 11
5.734605000000009
 21
716.5884999999999
 31
0.0
  0
LINE
  5
31
330
1E
100
AcDbEntity
  8
0
100
AcDbLine
 10
73.567035
 20
0.0184999999999689
 30
0.0
 11
74.45283499999999
 21
525.3645
 31
0.0
  0
LINE
  5
32
330
1E
100
AcDbEntity
  8
0
100
AcDbLine
 10
73.567035
 20
0.0184999999999974
 30
0.0
 11
74.45283499999999
 21
525.3645
 31
0.0
  0
LINE
  5
33
330
1E
100
AcDbEntity
  8
0
100
AcDbLine
 10
73.567035
 20
0.0184999999999974
 30
0.0
 11
73.830135
 21
0.1475
 31
0.0
  0
LINE
  5
34
330
1E
100
AcDbEntity
  8
0
100
AcDbLine
 10
41.478235
 20
68.4815
 30
0.0
 11
42.57823499999999
 21
68.4815
 31
0.0
  0
LINE
  5
35
330
1E
100
AcDbEntity
  8
0
100
AcDbLine
 10
41.078235
 20
68.4815
 30
0.0
 11
41.078235
 21
119.4814999999999
 31
0.0
  0
LINE
  5
36
330
1E
100
AcDbEntity
  8
0
100
AcDbLine
 10
41.078235
 20
68.4815
 30
0.0
 11
41.478235
 21
68.4815
 31
0.0
  0
LINE
  5
37
330
1E
100
AcDbEntity
  8
0
100
AcDbLine
 10
41.078235
 20
68.4815
 30
0.0
 11
41.578235
 21
67.98149999999999
 31
0.0
  0
LINE
  5
38
330
1E
100
AcDbEntity
  8
0
100
AcDbLine
 10
41.978235
 20
67.98149999999999
 30
0.0
 11
42.97823499999999
 21
67.98149999999999
 31
0.0
  0
LINE
  5
39
330
1E
100
AcDbEntity
  8
0
100
AcDbLine
 10
41.578235
 20
67.98149999999999
 30
0.0
 11
52.07823499999999
 21
67.98149999999999
 31
0.0
  0
LINE
  5
3A
330
1E
100
AcDbEntity
  8
0
100
AcDbLine
 10
41.578235
 20
67.98149999999999
 30
0.0
 11
41.978235
 21
67.98149999999999
 31
0.0
  0
LINE
  5
3B
330
1E
100
AcDbEntity
  8
0
100
AcDbLine
 10
41.478235
 20
119.4814999999999
 30
0.0
 11
42.57823499999999
 21
119.4814999999999
 31
0.0
  0
LINE
  5
3C
330
1E
100
AcDbEntity
  8
0
100
AcDbLine
 10
41.078235
 20
119.4814999999999
 30
0.0
 11
41.578235
 21
119.9815
 31
0.0
  0
LINE
  5
3D
330
1E
100
AcDbEntity
  8
0
100
AcDbLine
 10
41.078235
 20
119.4814999999999
 30
0.0
 11
41.478235
 21
119.4814999999999
 31
0.0
  0
LINE
  5
3E
330
1E
100
AcDbEntity
  8
0
100
AcDbLine
 10
41.078235
 20
119.4814999999999
 30
0.0
 11
41.078235
 21
68.4815
 31
0.0
  0
LINE
  5
3F
330
1E
100
AcDbEntity
  8
0
100
AcDbLine
 10
42.97823499999999
 20
67.98149999999999
 30
0.0
 11
44.678235
 21
67.98149999999999
 31
0.0
  0
LINE
  5
40
330
1E
100
AcDbEntity
  8
0
100
AcDbLine
 10
44.27823499999999
 20
68.4815
 30
0.0
 11
46.578235
 21
68.4815
 31
0.0
  0
LINE
  5
41
330
1E
100
AcDbEntity
  8
0
100
AcDbLine
 10
42.57823499999999
 20
68.4815
 30
0.0
 11
44.27823499999999
 21
68.4815
 31
0.0
  0
LINE
  5
42
330
1E
100
AcDbEntity
  8
0
100
AcDbLine
 10
44.678235
 20
67.98149999999999
 30
0.0
 11
46.87823499999999
 21
67.98149999999999
 31
0.0
  0
LINE
  5
43
330
1E
100
AcDbEntity
  8
0
100
AcDbLine
 10
44.27823499999999
 20
119.4814999999999
 30
0.0
 11
46.578235
 21
119.4814999999999
 31
0.0
  0
LINE
  5
44
330
1E
100
AcDbEntity
  8
0
100
AcDbLine
 10
42.57823499999999
 20
119.4814999999999
 30
0.0
 11
44.27823499999999
 21
119.4814999999999
 31
0.0
  0
LINE
  5
45
330
1E
100
AcDbEntity
  8
0
100
AcDbLine
 10
46.87823499999999
 20
67.98149999999999
 30
0.0
 11
49.378235
 21
67.98149999999999
 31
0.0
  0
LINE
  5
46
330
1E
100
AcDbEntity
  8
0
100
AcDbLine
 10
49.27823499999999
 20
68.4815
 30
0.0
 11
52.07823499999999
 21
68.4815
 31
0.0
  0
LINE
  5
47
330
1E
100
AcDbEntity
  8
0
100
AcDbLine
 10
46.578235
 20
68.4815
 30
0.0
 11
49.27823499999999
 21
68.4815
 31
0.0
  0
LINE
  5
48
330
1E
100
AcDbEntity
  8
0
100
AcDbLine
 10
49.378235
 20
67.98149999999999
 30
0.0
 11
52.07823499999999
 21
67.98149999999999
 31
0.0
  0
LINE
  5
49
330
1E
100
AcDbEntity
  8
0
100
AcDbLine
 10
49.27823499999999
 20
119.4814999999999
 30
0.0
 11
52.07823499999999
 21
119.4814999999999
 31
0.0
  0
LINE
  5
4A
330
1E
100
AcDbEntity
  8
0
100
AcDbLine
 10
46.578235
 20
119.4814999999999
 30
0.0
 11
49.27823499999999
 21
119.4814999999999
 31
0.0
  0
LINE
  5
4B
330
1E
100
AcDbEntity
  8
0
100
AcDbLine
 10
52.07823499999999
 20
67.98149999999999
 30
0.0
 11
62.578235
 21
67.98149999999999
 31
0.0
  0
LINE
  5
4C
330
1E
100
AcDbEntity
  8
0
100
AcDbLine
 10
52.07823499999999
 20
67.98149999999999
 30
0.0
 11
54.77823499999999
 21
67.98149999999999
 31
0.0
  0
LINE
  5
4D
330
1E
100
AcDbEntity
  8
0
100
AcDbLine
 10
52.07823499999999
 20
68.4815
 30
0.0
 11
54.878235
 21
68.4815
 31
0.0
  0
LINE
  5
4E
330
1E
100
AcDbEntity
  8
0
100
AcDbLine
 10
52.07823499999999
 20
119.4814999999999
 30
0.0
 11
54.878235
 21
119.4814999999999
 31
0.0
  0
LINE
  5
4F
330
1E
100
AcDbEntity
  8
0
100
AcDbLine
 10
54.77823499999999
 20
67.98149999999999
 30
0.0
 11
57.27823499999999
 21
67.98149999999999
 31
0.0
  0
LINE
  5
50
330
1E
100
AcDbEntity
  8
0
100
AcDbLine
 10
57.27823499999999
 20
67.98149999999999
 30
0.0
 11
59.478235
 21
67.98149999999999
 31
0.0
  0
LINE
  5
51
330
1E
100
AcDbEntity
  8
0
100
AcDbLine
 10
54.878235
 20
68.4815
 30
0.0
 11
57.578235
 21
68.4815
 31
0.0
  0
LINE
  5
52
330
1E
100
AcDbEntity
  8
0
100
AcDbLine
 10
54.878235
 20
119.4814999999999
 30
0.0
 11
57.578235
 21
119.4814999999999
 31
0.0
  0
LINE
  5
53
330
1E
100
AcDbEntity
  8
0
100
AcDbLine
 10
52.07823499999999
 20
119.9815
 30
0.0
 11
54.77823499999999
 21
119.9815
 31
0.0
  0
LINE
  5
54
330
1E
100
AcDbEntity
  8
0
100
AcDbLine
 10
54.77823499999999
 20
119.9815
 30
0.0
 11
57.27823499999999
 21
119.9815
 31
0.0
  0
LINE
  5
55
330
1E
100
AcDbEntity
  8
0
100
AcDbLine
 10
57.578235
 20
68.4815
 30
0.0
 11
59.878235
 21
68.4815
 31
0.0
  0
LINE
  5
56
330
1E
100
AcDbEntity
  8
0
100
AcDbLine
 10
59.478235
 20
67.98149999999999
 30
0.0
 11
61.178235
 21
67.98149999999999
 31
0.0
  0
LINE
  5
57
330
1E
100
AcDbEntity
  8
0
100
AcDbLine
 10
61.178235
 20
67.98149999999999
 30
0.0
 11
62.178235
 21
67.98149999999999
 31
0.0
  0
LINE
  5
58
330
1E
100
AcDbEntity
  8
0
100
AcDbLine
 10
59.878235
 20
68.4815
 30
0.0
 11
61.578235
 21
68.4815
 31
0.0
  0
LINE
  5
59
330
1E
100
AcDbEntity
  8
0
100
AcDbLine
 10
57.578235
 20
119.4814999999999
 30
0.0
 11
59.878235
 21
119.4814999999999
 31
0.0
  0
LINE
  5
5A
330
1E
100
AcDbEntity
  8
0
100
AcDbLine
 10
59.878235
 20
119.4814999999999
 30
0.0
 11
61.578235
 21
119.4814999999999
 31
0.0
  0
LINE
  5
5B
330
1E
100
AcDbEntity
  8
0
100
AcDbLine
 10
57.27823499999999
 20
119.9815
 30
0.0
 11
59.478235
 21
119.9815
 31
0.0
  0
LINE
  5
5C
330
1E
100
AcDbEntity
  8
0
100
AcDbLine
 10
59.478235
 20
119.9815
 30
0.0
 11
61.178235
 21
119.9815
 31
0.0
  0
LINE
  5
5D
330
1E
100
AcDbEntity
  8
0
100
AcDbLine
 10
62.178235
 20
67.98149999999999
 30
0.0
 11
62.578235
 21
67.98149999999999
 31
0.0
  0
LINE
  5
5E
330
1E
100
AcDbEntity
  8
0
100
AcDbLine
 10
61.578235
 20
68.4815
 30
0.0
 11
62.678235
 21
68.4815
 31
0.0
  0
LINE
  5
5F
330
1E
100
AcDbEntity
  8
0
100
AcDbLine
 10
62.678235
 20
68.4815
 30
0.0
 11
63.078235
 21
68.4815
 31
0.0
  0
LINE
  5
60
330
1E
100
AcDbEntity
  8
0
100
AcDbLine
 10
61.578235
 20
119.4814999999999
 30
0.0
 11
62.678235
 21
119.4814999999999
 31
0.0
  0
LINE
  5
61
330
1E
100
AcDbEntity
  8
0
100
AcDbLine
 10
62.678235
 20
119.4814999999999
 30
0.0
 11
63.078235
 21
119.4814999999999
 31
0.0
  0
LINE
  5
62
330
1E
100
AcDbEntity
  8
0
100
AcDbLine
 10
62.578235
 20
119.9815
 30
0.0
 11
63.078235
 21
119.4814999999999
 31
0.0
  0
LINE
  5
63
330
1E
100
AcDbEntity
  8
0
100
AcDbLine
 10
62.578235
 20
119.9815
 30
0.0
 11
63.078235
 21
120.4825
 31
0.0
  0
LINE
  5
64
330
1E
100
AcDbEntity
  8
0
100
AcDbLine
 10
61.178235
 20
119.9815
 30
0.0
 11
62.178235
 21
119.9815
 31
0.0
  0
LINE
  5
65
330
1E
100
AcDbEntity
  8
0
100
AcDbLine
 10
62.178235
 20
119.9815
 30
0.0
 11
62.578235
 21
119.9815
 31
0.0
  0
LINE
  5
66
330
1E
100
AcDbEntity
  8
0
100
AcDbLine
 10
49.378235
 20
119.9815
 30
0.0
 11
52.07823499999999
 21
119.9815
 31
0.0
  0
LINE
  5
67
330
1E
100
AcDbEntity
  8
0
100
AcDbLine
 10
46.87823499999999
 20
119.9815
 30
0.0
 11
49.378235
 21
119.9815
 31
0.0
  0
LINE
  5
68
330
1E
100
AcDbEntity
  8
0
100
AcDbLine
 10
44.678235
 20
119.9815
 30
0.0
 11
46.87823499999999
 21
119.9815
 31
0.0
  0
LINE
  5
69
330
1E
100
AcDbEntity
  8
0
100
AcDbLine
 10
42.97823499999999
 20
119.9815
 30
0.0
 11
44.678235
 21
119.9815
 31
0.0
  0
LINE
  5
6A
330
1E
100
AcDbEntity
  8
0
100
AcDbLine
 10
41.978235
 20
119.9815
 30
0.0
 11
42.97823499999999
 21
119.9815
 31
0.0
  0
LINE
  5
6B
330
1E
100
AcDbEntity
  8
0
100
AcDbLine
 10
52.07823499999999
 20
120.4825
 30
0.0
 11
54.878235
 21
120.4825
 31
0.0
  0
LINE
  5
6C
330
1E
100
AcDbEntity
  8
0
100
AcDbLine
 10
54.878235
 20
120.4825
 30
0.0
 11
57.578235
 21
120.4825
 31
0.0
  0
LINE
  5
6D
330
1E
100
AcDbEntity
  8
0
100
AcDbLine
 10
57.578235
 20
120.4825
 30
0.0
 11
59.878235
 21
120.4825
 31
0.0
  0
LINE
  5
6E
330
1E
100
AcDbEntity
  8
0
100
AcDbLine
 10
59.878235
 20
120.4825
 30
0.0
 11
61.578235
 21
120.4825
 31
0.0
  0
LINE
  5
6F
330
1E
100
AcDbEntity
  8
0
100
AcDbLine
 10
61.578235
 20
120.4825
 30
0.0
 11
62.678235
 21
120.4825
 31
0.0
  0
LINE
  5
70
330
1E
100
AcDbEntity
  8
0
100
AcDbLine
 10
63.078235
 20
120.4825
 30
0.0
 11
63.078235
 21
667.9814999999999
 31
0.0
  0
LINE
  5
71
330
1E
100
AcDbEntity
  8
0
100
AcDbLine
 10
62.678235
 20
120.4825
 30
0.0
 11
63.078235
 21
120.4825
 31
0.0
  0
LINE
  5
72
330
1E
100
AcDbEntity
  8
0
100
AcDbLine
 10
49.27823499999999
 20
120.4825
 30
0.0
 11
52.07823499999999
 21
120.4825
 31
0.0
  0
LINE
  5
73
330
1E
100
AcDbEntity
  8
0
100
AcDbLine
 10
46.578235
 20
120.4825
 30
0.0
 11
49.27823499999999
 21
120.4825
 31
0.0
  0
LINE
  5
74
330
1E
100
AcDbEntity
  8
0
100
AcDbLine
 10
44.27823499999999
 20
120.4825
 30
0.0
 11
46.578235
 21
120.4825
 31
0.0
  0
LINE
  5
75
330
1E
100
AcDbEntity
  8
0
100
AcDbLine
 10
42.57823499999999
 20
120.4825
 30
0.0
 11
44.27823499999999
 21
120.4825
 31
0.0
  0
LINE
  5
76
330
1E
100
AcDbEntity
  8
0
100
AcDbLine
 10
41.478235
 20
120.4825
 30
0.0
 11
42.57823499999999
 21
120.4825
 31
0.0
  0
LINE
  5
77
330
1E
100
AcDbEntity
  8
0
100
AcDbLine
 10
41.078235
 20
120.4825
 30
0.0
 11
41.478235
 21
120.4825
 31
0.0
  0
LINE
  5
78
330
1E
100
AcDbEntity
  8
0
100
AcDbLine
 10
41.078235
 20
120.4825
 30
0.0
 11
41.578235
 21
119.9815
 31
0.0
  0
LINE
  5
79
330
1E
100
AcDbEntity
  8
0
100
AcDbLine
 10
41.078235
 20
120.4825
 30
0.0
 11
41.078235
 21
667.9814999999999
 31
0.0
  0
LINE
  5
7A
330
1E
100
AcDbEntity
  8
0
100
AcDbLine
 10
41.578235
 20
119.9815
 30
0.0
 11
41.978235
 21
119.9815
 31
0.0
  0
LINE
  5
7B
330
1E
100
AcDbEntity
  8
0
100
AcDbLine
 10
73.830135
 20
0.1475
 30
0.0
 11
75.261135
 21
0.850499999999986
 31
0.0
  0
LINE
  5
7C
330
1E
100
AcDbEntity
  8
0
100
AcDbLine
 10
75.1744551613514
 20
0.8079172420894609
 30
0.0
 11
75.48308864676091
 21
0.959375235084188
 31
0.0
  0
LINE
  5
7D
330
1E
100
AcDbEntity
  8
0
100
AcDbLine
 10
75.261135
 20
0.850499999999986
 30
0.0
 11
77.658535
 21
2.026499999999979
 31
0.0
  0
LINE
  5
7E
330
1E
100
AcDbEntity
  8
0
100
AcDbLine
 10
80.57113499999999
 20
3.456499999999979
 30
0.0
 11
83.720835
 21
5.001500000000019
 31
0.0
  0
LINE
  5
7F
330
1E
100
AcDbEntity
  8
0
100
AcDbLine
 10
82.482535
 20
4.3935
 30
0.0
 11
85.391835
 21
5.8215
 31
0.0
  0
LINE
  5
80
330
1E
100
AcDbEntity
  8
0
100
AcDbLine
 10
85.391835
 20
5.8215
 30
0.0
 11
87.78783500000001
 21
6.99749999999999
 31
0.0
  0
LINE
  5
81
330
1E
100
AcDbEntity
  8
0
100
AcDbLine
 10
87.78783500000001
 20
6.99749999999999
 30
0.0
 11
89.222535
 21
7.70149999999999
 31
0.0
  0
LINE
  5
82
330
1E
100
AcDbEntity
  8
0
100
AcDbLine
 10
89.48923499999999
 20
7.832500000000019
 30
0.0
 11
90.45303500000001
 21
525.3635
 31
0.0
  0
LINE
  5
83
330
1E
100
AcDbEntity
  8
0
100
AcDbLine
 10
89.222535
 20
7.70149999999999
 30
0.0
 11
89.48923499999999
 21
7.832500000000019
 31
0.0
  0
LINE
  5
84
330
1E
100
AcDbEntity
  8
0
100
AcDbLine
 10
89.48923499999999
 20
7.832499999999999
 30
0.0
 11
90.45303500000001
 21
525.3635
 31
0.0
  0
LINE
  5
85
330
1E
100
AcDbEntity
  8
0
100
AcDbLine
 10
88.45913499999999
 20
7.327500000000009
 30
0.0
 11
89.48923499999999
 21
7.832500000000019
 31
0.0
  0
LINE
  5
86
330
1E
100
AcDbEntity
  8
0
100
AcDbLine
 10
86.519835
 20
6.375500000000019
 30
0.0
 11
88.45913499999999
 21
7.327500000000009
 31
0.0
  0
LINE
  5
87
330
1E
100
AcDbEntity
  8
0
100
AcDbLine
 10
83.720835
 20
5.001500000000019
 30
0.0
 11
86.519835
 21
6.375500000000019
 31
0.0
  0
LINE
  5
88
330
1E
100
AcDbEntity
  8
0
100
AcDbLine
 10
90.436835
 20
558.3645
 30
0.0
 11
90.45303500000001
 21
525.3635
 31
0.0
  0
LINE
  5
89
330
1E
100
AcDbEntity
  8
0
100
AcDbLine
 10
80.8181702942042
 20
3.577676470630649
 30
0.0
 11
82.482535
 21
4.3935
 31
0.0
  0
LINE
  5
8A
330
1E
100
AcDbEntity
  8
0
100
AcDbLine
 10
77.658535
 20
2.026499999999979
 30
0.0
 11
80.57113499999999
 21
3.456499999999979
 31
0.0
  0
LINE
  5
8B
330
1E
100
AcDbEntity
  8
0
100
AcDbLine
 10
90.40783499999999
 20
581.3715
 30
0.0
 11
90.436835
 21
558.3645
 31
0.0
  0
LINE
  5
8C
330
1E
100
AcDbEntity
  8
0
100
AcDbLine
 10
74.43693499999999
 20
558.3655
 30
0.0
 11
74.45283499999999
 21
525.3645
 31
0.0
  0
LINE
  5
8D
330
1E
100
AcDbEntity
  8
0
100
AcDbLine
 10
74.40883499999999
 20
581.3625
 30
0.0
 11
74.43693499999999
 21
558.3655
 31
0.0
  0
LINE
  5
8E
330
1E
100
AcDbEntity
  8
0
100
AcDbLine
 10
90.366835
 20
606.1684999999999
 30
0.0
 11
90.40783499999999
 21
581.3715
 31
0.0
  0
LINE
  5
8F
330
1E
100
AcDbEntity
  8
0
100
AcDbLine
 10
90.31193499999998
 20
631.2654999999999
 30
0.0
 11
90.366835
 21
606.1684999999999
 31
0.0
  0
LINE
  5
90
330
1E
100
AcDbEntity
  8
0
100
AcDbLine
 10
74.366935
 20
606.1594999999999
 30
0.0
 11
74.40883499999999
 21
581.3625
 31
0.0
  0
LINE
  5
91
330
1E
100
AcDbEntity
  8
0
100
AcDbLine
 10
74.313035
 20
631.2564999999999
 30
0.0
 11
74.366935
 21
606.1594999999999
 31
0.0
  0
LINE
  5
92
330
1E
100
AcDbEntity
  8
0
100
AcDbLine
 10
6.539735
 20
667.9814999999999
 30
0.0
 11
37.616735
 21
667.9814999999999
 31
0.0
  0
LINE
  5
93
330
1E
100
AcDbEntity
  8
0
100
AcDbLine
 10
41.078235
 20
667.9814999999999
 30
0.0
 11
41.078235
 21
120.4825
 31
0.0
  0
LINE
  5
94
330
1E
100
AcDbEntity
  8
0
100
AcDbLine
 10
38.539735
 20
667.9814999999999
 30
0.0
 11
38.539735
 21
668.6475
 31
0.0
  0
LINE
  5
95
330
1E
100
AcDbEntity
  8
0
100
AcDbLine
 10
38.539735
 20
667.9814999999999
 30
0.0
 11
41.078235
 21
667.9814999999999
 31
0.0
  0
LINE
  5
96
330
1E
100
AcDbEntity
  8
0
100
AcDbLine
 10
38.539735
 20
667.9814999999999
 30
0.0
 11
41.078235
 21
667.9814999999999
 31
0.0
  0
LINE
  5
98
330
1E
100
AcDbEntity
  8
0
100
AcDbLine
 10
6.539735000000009
 20
667.9814999999999
 30
0.0
 11
37.616735
 21
667.9814999999999
 31
0.0
  0
LINE
  5
99
330
1E
100
AcDbEntity
  8
0
100
AcDbLine
 10
6.078235000000009
 20
668.4255
 30
0.0
 11
6.078235000000009
 21
669.0915
 31
0.0
  0
LINE
  5
9A
330
1E
100
AcDbEntity
  8
0
100
AcDbLine
 10
6.078235000000009
 20
668.4255
 30
0.0
 11
6.539735000000009
 21
667.9814999999999
 31
0.0
  0
LINE
  5
9D
330
1E
100
AcDbEntity
  8
0
100
AcDbLine
 10
38.07823499999999
 20
668.4255
 30
0.0
 11
38.07823499999999
 21
669.0915
 31
0.0
  0
LINE
  5
9E
330
1E
100
AcDbEntity
  8
0
100
AcDbLine
 10
38.07823499999999
 20
668.4255
 30
0.0
 11
38.539735
 21
667.9814999999999
 31
0.0
  0
LINE
  5
9F
330
1E
100
AcDbEntity
  8
0
100
AcDbLine
 10
6.078235000000009
 20
669.0915
 30
0.0
 11
6.078235000000009
 21
670.8674999999999
 31
0.0
  0
LINE
  5
A0
330
1E
100
AcDbEntity
  8
0
100
AcDbLine
 10
6.078235000000009
 20
669.0915
 30
0.0
 11
6.078235000000009
 21
668.4255
 31
0.0
  0
LINE
  5
A3
330
1E
100
AcDbEntity
  8
0
100
AcDbLine
 10
6.078235000000009
 20
670.8674999999999
 30
0.0
 11
6.078235000000009
 21
673.7535
 31
0.0
  0
LINE
  5
A4
330
1E
100
AcDbEntity
  8
0
100
AcDbLine
 10
6.078235000000009
 20
670.8674999999999
 30
0.0
 11
6.078235000000009
 21
669.0915
 31
0.0
  0
LINE
  5
A7
330
1E
100
AcDbEntity
  8
0
100
AcDbLine
 10
6.078235000000009
 20
673.7535
 30
0.0
 11
6.078235000000009
 21
677.5275
 31
0.0
  0
LINE
  5
A8
330
1E
100
AcDbEntity
  8
0
100
AcDbLine
 10
6.078235000000009
 20
673.7535
 30
0.0
 11
6.078235000000009
 21
670.8674999999999
 31
0.0
  0
LINE
  5
AB
330
1E
100
AcDbEntity
  8
0
100
AcDbLine
 10
6.078235000000009
 20
677.5275
 30
0.0
 11
6.078235000000009
 21
681.8194999999999
 31
0.0
  0
LINE
  5
AC
330
1E
100
AcDbEntity
  8
0
100
AcDbLine
 10
6.078235000000009
 20
677.5275
 30
0.0
 11
6.078235000000009
 21
673.7535
 31
0.0
  0
LINE
  5
AF
330
1E
100
AcDbEntity
  8
0
100
AcDbLine
 10
6.078235000000009
 20
686.4815
 30
0.0
 11
6.078235000000009
 21
681.8194999999999
 31
0.0
  0
LINE
  5
B0
330
1E
100
AcDbEntity
  8
0
100
AcDbLine
 10
6.078235000000009
 20
686.4815
 30
0.0
 11
6.078235000000009
 21
691.1434999999999
 31
0.0
  0
LINE
  5
B3
330
1E
100
AcDbEntity
  8
0
100
AcDbLine
 10
6.078235000000009
 20
681.8194999999999
 30
0.0
 11
6.078235000000009
 21
686.4815
 31
0.0
  0
LINE
  5
B4
330
1E
100
AcDbEntity
  8
0
100
AcDbLine
 10
6.078235000000009
 20
681.8194999999999
 30
0.0
 11
6.078235000000009
 21
677.5275
 31
0.0
  0
LINE
  5
B5
330
1E
100
AcDbEntity
  8
0
100
AcDbLine
 10
6.078235000000009
 20
691.1434999999999
 30
0.0
 11
6.078235000000009
 21
695.4355
 31
0.0
  0
LINE
  5
B6
330
1E
100
AcDbEntity
  8
0
100
AcDbLine
 10
6.078235000000009
 20
691.1434999999999
 30
0.0
 11
6.078235000000009
 21
686.4815
 31
0.0
  0
LINE
  5
B7
330
1E
100
AcDbEntity
  8
0
100
AcDbLine
 10
6.078235000000009
 20
695.4355
 30
0.0
 11
6.078235000000009
 21
699.2095
 31
0.0
  0
LINE
  5
B8
330
1E
100
AcDbEntity
  8
0
100
AcDbLine
 10
6.078235000000009
 20
695.4355
 30
0.0
 11
6.078235000000009
 21
691.1434999999999
 31
0.0
  0
LINE
  5
B9
330
1E
100
AcDbEntity
  8
0
100
AcDbLine
 10
6.078235000000009
 20
695.4355
 30
0.0
 11
6.078235000000009
 21
698.311899350412
 31
0.0
  0
LINE
  5
BC
330
1E
100
AcDbEntity
  8
0
100
AcDbLine
 10
6.078235000000009
 20
698.311899350412
 30
0.0
 11
6.078235000000009
 21
695.4355
 31
0.0
  0
LINE
  5
BD
330
1E
100
AcDbEntity
  8
0
100
AcDbLine
 10
6.078235000000009
 20
699.2095
 30
0.0
 11
6.078235000000009
 21
702.0955
 31
0.0
  0
LINE
  5
BE
330
1E
100
AcDbEntity
  8
0
100
AcDbLine
 10
6.078235000000009
 20
699.2095
 30
0.0
 11
6.078235000000009
 21
695.4355
 31
0.0
  0
LINE
  5
BF
330
1E
100
AcDbEntity
  8
0
100
AcDbLine
 10
6.078235000000009
 20
702.0955
 30
0.0
 11
6.078235000000009
 21
703.8714999999999
 31
0.0
  0
LINE
  5
C0
330
1E
100
AcDbEntity
  8
0
100
AcDbLine
 10
6.078235000000009
 20
702.0955
 30
0.0
 11
6.078235000000009
 21
699.2095
 31
0.0
  0
LINE
  5
C5
330
1E
100
AcDbEntity
  8
0
100
AcDbLine
 10
6.078235000000009
 20
703.8714999999999
 30
0.0
 11
6.078235000000009
 21
702.0955
 31
0.0
  0
LINE
  5
C9
330
1E
100
AcDbEntity
  8
0
100
AcDbLine
 10
9.96253316817685
 20
704.9814999999999
 30
0.0
 11
37.616735
 21
704.9814999999999
 31
0.0
  0
LINE
  5
CA
330
1E
100
AcDbEntity
  8
0
100
AcDbLine
 10
37.616735
 20
691.2174999999999
 30
0.0
 11
37.616735
 21
686.4815
 31
0.0
  0
LINE
  5
CB
330
1E
100
AcDbEntity
  8
0
100
AcDbLine
 10
37.616735
 20
691.2174999999999
 30
0.0
 11
37.616735
 21
695.6575
 31
0.0
  0
LINE
  5
CC
330
1E
100
AcDbEntity
  8
0
100
AcDbLine
 10
37.616735
 20
695.6575
 30
0.0
 11
37.616735
 21
691.2174999999999
 31
0.0
  0
LINE
  5
CD
330
1E
100
AcDbEntity
  8
0
100
AcDbLine
 10
37.616735
 20
695.6575
 30
0.0
 11
37.616735
 21
699.5795000000001
 31
0.0
  0
LINE
  5
CE
330
1E
100
AcDbEntity
  8
0
100
AcDbLine
 10
37.616735
 20
699.5795000000001
 30
0.0
 11
37.616735
 21
695.6575
 31
0.0
  0
LINE
  5
CF
330
1E
100
AcDbEntity
  8
0
100
AcDbLine
 10
37.616735
 20
699.5795000000001
 30
0.0
 11
37.616735
 21
702.5394999999999
 31
0.0
  0
LINE
  5
D0
330
1E
100
AcDbEntity
  8
0
100
AcDbLine
 10
38.07823499999999
 20
691.1434999999999
 30
0.0
 11
38.07823499999999
 21
686.4815
 31
0.0
  0
LINE
  5
D1
330
1E
100
AcDbEntity
  8
0
100
AcDbLine
 10
38.07823499999999
 20
691.1434999999999
 30
0.0
 11
38.07823499999999
 21
695.4355
 31
0.0
  0
LINE
  5
D2
330
1E
100
AcDbEntity
  8
0
100
AcDbLine
 10
38.07823499999999
 20
695.4355
 30
0.0
 11
38.07823499999999
 21
691.1434999999999
 31
0.0
  0
LINE
  5
D3
330
1E
100
AcDbEntity
  8
0
100
AcDbLine
 10
38.07823499999999
 20
695.4355
 30
0.0
 11
38.07823499999999
 21
699.2095
 31
0.0
  0
LINE
  5
D4
330
1E
100
AcDbEntity
  8
0
100
AcDbLine
 10
38.07823499999999
 20
699.2095
 30
0.0
 11
38.07823499999999
 21
695.4355
 31
0.0
  0
LINE
  5
D5
330
1E
100
AcDbEntity
  8
0
100
AcDbLine
 10
38.07823499999999
 20
699.2095
 30
0.0
 11
38.07823499999999
 21
702.0955
 31
0.0
  0
LINE
  5
D6
330
1E
100
AcDbEntity
  8
0
100
AcDbLine
 10
38.07823499999999
 20
702.0955
 30
0.0
 11
38.07823499999999
 21
699.2095
 31
0.0
  0
LINE
  5
D7
330
1E
100
AcDbEntity
  8
0
100
AcDbLine
 10
38.07823499999999
 20
702.0955
 30
0.0
 11
38.07823499999999
 21
703.8714999999999
 31
0.0
  0
LINE
  5
D8
330
1E
100
AcDbEntity
  8
0
100
AcDbLine
 10
38.07823499999999
 20
703.8714999999999
 30
0.0
 11
38.07823499999999
 21
702.0955
 31
0.0
  0
LINE
  5
D9
330
1E
100
AcDbEntity
  8
0
100
AcDbLine
 10
38.07823499999999
 20
703.8714999999999
 30
0.0
 11
38.07823499999999
 21
704.5374999999999
 31
0.0
  0
LINE
  5
DA
330
1E
100
AcDbEntity
  8
0
100
AcDbLine
 10
37.616735
 20
702.5394999999999
 30
0.0
 11
37.616735
 21
699.5795000000001
 31
0.0
  0
LINE
  5
DB
330
1E
100
AcDbEntity
  8
0
100
AcDbLine
 10
37.616735
 20
702.5394999999999
 30
0.0
 11
37.616735
 21
704.3155
 31
0.0
  0
LINE
  5
DC
330
1E
100
AcDbEntity
  8
0
100
AcDbLine
 10
38.07823499999999
 20
704.5374999999999
 30
0.0
 11
38.07823499999999
 21
703.8714999999999
 31
0.0
  0
LINE
  5
DD
330
1E
100
AcDbEntity
  8
0
100
AcDbLine
 10
38.07823499999999
 20
704.5374999999999
 30
0.0
 11
38.539735
 21
704.9814999999999
 31
0.0
  0
LINE
  5
DE
330
1E
100
AcDbEntity
  8
0
100
AcDbLine
 10
37.616735
 20
704.3155
 30
0.0
 11
37.616735
 21
702.5394999999999
 31
0.0
  0
LINE
  5
DF
330
1E
100
AcDbEntity
  8
0
100
AcDbLine
 10
37.616735
 20
704.3155
 30
0.0
 11
37.616735
 21
704.9814999999999
 31
0.0
  0
LINE
  5
E0
330
1E
100
AcDbEntity
  8
0
100
AcDbLine
 10
9.96253316817685
 20
704.9814999999999
 30
0.0
 11
37.616735
 21
704.9814999999999
 31
0.0
  0
LINE
  5
E1
330
1E
100
AcDbEntity
  8
0
100
AcDbLine
 10
37.616735
 20
704.9814999999999
 30
0.0
 11
37.616735
 21
704.3155
 31
0.0
  0
LINE
  5
E2
330
1E
100
AcDbEntity
  8
0
100
AcDbLine
 10
37.616735
 20
704.9814999999999
 30
0.0
 11
38.07823499999999
 21
704.5374999999999
 31
0.0
  0
LINE
  5
E5
330
1E
100
AcDbEntity
  8
0
100
AcDbLine
 10
37.616735
 20
686.4815
 30
0.0
 11
37.616735
 21
681.7454999999999
 31
0.0
  0
LINE
  5
E6
330
1E
100
AcDbEntity
  8
0
100
AcDbLine
 10
37.616735
 20
686.4815
 30
0.0
 11
37.616735
 21
691.2174999999999
 31
0.0
  0
LINE
  5
E7
330
1E
100
AcDbEntity
  8
0
100
AcDbLine
 10
38.07823499999999
 20
686.4815
 30
0.0
 11
38.07823499999999
 21
681.8194999999999
 31
0.0
  0
LINE
  5
E8
330
1E
100
AcDbEntity
  8
0
100
AcDbLine
 10
38.07823499999999
 20
686.4815
 30
0.0
 11
38.07823499999999
 21
691.1434999999999
 31
0.0
  0
LINE
  5
E9
330
1E
100
AcDbEntity
  8
0
100
AcDbLine
 10
37.616735
 20
681.7454999999999
 30
0.0
 11
37.616735
 21
686.4815
 31
0.0
  0
LINE
  5
EA
330
1E
100
AcDbEntity
  8
0
100
AcDbLine
 10
37.616735
 20
681.7454999999999
 30
0.0
 11
37.616735
 21
677.3055
 31
0.0
  0
LINE
  5
EB
330
1E
100
AcDbEntity
  8
0
100
AcDbLine
 10
38.07823499999999
 20
681.8194999999999
 30
0.0
 11
38.07823499999999
 21
677.5275
 31
0.0
  0
LINE
  5
EC
330
1E
100
AcDbEntity
  8
0
100
AcDbLine
 10
38.07823499999999
 20
681.8194999999999
 30
0.0
 11
38.07823499999999
 21
686.4815
 31
0.0
  0
LINE
  5
ED
330
1E
100
AcDbEntity
  8
0
100
AcDbLine
 10
37.616735
 20
677.3055
 30
0.0
 11
37.616735
 21
681.7454999999999
 31
0.0
  0
LINE
  5
EE
330
1E
100
AcDbEntity
  8
0
100
AcDbLine
 10
37.616735
 20
677.3055
 30
0.0
 11
37.616735
 21
673.3835
 31
0.0
  0
LINE
  5
EF
330
1E
100
AcDbEntity
  8
0
100
AcDbLine
 10
38.07823499999999
 20
677.5275
 30
0.0
 11
38.07823499999999
 21
673.7535
 31
0.0
  0
LINE
  5
F0
330
1E
100
AcDbEntity
  8
0
100
AcDbLine
 10
38.07823499999999
 20
677.5275
 30
0.0
 11
38.07823499999999
 21
681.8194999999999
 31
0.0
  0
LINE
  5
F1
330
1E
100
AcDbEntity
  8
0
100
AcDbLine
 10
37.616735
 20
673.3835
 30
0.0
 11
37.616735
 21
677.3055
 31
0.0
  0
LINE
  5
F2
330
1E
100
AcDbEntity
  8
0
100
AcDbLine
 10
37.616735
 20
673.3835
 30
0.0
 11
37.616735
 21
670.4234999999999
 31
0.0
  0
LINE
  5
F3
330
1E
100
AcDbEntity
  8
0
100
AcDbLine
 10
38.07823499999999
 20
673.7535
 30
0.0
 11
38.07823499999999
 21
670.8674999999999
 31
0.0
  0
LINE
  5
F4
330
1E
100
AcDbEntity
  8
0
100
AcDbLine
 10
38.07823499999999
 20
673.7535
 30
0.0
 11
38.07823499999999
 21
677.5275
 31
0.0
  0
LINE
  5
F5
330
1E
100
AcDbEntity
  8
0
100
AcDbLine
 10
37.616735
 20
670.4234999999999
 30
0.0
 11
37.616735
 21
673.3835
 31
0.0
  0
LINE
  5
F6
330
1E
100
AcDbEntity
  8
0
100
AcDbLine
 10
37.616735
 20
670.4234999999999
 30
0.0
 11
37.616735
 21
668.6475
 31
0.0
  0
LINE
  5
F7
330
1E
100
AcDbEntity
  8
0
100
AcDbLine
 10
38.07823499999999
 20
670.8674999999999
 30
0.0
 11
38.07823499999999
 21
669.0915
 31
0.0
  0
LINE
  5
F8
330
1E
100
AcDbEntity
  8
0
100
AcDbLine
 10
38.07823499999999
 20
670.8674999999999
 30
0.0
 11
38.07823499999999
 21
673.7535
 31
0.0
  0
LINE
  5
F9
330
1E
100
AcDbEntity
  8
0
100
AcDbLine
 10
37.616735
 20
668.6475
 30
0.0
 11
37.616735
 21
670.4234999999999
 31
0.0
  0
LINE
  5
FA
330
1E
100
AcDbEntity
  8
0
100
AcDbLine
 10
37.616735
 20
668.6475
 30
0.0
 11
37.616735
 21
667.9814999999999
 31
0.0
  0
LINE
  5
FB
330
1E
100
AcDbEntity
  8
0
100
AcDbLine
 10
38.539735
 20
691.2174999999999
 30
0.0
 11
38.539735
 21
695.6575
 31
0.0
  0
LINE
  5
FC
330
1E
100
AcDbEntity
  8
0
100
AcDbLine
 10
38.539735
 20
691.2174999999999
 30
0.0
 11
38.539735
 21
686.4815
 31
0.0
  0
LINE
  5
FD
330
1E
100
AcDbEntity
  8
0
100
AcDbLine
 10
38.539735
 20
695.6575
 30
0.0
 11
38.539735
 21
699.5795000000001
 31
0.0
  0
LINE
  5
FE
330
1E
100
AcDbEntity
  8
0
100
AcDbLine
 10
38.539735
 20
695.6575
 30
0.0
 11
38.539735
 21
691.2174999999999
 31
0.0
  0
LINE
  5
FF
330
1E
100
AcDbEntity
  8
0
100
AcDbLine
 10
38.539735
 20
699.5795000000001
 30
0.0
 11
38.539735
 21
702.5394999999999
 31
0.0
  0
LINE
  5
100
330
1E
100
AcDbEntity
  8
0
100
AcDbLine
 10
38.539735
 20
699.5795000000001
 30
0.0
 11
38.539735
 21
695.6575
 31
0.0
  0
LINE
  5
101
330
1E
100
AcDbEntity
  8
0
100
AcDbLine
 10
38.539735
 20
702.5394999999999
 30
0.0
 11
38.539735
 21
704.3155
 31
0.0
  0
LINE
  5
102
330
1E
100
AcDbEntity
  8
0
100
AcDbLine
 10
38.539735
 20
702.5394999999999
 30
0.0
 11
38.539735
 21
699.5795000000001
 31
0.0
  0
LINE
  5
103
330
1E
100
AcDbEntity
  8
0
100
AcDbLine
 10
38.539735
 20
704.9814999999999
 30
0.0
 11
41.078235
 21
704.9814999999999
 31
0.0
  0
LINE
  5
104
330
1E
100
AcDbEntity
  8
0
100
AcDbLine
 10
38.539735
 20
704.9814999999999
 30
0.0
 11
38.539735
 21
704.3155
 31
0.0
  0
LINE
  5
105
330
1E
100
AcDbEntity
  8
0
100
AcDbLine
 10
38.539735
 20
704.9814999999999
 30
0.0
 11
41.078235
 21
704.9814999999999
 31
0.0
  0
LINE
  5
106
330
1E
100
AcDbEntity
  8
0
100
AcDbLine
 10
38.539735
 20
704.3155
 30
0.0
 11
38.539735
 21
704.9814999999999
 31
0.0
  0
LINE
  5
107
330
1E
100
AcDbEntity
  8
0
100
AcDbLine
 10
38.539735
 20
704.3155
 30
0.0
 11
38.539735
 21
702.5394999999999
 31
0.0
  0
LINE
  5
108
330
1E
100
AcDbEntity
  8
0
100
AcDbLine
 10
38.539735
 20
686.4815
 30
0.0
 11
38.539735
 21
681.7454999999999
 31
0.0
  0
LINE
  5
109
330
1E
100
AcDbEntity
  8
0
100
AcDbLine
 10
38.539735
 20
686.4815
 30
0.0
 11
38.539735
 21
691.2174999999999
 31
0.0
  0
LINE
  5
10A
330
1E
100
AcDbEntity
  8
0
100
AcDbLine
 10
38.539735
 20
681.7454999999999
 30
0.0
 11
38.539735
 21
686.4815
 31
0.0
  0
LINE
  5
10B
330
1E
100
AcDbEntity
  8
0
100
AcDbLine
 10
38.539735
 20
681.7454999999999
 30
0.0
 11
38.539735
 21
677.3055
 31
0.0
  0
LINE
  5
10C
330
1E
100
AcDbEntity
  8
0
100
AcDbLine
 10
38.539735
 20
677.3055
 30
0.0
 11
38.539735
 21
681.7454999999999
 31
0.0
  0
LINE
  5
10D
330
1E
100
AcDbEntity
  8
0
100
AcDbLine
 10
38.539735
 20
677.3055
 30
0.0
 11
38.539735
 21
673.3835
 31
0.0
  0
LINE
  5
10E
330
1E
100
AcDbEntity
  8
0
100
AcDbLine
 10
38.539735
 20
673.3835
 30
0.0
 11
38.539735
 21
677.3055
 31
0.0
  0
LINE
  5
10F
330
1E
100
AcDbEntity
  8
0
100
AcDbLine
 10
38.539735
 20
673.3835
 30
0.0
 11
38.539735
 21
670.4234999999999
 31
0.0
  0
LINE
  5
110
330
1E
100
AcDbEntity
  8
0
100
AcDbLine
 10
39.76873499999999
 20
821.1214999999999
 30
0.0
 11
41.268735
 21
826.5715
 31
0.0
  0
LINE
  5
111
330
1E
100
AcDbEntity
  8
0
100
AcDbLine
 10
39.76873499999999
 20
821.1214999999999
 30
0.0
 11
40.55804951612899
 21
818.253657258065
 31
0.0
  0
LINE
  5
112
330
1E
100
AcDbEntity
  8
0
100
AcDbLine
 10
39.76873499999999
 20
821.1214999999999
 30
0.0
 11
39.76873499999999
 21
825.4514999999999
 31
0.0
  0
LINE
  5
113
330
1E
100
AcDbEntity
  8
0
100
AcDbLine
 10
40.768735
 20
816.7915
 30
0.0
 11
42.26873499999999
 21
811.4415000000001
 31
0.0
  0
LINE
  5
114
330
1E
100
AcDbEntity
  8
0
100
AcDbLine
 10
40.26873499999999
 20
820.2614999999999
 30
0.0
 11
41.768735
 21
825.6615
 31
0.0
  0
LINE
  5
115
330
1E
100
AcDbEntity
  8
0
100
AcDbLine
 10
40.26873499999999
 20
820.2614999999999
 30
0.0
 11
40.768735
 21
816.7915
 31
0.0
  0
LINE
  5
116
330
1E
100
AcDbEntity
  8
0
100
AcDbLine
 10
39.76873499999999
 20
825.4514999999999
 30
0.0
 11
41.268735
 21
830.9015
 31
0.0
  0
LINE
  5
117
330
1E
100
AcDbEntity
  8
0
100
AcDbLine
 10
39.76873499999999
 20
825.4514999999999
 30
0.0
 11
39.76873499999999
 21
821.1214999999999
 31
0.0
  0
LINE
  5
118
330
1E
100
AcDbEntity
  8
0
100
AcDbLine
 10
39.76873499999999
 20
826.3215
 30
0.0
 11
41.268735
 21
831.7714999999999
 31
0.0
  0
LINE
  5
119
330
1E
100
AcDbEntity
  8
0
100
AcDbLine
 10
39.76873499999999
 20
826.3215
 30
0.0
 11
39.88845977064221
 21
825.8865
 31
0.0
  0
LINE
  5
11A
330
1E
100
AcDbEntity
  8
0
100
AcDbLine
 10
41.078235
 20
831.0793499999999
 30
0.0
 11
41.078235
 21
974.4815
 31
0.0
  0
LINE
  5
11B
330
1E
100
AcDbEntity
  8
0
100
AcDbLine
 10
41.078235
 20
704.9538192881059
 30
0.0
 11
41.078235
 21
815.6876166666659
 31
0.0
  0
LINE
  5
11C
330
1E
100
AcDbEntity
  8
0
100
AcDbLine
 10
41.268735
 20
826.5715
 30
0.0
 11
45.46873499999999
 21
831.6715
 31
0.0
  0
LINE
  5
11D
330
1E
100
AcDbEntity
  8
0
100
AcDbLine
 10
41.268735
 20
830.9015
 30
0.0
 11
45.46873499999999
 21
836.0015
 31
0.0
  0
LINE
  5
11E
330
1E
100
AcDbEntity
  8
0
100
AcDbLine
 10
41.268735
 20
831.7714999999999
 30
0.0
 11
45.46873499999999
 21
836.8714999999999
 31
0.0
  0
LINE
  5
11F
330
1E
100
AcDbEntity
  8
0
100
AcDbLine
 10
41.268735
 20
831.7714999999999
 30
0.0
 11
43.98503499999999
 21
835.9215
 31
0.0
  0
LINE
  5
120
330
1E
100
AcDbEntity
  8
0
100
AcDbLine
 10
41.478235
 20
974.4815
 30
0.0
 11
42.57823499999999
 21
974.4815
 31
0.0
  0
LINE
  5
121
330
1E
100
AcDbEntity
  8
0
100
AcDbLine
 10
41.078235
 20
815.687616666667
 30
0.0
 11
41.078235
 21
704.9538192881059
 31
0.0
  0
LINE
  5
122
330
1E
100
AcDbEntity
  8
0
100
AcDbLine
 10
41.078235
 20
974.4815
 30
0.0
 11
41.078235
 21
831.0793499999999
 31
0.0
  0
LINE
  5
123
330
1E
100
AcDbEntity
  8
0
100
AcDbLine
 10
41.078235
 20
974.4815
 30
0.0
 11
41.478235
 21
974.4815
 31
0.0
  0
LINE
  5
124
330
1E
100
AcDbEntity
  8
0
100
AcDbLine
 10
41.078235
 20
974.4815
 30
0.0
 11
41.578235
 21
974.9814999999999
 31
0.0
  0
LINE
  5
125
330
1E
100
AcDbEntity
  8
0
100
AcDbLine
 10
38.539735
 20
670.4234999999999
 30
0.0
 11
38.539735
 21
673.3835
 31
0.0
  0
LINE
  5
126
330
1E
100
AcDbEntity
  8
0
100
AcDbLine
 10
38.539735
 20
670.4234999999999
 30
0.0
 11
38.539735
 21
668.6475
 31
0.0
  0
LINE
  5
127
330
1E
100
AcDbEntity
  8
0
100
AcDbLine
 10
38.539735
 20
668.6475
 30
0.0
 11
38.539735
 21
670.4234999999999
 31
0.0
  0
LINE
  5
128
330
1E
100
AcDbEntity
  8
0
100
AcDbLine
 10
38.539735
 20
668.6475
 30
0.0
 11
38.539735
 21
667.9814999999999
 31
0.0
  0
LINE
  5
129
330
1E
100
AcDbEntity
  8
0
100
AcDbLine
 10
38.07823499999999
 20
669.0915
 30
0.0
 11
38.07823499999999
 21
668.4255
 31
0.0
  0
LINE
  5
12A
330
1E
100
AcDbEntity
  8
0
100
AcDbLine
 10
38.07823499999999
 20
669.0915
 30
0.0
 11
38.07823499999999
 21
670.8674999999999
 31
0.0
  0
LINE
  5
12B
330
1E
100
AcDbEntity
  8
0
100
AcDbLine
 10
37.616735
 20
667.9814999999999
 30
0.0
 11
37.616735
 21
668.6475
 31
0.0
  0
LINE
  5
12C
330
1E
100
AcDbEntity
  8
0
100
AcDbLine
 10
37.616735
 20
667.9814999999999
 30
0.0
 11
38.07823499999999
 21
668.4255
 31
0.0
  0
LINE
  5
12D
330
1E
100
AcDbEntity
  8
0
100
AcDbLine
 10
41.478235
 20
975.4815
 30
0.0
 11
42.57823499999999
 21
975.4815
 31
0.0
  0
LINE
  5
12E
330
1E
100
AcDbEntity
  8
0
100
AcDbLine
 10
41.078235
 20
975.4815
 30
0.0
 11
41.078235
 21
1026.4815
 31
0.0
  0
LINE
  5
12F
330
1E
100
AcDbEntity
  8
0
100
AcDbLine
 10
41.078235
 20
975.4815
 30
0.0
 11
41.478235
 21
975.4815
 31
0.0
  0
LINE
  5
130
330
1E
100
AcDbEntity
  8
0
100
AcDbLine
 10
41.078235
 20
975.4815
 30
0.0
 11
41.578235
 21
974.9814999999999
 31
0.0
  0
LINE
  5
131
330
1E
100
AcDbEntity
  8
0
100
AcDbLine
 10
41.578235
 20
974.9814999999999
 30
0.0
 11
41.978235
 21
974.9814999999999
 31
0.0
  0
LINE
  5
132
330
1E
100
AcDbEntity
  8
0
100
AcDbLine
 10
41.478235
 20
1026.4815
 30
0.0
 11
42.57823499999999
 21
1026.4815
 31
0.0
  0
LINE
  5
133
330
1E
100
AcDbEntity
  8
0
100
AcDbLine
 10
41.078235
 20
1026.4815
 30
0.0
 11
41.578235
 21
1026.9815
 31
0.0
  0
LINE
  5
134
330
1E
100
AcDbEntity
  8
0
100
AcDbLine
 10
41.078235
 20
1026.4815
 30
0.0
 11
41.478235
 21
1026.4815
 31
0.0
  0
LINE
  5
135
330
1E
100
AcDbEntity
  8
0
100
AcDbLine
 10
41.078235
 20
1026.4815
 30
0.0
 11
41.078235
 21
975.4815
 31
0.0
  0
LINE
  5
136
330
1E
100
AcDbEntity
  8
0
100
AcDbLine
 10
42.26873499999999
 20
811.4415000000001
 30
0.0
 11
43.268735
 21
809.4314999999999
 31
0.0
  0
LINE
  5
137
330
1E
100
AcDbEntity
  8
0
100
AcDbLine
 10
41.768735
 20
825.6615
 30
0.0
 11
45.968735
 21
830.7615
 31
0.0
  0
LINE
  5
138
330
1E
100
AcDbEntity
  8
0
100
AcDbLine
 10
42.57823499999999
 20
974.4815
 30
0.0
 11
44.27823499999999
 21
974.4815
 31
0.0
  0
LINE
  5
139
330
1E
100
AcDbEntity
  8
0
100
AcDbLine
 10
41.978235
 20
974.9814999999999
 30
0.0
 11
42.97823499999999
 21
974.9814999999999
 31
0.0
  0
LINE
  5
13A
330
1E
100
AcDbEntity
  8
0
100
AcDbLine
 10
42.97823499999999
 20
974.9814999999999
 30
0.0
 11
44.678235
 21
974.9814999999999
 31
0.0
  0
LINE
  5
13B
330
1E
100
AcDbEntity
  8
0
100
AcDbLine
 10
42.57823499999999
 20
975.4815
 30
0.0
 11
44.27823499999999
 21
975.4815
 31
0.0
  0
LINE
  5
13C
330
1E
100
AcDbEntity
  8
0
100
AcDbLine
 10
42.57823499999999
 20
1026.4815
 30
0.0
 11
44.27823499999999
 21
1026.4815
 31
0.0
  0
LINE
  5
13D
330
1E
100
AcDbEntity
  8
0
100
AcDbLine
 10
43.268735
 20
809.4314999999999
 30
0.0
 11
47.168735
 21
804.6314999999999
 31
0.0
  0
LINE
  5
13E
330
1E
100
AcDbEntity
  8
0
100
AcDbLine
 10
43.98503499999999
 20
835.9215
 30
0.0
 11
47.85413499999999
 21
840.7115000000001
 31
0.0
  0
LINE
  5
13F
330
1E
100
AcDbEntity
  8
0
100
AcDbLine
 10
45.26873499999999
 20
810.7314999999999
 30
0.0
 11
46.56873499999999
 21
815.4814999999999
 31
0.0
  0
LINE
  5
140
330
1E
100
AcDbEntity
  8
0
100
AcDbLine
 10
45.26873499999999
 20
810.7314999999999
 30
0.0
 11
46.56873499999999
 21
805.9815
 31
0.0
  0
LINE
  5
141
330
1E
100
AcDbEntity
  8
0
100
AcDbLine
 10
45.46873499999999
 20
831.6715
 30
0.0
 11
52.26873499999999
 21
836.1214999999999
 31
0.0
  0
LINE
  5
143
330
1E
100
AcDbEntity
  8
0
100
AcDbLine
 10
45.66873499999999
 20
810.3814999999999
 30
0.0
 11
47.06873499999999
 21
805.6815
 31
0.0
  0
LINE
  5
144
330
1E
100
AcDbEntity
  8
0
100
AcDbLine
 10
45.66873499999999
 20
810.3814999999999
 30
0.0
 11
46.96873499999999
 21
815.4315
 31
0.0
  0
LINE
  5
145
330
1E
100
AcDbEntity
  8
0
100
AcDbLine
 10
45.46873499999999
 20
836.0015
 30
0.0
 11
45.968735
 21
836.3915
 31
0.0
  0
LINE
  5
147
330
1E
100
AcDbEntity
  8
0
100
AcDbLine
 10
45.46873499999999
 20
836.8714999999999
 30
0.0
 11
52.26873499999999
 21
841.3215
 31
0.0
  0
LINE
  5
148
330
1E
100
AcDbEntity
  8
0
100
AcDbLine
 10
46.56873499999999
 20
805.9815
 30
0.0
 11
50.268735
 21
801.5315000000001
 31
0.0
  0
LINE
  5
149
330
1E
100
AcDbEntity
  8
0
100
AcDbLine
 10
46.56873499999999
 20
815.4814999999999
 30
0.0
 11
50.268735
 21
819.9315
 31
0.0
  0
LINE
  5
14A
330
1E
100
AcDbEntity
  8
0
100
AcDbLine
 10
45.968735
 20
830.7615
 30
0.0
 11
52.968735
 21
835.3415
 31
0.0
  0
LINE
  5
14C
330
1E
100
AcDbEntity
  8
0
100
AcDbLine
 10
45.968735
 20
836.3915
 30
0.0
 11
52.568735
 21
840.7415
 31
0.0
  0
LINE
  5
14E
330
1E
100
AcDbEntity
  8
0
100
AcDbLine
 10
46.578235
 20
974.4815
 30
0.0
 11
49.27823499999999
 21
974.4815
 31
0.0
  0
LINE
  5
14F
330
1E
100
AcDbEntity
  8
0
100
AcDbLine
 10
44.27823499999999
 20
974.4815
 30
0.0
 11
46.578235
 21
974.4815
 31
0.0
  0
LINE
  5
150
330
1E
100
AcDbEntity
  8
0
100
AcDbLine
 10
44.678235
 20
974.9814999999999
 30
0.0
 11
46.87823499999999
 21
974.9814999999999
 31
0.0
  0
LINE
  5
151
330
1E
100
AcDbEntity
  8
0
100
AcDbLine
 10
46.578235
 20
975.4815
 30
0.0
 11
49.27823499999999
 21
975.4815
 31
0.0
  0
LINE
  5
152
330
1E
100
AcDbEntity
  8
0
100
AcDbLine
 10
44.27823499999999
 20
975.4815
 30
0.0
 11
46.578235
 21
975.4815
 31
0.0
  0
LINE
  5
157
330
1E
100
AcDbEntity
  8
0
100
AcDbLine
 10
46.87823499999999
 20
974.9814999999999
 30
0.0
 11
49.378235
 21
974.9814999999999
 31
0.0
  0
LINE
  5
158
330
1E
100
AcDbEntity
  8
0
100
AcDbLine
 10
46.578235
 20
1026.4815
 30
0.0
 11
49.27823499999999
 21
1026.4815
 31
0.0
  0
LINE
  5
159
330
1E
100
AcDbEntity
  8
0
100
AcDbLine
 10
44.27823499999999
 20
1026.4815
 30
0.0
 11
46.578235
 21
1026.4815
 31
0.0
  0
LINE
  5
15A
330
1E
100
AcDbEntity
  8
0
100
AcDbLine
 10
47.06873499999999
 20
805.6815
 30
0.0
 11
50.66873499999999
 21
801.3315
 31
0.0
  0
LINE
  5
15B
330
1E
100
AcDbEntity
  8
0
100
AcDbLine
 10
47.168735
 20
804.6314999999999
 30
0.0
 11
49.368735
 21
802.1015
 31
0.0
  0
LINE
  5
15C
330
1E
100
AcDbEntity
  8
0
100
AcDbLine
 10
46.96873499999999
 20
815.4315
 30
0.0
 11
50.568735
 21
819.8315
 31
0.0
  0
LINE
  5
15D
330
1E
100
AcDbEntity
  8
0
100
AcDbLine
 10
47.85413499999999
 20
840.7115000000001
 30
0.0
 11
52.334235
 21
845.4515
 31
0.0
  0
LINE
  5
15E
330
1E
100
AcDbEntity
  8
0
100
AcDbLine
 10
49.27823499999999
 20
974.4815
 30
0.0
 11
52.07823499999999
 21
974.4815
 31
0.0
  0
LINE
  5
15F
330
1E
100
AcDbEntity
  8
0
100
AcDbLine
 10
49.27823499999999
 20
975.4815
 30
0.0
 11
52.07823499999999
 21
975.4815
 31
0.0
  0
LINE
  5
160
330
1E
100
AcDbEntity
  8
0
100
AcDbLine
 10
50.66873499999999
 20
801.3315
 30
0.0
 11
52.968735
 21
799.6315
 31
0.0
  0
LINE
  5
161
330
1E
100
AcDbEntity
  8
0
100
AcDbLine
 10
50.268735
 20
801.5315000000001
 30
0.0
 11
51.37558244606349
 21
800.809047539866
 31
0.0
  0
LINE
  5
162
330
1E
100
AcDbEntity
  8
0
100
AcDbLine
 10
49.368735
 20
802.1015
 30
0.0
 11
50.268735
 21
801.5315000000001
 31
0.0
  0
LINE
  5
163
330
1E
100
AcDbEntity
  8
0
100
AcDbLine
 10
51.282135
 20
805.2714999999999
 30
0.0
 11
51.870735
 21
804.7914999999999
 31
0.0
  0
LINE
  5
164
330
1E
100
AcDbEntity
  8
0
100
AcDbLine
 10
51.870735
 20
804.7914999999999
 30
0.0
 11
52.45923499999999
 21
804.6115
 31
0.0
  0
LINE
  5
165
330
1E
100
AcDbEntity
  8
0
100
AcDbLine
 10
50.568735
 20
819.8315
 30
0.0
 11
56.46873499999999
 21
823.6314999999999
 31
0.0
  0
LINE
  5
166
330
1E
100
AcDbEntity
  8
0
100
AcDbLine
 10
50.268735
 20
819.9315
 30
0.0
 11
56.168735
 21
823.7815000000001
 31
0.0
  0
LINE
  5
167
330
1E
100
AcDbEntity
  8
0
100
AcDbLine
 10
51.870735
 20
805.7915000000001
 30
0.0
 11
52.45923499999999
 21
805.3115
 31
0.0
  0
LINE
  5
169
330
1E
100
AcDbEntity
  8
0
100
AcDbLine
 10
51.282135
 20
805.9715
 30
0.0
 11
51.870735
 21
805.7915000000001
 31
0.0
  0
LINE
  5
16B
330
1E
100
AcDbEntity
  8
0
100
AcDbLine
 10
51.029935
 20
805.7615
 30
0.0
 11
51.282135
 21
805.9715
 31
0.0
  0
LINE
  5
16C
330
1E
100
AcDbEntity
  8
0
100
AcDbLine
 10
51.029935
 20
805.7615
 30
0.0
 11
51.282135
 21
805.2714999999999
 31
0.0
  0
LINE
  5
16E
330
1E
100
AcDbEntity
  8
0
100
AcDbLine
 10
52.154435
 20
801.9614999999999
 30
0.0
 11
52.64533499999999
 21
801.8515
 31
0.0
  0
LINE
  5
171
330
1E
100
AcDbEntity
  8
0
100
AcDbLine
 10
52.092035
 20
801.7314999999999
 30
0.0
 11
52.516835
 21
801.2814999999999
 31
0.0
  0
LINE
  5
172
330
1E
100
AcDbEntity
  8
0
100
AcDbLine
 10
52.092035
 20
801.7314999999999
 30
0.0
 11
52.154435
 21
801.9614999999999
 31
0.0
  0
LINE
  5
173
330
1E
100
AcDbEntity
  8
0
100
AcDbLine
 10
52.154435
 20
809.2915000000001
 30
0.0
 11
52.64533499999999
 21
808.7415
 31
0.0
  0
LINE
  5
174
330
1E
100
AcDbEntity
  8
0
100
AcDbLine
 10
52.092035
 20
809.8015
 30
0.0
 11
52.516835
 21
809.9714999999999
 31
0.0
  0
LINE
  5
175
330
1E
100
AcDbEntity
  8
0
100
AcDbLine
 10
52.092035
 20
809.8015
 30
0.0
 11
52.154435
 21
809.2915000000001
 31
0.0
  0
LINE
  5
177
330
1E
100
AcDbEntity
  8
0
100
AcDbLine
 10
52.45923499999999
 20
804.6115
 30
0.0
 11
52.71143499999999
 21
804.8215
 31
0.0
  0
LINE
  5
178
330
1E
100
AcDbEntity
  8
0
100
AcDbLine
 10
52.968735
 20
799.6315
 30
0.0
 11
55.1017117980565
 21
798.22333286483
 31
0.0
  0
LINE
  5
179
330
1E
100
AcDbEntity
  8
0
100
AcDbLine
 10
53.653735
 20
800.7815
 30
0.0
 11
53.716235
 21
801.0114999999998
 31
0.0
  0
LINE
  5
17B
330
1E
100
AcDbEntity
  8
0
100
AcDbLine
 10
52.64533499999999
 20
801.8515
 30
0.0
 11
53.291435
 21
801.4514999999999
 31
0.0
  0
LINE
  5
17E
330
1E
100
AcDbEntity
  8
0
100
AcDbLine
 10
53.291435
 20
801.4514999999999
 30
0.0
 11
53.716235
 21
801.0114999999998
 31
0.0
  0
LINE
  5
180
330
1E
100
AcDbEntity
  8
0
100
AcDbLine
 10
53.162935
 20
800.8815
 30
0.0
 11
53.653735
 21
800.7815
 31
0.0
  0
LINE
  5
181
330
1E
100
AcDbEntity
  8
0
100
AcDbLine
 10
52.516835
 20
801.2814999999999
 30
0.0
 11
53.162935
 21
800.8815
 31
0.0
  0
LINE
  5
182
330
1E
100
AcDbEntity
  8
0
100
AcDbLine
 10
52.64533499999999
 20
808.7415
 30
0.0
 11
53.291435
 21
808.4815
 31
0.0
  0
LINE
  5
183
330
1E
100
AcDbEntity
  8
0
100
AcDbLine
 10
53.291435
 20
808.4815
 30
0.0
 11
53.716235
 21
808.6515
 31
0.0
  0
LINE
  5
185
330
1E
100
AcDbEntity
  8
0
100
AcDbLine
 10
53.653735
 20
809.1615
 30
0.0
 11
53.716235
 21
808.6515
 31
0.0
  0
LINE
  5
189
330
1E
100
AcDbEntity
  8
0
100
AcDbLine
 10
53.162935
 20
809.7115
 30
0.0
 11
53.653735
 21
809.1615
 31
0.0
  0
LINE
  5
18B
330
1E
100
AcDbEntity
  8
0
100
AcDbLine
 10
52.516835
 20
809.9714999999999
 30
0.0
 11
53.162935
 21
809.7115
 31
0.0
  0
LINE
  5
18E
330
1E
100
AcDbEntity
  8
0
100
AcDbLine
 10
52.45923499999999
 20
805.3115
 30
0.0
 11
52.71143499999999
 21
804.8215
 31
0.0
  0
LINE
  5
190
330
1E
100
AcDbEntity
  8
0
100
AcDbLine
 10
52.26873499999999
 20
836.1214999999999
 30
0.0
 11
61.168735
 21
839.5215
 31
0.0
  0
LINE
  5
192
330
1E
100
AcDbEntity
  8
0
100
AcDbLine
 10
52.968735
 20
835.3415
 30
0.0
 11
61.668735
 21
838.6414999999999
 31
0.0
  0
LINE
  5
193
330
1E
100
AcDbEntity
  8
0
100
AcDbLine
 10
52.334235
 20
845.4515
 30
0.0
 11
57.832335
 21
849.0615
 31
0.0
  0
LINE
  5
194
330
1E
100
AcDbEntity
  8
0
100
AcDbLine
 10
52.568735
 20
840.7415
 30
0.0
 11
61.268735
 21
844.0414999999999
 31
0.0
  0
LINE
  5
195
330
1E
100
AcDbEntity
  8
0
100
AcDbLine
 10
52.26873499999999
 20
841.3215
 30
0.0
 11
61.168735
 21
844.7214999999999
 31
0.0
  0
LINE
  5
197
330
1E
100
AcDbEntity
  8
0
100
AcDbLine
 10
52.07823499999999
 20
974.4815
 30
0.0
 11
54.878235
 21
974.4815
 31
0.0
  0
LINE
  5
198
330
1E
100
AcDbEntity
  8
0
100
AcDbLine
 10
52.07823499999999
 20
974.9814999999999
 30
0.0
 11
54.77823499999999
 21
974.9814999999999
 31
0.0
  0
LINE
  5
199
330
1E
100
AcDbEntity
  8
0
100
AcDbLine
 10
55.079035
 20
798.1815
 30
0.0
 11
55.438635
 21
798.1314999999999
 31
0.0
  0
LINE
  5
19A
330
1E
100
AcDbEntity
  8
0
100
AcDbLine
 10
55.079035
 20
798.1815
 30
0.0
 11
55.210535
 21
797.9605
 31
0.0
  0
LINE
  5
19C
330
1E
100
AcDbEntity
  8
0
100
AcDbLine
 10
55.210535
 20
797.9605
 30
0.0
 11
55.779035
 21
797.5795
 31
0.0
  0
LINE
  5
19E
330
1E
100
AcDbEntity
  8
0
100
AcDbLine
 10
55.079035
 20
813.0615
 30
0.0
 11
55.438635
 21
812.4615
 31
0.0
  0
LINE
  5
19F
330
1E
100
AcDbEntity
  8
0
100
AcDbLine
 10
55.079035
 20
813.0615
 30
0.0
 11
55.210535
 21
813.5715000000001
 31
0.0
  0
LINE
  5
1A0
330
1E
100
AcDbEntity
  8
0
100
AcDbLine
 10
55.438635
 20
798.1314999999999
 30
0.0
 11
56.098335
 21
797.8234999999999
 31
0.0
  0
LINE
  5
1A2
330
1E
100
AcDbEntity
  8
0
100
AcDbLine
 10
56.098335
 20
797.8234999999999
 30
0.0
 11
56.66673499999999
 21
797.4425
 31
0.0
  0
LINE
  5
1A4
330
1E
100
AcDbEntity
  8
0
100
AcDbLine
 10
56.438635
 20
797.2685
 30
0.0
 11
56.79833499999999
 21
797.2175
 31
0.0
  0
LINE
  5
1A6
330
1E
100
AcDbEntity
  8
0
100
AcDbLine
 10
55.779035
 20
797.5795
 30
0.0
 11
56.438635
 21
797.2685
 31
0.0
  0
LINE
  5
1A8
330
1E
100
AcDbEntity
  8
0
100
AcDbLine
 10
55.438635
 20
812.4615
 30
0.0
 11
56.098335
 21
812.1114999999999
 31
0.0
  0
LINE
  5
1A9
330
1E
100
AcDbEntity
  8
0
100
AcDbLine
 10
56.098335
 20
812.1114999999999
 30
0.0
 11
56.66673499999999
 21
812.2115
 31
0.0
  0
LINE
  5
1AA
330
1E
100
AcDbEntity
  8
0
100
AcDbLine
 10
56.5779304560313
 20
797.2487500187449
 30
0.0
 11
58.268735
 21
796.1325
 31
0.0
  0
LINE
  5
1AC
330
1E
100
AcDbEntity
  8
0
100
AcDbLine
 10
56.66673499999999
 20
797.4425
 30
0.0
 11
56.79833499999999
 21
797.2175
 31
0.0
  0
LINE
  5
1AE
330
1E
100
AcDbEntity
  8
0
100
AcDbLine
 10
57.132335
 20
801.5015
 30
0.0
 11
57.496635
 21
801.0614999999999
 31
0.0
  0
LINE
  5
1AF
330
1E
100
AcDbEntity
  8
0
100
AcDbLine
 10
57.132335
 20
801.5015
 30
0.0
 11
57.313935
 21
801.7614999999999
 31
0.0
  0
LINE
  5
1B1
330
1E
100
AcDbEntity
  8
0
100
AcDbLine
 10
57.313935
 20
801.7614999999999
 30
0.0
 11
57.911735
 21
801.7115
 31
0.0
  0
LINE
  5
1B3
330
1E
100
AcDbEntity
  8
0
100
AcDbLine
 10
57.911735
 20
801.7115
 30
0.0
 11
58.587835
 21
801.3614999999999
 31
0.0
  0
LINE
  5
1B4
330
1E
100
AcDbEntity
  8
0
100
AcDbLine
 10
58.17273499999999
 20
800.7215
 30
0.0
 11
58.77053499999999
 21
800.6714999999999
 31
0.0
  0
LINE
  5
1B5
330
1E
100
AcDbEntity
  8
0
100
AcDbLine
 10
57.496635
 20
801.0614999999999
 30
0.0
 11
58.17273499999999
 21
800.7215
 31
0.0
  0
LINE
  5
1B6
330
1E
100
AcDbEntity
  8
0
100
AcDbLine
 10
57.313935
 20
804.3314999999999
 30
0.0
 11
57.911735
 21
803.9015
 31
0.0
  0
LINE
  5
1B7
330
1E
100
AcDbEntity
  8
0
100
AcDbLine
 10
57.911735
 20
803.9015
 30
0.0
 11
58.587835
 21
803.7614999999998
 31
0.0
  0
LINE
  5
1B8
330
1E
100
AcDbEntity
  8
0
100
AcDbLine
 10
58.268735
 20
796.1325
 30
0.0
 11
60.0761998059336
 21
795.448245466325
 31
0.0
  0
LINE
  5
1B9
330
1E
100
AcDbEntity
  8
0
100
AcDbLine
 10
58.587835
 20
801.3614999999999
 30
0.0
 11
58.952135
 21
800.9315
 31
0.0
  0
LINE
  5
1BB
330
1E
100
AcDbEntity
  8
0
100
AcDbLine
 10
58.77053499999999
 20
800.6714999999999
 30
0.0
 11
58.952135
 21
800.9315
 31
0.0
  0
LINE
  5
1BC
330
1E
100
AcDbEntity
  8
0
100
AcDbLine
 10
58.82943499999999
 20
798.5714999999999
 30
0.0
 11
59.308135
 21
798.5915
 31
0.0
  0
LINE
  5
1BD
330
1E
100
AcDbEntity
  8
0
100
AcDbLine
 10
58.82943499999999
 20
798.5714999999999
 30
0.0
 11
58.842935
 21
798.3015
 31
0.0
  0
LINE
  5
1BF
330
1E
100
AcDbEntity
  8
0
100
AcDbLine
 10
58.842935
 20
798.3015
 30
0.0
 11
59.36523499999999
 21
797.9255000000001
 31
0.0
  0
LINE
  5
1C0
330
1E
100
AcDbEntity
  8
0
100
AcDbLine
 10
58.587835
 20
803.7614999999998
 30
0.0
 11
58.952135
 21
803.9915
 31
0.0
  0
LINE
  5
1C1
330
1E
100
AcDbEntity
  8
0
100
AcDbLine
 10
58.77053499999999
 20
804.4615
 30
0.0
 11
58.952135
 21
803.9915
 31
0.0
  0
LINE
  5
1C2
330
1E
100
AcDbEntity
  8
0
100
AcDbLine
 10
58.17273499999999
 20
804.8914999999999
 30
0.0
 11
58.77053499999999
 21
804.4615
 31
0.0
  0
LINE
  5
1C3
330
1E
100
AcDbEntity
  8
0
100
AcDbLine
 10
57.496635
 20
805.0214999999999
 30
0.0
 11
58.17273499999999
 21
804.8914999999999
 31
0.0
  0
LINE
  5
1C4
330
1E
100
AcDbEntity
  8
0
100
AcDbLine
 10
57.132335
 20
804.8015000000001
 30
0.0
 11
57.496635
 21
805.0214999999999
 31
0.0
  0
LINE
  5
1C5
330
1E
100
AcDbEntity
  8
0
100
AcDbLine
 10
57.132335
 20
804.8015000000001
 30
0.0
 11
57.313935
 21
804.3314999999999
 31
0.0
  0
LINE
  5
1C7
330
1E
100
AcDbEntity
  8
0
100
AcDbLine
 10
58.82943499999999
 20
807.5115
 30
0.0
 11
59.308135
 21
807.0114999999999
 31
0.0
  0
LINE
  5
1C8
330
1E
100
AcDbEntity
  8
0
100
AcDbLine
 10
58.82943499999999
 20
807.5115
 30
0.0
 11
58.842935
 21
807.9914999999999
 31
0.0
  0
LINE
  5
1CA
330
1E
100
AcDbEntity
  8
0
100
AcDbLine
 10
59.308135
 20
798.5915
 30
0.0
 11
60.01653499999999
 21
798.3414999999999
 31
0.0
  0
LINE
  5
1CD
330
1E
100
AcDbEntity
  8
0
100
AcDbLine
 10
59.36523499999999
 20
797.9255000000001
 30
0.0
 11
60.073535
 21
797.6695
 31
0.0
  0
LINE
  5
1CE
330
1E
100
AcDbEntity
  8
0
100
AcDbLine
 10
59.308135
 20
807.0114999999999
 30
0.0
 11
60.01653499999999
 21
806.7915000000001
 31
0.0
  0
LINE
  5
1CF
330
1E
100
AcDbEntity
  8
0
100
AcDbLine
 10
59.36523499999999
 20
808.1615000000001
 30
0.0
 11
60.073535
 21
807.9315000000001
 31
0.0
  0
LINE
  5
1D1
330
1E
100
AcDbEntity
  8
0
100
AcDbLine
 10
58.842935
 20
807.9914999999999
 30
0.0
 11
59.36523499999999
 21
808.1615000000001
 31
0.0
  0
LINE
  5
1D4
330
1E
100
AcDbEntity
  8
0
100
AcDbLine
 10
56.66673499999999
 20
812.2115
 30
0.0
 11
56.79833499999999
 21
812.7214999999999
 31
0.0
  0
LINE
  5
1D6
330
1E
100
AcDbEntity
  8
0
100
AcDbLine
 10
56.438635
 20
813.3214999999999
 30
0.0
 11
56.79833499999999
 21
812.7214999999999
 31
0.0
  0
LINE
  5
1D7
330
1E
100
AcDbEntity
  8
0
100
AcDbLine
 10
56.46873499999999
 20
823.6314999999999
 30
0.0
 11
64.068735
 21
826.5814999999999
 31
0.0
  0
LINE
  5
1D8
330
1E
100
AcDbEntity
  8
0
100
AcDbLine
 10
56.168735
 20
823.7815000000001
 30
0.0
 11
63.868735
 21
826.7314999999999
 31
0.0
  0
LINE
  5
1D9
330
1E
100
AcDbEntity
  8
0
100
AcDbLine
 10
55.779035
 20
813.6715
 30
0.0
 11
56.438635
 21
813.3214999999999
 31
0.0
  0
LINE
  5
1DB
330
1E
100
AcDbEntity
  8
0
100
AcDbLine
 10
55.210535
 20
813.5715000000001
 30
0.0
 11
55.779035
 21
813.6715
 31
0.0
  0
LINE
  5
1DD
330
1E
100
AcDbEntity
  8
0
100
AcDbLine
 10
57.832335
 20
849.0615
 30
0.0
 11
62.821435
 21
851.3814999999999
 31
0.0
  0
LINE
  5
1DE
330
1E
100
AcDbEntity
  8
0
100
AcDbLine
 10
54.878235
 20
974.4815
 30
0.0
 11
57.578235
 21
974.4815
 31
0.0
  0
LINE
  5
1DF
330
1E
100
AcDbEntity
  8
0
100
AcDbLine
 10
57.578235
 20
974.4815
 30
0.0
 11
59.878235
 21
974.4815
 31
0.0
  0
LINE
  5
1E0
330
1E
100
AcDbEntity
  8
0
100
AcDbLine
 10
54.77823499999999
 20
974.9814999999999
 30
0.0
 11
57.27823499999999
 21
974.9814999999999
 31
0.0
  0
LINE
  5
1E1
330
1E
100
AcDbEntity
  8
0
100
AcDbLine
 10
57.27823499999999
 20
974.9814999999999
 30
0.0
 11
59.478235
 21
974.9814999999999
 31
0.0
  0
LINE
  5
1E2
330
1E
100
AcDbEntity
  8
0
100
AcDbLine
 10
59.856435
 20
794.9205
 30
0.0
 11
60.060435
 21
794.9065
 31
0.0
  0
LINE
  5
1E3
330
1E
100
AcDbEntity
  8
0
100
AcDbLine
 10
59.856435
 20
794.9205
 30
0.0
 11
60.173135
 21
794.7245
 31
0.0
  0
LINE
  5
1E4
330
1E
100
AcDbEntity
  8
0
100
AcDbLine
 10
59.856435
 20
794.9205
 30
0.0
 11
60.2986629159807
 21
795.9824706679139
 31
0.0
  0
LINE
  5
1E5
330
1E
100
AcDbEntity
  8
0
100
AcDbLine
 10
59.856435
 20
794.9205
 30
0.0
 11
60.2986629159807
 21
795.9824706679139
 31
0.0
  0
LINE
  5
1E6
330
1E
100
AcDbEntity
  8
0
100
AcDbLine
 10
59.856435
 20
816.3315
 30
0.0
 11
60.060435
 21
815.6914999999999
 31
0.0
  0
LINE
  5
1E7
330
1E
100
AcDbEntity
  8
0
100
AcDbLine
 10
59.856435
 20
816.3315
 30
0.0
 11
60.173135
 21
816.8115
 31
0.0
  0
LINE
  5
1E8
330
1E
100
AcDbEntity
  8
0
100
AcDbLine
 10
60.060435
 20
794.9065
 30
0.0
 11
60.688735
 21
794.6805
 31
0.0
  0
LINE
  5
1EA
330
1E
100
AcDbEntity
  8
0
100
AcDbLine
 10
60.01653499999999
 20
798.3414999999999
 30
0.0
 11
60.53873499999999
 21
797.9635
 31
0.0
  0
LINE
  5
1EC
330
1E
100
AcDbEntity
  8
0
100
AcDbLine
 10
60.073535
 20
797.6695
 30
0.0
 11
60.552235
 21
797.6905
 31
0.0
  0
LINE
  5
1ED
330
1E
100
AcDbEntity
  8
0
100
AcDbLine
 10
60.01653499999999
 20
806.7915000000001
 30
0.0
 11
60.53873499999999
 21
806.9515
 31
0.0
  0
LINE
  5
1EE
330
1E
100
AcDbEntity
  8
0
100
AcDbLine
 10
60.173135
 20
794.7245
 30
0.0
 11
60.846435
 21
794.4255
 31
0.0
  0
LINE
  5
1F0
330
1E
100
AcDbEntity
  8
0
100
AcDbLine
 10
60.688735
 20
794.6805
 30
0.0
 11
61.362035
 21
794.3814999999999
 31
0.0
  0
LINE
  5
1F3
330
1E
100
AcDbEntity
  8
0
100
AcDbLine
 10
60.53873499999999
 20
797.9635
 30
0.0
 11
60.552235
 21
797.6905
 31
0.0
  0
LINE
  5
1F5
330
1E
100
AcDbEntity
  8
0
100
AcDbLine
 10
60.53873499999999
 20
806.9515
 30
0.0
 11
60.552235
 21
807.4315
 31
0.0
  0
LINE
  5
1F7
330
1E
100
AcDbEntity
  8
0
100
AcDbLine
 10
60.073535
 20
807.9315000000001
 30
0.0
 11
60.552235
 21
807.4315
 31
0.0
  0
LINE
  5
1F9
330
1E
100
AcDbEntity
  8
0
100
AcDbLine
 10
60.060435
 20
815.6914999999999
 30
0.0
 11
60.688735
 21
815.2614999999999
 31
0.0
  0
LINE
  5
1FA
330
1E
100
AcDbEntity
  8
0
100
AcDbLine
 10
60.846435
 20
794.4255
 30
0.0
 11
61.474735
 21
794.1994999999999
 31
0.0
  0
LINE
  5
1FC
330
1E
100
AcDbEntity
  8
0
100
AcDbLine
 10
60.688735
 20
815.2614999999999
 30
0.0
 11
61.362035
 21
815.2714999999998
 31
0.0
  0
LINE
  5
1FD
330
1E
100
AcDbEntity
  8
0
100
AcDbLine
 10
60.846435
 20
816.8215
 30
0.0
 11
61.474735
 21
816.3914999999999
 31
0.0
  0
LINE
  5
1FE
330
1E
100
AcDbEntity
  8
0
100
AcDbLine
 10
60.173135
 20
816.8115
 30
0.0
 11
60.846435
 21
816.8215
 31
0.0
  0
LINE
  5
201
330
1E
100
AcDbEntity
  8
0
100
AcDbLine
 10
61.168735
 20
839.5215
 30
0.0
 11
71.368735
 21
841.6214999999999
 31
0.0
  0
LINE
  5
203
330
1E
100
AcDbEntity
  8
0
100
AcDbLine
 10
61.362035
 20
794.3814999999999
 30
0.0
 11
61.67873499999999
 21
794.1855
 31
0.0
  0
LINE
  5
205
330
1E
100
AcDbEntity
  8
0
100
AcDbLine
 10
61.474735
 20
794.1994999999999
 30
0.0
 11
61.67873499999999
 21
794.1855
 31
0.0
  0
LINE
  5
206
330
1E
100
AcDbEntity
  8
0
100
AcDbLine
 10
61.474735
 20
794.1994999999999
 30
0.0
 11
61.5118970689472
 21
794.288753029638
 31
0.0
  0
LINE
  5
207
330
1E
100
AcDbEntity
  8
0
100
AcDbLine
 10
61.362035
 20
815.2714999999998
 30
0.0
 11
61.67873499999999
 21
815.7515
 31
0.0
  0
LINE
  5
208
330
1E
100
AcDbEntity
  8
0
100
AcDbLine
 10
61.362035
 20
815.2714999999998
 30
0.0
 11
61.7007107418807
 21
815.7491309757519
 31
0.0
  0
LINE
  5
209
330
1E
100
AcDbEntity
  8
0
100
AcDbLine
 10
61.91470684760139
 20
794.752239229122
 30
0.0
 11
65.26873499999999
 21
793.4825
 31
0.0
  0
LINE
  5
20A
330
1E
100
AcDbEntity
  8
0
100
AcDbLine
 10
61.67873499999999
 20
794.1855
 30
0.0
 11
62.0527006863853
 21
795.083662331543
 31
0.0
  0
LINE
  5
20B
330
1E
100
AcDbEntity
  8
0
100
AcDbLine
 10
61.942335
 20
795.6915
 30
0.0
 11
62.269335
 21
795.7654999999999
 31
0.0
  0
LINE
  5
20C
330
1E
100
AcDbEntity
  8
0
100
AcDbLine
 10
61.942335
 20
795.6915
 30
0.0
 11
62.15003499999999
 21
795.4335
 31
0.0
  0
LINE
  5
20E
330
1E
100
AcDbEntity
  8
0
100
AcDbLine
 10
62.15003499999999
 20
795.4335
 30
0.0
 11
62.79453499999999
 21
795.1365
 31
0.0
  0
LINE
  5
210
330
1E
100
AcDbEntity
  8
0
100
AcDbLine
 10
61.942335
 20
810.3914999999998
 30
0.0
 11
62.269335
 21
809.8414999999999
 31
0.0
  0
LINE
  5
211
330
1E
100
AcDbEntity
  8
0
100
AcDbLine
 10
61.942335
 20
810.3914999999998
 30
0.0
 11
62.15003499999999
 21
810.8615
 31
0.0
  0
LINE
  5
212
330
1E
100
AcDbEntity
  8
0
100
AcDbLine
 10
62.15003499999999
 20
810.8615
 30
0.0
 11
62.79453499999999
 21
810.9515
 31
0.0
  0
LINE
  5
214
330
1E
100
AcDbEntity
  8
0
100
AcDbLine
 10
61.474735
 20
816.3914999999999
 30
0.0
 11
61.67873499999999
 21
815.7515
 31
0.0
  0
LINE
  5
215
330
1E
100
AcDbEntity
  8
0
100
AcDbLine
 10
61.668735
 20
838.6414999999999
 30
0.0
 11
71.568735
 21
840.6914999999999
 31
0.0
  0
LINE
  5
216
330
1E
100
AcDbEntity
  8
0
100
AcDbLine
 10
61.268735
 20
844.0414999999999
 30
0.0
 11
71.46873499999999
 21
846.1414999999998
 31
0.0
  0
LINE
  5
217
330
1E
100
AcDbEntity
  8
0
100
AcDbLine
 10
61.168735
 20
844.7214999999999
 30
0.0
 11
71.368735
 21
846.8215
 31
0.0
  0
LINE
  5
218
330
1E
100
AcDbEntity
  8
0
100
AcDbLine
 10
59.878235
 20
974.4815
 30
0.0
 11
61.578235
 21
974.4815
 31
0.0
  0
LINE
  5
219
330
1E
100
AcDbEntity
  8
0
100
AcDbLine
 10
61.578235
 20
974.4815
 30
0.0
 11
62.678235
 21
974.4815
 31
0.0
  0
LINE
  5
21A
330
1E
100
AcDbEntity
  8
0
100
AcDbLine
 10
59.478235
 20
974.9814999999999
 30
0.0
 11
61.178235
 21
974.9814999999999
 31
0.0
  0
LINE
  5
21B
330
1E
100
AcDbEntity
  8
0
100
AcDbLine
 10
61.178235
 20
974.9814999999999
 30
0.0
 11
62.178235
 21
974.9814999999999
 31
0.0
  0
LINE
  5
21C
330
1E
100
AcDbEntity
  8
0
100
AcDbLine
 10
62.269335
 20
795.7654999999999
 30
0.0
 11
62.961635
 21
795.6014999999999
 31
0.0
  0
LINE
  5
21E
330
1E
100
AcDbEntity
  8
0
100
AcDbLine
 10
62.79453499999999
 20
795.1365
 30
0.0
 11
63.48683499999999
 21
794.9724999999999
 31
0.0
  0
LINE
  5
21F
330
1E
100
AcDbEntity
  8
0
100
AcDbLine
 10
62.269335
 20
809.8414999999999
 30
0.0
 11
62.961635
 21
809.5214999999999
 31
0.0
  0
LINE
  5
220
330
1E
100
AcDbEntity
  8
0
100
AcDbLine
 10
62.961635
 20
795.6014999999999
 30
0.0
 11
63.60623499999999
 21
795.3044999999999
 31
0.0
  0
LINE
  5
222
330
1E
100
AcDbEntity
  8
0
100
AcDbLine
 10
62.961635
 20
809.5214999999999
 30
0.0
 11
63.60623499999999
 21
809.6114999999999
 31
0.0
  0
LINE
  5
223
330
1E
100
AcDbEntity
  8
0
100
AcDbLine
 10
62.79453499999999
 20
810.9515
 30
0.0
 11
63.48683499999999
 21
810.6315
 31
0.0
  0
LINE
  5
225
330
1E
100
AcDbEntity
  8
0
100
AcDbLine
 10
62.821435
 20
851.3814999999999
 30
0.0
 11
68.625135
 21
853.5714999999999
 31
0.0
  0
LINE
  5
226
330
1E
100
AcDbEntity
  8
0
100
AcDbLine
 10
63.078235
 20
794.311760714286
 30
0.0
 11
63.078235
 21
704.9814999999999
 31
0.0
  0
LINE
  5
227
330
1E
100
AcDbEntity
  8
0
100
AcDbLine
 10
62.578235
 20
974.9814999999999
 30
0.0
 11
63.078235
 21
974.4815
 31
0.0
  0
LINE
  5
228
330
1E
100
AcDbEntity
  8
0
100
AcDbLine
 10
63.078235
 20
974.4815
 30
0.0
 11
63.078235
 21
851.4784023209331
 31
0.0
  0
LINE
  5
229
330
1E
100
AcDbEntity
  8
0
100
AcDbLine
 10
62.678235
 20
974.4815
 30
0.0
 11
63.078235
 21
974.4815
 31
0.0
  0
LINE
  5
22A
330
1E
100
AcDbEntity
  8
0
100
AcDbLine
 10
63.078235
 20
851.4784023209331
 30
0.0
 11
63.078235
 21
974.4815
 31
0.0
  0
LINE
  5
22B
330
1E
100
AcDbEntity
  8
0
100
AcDbLine
 10
69.26873499999999
 20
703.4244999999999
 30
0.0
 11
69.736735
 21
701.5534999999999
 31
0.0
  0
LINE
  5
22C
330
1E
100
AcDbEntity
  8
0
100
AcDbLine
 10
69.736735
 20
701.5534999999999
 30
0.0
 11
70.984735
 21
699.7084999999999
 31
0.0
  0
LINE
  5
22D
330
1E
100
AcDbEntity
  8
0
100
AcDbLine
 10
70.984735
 20
699.7084999999999
 30
0.0
 11
73.064735
 21
698.0785
 31
0.0
  0
LINE
  5
22E
330
1E
100
AcDbEntity
  8
0
100
AcDbLine
 10
63.48683499999999
 20
794.9724999999999
 30
0.0
 11
63.813935
 21
795.0454999999999
 31
0.0
  0
LINE
  5
230
330
1E
100
AcDbEntity
  8
0
100
AcDbLine
 10
63.60623499999999
 20
795.3044999999999
 30
0.0
 11
63.813935
 21
795.0454999999999
 31
0.0
  0
LINE
  5
232
330
1E
100
AcDbEntity
  8
0
100
AcDbLine
 10
63.590635
 20
798.9514999999999
 30
0.0
 11
64.053135
 21
798.5915
 31
0.0
  0
LINE
  5
233
330
1E
100
AcDbEntity
  8
0
100
AcDbLine
 10
63.590635
 20
798.9514999999999
 30
0.0
 11
63.690835
 21
799.2614999999999
 31
0.0
  0
LINE
  5
235
330
1E
100
AcDbEntity
  8
0
100
AcDbLine
 10
63.590635
 20
803.9514999999999
 30
0.0
 11
64.053135
 21
804.1814999999999
 31
0.0
  0
LINE
  5
236
330
1E
100
AcDbEntity
  8
0
100
AcDbLine
 10
63.590635
 20
803.9514999999999
 30
0.0
 11
63.690835
 21
803.5114999999999
 31
0.0
  0
LINE
  5
239
330
1E
100
AcDbEntity
  8
0
100
AcDbLine
 10
63.690835
 20
799.2614999999999
 30
0.0
 11
64.269535
 21
799.3515
 31
0.0
  0
LINE
  5
23B
330
1E
100
AcDbEntity
  8
0
100
AcDbLine
 10
64.053135
 20
798.5915
 30
0.0
 11
64.78713499999999
 21
798.3814999999999
 31
0.0
  0
LINE
  5
23C
330
1E
100
AcDbEntity
  8
0
100
AcDbLine
 10
63.690835
 20
803.5114999999999
 30
0.0
 11
64.269535
 21
803.1314999999999
 31
0.0
  0
LINE
  5
23D
330
1E
100
AcDbEntity
  8
0
100
AcDbLine
 10
64.269535
 20
799.3515
 30
0.0
 11
65.003535
 21
799.1515
 31
0.0
  0
LINE
  5
23F
330
1E
100
AcDbEntity
  8
0
100
AcDbLine
 10
65.26873499999999
 20
793.4825
 30
0.0
 11
66.4037702537615
 21
793.186174724822
 31
0.0
  0
LINE
  5
240
330
1E
100
AcDbEntity
  8
0
100
AcDbLine
 10
65.003535
 20
799.1515
 30
0.0
 11
65.46603499999999
 21
798.7915
 31
0.0
  0
LINE
  5
242
330
1E
100
AcDbEntity
  8
0
100
AcDbLine
 10
65.36593499999999
 20
798.4715
 30
0.0
 11
65.46603499999999
 21
798.7915
 31
0.0
  0
LINE
  5
243
330
1E
100
AcDbEntity
  8
0
100
AcDbLine
 10
64.78713499999999
 20
798.3814999999999
 30
0.0
 11
65.36593499999999
 21
798.4715
 31
0.0
  0
LINE
  5
244
330
1E
100
AcDbEntity
  8
0
100
AcDbLine
 10
64.269535
 20
803.1314999999999
 30
0.0
 11
65.003535
 21
803.0415000000001
 31
0.0
  0
LINE
  5
245
330
1E
100
AcDbEntity
  8
0
100
AcDbLine
 10
65.003535
 20
803.0415000000001
 30
0.0
 11
65.46603499999999
 21
803.2815000000001
 31
0.0
  0
LINE
  5
246
330
1E
100
AcDbEntity
  8
0
100
AcDbLine
 10
66.211635
 20
792.3825
 30
0.0
 11
66.76573499999999
 21
792.2335
 31
0.0
  0
LINE
  5
247
330
1E
100
AcDbEntity
  8
0
100
AcDbLine
 10
66.211635
 20
792.3825
 30
0.0
 11
66.4692262186132
 21
793.2983904614521
 31
0.0
  0
LINE
  5
248
330
1E
100
AcDbEntity
  8
0
100
AcDbLine
 10
66.17713499999999
 20
792.3804999999999
 30
0.0
 11
66.657335
 21
792.2365
 31
0.0
  0
LINE
  5
249
330
1E
100
AcDbEntity
  8
0
100
AcDbLine
 10
66.17713499999999
 20
792.3804999999999
 30
0.0
 11
66.43960109046479
 21
793.3135511987899
 31
0.0
  0
LINE
  5
24B
330
1E
100
AcDbEntity
  8
0
100
AcDbLine
 10
66.657335
 20
792.2365
 30
0.0
 11
67.389635
 21
792.0304999999999
 31
0.0
  0
LINE
  5
24C
330
1E
100
AcDbEntity
  8
0
100
AcDbLine
 10
66.76573499999999
 20
792.2335
 30
0.0
 11
67.498035
 21
792.0275
 31
0.0
  0
LINE
  5
24E
330
1E
100
AcDbEntity
  8
0
100
AcDbLine
 10
66.842635
 20
793.0864999999999
 30
0.0
 11
67.565635
 21
792.8795
 31
0.0
  0
LINE
  5
250
330
1E
100
AcDbEntity
  8
0
100
AcDbLine
 10
66.608035
 20
793.4115
 30
0.0
 11
67.23703499999999
 21
793.3345
 31
0.0
  0
LINE
  5
252
330
1E
100
AcDbEntity
  8
0
100
AcDbLine
 10
66.45493499999999
 20
793.3065
 30
0.0
 11
66.842635
 21
793.0864999999999
 31
0.0
  0
LINE
  5
253
330
1E
100
AcDbEntity
  8
0
100
AcDbLine
 10
66.45493499999999
 20
793.3065
 30
0.0
 11
66.608035
 21
793.4115
 31
0.0
  0
LINE
  5
256
330
1E
100
AcDbEntity
  8
0
100
AcDbLine
 10
65.36593499999999
 20
803.7214999999999
 30
0.0
 11
65.46603499999999
 21
803.2815000000001
 31
0.0
  0
LINE
  5
258
330
1E
100
AcDbEntity
  8
0
100
AcDbLine
 10
64.78713499999999
 20
804.0915
 30
0.0
 11
65.36593499999999
 21
803.7214999999999
 31
0.0
  0
LINE
  5
25A
330
1E
100
AcDbEntity
  8
0
100
AcDbLine
 10
64.053135
 20
804.1814999999999
 30
0.0
 11
64.78713499999999
 21
804.0915
 31
0.0
  0
LINE
  5
25D
330
1E
100
AcDbEntity
  8
0
100
AcDbLine
 10
63.60623499999999
 20
809.6114999999999
 30
0.0
 11
63.813935
 21
810.0815
 31
0.0
  0
LINE
  5
25F
330
1E
100
AcDbEntity
  8
0
100
AcDbLine
 10
66.211635
 20
818.2114999999999
 30
0.0
 11
66.76573499999999
 21
817.7015
 31
0.0
  0
LINE
  5
260
330
1E
100
AcDbEntity
  8
0
100
AcDbLine
 10
64.068735
 20
826.5814999999999
 30
0.0
 11
72.868735
 21
828.3815
 31
0.0
  0
LINE
  5
261
330
1E
100
AcDbEntity
  8
0
100
AcDbLine
 10
63.868735
 20
826.7314999999999
 30
0.0
 11
72.76873499999999
 21
828.5814999999999
 31
0.0
  0
LINE
  5
262
330
1E
100
AcDbEntity
  8
0
100
AcDbLine
 10
66.17713499999999
 20
818.8715
 30
0.0
 11
66.657335
 21
819.2915000000001
 31
0.0
  0
LINE
  5
263
330
1E
100
AcDbEntity
  8
0
100
AcDbLine
 10
66.17713499999999
 20
818.8715
 30
0.0
 11
66.211635
 21
818.2114999999999
 31
0.0
  0
LINE
  5
264
330
1E
100
AcDbEntity
  8
0
100
AcDbLine
 10
66.657335
 20
819.2915000000001
 30
0.0
 11
67.389635
 21
819.2215
 31
0.0
  0
LINE
  5
266
330
1E
100
AcDbEntity
  8
0
100
AcDbLine
 10
66.76573499999999
 20
817.7015
 30
0.0
 11
67.498035
 21
817.6314999999998
 31
0.0
  0
LINE
  5
267
330
1E
100
AcDbEntity
  8
0
100
AcDbLine
 10
66.842635
 20
813.2015
 30
0.0
 11
67.565635
 21
813.2115
 31
0.0
  0
LINE
  5
269
330
1E
100
AcDbEntity
  8
0
100
AcDbLine
 10
66.608035
 20
812.1914999999999
 30
0.0
 11
67.23703499999999
 21
811.7914999999999
 31
0.0
  0
LINE
  5
26A
330
1E
100
AcDbEntity
  8
0
100
AcDbLine
 10
66.45493499999999
 20
812.7815
 30
0.0
 11
66.842635
 21
813.2015
 31
0.0
  0
LINE
  5
26B
330
1E
100
AcDbEntity
  8
0
100
AcDbLine
 10
66.45493499999999
 20
812.7815
 30
0.0
 11
66.608035
 21
812.1914999999999
 31
0.0
  0
LINE
  5
26C
330
1E
100
AcDbEntity
  8
0
100
AcDbLine
 10
63.48683499999999
 20
810.6315
 30
0.0
 11
63.813935
 21
810.0815
 31
0.0
  0
LINE
  5
26E
330
1E
100
AcDbEntity
  8
0
100
AcDbLine
 10
67.24303499999999
 20
768.1205
 30
0.0
 11
67.54103499999999
 21
774.8664999999999
 31
0.0
  0
LINE
  5
26F
330
1E
100
AcDbEntity
  8
0
100
AcDbLine
 10
67.24303499999999
 20
749.5474999999999
 30
0.0
 11
67.46653499999999
 21
738.7765
 31
0.0
  0
LINE
  5
270
330
1E
100
AcDbEntity
  8
0
100
AcDbLine
 10
67.23703499999999
 20
793.3345
 30
0.0
 11
67.96003499999999
 21
793.1275
 31
0.0
  0
LINE
  5
272
330
1E
100
AcDbEntity
  8
0
100
AcDbLine
 10
67.389635
 20
792.0304999999999
 30
0.0
 11
67.943635
 21
791.8825
 31
0.0
  0
LINE
  5
273
330
1E
100
AcDbEntity
  8
0
100
AcDbLine
 10
67.498035
 20
792.0275
 30
0.0
 11
67.978135
 21
791.8835
 31
0.0
  0
LINE
  5
275
330
1E
100
AcDbEntity
  8
0
100
AcDbLine
 10
67.72676683033729
 20
792.84077811858
 30
0.0
 11
68.068735
 21
792.7514999999999
 31
0.0
  0
LINE
  5
276
330
1E
100
AcDbEntity
  8
0
100
AcDbLine
 10
67.565635
 20
792.8795
 30
0.0
 11
68.19473499999999
 21
792.8024999999999
 31
0.0
  0
LINE
  5
278
330
1E
100
AcDbEntity
  8
0
100
AcDbLine
 10
67.389635
 20
819.2215
 30
0.0
 11
67.943635
 21
818.7115
 31
0.0
  0
LINE
  5
279
330
1E
100
AcDbEntity
  8
0
100
AcDbLine
 10
67.498035
 20
817.6314999999998
 30
0.0
 11
67.978135
 21
818.0514999999999
 31
0.0
  0
LINE
  5
27A
330
1E
100
AcDbEntity
  8
0
100
AcDbLine
 10
67.565635
 20
813.2115
 30
0.0
 11
68.19473499999999
 21
812.8015000000001
 31
0.0
  0
LINE
  5
27C
330
1E
100
AcDbEntity
  8
0
100
AcDbLine
 10
67.23703499999999
 20
811.7914999999999
 30
0.0
 11
67.96003499999999
 21
811.7914999999999
 31
0.0
  0
LINE
  5
27D
330
1E
100
AcDbEntity
  8
0
100
AcDbLine
 10
67.54103499999999
 20
774.8664999999999
 30
0.0
 11
68.28603499999999
 21
783.7844999999999
 31
0.0
  0
LINE
  5
27E
330
1E
100
AcDbEntity
  8
0
100
AcDbLine
 10
67.09403499999999
 20
758.0244999999999
 30
0.0
 11
67.24303499999999
 21
768.1205
 31
0.0
  0
LINE
  5
27F
330
1E
100
AcDbEntity
  8
0
100
AcDbLine
 10
67.09403499999999
 20
758.0244999999999
 30
0.0
 11
67.24303499999999
 21
749.5474999999999
 31
0.0
  0
LINE
  5
280
330
1E
100
AcDbEntity
  8
0
100
AcDbLine
 10
67.46653499999999
 20
738.7765
 30
0.0
 11
67.76453499999999
 21
727.2714999999999
 31
0.0
  0
LINE
  5
281
330
1E
100
AcDbEntity
  8
0
100
AcDbLine
 10
68.068735
 20
792.7514999999999
 30
0.0
 11
72.04019024583671
 21
791.9456974863519
 31
0.0
  0
LINE
  5
282
330
1E
100
AcDbEntity
  8
0
100
AcDbLine
 10
67.978135
 20
791.8835
 30
0.0
 11
68.21396944246139
 21
792.7220321421089
 31
0.0
  0
LINE
  5
284
330
1E
100
AcDbEntity
  8
0
100
AcDbLine
 10
68.19473499999999
 20
792.8024999999999
 30
0.0
 11
68.347735
 21
792.9085
 31
0.0
  0
LINE
  5
285
330
1E
100
AcDbEntity
  8
0
100
AcDbLine
 10
68.19473499999999
 20
792.8024999999999
 30
0.0
 11
68.2280269740499
 21
792.9336710663189
 31
0.0
  0
LINE
  5
286
330
1E
100
AcDbEntity
  8
0
100
AcDbLine
 10
68.30163500000001
 20
794.9044999999999
 30
0.0
 11
68.57003500000001
 21
795.1055
 31
0.0
  0
LINE
  5
287
330
1E
100
AcDbEntity
  8
0
100
AcDbLine
 10
68.30163500000001
 20
794.9044999999999
 30
0.0
 11
68.59063499999999
 21
794.6164999999999
 31
0.0
  0
LINE
  5
289
330
1E
100
AcDbEntity
  8
0
100
AcDbLine
 10
68.57003500000001
 20
795.1055
 30
0.0
 11
69.26263500000001
 21
795.0934999999999
 31
0.0
  0
LINE
  5
28B
330
1E
100
AcDbEntity
  8
0
100
AcDbLine
 10
69.114835
 20
799.6315
 30
0.0
 11
69.499735
 21
799.2614999999999
 31
0.0
  0
LINE
  5
28C
330
1E
100
AcDbEntity
  8
0
100
AcDbLine
 10
69.114835
 20
799.6315
 30
0.0
 11
69.316935
 21
799.9615
 31
0.0
  0
LINE
  5
28E
330
1E
100
AcDbEntity
  8
0
100
AcDbLine
 10
69.26263500000001
 20
795.0934999999999
 30
0.0
 11
69.96353499999999
 21
794.8875000000001
 31
0.0
  0
LINE
  5
290
330
1E
100
AcDbEntity
  8
0
100
AcDbLine
 10
68.59063499999999
 20
794.6164999999999
 30
0.0
 11
69.291635
 21
794.4094999999999
 31
0.0
  0
LINE
  5
291
330
1E
100
AcDbEntity
  8
0
100
AcDbLine
 10
67.96003499999999
 20
793.1275
 30
0.0
 11
68.347735
 21
792.9085
 31
0.0
  0
LINE
  5
293
330
1E
100
AcDbEntity
  8
0
100
AcDbLine
 10
69.984235
 20
794.3985
 30
0.0
 11
70.252635
 21
794.5984999999999
 31
0.0
  0
LINE
  5
294
330
1E
100
AcDbEntity
  8
0
100
AcDbLine
 10
69.316935
 20
799.9615
 30
0.0
 11
69.962535
 21
800.0515
 31
0.0
  0
LINE
  5
296
330
1E
100
AcDbEntity
  8
0
100
AcDbLine
 10
69.962535
 20
800.0515
 30
0.0
 11
70.686335
 21
799.8515
 31
0.0
  0
LINE
  5
298
330
1E
100
AcDbEntity
  8
0
100
AcDbLine
 10
69.499735
 20
799.2614999999999
 30
0.0
 11
70.223535
 21
799.0615
 31
0.0
  0
LINE
  5
299
330
1E
100
AcDbEntity
  8
0
100
AcDbLine
 10
69.96353499999999
 20
794.8875000000001
 30
0.0
 11
70.252635
 21
794.5984999999999
 31
0.0
  0
LINE
  5
29B
330
1E
100
AcDbEntity
  8
0
100
AcDbLine
 10
69.291635
 20
794.4094999999999
 30
0.0
 11
69.984235
 21
794.3985
 31
0.0
  0
LINE
  5
29C
330
1E
100
AcDbEntity
  8
0
100
AcDbLine
 10
69.26263500000001
 20
807.1014999999999
 30
0.0
 11
69.96353499999999
 21
807.1815
 31
0.0
  0
LINE
  5
29D
330
1E
100
AcDbEntity
  8
0
100
AcDbLine
 10
68.30163500000001
 20
807.8714999999998
 30
0.0
 11
68.57003500000001
 21
807.3814999999999
 31
0.0
  0
LINE
  5
2A0
330
1E
100
AcDbEntity
  8
0
100
AcDbLine
 10
68.57003500000001
 20
807.3814999999999
 30
0.0
 11
69.26263500000001
 21
807.1014999999999
 31
0.0
  0
LINE
  5
2A1
330
1E
100
AcDbEntity
  8
0
100
AcDbLine
 10
69.96353499999999
 20
807.1815
 30
0.0
 11
70.252635
 21
807.5915
 31
0.0
  0
LINE
  5
2A2
330
1E
100
AcDbEntity
  8
0
100
AcDbLine
 10
70.223535
 20
799.0615
 30
0.0
 11
70.869035
 21
799.1615
 31
0.0
  0
LINE
  5
2A4
330
1E
100
AcDbEntity
  8
0
100
AcDbLine
 10
70.686335
 20
799.8515
 30
0.0
 11
71.071135
 21
799.4815
 31
0.0
  0
LINE
  5
2A6
330
1E
100
AcDbEntity
  8
0
100
AcDbLine
 10
70.869035
 20
799.1615
 30
0.0
 11
71.071135
 21
799.4815
 31
0.0
  0
LINE
  5
2A8
330
1E
100
AcDbEntity
  8
0
100
AcDbLine
 10
70.01443499999999
 20
802.6115
 30
0.0
 11
70.537735
 21
802.2415
 31
0.0
  0
LINE
  5
2A9
330
1E
100
AcDbEntity
  8
0
100
AcDbLine
 10
70.537735
 20
802.2415
 30
0.0
 11
71.29053499999999
 21
802.1414999999999
 31
0.0
  0
LINE
  5
2AA
330
1E
100
AcDbEntity
  8
0
100
AcDbLine
 10
71.29053499999999
 20
802.1414999999999
 30
0.0
 11
71.831835
 21
802.3714999999999
 31
0.0
  0
LINE
  5
2AB
330
1E
100
AcDbEntity
  8
0
100
AcDbLine
 10
71.303035
 20
803.1615
 30
0.0
 11
71.826235
 21
802.7915
 31
0.0
  0
LINE
  5
2AD
330
1E
100
AcDbEntity
  8
0
100
AcDbLine
 10
70.550235
 20
803.2515
 30
0.0
 11
71.303035
 21
803.1615
 31
0.0
  0
LINE
  5
2AF
330
1E
100
AcDbEntity
  8
0
100
AcDbLine
 10
70.008935
 20
803.0314999999999
 30
0.0
 11
70.550235
 21
803.2515
 31
0.0
  0
LINE
  5
2B0
330
1E
100
AcDbEntity
  8
0
100
AcDbLine
 10
70.008935
 20
803.0314999999999
 30
0.0
 11
70.01443499999999
 21
802.6115
 31
0.0
  0
LINE
  5
2B3
330
1E
100
AcDbEntity
  8
0
100
AcDbLine
 10
69.984235
 20
808.0814999999999
 30
0.0
 11
70.252635
 21
807.5915
 31
0.0
  0
LINE
  5
2B5
330
1E
100
AcDbEntity
  8
0
100
AcDbLine
 10
67.943635
 20
818.7115
 30
0.0
 11
67.978135
 21
818.0514999999999
 31
0.0
  0
LINE
  5
2B7
330
1E
100
AcDbEntity
  8
0
100
AcDbLine
 10
68.19473499999999
 20
812.8015000000001
 30
0.0
 11
68.347735
 21
812.2115
 31
0.0
  0
LINE
  5
2B9
330
1E
100
AcDbEntity
  8
0
100
AcDbLine
 10
67.96003499999999
 20
811.7914999999999
 30
0.0
 11
68.347735
 21
812.2115
 31
0.0
  0
LINE
  5
2BA
330
1E
100
AcDbEntity
  8
0
100
AcDbLine
 10
69.291635
 20
808.3614999999999
 30
0.0
 11
69.984235
 21
808.0814999999999
 31
0.0
  0
LINE
  5
2BC
330
1E
100
AcDbEntity
  8
0
100
AcDbLine
 10
68.59063499999999
 20
808.2815
 30
0.0
 11
69.291635
 21
808.3614999999999
 31
0.0
  0
LINE
  5
2BE
330
1E
100
AcDbEntity
  8
0
100
AcDbLine
 10
67.88673794331661
 20
791.8976999357201
 30
0.0
 11
68.13703499999999
 21
790.1515
 31
0.0
  0
LINE
  5
2BF
330
1E
100
AcDbEntity
  8
0
100
AcDbLine
 10
68.13703499999999
 20
790.1515
 30
0.0
 11
68.28603499999999
 21
783.7844999999999
 31
0.0
  0
LINE
  5
2C0
330
1E
100
AcDbEntity
  8
0
100
AcDbLine
 10
67.76453499999999
 20
727.2714999999999
 30
0.0
 11
68.50943499999999
 21
715.2515
 31
0.0
  0
LINE
  5
2C1
330
1E
100
AcDbEntity
  8
0
100
AcDbLine
 10
68.50943499999999
 20
715.2515
 30
0.0
 11
69.26873499999999
 21
703.4244999999999
 31
0.0
  0
LINE
  5
2C3
330
1E
100
AcDbEntity
  8
0
100
AcDbLine
 10
71.368735
 20
841.6214999999999
 30
0.0
 11
82.26873499999999
 21
842.3714999999999
 31
0.0
  0
LINE
  5
2C6
330
1E
100
AcDbEntity
  8
0
100
AcDbLine
 10
71.54713499999999
 20
796.7865
 30
0.0
 11
71.912335
 21
797.0164999999999
 31
0.0
  0
LINE
  5
2C7
330
1E
100
AcDbEntity
  8
0
100
AcDbLine
 10
71.54713499999999
 20
796.7865
 30
0.0
 11
71.738435
 21
796.4615
 31
0.0
  0
LINE
  5
2C9
330
1E
100
AcDbEntity
  8
0
100
AcDbLine
 10
71.738435
 20
796.4615
 30
0.0
 11
72.39933499999999
 21
796.2315
 31
0.0
  0
LINE
  5
2CA
330
1E
100
AcDbEntity
  8
0
100
AcDbLine
 10
73.444035
 20
790.7445
 30
0.0
 11
73.88613499999999
 21
790.6615
 31
0.0
  0
LINE
  5
2CB
330
1E
100
AcDbEntity
  8
0
100
AcDbLine
 10
73.444035
 20
790.7445
 30
0.0
 11
73.5259891614954
 21
791.3231203553319
 31
0.0
  0
LINE
  5
2CC
330
1E
100
AcDbEntity
  8
0
100
AcDbLine
 10
72.575335
 20
791.4335
 30
0.0
 11
73.32743499999999
 21
791.3235
 31
0.0
  0
LINE
  5
2CE
330
1E
100
AcDbEntity
  8
0
100
AcDbLine
 10
73.32743499999999
 20
791.3235
 30
0.0
 11
73.850435
 21
791.3224999999999
 31
0.0
  0
LINE
  5
2D0
330
1E
100
AcDbEntity
  8
0
100
AcDbLine
 10
75.37593499999999
 20
790.4855
 30
0.0
 11
75.4935019496841
 21
791.315557058241
 31
0.0
  0
LINE
  5
2D1
330
1E
100
AcDbEntity
  8
0
100
AcDbLine
 10
75.23843499999999
 20
790.4805
 30
0.0
 11
75.37593499999999
 21
790.4855
 31
0.0
  0
LINE
  5
2D3
330
1E
100
AcDbEntity
  8
0
100
AcDbLine
 10
74.627635
 20
790.5515
 30
0.0
 11
75.23843499999999
 21
790.4805
 31
0.0
  0
LINE
  5
2D5
330
1E
100
AcDbEntity
  8
0
100
AcDbLine
 10
73.88613499999999
 20
790.6615
 30
0.0
 11
74.627635
 21
790.5515
 31
0.0
  0
LINE
  5
2D7
330
1E
100
AcDbEntity
  8
0
100
AcDbLine
 10
73.8889911614711
 20
791.570578459991
 30
0.0
 11
74.96873499999999
 21
791.3515
 31
0.0
  0
LINE
  5
2D8
330
1E
100
AcDbEntity
  8
0
100
AcDbLine
 10
74.96873499999999
 20
791.3515
 30
0.0
 11
78.11697839212889
 21
791.13586689095
 31
0.0
  0
LINE
  5
2DA
330
1E
100
AcDbEntity
  8
0
100
AcDbLine
 10
73.819135
 20
791.4355
 30
0.0
 11
73.850435
 21
791.3224999999999
 31
0.0
  0
LINE
  5
2DC
330
1E
100
AcDbEntity
  8
0
100
AcDbLine
 10
71.912335
 20
797.0164999999999
 30
0.0
 11
72.64283499999999
 21
797.0095
 31
0.0
  0
LINE
  5
2DE
330
1E
100
AcDbEntity
  8
0
100
AcDbLine
 10
73.27783499999999
 20
791.5934999999999
 30
0.0
 11
73.819135
 21
791.4355
 31
0.0
  0
LINE
  5
2E0
330
1E
100
AcDbEntity
  8
0
100
AcDbLine
 10
72.64283499999999
 20
797.0095
 30
0.0
 11
73.30383499999999
 21
796.7785
 31
0.0
  0
LINE
  5
2E2
330
1E
100
AcDbEntity
  8
0
100
AcDbLine
 10
72.39933499999999
 20
796.2315
 30
0.0
 11
73.129835
 21
796.2234999999999
 31
0.0
  0
LINE
  5
2E4
330
1E
100
AcDbEntity
  8
0
100
AcDbLine
 10
73.30383499999999
 20
796.7785
 30
0.0
 11
73.495135
 21
796.4534999999999
 31
0.0
  0
LINE
  5
2E6
330
1E
100
AcDbEntity
  8
0
100
AcDbLine
 10
73.129835
 20
796.2234999999999
 30
0.0
 11
73.495135
 21
796.4534999999999
 31
0.0
  0
LINE
  5
2E7
330
1E
100
AcDbEntity
  8
0
100
AcDbLine
 10
72.525735
 20
791.7034999999999
 30
0.0
 11
73.27783499999999
 21
791.5934999999999
 31
0.0
  0
LINE
  5
2E9
330
1E
100
AcDbEntity
  8
0
100
AcDbLine
 10
72.002735
 20
791.7045
 30
0.0
 11
72.034035
 21
791.5915
 31
0.0
  0
LINE
  5
2EA
330
1E
100
AcDbEntity
  8
0
100
AcDbLine
 10
72.002735
 20
791.7045
 30
0.0
 11
72.525735
 21
791.7034999999999
 31
0.0
  0
LINE
  5
2EC
330
1E
100
AcDbEntity
  8
0
100
AcDbLine
 10
72.034035
 20
791.5915
 30
0.0
 11
72.575335
 21
791.4335
 31
0.0
  0
LINE
  5
2ED
330
1E
100
AcDbEntity
  8
0
100
AcDbLine
 10
72.034035
 20
791.5915
 30
0.0
 11
72.05007117563929
 21
791.6947140821009
 31
0.0
  0
LINE
  5
2EF
330
1E
100
AcDbEntity
  8
0
100
AcDbLine
 10
72.002735
 20
813.9015
 30
0.0
 11
72.034035
 21
814.4914999999999
 31
0.0
  0
LINE
  5
2F0
330
1E
100
AcDbEntity
  8
0
100
AcDbLine
 10
72.002735
 20
813.9015
 30
0.0
 11
72.525735
 21
813.4215000000001
 31
0.0
  0
LINE
  5
2F1
330
1E
100
AcDbEntity
  8
0
100
AcDbLine
 10
75.40123499999999
 20
804.6915
 30
0.0
 11
75.77643499999999
 21
805.0715
 31
0.0
  0
LINE
  5
2F2
330
1E
100
AcDbEntity
  8
0
100
AcDbLine
 10
74.66573499999999
 20
804.6414999999999
 30
0.0
 11
75.40123499999999
 21
804.6915
 31
0.0
  0
LINE
  5
2F3
330
1E
100
AcDbEntity
  8
0
100
AcDbLine
 10
74.007335
 20
804.9215
 30
0.0
 11
74.66573499999999
 21
804.6414999999999
 31
0.0
  0
LINE
  5
2F4
330
1E
100
AcDbEntity
  8
0
100
AcDbLine
 10
74.200135
 20
805.7615
 30
0.0
 11
74.93563499999999
 21
805.8115
 31
0.0
  0
LINE
  5
2F6
330
1E
100
AcDbEntity
  8
0
100
AcDbLine
 10
74.93563499999999
 20
805.8115
 30
0.0
 11
75.59403499999999
 21
805.5315
 31
0.0
  0
LINE
  5
2F8
330
1E
100
AcDbEntity
  8
0
100
AcDbLine
 10
75.59403499999999
 20
805.5315
 30
0.0
 11
75.77643499999999
 21
805.0715
 31
0.0
  0
LINE
  5
2FA
330
1E
100
AcDbEntity
  8
0
100
AcDbLine
 10
73.82493499999999
 20
805.3914999999999
 30
0.0
 11
74.200135
 21
805.7615
 31
0.0
  0
LINE
  5
2FB
330
1E
100
AcDbEntity
  8
0
100
AcDbLine
 10
73.82493499999999
 20
805.3914999999999
 30
0.0
 11
74.007335
 21
804.9215
 31
0.0
  0
LINE
  5
2FC
330
1E
100
AcDbEntity
  8
0
100
AcDbLine
 10
73.27783499999999
 20
813.3214999999999
 30
0.0
 11
73.819135
 21
813.6915
 31
0.0
  0
LINE
  5
2FD
330
1E
100
AcDbEntity
  8
0
100
AcDbLine
 10
73.444035
 20
819.8515
 30
0.0
 11
73.581535
 21
820.5014999999999
 31
0.0
  0
LINE
  5
2FE
330
1E
100
AcDbEntity
  8
0
100
AcDbLine
 10
73.444035
 20
819.8515
 30
0.0
 11
73.88613499999999
 21
819.2815000000001
 31
0.0
  0
LINE
  5
300
330
1E
100
AcDbEntity
  8
0
100
AcDbLine
 10
72.868735
 20
828.3815
 30
0.0
 11
82.26873499999999
 21
828.9815
 31
0.0
  0
LINE
  5
301
330
1E
100
AcDbEntity
  8
0
100
AcDbLine
 10
72.76873499999999
 20
828.5814999999999
 30
0.0
 11
82.26873499999999
 21
829.2315
 31
0.0
  0
LINE
  5
302
330
1E
100
AcDbEntity
  8
0
100
AcDbLine
 10
73.581535
 20
820.5014999999999
 30
0.0
 11
74.192435
 21
820.8515
 31
0.0
  0
LINE
  5
303
330
1E
100
AcDbEntity
  8
0
100
AcDbLine
 10
72.575335
 20
814.8614999999999
 30
0.0
 11
73.32743499999999
 21
814.7615
 31
0.0
  0
LINE
  5
305
330
1E
100
AcDbEntity
  8
0
100
AcDbLine
 10
73.32743499999999
 20
814.7615
 30
0.0
 11
73.850435
 21
814.2815
 31
0.0
  0
LINE
  5
307
330
1E
100
AcDbEntity
  8
0
100
AcDbLine
 10
74.192435
 20
820.8515
 30
0.0
 11
74.933835
 21
820.6815
 31
0.0
  0
LINE
  5
309
330
1E
100
AcDbEntity
  8
0
100
AcDbLine
 10
74.933835
 20
820.6815
 30
0.0
 11
75.37593499999999
 21
820.1114999999999
 31
0.0
  0
LINE
  5
30A
330
1E
100
AcDbEntity
  8
0
100
AcDbLine
 10
75.23843499999999
 20
819.4615
 30
0.0
 11
75.37593499999999
 21
820.1114999999999
 31
0.0
  0
LINE
  5
30B
330
1E
100
AcDbEntity
  8
0
100
AcDbLine
 10
74.627635
 20
819.1015
 30
0.0
 11
75.23843499999999
 21
819.4615
 31
0.0
  0
LINE
  5
30C
330
1E
100
AcDbEntity
  8
0
100
AcDbLine
 10
73.88613499999999
 20
819.2815000000001
 30
0.0
 11
74.627635
 21
819.1015
 31
0.0
  0
LINE
  5
30E
330
1E
100
AcDbEntity
  8
0
100
AcDbLine
 10
73.819135
 20
813.6915
 30
0.0
 11
73.850435
 21
814.2815
 31
0.0
  0
LINE
  5
310
330
1E
100
AcDbEntity
  8
0
100
AcDbLine
 10
72.525735
 20
813.4215000000001
 30
0.0
 11
73.27783499999999
 21
813.3214999999999
 31
0.0
  0
LINE
  5
311
330
1E
100
AcDbEntity
  8
0
100
AcDbLine
 10
72.034035
 20
814.4914999999999
 30
0.0
 11
72.575335
 21
814.8614999999999
 31
0.0
  0
LINE
  5
312
330
1E
100
AcDbEntity
  8
0
100
AcDbLine
 10
71.826235
 20
802.7915
 30
0.0
 11
71.831835
 21
802.3714999999999
 31
0.0
  0
LINE
  5
316
330
1E
100
AcDbEntity
  8
0
100
AcDbLine
 10
73.064735
 20
698.0785
 30
0.0
 11
75.82073499999999
 21
696.8484999999999
 31
0.0
  0
LINE
  5
318
330
1E
100
AcDbEntity
  8
0
100
AcDbLine
 10
76.558735
 20
792.5004999999999
 30
0.0
 11
76.672635
 21
792.2785
 31
0.0
  0
LINE
  5
319
330
1E
100
AcDbEntity
  8
0
100
AcDbLine
 10
76.558735
 20
792.5004999999999
 30
0.0
 11
77.024435
 21
792.6445
 31
0.0
  0
LINE
  5
31B
330
1E
100
AcDbEntity
  8
0
100
AcDbLine
 10
76.558735
 20
809.9814999999999
 30
0.0
 11
76.672635
 21
810.4915
 31
0.0
  0
LINE
  5
31C
330
1E
100
AcDbEntity
  8
0
100
AcDbLine
 10
76.558735
 20
809.9814999999999
 30
0.0
 11
77.024435
 21
809.5515
 31
0.0
  0
LINE
  5
31F
330
1E
100
AcDbEntity
  8
0
100
AcDbLine
 10
75.82073499999999
 20
696.8484999999999
 30
0.0
 11
78.94073500000001
 21
696.1104999999999
 31
0.0
  0
LINE
  5
320
330
1E
100
AcDbEntity
  8
0
100
AcDbLine
 10
71.568735
 20
840.6914999999999
 30
0.0
 11
82.26873499999999
 21
841.4414999999999
 31
0.0
  0
LINE
  5
321
330
1E
100
AcDbEntity
  8
0
100
AcDbLine
 10
71.46873499999999
 20
846.1414999999998
 30
0.0
 11
82.26873499999999
 21
846.8914999999999
 31
0.0
  0
LINE
  5
322
330
1E
100
AcDbEntity
  8
0
100
AcDbLine
 10
68.625135
 20
853.5714999999999
 30
0.0
 11
75.243235
 21
854.8914999999999
 31
0.0
  0
LINE
  5
323
330
1E
100
AcDbEntity
  8
0
100
AcDbLine
 10
75.243235
 20
854.8914999999999
 30
0.0
 11
82.26873499999999
 21
855.4015000000001
 31
0.0
  0
LINE
  5
324
330
1E
100
AcDbEntity
  8
0
100
AcDbLine
 10
71.368735
 20
846.8215
 30
0.0
 11
82.26873499999999
 21
847.5715
 31
0.0
  0
LINE
  5
325
330
1E
100
AcDbEntity
  8
0
100
AcDbLine
 10
63.078235
 20
704.9814999999999
 30
0.0
 11
69.1687747311237
 21
704.9814999999999
 31
0.0
  0
LINE
  5
326
330
1E
100
AcDbEntity
  8
0
100
AcDbLine
 10
63.078235
 20
704.9814999999999
 30
0.0
 11
69.1687747311237
 21
704.9814999999999
 31
0.0
  0
LINE
  5
327
330
1E
100
AcDbEntity
  8
0
100
AcDbLine
 10
63.078235
 20
704.9814999999999
 30
0.0
 11
63.078235
 21
794.311760714286
 31
0.0
  0
LINE
  5
328
330
1E
100
AcDbEntity
  8
0
100
AcDbLine
 10
63.078235
 20
667.9814999999999
 30
0.0
 11
99.61623500000001
 21
667.9814999999999
 31
0.0
  0
LINE
  5
329
330
1E
100
AcDbEntity
  8
0
100
AcDbLine
 10
63.078235
 20
667.9814999999999
 30
0.0
 11
63.078235
 21
120.4825
 31
0.0
  0
LINE
  5
32A
330
1E
100
AcDbEntity
  8
0
100
AcDbLine
 10
62.178235
 20
974.9814999999999
 30
0.0
 11
62.578235
 21
974.9814999999999
 31
0.0
  0
LINE
  5
32B
330
1E
100
AcDbEntity
  8
0
100
AcDbLine
 10
52.07823499999999
 20
975.4815
 30
0.0
 11
54.878235
 21
975.4815
 31
0.0
  0
LINE
  5
32C
330
1E
100
AcDbEntity
  8
0
100
AcDbLine
 10
52.07823499999999
 20
1026.4815
 30
0.0
 11
54.878235
 21
1026.4815
 31
0.0
  0
LINE
  5
32D
330
1E
100
AcDbEntity
  8
0
100
AcDbLine
 10
52.07823499999999
 20
1026.9815
 30
0.0
 11
54.77823499999999
 21
1026.9815
 31
0.0
  0
LINE
  5
32E
330
1E
100
AcDbEntity
  8
0
100
AcDbLine
 10
54.878235
 20
975.4815
 30
0.0
 11
57.578235
 21
975.4815
 31
0.0
  0
LINE
  5
32F
330
1E
100
AcDbEntity
  8
0
100
AcDbLine
 10
57.578235
 20
975.4815
 30
0.0
 11
59.878235
 21
975.4815
 31
0.0
  0
LINE
  5
330
330
1E
100
AcDbEntity
  8
0
100
AcDbLine
 10
54.878235
 20
1026.4815
 30
0.0
 11
57.578235
 21
1026.4815
 31
0.0
  0
LINE
  5
331
330
1E
100
AcDbEntity
  8
0
100
AcDbLine
 10
57.578235
 20
1026.4815
 30
0.0
 11
59.878235
 21
1026.4815
 31
0.0
  0
LINE
  5
332
330
1E
100
AcDbEntity
  8
0
100
AcDbLine
 10
54.77823499999999
 20
1026.9815
 30
0.0
 11
57.27823499999999
 21
1026.9815
 31
0.0
  0
LINE
  5
333
330
1E
100
AcDbEntity
  8
0
100
AcDbLine
 10
57.27823499999999
 20
1026.9815
 30
0.0
 11
59.478235
 21
1026.9815
 31
0.0
  0
LINE
  5
334
330
1E
100
AcDbEntity
  8
0
100
AcDbLine
 10
59.878235
 20
975.4815
 30
0.0
 11
61.578235
 21
975.4815
 31
0.0
  0
LINE
  5
335
330
1E
100
AcDbEntity
  8
0
100
AcDbLine
 10
61.578235
 20
975.4815
 30
0.0
 11
62.678235
 21
975.4815
 31
0.0
  0
LINE
  5
336
330
1E
100
AcDbEntity
  8
0
100
AcDbLine
 10
59.878235
 20
1026.4815
 30
0.0
 11
61.578235
 21
1026.4815
 31
0.0
  0
LINE
  5
337
330
1E
100
AcDbEntity
  8
0
100
AcDbLine
 10
61.578235
 20
1026.4815
 30
0.0
 11
62.678235
 21
1026.4815
 31
0.0
  0
LINE
  5
338
330
1E
100
AcDbEntity
  8
0
100
AcDbLine
 10
59.478235
 20
1026.9815
 30
0.0
 11
61.178235
 21
1026.9815
 31
0.0
  0
LINE
  5
339
330
1E
100
AcDbEntity
  8
0
100
AcDbLine
 10
61.178235
 20
1026.9815
 30
0.0
 11
62.178235
 21
1026.9815
 31
0.0
  0
LINE
  5
33A
330
1E
100
AcDbEntity
  8
0
100
AcDbLine
 10
62.678235
 20
975.4815
 30
0.0
 11
63.078235
 21
975.4815
 31
0.0
  0
LINE
  5
33B
330
1E
100
AcDbEntity
  8
0
100
AcDbLine
 10
63.078235
 20
975.4815
 30
0.0
 11
63.078235
 21
1026.4815
 31
0.0
  0
LINE
  5
33C
330
1E
100
AcDbEntity
  8
0
100
AcDbLine
 10
63.078235
 20
1026.4815
 30
0.0
 11
63.078235
 21
975.4815
 31
0.0
  0
LINE
  5
33D
330
1E
100
AcDbEntity
  8
0
100
AcDbLine
 10
62.678235
 20
1026.4815
 30
0.0
 11
63.078235
 21
1026.4815
 31
0.0
  0
LINE
  5
33E
330
1E
100
AcDbEntity
  8
0
100
AcDbLine
 10
62.578235
 20
1026.9815
 30
0.0
 11
63.078235
 21
1026.4815
 31
0.0
  0
LINE
  5
33F
330
1E
100
AcDbEntity
  8
0
100
AcDbLine
 10
62.178235
 20
1026.9815
 30
0.0
 11
62.578235
 21
1026.9815
 31
0.0
  0
LINE
  5
340
330
1E
100
AcDbEntity
  8
0
100
AcDbLine
 10
49.378235
 20
974.9814999999999
 30
0.0
 11
52.07823499999999
 21
974.9814999999999
 31
0.0
  0
LINE
  5
341
330
1E
100
AcDbEntity
  8
0
100
AcDbLine
 10
49.27823499999999
 20
1026.4815
 30
0.0
 11
52.07823499999999
 21
1026.4815
 31
0.0
  0
LINE
  5
342
330
1E
100
AcDbEntity
  8
0
100
AcDbLine
 10
49.378235
 20
1026.9815
 30
0.0
 11
52.07823499999999
 21
1026.9815
 31
0.0
  0
LINE
  5
343
330
1E
100
AcDbEntity
  8
0
100
AcDbLine
 10
46.87823499999999
 20
1026.9815
 30
0.0
 11
49.378235
 21
1026.9815
 31
0.0
  0
LINE
  5
344
330
1E
100
AcDbEntity
  8
0
100
AcDbLine
 10
44.678235
 20
1026.9815
 30
0.0
 11
46.87823499999999
 21
1026.9815
 31
0.0
  0
LINE
  5
345
330
1E
100
AcDbEntity
  8
0
100
AcDbLine
 10
42.97823499999999
 20
1026.9815
 30
0.0
 11
44.678235
 21
1026.9815
 31
0.0
  0
LINE
  5
346
330
1E
100
AcDbEntity
  8
0
100
AcDbLine
 10
41.978235
 20
1026.9815
 30
0.0
 11
42.97823499999999
 21
1026.9815
 31
0.0
  0
LINE
  5
347
330
1E
100
AcDbEntity
  8
0
100
AcDbLine
 10
41.578235
 20
1026.9815
 30
0.0
 11
41.978235
 21
1026.9815
 31
0.0
  0
LINE
  5
348
330
1E
100
AcDbEntity
  8
0
100
AcDbLine
 10
74.242835
 20
654.3624999999999
 30
0.0
 11
74.4811354703669
 21
667.9814999999999
 31
0.0
  0
LINE
  5
349
330
1E
100
AcDbEntity
  8
0
100
AcDbLine
 10
74.242835
 20
654.3624999999999
 30
0.0
 11
74.313035
 21
631.2564999999999
 31
0.0
  0
LINE
  5
34B
330
1E
100
AcDbEntity
  8
0
100
AcDbLine
 10
76.65413499999999
 20
794.8714999999999
 30
0.0
 11
76.667035
 21
794.5934999999999
 31
0.0
  0
LINE
  5
34C
330
1E
100
AcDbEntity
  8
0
100
AcDbLine
 10
76.65413499999999
 20
794.8714999999999
 30
0.0
 11
77.19553499999999
 21
795.0334999999999
 31
0.0
  0
LINE
  5
34E
330
1E
100
AcDbEntity
  8
0
100
AcDbLine
 10
76.667035
 20
794.5934999999999
 30
0.0
 11
77.200435
 21
794.3655
 31
0.0
  0
LINE
  5
34F
330
1E
100
AcDbEntity
  8
0
100
AcDbLine
 10
77.024435
 20
792.6445
 30
0.0
 11
77.775935
 21
792.6314999999999
 31
0.0
  0
LINE
  5
351
330
1E
100
AcDbEntity
  8
0
100
AcDbLine
 10
76.672635
 20
792.2785
 30
0.0
 11
77.27343499999999
 21
792.1095
 31
0.0
  0
LINE
  5
352
330
1E
100
AcDbEntity
  8
0
100
AcDbLine
 10
77.200435
 20
794.3655
 30
0.0
 11
77.960435
 21
794.3265
 31
0.0
  0
LINE
  5
353
330
1E
100
AcDbEntity
  8
0
100
AcDbLine
 10
77.19553499999999
 20
795.0334999999999
 30
0.0
 11
77.955535
 21
794.9945
 31
0.0
  0
LINE
  5
355
330
1E
100
AcDbEntity
  8
0
100
AcDbLine
 10
77.27343499999999
 20
792.1095
 30
0.0
 11
78.024935
 21
792.0974999999999
 31
0.0
  0
LINE
  5
356
330
1E
100
AcDbEntity
  8
0
100
AcDbLine
 10
78.09703499999999
 20
790.7544999999999
 30
0.0
 11
78.31063499999999
 21
790.6575
 31
0.0
  0
LINE
  5
357
330
1E
100
AcDbEntity
  8
0
100
AcDbLine
 10
78.09703499999999
 20
790.7544999999999
 30
0.0
 11
78.478335
 21
790.8125
 31
0.0
  0
LINE
  5
358
330
1E
100
AcDbEntity
  8
0
100
AcDbLine
 10
78.09703499999999
 20
790.7544999999999
 30
0.0
 11
78.14305652824079
 21
791.634545231451
 31
0.0
  0
LINE
  5
359
330
1E
100
AcDbEntity
  8
0
100
AcDbLine
 10
77.960435
 20
794.3265
 30
0.0
 11
78.501935
 21
794.4885
 31
0.0
  0
LINE
  5
35A
330
1E
100
AcDbEntity
  8
0
100
AcDbLine
 10
77.955535
 20
794.9945
 30
0.0
 11
78.489035
 21
794.7664999999999
 31
0.0
  0
LINE
  5
35C
330
1E
100
AcDbEntity
  8
0
100
AcDbLine
 10
78.024935
 20
792.0974999999999
 30
0.0
 11
78.49063499999999
 21
792.2414999999999
 31
0.0
  0
LINE
  5
35D
330
1E
100
AcDbEntity
  8
0
100
AcDbLine
 10
77.775935
 20
792.6314999999999
 30
0.0
 11
78.376735
 21
792.4624999999999
 31
0.0
  0
LINE
  5
35F
330
1E
100
AcDbEntity
  8
0
100
AcDbLine
 10
77.775935
 20
809.4314999999999
 30
0.0
 11
78.376735
 21
809.7315
 31
0.0
  0
LINE
  5
360
330
1E
100
AcDbEntity
  8
0
100
AcDbLine
 10
77.024435
 20
809.5515
 30
0.0
 11
77.775935
 21
809.4314999999999
 31
0.0
  0
LINE
  5
361
330
1E
100
AcDbEntity
  8
0
100
AcDbLine
 10
77.27343499999999
 20
810.7915
 30
0.0
 11
78.024935
 21
810.6715000000001
 31
0.0
  0
LINE
  5
363
330
1E
100
AcDbEntity
  8
0
100
AcDbLine
 10
78.024935
 20
810.6715000000001
 30
0.0
 11
78.49063499999999
 21
810.2415
 31
0.0
  0
LINE
  5
365
330
1E
100
AcDbEntity
  8
0
100
AcDbLine
 10
76.672635
 20
810.4915
 30
0.0
 11
77.27343499999999
 21
810.7915
 31
0.0
  0
LINE
  5
367
330
1E
100
AcDbEntity
  8
0
100
AcDbLine
 10
78.31063499999999
 20
790.6575
 30
0.0
 11
78.96873499999999
 21
790.5784999999999
 31
0.0
  0
LINE
  5
369
330
1E
100
AcDbEntity
  8
0
100
AcDbLine
 10
78.376735
 20
792.4624999999999
 30
0.0
 11
78.49063499999999
 21
792.2414999999999
 31
0.0
  0
LINE
  5
36B
330
1E
100
AcDbEntity
  8
0
100
AcDbLine
 10
78.489035
 20
794.7664999999999
 30
0.0
 11
78.501935
 21
794.4885
 31
0.0
  0
LINE
  5
36D
330
1E
100
AcDbEntity
  8
0
100
AcDbLine
 10
78.478335
 20
790.8125
 30
0.0
 11
79.20833499999999
 21
790.8005000000001
 31
0.0
  0
LINE
  5
373
330
1E
100
AcDbEntity
  8
0
100
AcDbLine
 10
78.376735
 20
809.7315
 30
0.0
 11
78.49063499999999
 21
810.2415
 31
0.0
  0
LINE
  5
374
330
1E
100
AcDbEntity
  8
0
100
AcDbLine
 10
78.478335
 20
814.3114999999999
 30
0.0
 11
79.20833499999999
 21
814.1214999999998
 31
0.0
  0
LINE
  5
375
330
1E
100
AcDbEntity
  8
0
100
AcDbLine
 10
78.09703499999999
 20
814.8514999999999
 30
0.0
 11
78.31063499999999
 21
815.4315
 31
0.0
  0
LINE
  5
376
330
1E
100
AcDbEntity
  8
0
100
AcDbLine
 10
78.09703499999999
 20
814.8514999999999
 30
0.0
 11
78.478335
 21
814.3114999999999
 31
0.0
  0
LINE
  5
377
330
1E
100
AcDbEntity
  8
0
100
AcDbLine
 10
78.31063499999999
 20
815.4315
 30
0.0
 11
78.96873499999999
 21
815.7115000000001
 31
0.0
  0
LINE
  5
378
330
1E
100
AcDbEntity
  8
0
100
AcDbLine
 10
78.96873499999999
 20
790.5784999999999
 30
0.0
 11
79.69863499999999
 21
790.5655
 31
0.0
  0
LINE
  5
37A
330
1E
100
AcDbEntity
  8
0
100
AcDbLine
 10
79.69863499999999
 20
790.5655
 30
0.0
 11
80.07993499999999
 21
790.6235
 31
0.0
  0
LINE
  5
37C
330
1E
100
AcDbEntity
  8
0
100
AcDbLine
 10
79.86633499999999
 20
790.7214999999999
 30
0.0
 11
80.07993499999999
 21
790.6235
 31
0.0
  0
LINE
  5
37E
330
1E
100
AcDbEntity
  8
0
100
AcDbLine
 10
79.20833499999999
 20
790.8005000000001
 30
0.0
 11
79.86633499999999
 21
790.7214999999999
 31
0.0
  0
LINE
  5
380
330
1E
100
AcDbEntity
  8
0
100
AcDbLine
 10
79.68353499999999
 20
806.3814999999999
 30
0.0
 11
79.89083499999999
 21
806.8414999999999
 31
0.0
  0
LINE
  5
381
330
1E
100
AcDbEntity
  8
0
100
AcDbLine
 10
79.68353499999999
 20
806.3814999999999
 30
0.0
 11
80.071135
 21
805.9515000000001
 31
0.0
  0
LINE
  5
382
330
1E
100
AcDbEntity
  8
0
100
AcDbLine
 10
80.0996175989591
 20
791.000069685003
 30
0.0
 11
82.26873499999999
 21
790.8515
 31
0.0
  0
LINE
  5
383
330
1E
100
AcDbEntity
  8
0
100
AcDbLine
 10
80.07993499999999
 20
790.6235
 30
0.0
 11
80.1258712557218
 21
791.5023575829519
 31
0.0
  0
LINE
  5
384
330
1E
100
AcDbEntity
  8
0
100
AcDbLine
 10
81.577935
 20
790.0644999999999
 30
0.0
 11
82.277935
 21
790.0495
 31
0.0
  0
LINE
  5
387
330
1E
100
AcDbEntity
  8
0
100
AcDbLine
 10
81.27793500000001
 20
790.919363013699
 30
0.0
 11
81.27793500000001
 21
790.0984999999999
 31
0.0
  0
LINE
  5
388
330
1E
100
AcDbEntity
  8
0
100
AcDbLine
 10
81.27793500000001
 20
790.0984999999999
 30
0.0
 11
81.577935
 21
790.0644999999999
 31
0.0
  0
LINE
  5
389
330
1E
100
AcDbEntity
  8
0
100
AcDbLine
 10
81.27793500000001
 20
790.0984999999999
 30
0.0
 11
81.27793500000001
 21
790.919363013699
 31
0.0
  0
LINE
  5
38A
330
1E
100
AcDbEntity
  8
0
100
AcDbLine
 10
80.80383499999999
 20
805.8115
 30
0.0
 11
81.459135
 21
806.0515
 31
0.0
  0
LINE
  5
38B
330
1E
100
AcDbEntity
  8
0
100
AcDbLine
 10
80.54623499999999
 20
807.0714999999999
 30
0.0
 11
81.278935
 21
806.9314999999999
 31
0.0
  0
LINE
  5
38D
330
1E
100
AcDbEntity
  8
0
100
AcDbLine
 10
81.278935
 20
806.9314999999999
 30
0.0
 11
81.66643499999999
 21
806.5115
 31
0.0
  0
LINE
  5
390
330
1E
100
AcDbEntity
  8
0
100
AcDbLine
 10
81.459135
 20
806.0515
 30
0.0
 11
81.66643499999999
 21
806.5115
 31
0.0
  0
LINE
  5
391
330
1E
100
AcDbEntity
  8
0
100
AcDbLine
 10
80.071135
 20
805.9515000000001
 30
0.0
 11
80.80383499999999
 21
805.8115
 31
0.0
  0
LINE
  5
392
330
1E
100
AcDbEntity
  8
0
100
AcDbLine
 10
79.89083499999999
 20
806.8414999999999
 30
0.0
 11
80.54623499999999
 21
807.0714999999999
 31
0.0
  0
LINE
  5
393
330
1E
100
AcDbEntity
  8
0
100
AcDbLine
 10
78.96873499999999
 20
815.7115000000001
 30
0.0
 11
79.69863499999999
 21
815.5215
 31
0.0
  0
LINE
  5
395
330
1E
100
AcDbEntity
  8
0
100
AcDbLine
 10
79.69863499999999
 20
815.5215
 30
0.0
 11
80.07993499999999
 21
814.9815
 31
0.0
  0
LINE
  5
397
330
1E
100
AcDbEntity
  8
0
100
AcDbLine
 10
81.577935
 20
819.8714999999999
 30
0.0
 11
82.277935
 21
819.6115
 31
0.0
  0
LINE
  5
398
330
1E
100
AcDbEntity
  8
0
100
AcDbLine
 10
81.27793500000001
 20
820.5014999999999
 30
0.0
 11
81.577935
 21
821.1214999999999
 31
0.0
  0
LINE
  5
399
330
1E
100
AcDbEntity
  8
0
100
AcDbLine
 10
81.27793500000001
 20
820.5014999999999
 30
0.0
 11
81.577935
 21
819.8714999999999
 31
0.0
  0
LINE
  5
39A
330
1E
100
AcDbEntity
  8
0
100
AcDbLine
 10
81.577935
 20
821.1214999999999
 30
0.0
 11
82.277935
 21
821.3815
 31
0.0
  0
LINE
  5
39C
330
1E
100
AcDbEntity
  8
0
100
AcDbLine
 10
79.86633499999999
 20
814.4015000000001
 30
0.0
 11
80.07993499999999
 21
814.9815
 31
0.0
  0
LINE
  5
39D
330
1E
100
AcDbEntity
  8
0
100
AcDbLine
 10
79.20833499999999
 20
814.1214999999998
 30
0.0
 11
79.86633499999999
 21
814.4015000000001
 31
0.0
  0
LINE
  5
39F
330
1E
100
AcDbEntity
  8
0
100
AcDbLine
 10
78.94073500000001
 20
696.1104999999999
 30
0.0
 11
82.26873499999999
 21
695.8334999999999
 31
0.0
  0
LINE
  5
3A5
330
1E
100
AcDbEntity
  8
0
100
AcDbLine
 10
99.61623500000001
 20
667.9814999999999
 30
0.0
 11
99.61623500000001
 21
668.6475
 31
0.0
  0
LINE
  5
3A6
330
1E
100
AcDbEntity
  8
0
100
AcDbLine
 10
99.61623500000001
 20
667.9814999999999
 30
0.0
 11
100.0782349999999
 21
668.4255
 31
0.0
  0
LINE
  5
3A7
330
1E
100
AcDbEntity
  8
0
100
AcDbLine
 10
90.242035
 20
654.3614999999999
 30
0.0
 11
90.48167160870741
 21
667.9814999999999
 31
0.0
  0
LINE
  5
3A8
330
1E
100
AcDbEntity
  8
0
100
AcDbLine
 10
90.242035
 20
654.3614999999999
 30
0.0
 11
90.31193499999998
 21
631.2654999999999
 31
0.0
  0
LINE
  5
3A9
330
1E
100
AcDbEntity
  8
0
100
AcDbLine
 10
100.0782349999999
 20
668.4255
 30
0.0
 11
100.0782349999999
 21
669.0915
 31
0.0
  0
LINE
  5
3AB
330
1E
100
AcDbEntity
  8
0
100
AcDbLine
 10
99.61623500000001
 20
691.2174999999999
 30
0.0
 11
99.61623500000001
 21
686.4815
 31
0.0
  0
LINE
  5
3AC
330
1E
100
AcDbEntity
  8
0
100
AcDbLine
 10
99.61623500000001
 20
691.2174999999999
 30
0.0
 11
99.61623500000001
 21
695.6575
 31
0.0
  0
LINE
  5
3AE
330
1E
100
AcDbEntity
  8
0
100
AcDbLine
 10
82.26873499999999
 20
695.8334999999999
 30
0.0
 11
85.596735
 21
696.1104999999999
 31
0.0
  0
LINE
  5
3B0
330
1E
100
AcDbEntity
  8
0
100
AcDbLine
 10
85.596735
 20
696.1104999999999
 30
0.0
 11
88.71673499999999
 21
696.8484999999999
 31
0.0
  0
LINE
  5
3B2
330
1E
100
AcDbEntity
  8
0
100
AcDbLine
 10
88.71673499999999
 20
696.8484999999999
 30
0.0
 11
91.472735
 21
698.0785
 31
0.0
  0
LINE
  5
3B3
330
1E
100
AcDbEntity
  8
0
100
AcDbLine
 10
91.472735
 20
698.0785
 30
0.0
 11
93.552735
 21
699.7084999999999
 31
0.0
  0
LINE
  5
3B4
330
1E
100
AcDbEntity
  8
0
100
AcDbLine
 10
93.552735
 20
699.7084999999999
 30
0.0
 11
94.80073500000001
 21
701.5534999999999
 31
0.0
  0
LINE
  5
3B5
330
1E
100
AcDbEntity
  8
0
100
AcDbLine
 10
94.80073500000001
 20
701.5534999999999
 30
0.0
 11
95.26873499999998
 21
703.4244999999999
 31
0.0
  0
LINE
  5
3B6
330
1E
100
AcDbEntity
  8
0
100
AcDbLine
 10
99.61623500000001
 20
695.6575
 30
0.0
 11
99.61623500000001
 21
691.2174999999999
 31
0.0
  0
LINE
  5
3B7
330
1E
100
AcDbEntity
  8
0
100
AcDbLine
 10
99.61623500000001
 20
695.6575
 30
0.0
 11
99.61623500000001
 21
699.5795000000001
 31
0.0
  0
LINE
  5
3B8
330
1E
100
AcDbEntity
  8
0
100
AcDbLine
 10
99.61623500000001
 20
699.5795000000001
 30
0.0
 11
99.61623500000001
 21
695.6575
 31
0.0
  0
LINE
  5
3B9
330
1E
100
AcDbEntity
  8
0
100
AcDbLine
 10
99.61623500000001
 20
699.5795000000001
 30
0.0
 11
99.61623500000001
 21
702.5394999999999
 31
0.0
  0
LINE
  5
3BA
330
1E
100
AcDbEntity
  8
0
100
AcDbLine
 10
95.26873499999998
 20
703.4244999999999
 30
0.0
 11
96.028035
 21
715.2515
 31
0.0
  0
LINE
  5
3BB
330
1E
100
AcDbEntity
  8
0
100
AcDbLine
 10
99.61623500000001
 20
702.5394999999999
 30
0.0
 11
99.61623500000001
 21
699.5795000000001
 31
0.0
  0
LINE
  5
3BC
330
1E
100
AcDbEntity
  8
0
100
AcDbLine
 10
99.61623500000001
 20
702.5394999999999
 30
0.0
 11
99.61623500000001
 21
704.3155
 31
0.0
  0
LINE
  5
3BD
330
1E
100
AcDbEntity
  8
0
100
AcDbLine
 10
99.61623500000001
 20
704.3155
 30
0.0
 11
99.61623500000001
 21
702.5394999999999
 31
0.0
  0
LINE
  5
3BE
330
1E
100
AcDbEntity
  8
0
100
AcDbLine
 10
99.61623500000001
 20
704.3155
 30
0.0
 11
99.61623500000001
 21
704.9814999999999
 31
0.0
  0
LINE
  5
3BF
330
1E
100
AcDbEntity
  8
0
100
AcDbLine
 10
82.26873499999999
 20
790.8515
 30
0.0
 11
84.43785240104091
 21
791.000069685003
 31
0.0
  0
LINE
  5
3C1
330
1E
100
AcDbEntity
  8
0
100
AcDbLine
 10
82.26873499999999
 20
828.9815
 30
0.0
 11
91.66873499999999
 21
828.3815
 31
0.0
  0
LINE
  5
3C2
330
1E
100
AcDbEntity
  8
0
100
AcDbLine
 10
82.26873499999999
 20
829.2315
 30
0.0
 11
91.76873499999999
 21
828.5814999999999
 31
0.0
  0
LINE
  5
3C5
330
1E
100
AcDbEntity
  8
0
100
AcDbLine
 10
82.26873499999999
 20
841.4414999999999
 30
0.0
 11
92.968735
 21
840.6914999999999
 31
0.0
  0
LINE
  5
3C6
330
1E
100
AcDbEntity
  8
0
100
AcDbLine
 10
82.26873499999999
 20
842.3714999999999
 30
0.0
 11
93.16873499999999
 21
841.6214999999999
 31
0.0
  0
LINE
  5
3C8
330
1E
100
AcDbEntity
  8
0
100
AcDbLine
 10
82.26873499999999
 20
855.4015000000001
 30
0.0
 11
89.294235
 21
854.8914999999999
 31
0.0
  0
LINE
  5
3C9
330
1E
100
AcDbEntity
  8
0
100
AcDbLine
 10
82.26873499999999
 20
846.8914999999999
 30
0.0
 11
93.068735
 21
846.1414999999998
 31
0.0
  0
LINE
  5
3CC
330
1E
100
AcDbEntity
  8
0
100
AcDbLine
 10
82.87103499999998
 20
794.2015
 30
0.0
 11
83.07833499999999
 21
794.4634999999999
 31
0.0
  0
LINE
  5
3CD
330
1E
100
AcDbEntity
  8
0
100
AcDbLine
 10
82.87103499999998
 20
794.2015
 30
0.0
 11
83.25853499999999
 21
793.9775
 31
0.0
  0
LINE
  5
3CE
330
1E
100
AcDbEntity
  8
0
100
AcDbLine
 10
84.83883500000001
 20
790.5655
 30
0.0
 11
85.568735
 21
790.5784999999999
 31
0.0
  0
LINE
  5
3D0
330
1E
100
AcDbEntity
  8
0
100
AcDbLine
 10
84.457535
 20
790.6235
 30
0.0
 11
84.67113499999999
 21
790.7214999999999
 31
0.0
  0
LINE
  5
3D1
330
1E
100
AcDbEntity
  8
0
100
AcDbLine
 10
84.457535
 20
790.6235
 30
0.0
 11
84.83883500000001
 21
790.5655
 31
0.0
  0
LINE
  5
3D2
330
1E
100
AcDbEntity
  8
0
100
AcDbLine
 10
84.67113499999999
 20
790.7214999999999
 30
0.0
 11
85.32913499999999
 21
790.8005000000001
 31
0.0
  0
LINE
  5
3D4
330
1E
100
AcDbEntity
  8
0
100
AcDbLine
 10
85.32913499999999
 20
790.8005000000001
 30
0.0
 11
86.05913499999999
 21
790.8125
 31
0.0
  0
LINE
  5
3D5
330
1E
100
AcDbEntity
  8
0
100
AcDbLine
 10
85.568735
 20
790.5784999999999
 30
0.0
 11
86.22683499999999
 21
790.6575
 31
0.0
  0
LINE
  5
3D6
330
1E
100
AcDbEntity
  8
0
100
AcDbLine
 10
83.277935
 20
790.0984999999999
 30
0.0
 11
83.277935
 21
790.920623287671
 31
0.0
  0
LINE
  5
3D7
330
1E
100
AcDbEntity
  8
0
100
AcDbLine
 10
84.41159874427821
 20
791.5023575829519
 30
0.0
 11
84.457535
 21
790.6235
 31
0.0
  0
LINE
  5
3D8
330
1E
100
AcDbEntity
  8
0
100
AcDbLine
 10
83.25853499999999
 20
793.9775
 30
0.0
 11
83.99123499999999
 21
793.9185
 31
0.0
  0
LINE
  5
3D9
330
1E
100
AcDbEntity
  8
0
100
AcDbLine
 10
83.07833499999999
 20
794.4634999999999
 30
0.0
 11
83.73363499999999
 21
794.6135
 31
0.0
  0
LINE
  5
3DC
330
1E
100
AcDbEntity
  8
0
100
AcDbLine
 10
83.73363499999999
 20
794.6135
 30
0.0
 11
84.466335
 21
794.5555
 31
0.0
  0
LINE
  5
3DF
330
1E
100
AcDbEntity
  8
0
100
AcDbLine
 10
84.466335
 20
794.5555
 30
0.0
 11
84.85393499999998
 21
794.3315
 31
0.0
  0
LINE
  5
3E0
330
1E
100
AcDbEntity
  8
0
100
AcDbLine
 10
84.646635
 20
794.0685
 30
0.0
 11
84.85393499999998
 21
794.3315
 31
0.0
  0
LINE
  5
3E1
330
1E
100
AcDbEntity
  8
0
100
AcDbLine
 10
83.99123499999999
 20
793.9185
 30
0.0
 11
84.646635
 21
794.0685
 31
0.0
  0
LINE
  5
3E5
330
1E
100
AcDbEntity
  8
0
100
AcDbLine
 10
84.457535
 20
814.9815
 30
0.0
 11
84.67113499999999
 21
814.4015000000001
 31
0.0
  0
LINE
  5
3E6
330
1E
100
AcDbEntity
  8
0
100
AcDbLine
 10
84.457535
 20
814.9815
 30
0.0
 11
84.83883500000001
 21
815.5215
 31
0.0
  0
LINE
  5
3E9
330
1E
100
AcDbEntity
  8
0
100
AcDbLine
 10
84.83883500000001
 20
815.5215
 30
0.0
 11
85.568735
 21
815.7115000000001
 31
0.0
  0
LINE
  5
3EA
330
1E
100
AcDbEntity
  8
0
100
AcDbLine
 10
84.67113499999999
 20
814.4015000000001
 30
0.0
 11
85.32913499999999
 21
814.1214999999998
 31
0.0
  0
LINE
  5
3EB
330
1E
100
AcDbEntity
  8
0
100
AcDbLine
 10
85.32913499999999
 20
814.1214999999998
 30
0.0
 11
86.05913499999999
 21
814.3114999999999
 31
0.0
  0
LINE
  5
3EC
330
1E
100
AcDbEntity
  8
0
100
AcDbLine
 10
85.568735
 20
815.7115000000001
 30
0.0
 11
86.22683499999999
 21
815.4315
 31
0.0
  0
LINE
  5
3ED
330
1E
100
AcDbEntity
  8
0
100
AcDbLine
 10
83.277935
 20
790.920623287671
 30
0.0
 11
83.277935
 21
790.0984999999999
 31
0.0
  0
LINE
  5
3EF
330
1E
100
AcDbEntity
  8
0
100
AcDbLine
 10
82.977935
 20
790.0644999999999
 30
0.0
 11
83.277935
 21
790.0984999999999
 31
0.0
  0
LINE
  5
3F1
330
1E
100
AcDbEntity
  8
0
100
AcDbLine
 10
82.277935
 20
790.0495
 30
0.0
 11
82.977935
 21
790.0644999999999
 31
0.0
  0
LINE
  5
3F3
330
1E
100
AcDbEntity
  8
0
100
AcDbLine
 10
82.277935
 20
821.3815
 30
0.0
 11
82.977935
 21
821.1214999999999
 31
0.0
  0
LINE
  5
3F4
330
1E
100
AcDbEntity
  8
0
100
AcDbLine
 10
82.977935
 20
821.1214999999999
 30
0.0
 11
83.277935
 21
820.5014999999999
 31
0.0
  0
LINE
  5
3F5
330
1E
100
AcDbEntity
  8
0
100
AcDbLine
 10
82.977935
 20
819.8714999999999
 30
0.0
 11
83.277935
 21
820.5014999999999
 31
0.0
  0
LINE
  5
3F6
330
1E
100
AcDbEntity
  8
0
100
AcDbLine
 10
82.277935
 20
819.6115
 30
0.0
 11
82.977935
 21
819.8714999999999
 31
0.0
  0
LINE
  5
3F9
330
1E
100
AcDbEntity
  8
0
100
AcDbLine
 10
86.046835
 20
792.2414999999999
 30
0.0
 11
86.160735
 21
792.4624999999999
 31
0.0
  0
LINE
  5
3FA
330
1E
100
AcDbEntity
  8
0
100
AcDbLine
 10
86.046835
 20
792.2414999999999
 30
0.0
 11
86.51253500000001
 21
792.0974999999999
 31
0.0
  0
LINE
  5
3FD
330
1E
100
AcDbEntity
  8
0
100
AcDbLine
 10
86.160735
 20
792.4624999999999
 30
0.0
 11
86.76153499999999
 21
792.6314999999999
 31
0.0
  0
LINE
  5
3FF
330
1E
100
AcDbEntity
  8
0
100
AcDbLine
 10
86.05913499999999
 20
790.8125
 30
0.0
 11
86.440435
 21
790.7544999999999
 31
0.0
  0
LINE
  5
400
330
1E
100
AcDbEntity
  8
0
100
AcDbLine
 10
86.42049160787122
 20
791.13586689095
 30
0.0
 11
89.568735
 21
791.3515
 31
0.0
  0
LINE
  5
402
330
1E
100
AcDbEntity
  8
0
100
AcDbLine
 10
86.51253500000001
 20
792.0974999999999
 30
0.0
 11
87.26403499999999
 21
792.1095
 31
0.0
  0
LINE
  5
403
330
1E
100
AcDbEntity
  8
0
100
AcDbLine
 10
86.76153499999999
 20
792.6314999999999
 30
0.0
 11
87.513035
 21
792.6445
 31
0.0
  0
LINE
  5
404
330
1E
100
AcDbEntity
  8
0
100
AcDbLine
 10
86.3944134717593
 20
791.634545231451
 30
0.0
 11
86.440435
 21
790.7544999999999
 31
0.0
  0
LINE
  5
405
330
1E
100
AcDbEntity
  8
0
100
AcDbLine
 10
86.22683499999999
 20
790.6575
 30
0.0
 11
86.440435
 21
790.7544999999999
 31
0.0
  0
LINE
  5
408
330
1E
100
AcDbEntity
  8
0
100
AcDbLine
 10
86.035535
 20
806.2215
 30
0.0
 11
86.04843499999999
 21
805.7415
 31
0.0
  0
LINE
  5
409
330
1E
100
AcDbEntity
  8
0
100
AcDbLine
 10
86.035535
 20
806.2215
 30
0.0
 11
86.577035
 21
806.5815
 31
0.0
  0
LINE
  5
40B
330
1E
100
AcDbEntity
  8
0
100
AcDbLine
 10
86.577035
 20
806.5815
 30
0.0
 11
87.337035
 21
806.6214999999999
 31
0.0
  0
LINE
  5
40C
330
1E
100
AcDbEntity
  8
0
100
AcDbLine
 10
86.04843499999999
 20
805.7415
 30
0.0
 11
86.58193500000001
 21
805.4315
 31
0.0
  0
LINE
  5
40D
330
1E
100
AcDbEntity
  8
0
100
AcDbLine
 10
86.58193500000001
 20
805.4315
 30
0.0
 11
87.34193499999999
 21
805.4814999999999
 31
0.0
  0
LINE
  5
40E
330
1E
100
AcDbEntity
  8
0
100
AcDbLine
 10
87.26403499999999
 20
792.1095
 30
0.0
 11
87.86483500000001
 21
792.2785
 31
0.0
  0
LINE
  5
410
330
1E
100
AcDbEntity
  8
0
100
AcDbLine
 10
87.513035
 20
792.6445
 30
0.0
 11
87.97873499999999
 21
792.5004999999999
 31
0.0
  0
LINE
  5
411
330
1E
100
AcDbEntity
  8
0
100
AcDbLine
 10
87.86483500000001
 20
792.2785
 30
0.0
 11
87.97873499999999
 21
792.5004999999999
 31
0.0
  0
LINE
  5
412
330
1E
100
AcDbEntity
  8
0
100
AcDbLine
 10
87.34193499999999
 20
805.4814999999999
 30
0.0
 11
87.883335
 21
805.8415
 31
0.0
  0
LINE
  5
414
330
1E
100
AcDbEntity
  8
0
100
AcDbLine
 10
87.337035
 20
806.6214999999999
 30
0.0
 11
87.87043500000001
 21
806.3114999999999
 31
0.0
  0
LINE
  5
415
330
1E
100
AcDbEntity
  8
0
100
AcDbLine
 10
86.76153499999999
 20
809.4314999999999
 30
0.0
 11
87.513035
 21
809.5515
 31
0.0
  0
LINE
  5
416
330
1E
100
AcDbEntity
  8
0
100
AcDbLine
 10
86.046835
 20
810.2415
 30
0.0
 11
86.160735
 21
809.7315
 31
0.0
  0
LINE
  5
417
330
1E
100
AcDbEntity
  8
0
100
AcDbLine
 10
86.046835
 20
810.2415
 30
0.0
 11
86.51253500000001
 21
810.6715000000001
 31
0.0
  0
LINE
  5
418
330
1E
100
AcDbEntity
  8
0
100
AcDbLine
 10
86.51253500000001
 20
810.6715000000001
 30
0.0
 11
87.26403499999999
 21
810.7915
 31
0.0
  0
LINE
  5
419
330
1E
100
AcDbEntity
  8
0
100
AcDbLine
 10
86.160735
 20
809.7315
 30
0.0
 11
86.76153499999999
 21
809.4314999999999
 31
0.0
  0
LINE
  5
41A
330
1E
100
AcDbEntity
  8
0
100
AcDbLine
 10
87.513035
 20
809.5515
 30
0.0
 11
87.97873499999999
 21
809.9814999999999
 31
0.0
  0
LINE
  5
41C
330
1E
100
AcDbEntity
  8
0
100
AcDbLine
 10
89.04396805031591
 20
791.315557058241
 30
0.0
 11
89.161535
 21
790.4855
 31
0.0
  0
LINE
  5
41D
330
1E
100
AcDbEntity
  8
0
100
AcDbLine
 10
88.94343499999999
 20
795.1765
 30
0.0
 11
89.60183499999999
 21
795.0924999999999
 31
0.0
  0
LINE
  5
41E
330
1E
100
AcDbEntity
  8
0
100
AcDbLine
 10
88.76103499999999
 20
795.4425
 30
0.0
 11
89.13623499999999
 21
795.7304999999999
 31
0.0
  0
LINE
  5
41F
330
1E
100
AcDbEntity
  8
0
100
AcDbLine
 10
88.76103499999999
 20
795.4425
 30
0.0
 11
88.94343499999999
 21
795.1765
 31
0.0
  0
LINE
  5
420
330
1E
100
AcDbEntity
  8
0
100
AcDbLine
 10
89.568735
 20
791.3515
 30
0.0
 11
90.64847644646851
 21
791.5705938510119
 31
0.0
  0
LINE
  5
423
330
1E
100
AcDbEntity
  8
0
100
AcDbLine
 10
89.161535
 20
790.4855
 30
0.0
 11
89.29903499999999
 21
790.4805
 31
0.0
  0
LINE
  5
424
330
1E
100
AcDbEntity
  8
0
100
AcDbLine
 10
89.29903499999999
 20
790.4805
 30
0.0
 11
89.909835
 21
790.5515
 31
0.0
  0
LINE
  5
425
330
1E
100
AcDbEntity
  8
0
100
AcDbLine
 10
89.909835
 20
790.5515
 30
0.0
 11
90.65133499999999
 21
790.6615
 31
0.0
  0
LINE
  5
426
330
1E
100
AcDbEntity
  8
0
100
AcDbLine
 10
89.60183499999999
 20
795.0924999999999
 30
0.0
 11
90.337335
 21
795.2304999999999
 31
0.0
  0
LINE
  5
427
330
1E
100
AcDbEntity
  8
0
100
AcDbLine
 10
89.13623499999999
 20
795.7304999999999
 30
0.0
 11
89.871735
 21
795.8685
 31
0.0
  0
LINE
  5
42B
330
1E
100
AcDbEntity
  8
0
100
AcDbLine
 10
89.871735
 20
795.8685
 30
0.0
 11
90.530135
 21
795.7844999999999
 31
0.0
  0
LINE
  5
42C
330
1E
100
AcDbEntity
  8
0
100
AcDbLine
 10
90.65133499999999
 20
790.6615
 30
0.0
 11
91.09343499999999
 21
790.7445
 31
0.0
  0
LINE
  5
42E
330
1E
100
AcDbEntity
  8
0
100
AcDbLine
 10
90.53985006955659
 20
792.2695188287739
 30
0.0
 11
90.68703499999999
 21
791.3224999999999
 31
0.0
  0
LINE
  5
430
330
1E
100
AcDbEntity
  8
0
100
AcDbLine
 10
90.68703499999999
 20
791.3224999999999
 30
0.0
 11
90.718335
 21
791.4355
 31
0.0
  0
LINE
  5
431
330
1E
100
AcDbEntity
  8
0
100
AcDbLine
 10
90.68703499999999
 20
791.3224999999999
 30
0.0
 11
91.21003499999998
 21
791.3235
 31
0.0
  0
LINE
  5
432
330
1E
100
AcDbEntity
  8
0
100
AcDbLine
 10
91.01148083850459
 20
791.3231203553319
 30
0.0
 11
91.09343499999999
 21
790.7445
 31
0.0
  0
LINE
  5
433
330
1E
100
AcDbEntity
  8
0
100
AcDbLine
 10
90.718335
 20
791.4355
 30
0.0
 11
91.25963500000001
 21
791.5934999999999
 31
0.0
  0
LINE
  5
436
330
1E
100
AcDbEntity
  8
0
100
AcDbLine
 10
90.530135
 20
795.7844999999999
 30
0.0
 11
90.712535
 21
795.5185
 31
0.0
  0
LINE
  5
437
330
1E
100
AcDbEntity
  8
0
100
AcDbLine
 10
90.337335
 20
795.2304999999999
 30
0.0
 11
90.712535
 21
795.5185
 31
0.0
  0
LINE
  5
43A
330
1E
100
AcDbEntity
  8
0
100
AcDbLine
 10
91.21003499999998
 20
791.3235
 30
0.0
 11
91.962135
 21
791.4335
 31
0.0
  0
LINE
  5
43D
330
1E
100
AcDbEntity
  8
0
100
AcDbLine
 10
91.25963500000001
 20
791.5934999999999
 30
0.0
 11
92.01173500000001
 21
791.7034999999999
 31
0.0
  0
LINE
  5
43F
330
1E
100
AcDbEntity
  8
0
100
AcDbLine
 10
92.01173500000001
 20
791.7034999999999
 30
0.0
 11
92.534735
 21
791.7045
 31
0.0
  0
LINE
  5
440
330
1E
100
AcDbEntity
  8
0
100
AcDbLine
 10
91.962135
 20
791.4335
 30
0.0
 11
92.50343499999999
 21
791.5915
 31
0.0
  0
LINE
  5
441
330
1E
100
AcDbEntity
  8
0
100
AcDbLine
 10
91.894635
 20
803.5014999999999
 30
0.0
 11
92.625135
 21
803.6915
 31
0.0
  0
LINE
  5
442
330
1E
100
AcDbEntity
  8
0
100
AcDbLine
 10
91.23363499999999
 20
803.6515000000001
 30
0.0
 11
91.894635
 21
803.5014999999999
 31
0.0
  0
LINE
  5
443
330
1E
100
AcDbEntity
  8
0
100
AcDbLine
 10
91.04233499999999
 20
804.0615
 30
0.0
 11
91.407635
 21
804.4814999999999
 31
0.0
  0
LINE
  5
444
330
1E
100
AcDbEntity
  8
0
100
AcDbLine
 10
91.04233499999999
 20
804.0615
 30
0.0
 11
91.23363499999999
 21
803.6515000000001
 31
0.0
  0
LINE
  5
447
330
1E
100
AcDbEntity
  8
0
100
AcDbLine
 10
91.407635
 20
804.4814999999999
 30
0.0
 11
92.13813499999998
 21
804.6715
 31
0.0
  0
LINE
  5
448
330
1E
100
AcDbEntity
  8
0
100
AcDbLine
 10
92.49727327155822
 20
791.9457392318549
 30
0.0
 11
96.46823499999999
 21
792.7514999999999
 31
0.0
  0
LINE
  5
449
330
1E
100
AcDbEntity
  8
0
100
AcDbLine
 10
92.38272763705619
 20
792.683369395462
 30
0.0
 11
92.534735
 21
791.7045
 31
0.0
  0
LINE
  5
44A
330
1E
100
AcDbEntity
  8
0
100
AcDbLine
 10
92.48739882436069
 20
791.6947140821009
 30
0.0
 11
92.50343499999999
 21
791.5915
 31
0.0
  0
LINE
  5
44B
330
1E
100
AcDbEntity
  8
0
100
AcDbLine
 10
92.50343499999999
 20
791.5915
 30
0.0
 11
92.534735
 21
791.7045
 31
0.0
  0
LINE
  5
44E
330
1E
100
AcDbEntity
  8
0
100
AcDbLine
 10
92.70563499999999
 20
798.0615
 30
0.0
 11
92.71123499999999
 21
797.7184999999999
 31
0.0
  0
LINE
  5
44F
330
1E
100
AcDbEntity
  8
0
100
AcDbLine
 10
92.70563499999999
 20
798.0615
 30
0.0
 11
93.246935
 21
798.3615
 31
0.0
  0
LINE
  5
450
330
1E
100
AcDbEntity
  8
0
100
AcDbLine
 10
92.71123499999999
 20
797.7184999999999
 30
0.0
 11
93.23443499999999
 21
797.5465
 31
0.0
  0
LINE
  5
452
330
1E
100
AcDbEntity
  8
0
100
AcDbLine
 10
92.79903500000001
 20
804.5315
 30
0.0
 11
92.990335
 21
804.1214999999999
 31
0.0
  0
LINE
  5
453
330
1E
100
AcDbEntity
  8
0
100
AcDbLine
 10
92.625135
 20
803.6915
 30
0.0
 11
92.990335
 21
804.1214999999999
 31
0.0
  0
LINE
  5
454
330
1E
100
AcDbEntity
  8
0
100
AcDbLine
 10
92.13813499999998
 20
804.6715
 30
0.0
 11
92.79903500000001
 21
804.5315
 31
0.0
  0
LINE
  5
455
330
1E
100
AcDbEntity
  8
0
100
AcDbLine
 10
87.87043500000001
 20
806.3114999999999
 30
0.0
 11
87.883335
 21
805.8415
 31
0.0
  0
LINE
  5
456
330
1E
100
AcDbEntity
  8
0
100
AcDbLine
 10
87.86483500000001
 20
810.4915
 30
0.0
 11
87.97873499999999
 21
809.9814999999999
 31
0.0
  0
LINE
  5
458
330
1E
100
AcDbEntity
  8
0
100
AcDbLine
 10
86.05913499999999
 20
814.3114999999999
 30
0.0
 11
86.440435
 21
814.8514999999999
 31
0.0
  0
LINE
  5
459
330
1E
100
AcDbEntity
  8
0
100
AcDbLine
 10
86.22683499999999
 20
815.4315
 30
0.0
 11
86.440435
 21
814.8514999999999
 31
0.0
  0
LINE
  5
45D
330
1E
100
AcDbEntity
  8
0
100
AcDbLine
 10
89.60363499999999
 20
820.6815
 30
0.0
 11
90.34503499999999
 21
820.8515
 31
0.0
  0
LINE
  5
45E
330
1E
100
AcDbEntity
  8
0
100
AcDbLine
 10
89.161535
 20
820.1114999999999
 30
0.0
 11
89.29903499999999
 21
819.4615
 31
0.0
  0
LINE
  5
45F
330
1E
100
AcDbEntity
  8
0
100
AcDbLine
 10
89.161535
 20
820.1114999999999
 30
0.0
 11
89.60363499999999
 21
820.6815
 31
0.0
  0
LINE
  5
460
330
1E
100
AcDbEntity
  8
0
100
AcDbLine
 10
89.29903499999999
 20
819.4615
 30
0.0
 11
89.909835
 21
819.1015
 31
0.0
  0
LINE
  5
461
330
1E
100
AcDbEntity
  8
0
100
AcDbLine
 10
89.909835
 20
819.1015
 30
0.0
 11
90.65133499999999
 21
819.2815000000001
 31
0.0
  0
LINE
  5
463
330
1E
100
AcDbEntity
  8
0
100
AcDbLine
 10
90.34503499999999
 20
820.8515
 30
0.0
 11
90.95593499999999
 21
820.5014999999999
 31
0.0
  0
LINE
  5
464
330
1E
100
AcDbEntity
  8
0
100
AcDbLine
 10
90.65133499999999
 20
819.2815000000001
 30
0.0
 11
91.09343499999999
 21
819.8515
 31
0.0
  0
LINE
  5
466
330
1E
100
AcDbEntity
  8
0
100
AcDbLine
 10
90.68703499999999
 20
814.2815
 30
0.0
 11
90.718335
 21
813.6915
 31
0.0
  0
LINE
  5
467
330
1E
100
AcDbEntity
  8
0
100
AcDbLine
 10
90.68703499999999
 20
814.2815
 30
0.0
 11
91.21003499999998
 21
814.7615
 31
0.0
  0
LINE
  5
468
330
1E
100
AcDbEntity
  8
0
100
AcDbLine
 10
91.66873499999999
 20
828.3815
 30
0.0
 11
100.4682349999999
 21
826.5814999999999
 31
0.0
  0
LINE
  5
469
330
1E
100
AcDbEntity
  8
0
100
AcDbLine
 10
90.95593499999999
 20
820.5014999999999
 30
0.0
 11
91.09343499999999
 21
819.8515
 31
0.0
  0
LINE
  5
46B
330
1E
100
AcDbEntity
  8
0
100
AcDbLine
 10
91.76873499999999
 20
828.5814999999999
 30
0.0
 11
100.6682349999999
 21
826.7314999999999
 31
0.0
  0
LINE
  5
46D
330
1E
100
AcDbEntity
  8
0
100
AcDbLine
 10
91.21003499999998
 20
814.7615
 30
0.0
 11
91.962135
 21
814.8614999999999
 31
0.0
  0
LINE
  5
46E
330
1E
100
AcDbEntity
  8
0
100
AcDbLine
 10
90.718335
 20
813.6915
 30
0.0
 11
91.25963500000001
 21
813.3214999999999
 31
0.0
  0
LINE
  5
46F
330
1E
100
AcDbEntity
  8
0
100
AcDbLine
 10
91.25963500000001
 20
813.3214999999999
 30
0.0
 11
92.01173500000001
 21
813.4215000000001
 31
0.0
  0
LINE
  5
470
330
1E
100
AcDbEntity
  8
0
100
AcDbLine
 10
92.01173500000001
 20
813.4215000000001
 30
0.0
 11
92.534735
 21
813.9015
 31
0.0
  0
LINE
  5
472
330
1E
100
AcDbEntity
  8
0
100
AcDbLine
 10
92.50343499999999
 20
814.4914999999999
 30
0.0
 11
92.534735
 21
813.9015
 31
0.0
  0
LINE
  5
473
330
1E
100
AcDbEntity
  8
0
100
AcDbLine
 10
91.962135
 20
814.8614999999999
 30
0.0
 11
92.50343499999999
 21
814.4914999999999
 31
0.0
  0
LINE
  5
476
330
1E
100
AcDbEntity
  8
0
100
AcDbLine
 10
87.26403499999999
 20
810.7915
 30
0.0
 11
87.86483500000001
 21
810.4915
 31
0.0
  0
LINE
  5
478
330
1E
100
AcDbEntity
  8
0
100
AcDbLine
 10
92.968735
 20
840.6914999999999
 30
0.0
 11
102.8682349999999
 21
838.6414999999999
 31
0.0
  0
LINE
  5
47A
330
1E
100
AcDbEntity
  8
0
100
AcDbLine
 10
96.028035
 20
715.2515
 30
0.0
 11
96.77323499999999
 21
727.2714999999999
 31
0.0
  0
LINE
  5
47B
330
1E
100
AcDbEntity
  8
0
100
AcDbLine
 10
97.07123500000001
 20
738.7765
 30
0.0
 11
97.29423500000001
 21
749.5474999999999
 31
0.0
  0
LINE
  5
47C
330
1E
100
AcDbEntity
  8
0
100
AcDbLine
 10
96.77323499999999
 20
727.2714999999999
 30
0.0
 11
97.07123500000001
 21
738.7765
 31
0.0
  0
LINE
  5
47D
330
1E
100
AcDbEntity
  8
0
100
AcDbLine
 10
97.29423500000001
 20
749.5474999999999
 30
0.0
 11
97.443235
 21
758.0244999999999
 31
0.0
  0
LINE
  5
47E
330
1E
100
AcDbEntity
  8
0
100
AcDbLine
 10
97.29423500000001
 20
768.1205
 30
0.0
 11
97.443235
 21
758.0244999999999
 31
0.0
  0
LINE
  5
47F
330
1E
100
AcDbEntity
  8
0
100
AcDbLine
 10
96.99623500000001
 20
774.8664999999999
 30
0.0
 11
97.29423500000001
 21
768.1205
 31
0.0
  0
LINE
  5
480
330
1E
100
AcDbEntity
  8
0
100
AcDbLine
 10
96.251235
 20
783.7844999999999
 30
0.0
 11
96.40023499999999
 21
790.1515
 31
0.0
  0
LINE
  5
481
330
1E
100
AcDbEntity
  8
0
100
AcDbLine
 10
96.251235
 20
783.7844999999999
 30
0.0
 11
96.99623500000001
 21
774.8664999999999
 31
0.0
  0
LINE
  5
482
330
1E
100
AcDbEntity
  8
0
100
AcDbLine
 10
93.246935
 20
798.3615
 30
0.0
 11
93.99973499999999
 21
798.4715
 31
0.0
  0
LINE
  5
483
330
1E
100
AcDbEntity
  8
0
100
AcDbLine
 10
93.23443499999999
 20
797.5465
 30
0.0
 11
93.987235
 21
797.6525
 31
0.0
  0
LINE
  5
485
330
1E
100
AcDbEntity
  8
0
100
AcDbLine
 10
93.46633500000001
 20
800.9415
 30
0.0
 11
93.66843499999999
 21
801.3514999999999
 31
0.0
  0
LINE
  5
486
330
1E
100
AcDbEntity
  8
0
100
AcDbLine
 10
93.46633500000001
 20
800.9415
 30
0.0
 11
93.851135
 21
800.6615
 31
0.0
  0
LINE
  5
488
330
1E
100
AcDbEntity
  8
0
100
AcDbLine
 10
93.99973499999999
 20
798.4715
 30
0.0
 11
94.52303499999999
 21
798.3015
 31
0.0
  0
LINE
  5
489
330
1E
100
AcDbEntity
  8
0
100
AcDbLine
 10
93.987235
 20
797.6525
 30
0.0
 11
94.52853499999999
 21
797.9614999999999
 31
0.0
  0
LINE
  5
48B
330
1E
100
AcDbEntity
  8
0
100
AcDbLine
 10
93.851135
 20
800.6615
 30
0.0
 11
94.57493499999999
 21
800.6515
 31
0.0
  0
LINE
  5
48C
330
1E
100
AcDbEntity
  8
0
100
AcDbLine
 10
93.66843499999999
 20
801.3514999999999
 30
0.0
 11
94.313935
 21
801.6515
 31
0.0
  0
LINE
  5
48E
330
1E
100
AcDbEntity
  8
0
100
AcDbLine
 10
94.284835
 20
807.5915
 30
0.0
 11
94.553235
 21
808.0814999999999
 31
0.0
  0
LINE
  5
48F
330
1E
100
AcDbEntity
  8
0
100
AcDbLine
 10
94.284835
 20
807.5915
 30
0.0
 11
94.573935
 21
807.1815
 31
0.0
  0
LINE
  5
492
330
1E
100
AcDbEntity
  8
0
100
AcDbLine
 10
94.313935
 20
801.6515
 30
0.0
 11
95.03773499999999
 21
801.6415
 31
0.0
  0
LINE
  5
493
330
1E
100
AcDbEntity
  8
0
100
AcDbLine
 10
94.52303499999999
 20
798.3015
 30
0.0
 11
94.52853499999999
 21
797.9614999999999
 31
0.0
  0
LINE
  5
494
330
1E
100
AcDbEntity
  8
0
100
AcDbLine
 10
95.220535
 20
800.9515
 30
0.0
 11
95.422635
 21
801.3614999999999
 31
0.0
  0
LINE
  5
495
330
1E
100
AcDbEntity
  8
0
100
AcDbLine
 10
94.57493499999999
 20
800.6515
 30
0.0
 11
95.220535
 21
800.9515
 31
0.0
  0
LINE
  5
497
330
1E
100
AcDbEntity
  8
0
100
AcDbLine
 10
95.03773499999999
 20
801.6415
 30
0.0
 11
95.422635
 21
801.3614999999999
 31
0.0
  0
LINE
  5
498
330
1E
100
AcDbEntity
  8
0
100
AcDbLine
 10
94.573935
 20
807.1815
 30
0.0
 11
95.274835
 21
807.1014999999999
 31
0.0
  0
LINE
  5
49B
330
1E
100
AcDbEntity
  8
0
100
AcDbLine
 10
94.553235
 20
808.0814999999999
 30
0.0
 11
95.245835
 21
808.3614999999999
 31
0.0
  0
LINE
  5
49C
330
1E
100
AcDbEntity
  8
0
100
AcDbLine
 10
95.245835
 20
808.3614999999999
 30
0.0
 11
95.946835
 21
808.2815
 31
0.0
  0
LINE
  5
49F
330
1E
100
AcDbEntity
  8
0
100
AcDbLine
 10
94.573935
 20
794.8875000000001
 30
0.0
 11
95.274835
 21
795.0934999999999
 31
0.0
  0
LINE
  5
4A0
330
1E
100
AcDbEntity
  8
0
100
AcDbLine
 10
94.284835
 20
794.5984999999999
 30
0.0
 11
94.553235
 21
794.3985
 31
0.0
  0
LINE
  5
4A1
330
1E
100
AcDbEntity
  8
0
100
AcDbLine
 10
94.284835
 20
794.5984999999999
 30
0.0
 11
94.573935
 21
794.8875000000001
 31
0.0
  0
LINE
  5
4A2
330
1E
100
AcDbEntity
  8
0
100
AcDbLine
 10
94.553235
 20
794.3985
 30
0.0
 11
95.245835
 21
794.4094999999999
 31
0.0
  0
LINE
  5
4A3
330
1E
100
AcDbEntity
  8
0
100
AcDbLine
 10
96.594235
 20
791.8825
 30
0.0
 11
97.14823500000001
 21
792.0304999999999
 31
0.0
  0
LINE
  5
4A4
330
1E
100
AcDbEntity
  8
0
100
AcDbLine
 10
96.559235
 20
791.8835
 30
0.0
 11
97.039235
 21
792.0275
 31
0.0
  0
LINE
  5
4A5
330
1E
100
AcDbEntity
  8
0
100
AcDbLine
 10
97.14823500000001
 20
792.0304999999999
 30
0.0
 11
97.88023500000001
 21
792.2365
 31
0.0
  0
LINE
  5
4A6
330
1E
100
AcDbEntity
  8
0
100
AcDbLine
 10
97.039235
 20
792.0275
 30
0.0
 11
97.77123500000001
 21
792.2335
 31
0.0
  0
LINE
  5
4A7
330
1E
100
AcDbEntity
  8
0
100
AcDbLine
 10
96.46823499999999
 20
792.7514999999999
 30
0.0
 11
96.8106401040961
 21
792.8408921896769
 31
0.0
  0
LINE
  5
4A8
330
1E
100
AcDbEntity
  8
0
100
AcDbLine
 10
96.3234207431296
 20
792.722115267828
 30
0.0
 11
96.559235
 21
791.8835
 31
0.0
  0
LINE
  5
4A9
330
1E
100
AcDbEntity
  8
0
100
AcDbLine
 10
97.77123500000001
 20
792.2335
 30
0.0
 11
98.326235
 21
792.3825
 31
0.0
  0
LINE
  5
4AA
330
1E
100
AcDbEntity
  8
0
100
AcDbLine
 10
97.88023500000001
 20
792.2365
 30
0.0
 11
98.36023500000001
 21
792.3804999999999
 31
0.0
  0
LINE
  5
4AD
330
1E
100
AcDbEntity
  8
0
100
AcDbLine
 10
96.30897955148849
 20
792.933662793818
 30
0.0
 11
96.342235
 21
792.8024999999999
 31
0.0
  0
LINE
  5
4AF
330
1E
100
AcDbEntity
  8
0
100
AcDbLine
 10
96.97223499999999
 20
792.8795
 30
0.0
 11
97.695235
 21
793.0864999999999
 31
0.0
  0
LINE
  5
4B0
330
1E
100
AcDbEntity
  8
0
100
AcDbLine
 10
96.342235
 20
792.8024999999999
 30
0.0
 11
96.97223499999999
 21
792.8795
 31
0.0
  0
LINE
  5
4B1
330
1E
100
AcDbEntity
  8
0
100
AcDbLine
 10
96.18923500000001
 20
792.9085
 30
0.0
 11
96.57723500000001
 21
793.1275
 31
0.0
  0
LINE
  5
4B2
330
1E
100
AcDbEntity
  8
0
100
AcDbLine
 10
96.18923500000001
 20
792.9085
 30
0.0
 11
96.342235
 21
792.8024999999999
 31
0.0
  0
LINE
  5
4B4
330
1E
100
AcDbEntity
  8
0
100
AcDbLine
 10
96.57723500000001
 20
793.1275
 30
0.0
 11
97.30023500000001
 21
793.3345
 31
0.0
  0
LINE
  5
4BA
330
1E
100
AcDbEntity
  8
0
100
AcDbLine
 10
97.30023500000001
 20
793.3345
 30
0.0
 11
97.929235
 21
793.4115
 31
0.0
  0
LINE
  5
4BB
330
1E
100
AcDbEntity
  8
0
100
AcDbLine
 10
98.13376736547208
 20
793.186322913986
 30
0.0
 11
99.26823500000001
 21
793.4825
 31
0.0
  0
LINE
  5
4BC
330
1E
100
AcDbEntity
  8
0
100
AcDbLine
 10
98.0683046747916
 20
793.2985809520779
 30
0.0
 11
98.326235
 21
792.3825
 31
0.0
  0
LINE
  5
4BD
330
1E
100
AcDbEntity
  8
0
100
AcDbLine
 10
99.26823500000001
 20
793.4825
 30
0.0
 11
102.6224495266019
 21
794.7523097850709
 31
0.0
  0
LINE
  5
4BF
330
1E
100
AcDbEntity
  8
0
100
AcDbLine
 10
97.929235
 20
793.4115
 30
0.0
 11
98.082235
 21
793.3065
 31
0.0
  0
LINE
  5
4C0
330
1E
100
AcDbEntity
  8
0
100
AcDbLine
 10
97.695235
 20
793.0864999999999
 30
0.0
 11
98.082235
 21
793.3065
 31
0.0
  0
LINE
  5
4C1
330
1E
100
AcDbEntity
  8
0
100
AcDbLine
 10
95.946835
 20
794.6164999999999
 30
0.0
 11
96.236235
 21
794.9044999999999
 31
0.0
  0
LINE
  5
4C4
330
1E
100
AcDbEntity
  8
0
100
AcDbLine
 10
95.946835
 20
808.2815
 30
0.0
 11
96.236235
 21
807.8714999999998
 31
0.0
  0
LINE
  5
4C5
330
1E
100
AcDbEntity
  8
0
100
AcDbLine
 10
95.967435
 20
807.3814999999999
 30
0.0
 11
96.236235
 21
807.8714999999998
 31
0.0
  0
LINE
  5
4C6
330
1E
100
AcDbEntity
  8
0
100
AcDbLine
 10
95.274835
 20
807.1014999999999
 30
0.0
 11
95.967435
 21
807.3814999999999
 31
0.0
  0
LINE
  5
4C9
330
1E
100
AcDbEntity
  8
0
100
AcDbLine
 10
96.57723500000001
 20
811.7914999999999
 30
0.0
 11
97.30023500000001
 21
811.7914999999999
 31
0.0
  0
LINE
  5
4CB
330
1E
100
AcDbEntity
  8
0
100
AcDbLine
 10
96.342235
 20
812.8015000000001
 30
0.0
 11
96.97223499999999
 21
813.2115
 31
0.0
  0
LINE
  5
4CC
330
1E
100
AcDbEntity
  8
0
100
AcDbLine
 10
96.18923500000001
 20
812.2115
 30
0.0
 11
96.57723500000001
 21
811.7914999999999
 31
0.0
  0
LINE
  5
4CD
330
1E
100
AcDbEntity
  8
0
100
AcDbLine
 10
96.18923500000001
 20
812.2115
 30
0.0
 11
96.342235
 21
812.8015000000001
 31
0.0
  0
LINE
  5
4CE
330
1E
100
AcDbEntity
  8
0
100
AcDbLine
 10
97.30023500000001
 20
811.7914999999999
 30
0.0
 11
97.929235
 21
812.1914999999999
 31
0.0
  0
LINE
  5
4D0
330
1E
100
AcDbEntity
  8
0
100
AcDbLine
 10
97.929235
 20
812.1914999999999
 30
0.0
 11
98.082235
 21
812.7815
 31
0.0
  0
LINE
  5
4D1
330
1E
100
AcDbEntity
  8
0
100
AcDbLine
 10
96.594235
 20
818.7115
 30
0.0
 11
97.14823500000001
 21
819.2215
 31
0.0
  0
LINE
  5
4D2
330
1E
100
AcDbEntity
  8
0
100
AcDbLine
 10
96.559235
 20
818.0514999999999
 30
0.0
 11
97.039235
 21
817.6314999999998
 31
0.0
  0
LINE
  5
4D3
330
1E
100
AcDbEntity
  8
0
100
AcDbLine
 10
96.559235
 20
818.0514999999999
 30
0.0
 11
96.594235
 21
818.7115
 31
0.0
  0
LINE
  5
4D6
330
1E
100
AcDbEntity
  8
0
100
AcDbLine
 10
97.039235
 20
817.6314999999998
 30
0.0
 11
97.77123500000001
 21
817.7015
 31
0.0
  0
LINE
  5
4D8
330
1E
100
AcDbEntity
  8
0
100
AcDbLine
 10
97.14823500000001
 20
819.2215
 30
0.0
 11
97.88023500000001
 21
819.2915000000001
 31
0.0
  0
LINE
  5
4D9
330
1E
100
AcDbEntity
  8
0
100
AcDbLine
 10
97.77123500000001
 20
817.7015
 30
0.0
 11
98.326235
 21
818.2114999999999
 31
0.0
  0
LINE
  5
4DA
330
1E
100
AcDbEntity
  8
0
100
AcDbLine
 10
98.326235
 20
818.2114999999999
 30
0.0
 11
98.36023500000001
 21
818.8715
 31
0.0
  0
LINE
  5
4DB
330
1E
100
AcDbEntity
  8
0
100
AcDbLine
 10
97.88023500000001
 20
819.2915000000001
 30
0.0
 11
98.36023500000001
 21
818.8715
 31
0.0
  0
LINE
  5
4DD
330
1E
100
AcDbEntity
  8
0
100
AcDbLine
 10
96.97223499999999
 20
813.2115
 30
0.0
 11
97.695235
 21
813.2015
 31
0.0
  0
LINE
  5
4DE
330
1E
100
AcDbEntity
  8
0
100
AcDbLine
 10
97.695235
 20
813.2015
 30
0.0
 11
98.082235
 21
812.7815
 31
0.0
  0
LINE
  5
4DF
330
1E
100
AcDbEntity
  8
0
100
AcDbLine
 10
99.071235
 20
803.2815000000001
 30
0.0
 11
99.171235
 21
803.7214999999999
 31
0.0
  0
LINE
  5
4E0
330
1E
100
AcDbEntity
  8
0
100
AcDbLine
 10
99.071235
 20
803.2815000000001
 30
0.0
 11
99.53423499999999
 21
803.0415000000001
 31
0.0
  0
LINE
  5
4E2
330
1E
100
AcDbEntity
  8
0
100
AcDbLine
 10
99.171235
 20
803.7214999999999
 30
0.0
 11
99.750235
 21
804.0915
 31
0.0
  0
LINE
  5
4E4
330
1E
100
AcDbEntity
  8
0
100
AcDbLine
 10
99.071235
 20
798.7915
 30
0.0
 11
99.171235
 21
798.4715
 31
0.0
  0
LINE
  5
4E5
330
1E
100
AcDbEntity
  8
0
100
AcDbLine
 10
99.071235
 20
798.7915
 30
0.0
 11
99.53423499999999
 21
799.1515
 31
0.0
  0
LINE
  5
4E6
330
1E
100
AcDbEntity
  8
0
100
AcDbLine
 10
99.53423499999999
 20
803.0415000000001
 30
0.0
 11
100.268235
 21
803.1314999999999
 31
0.0
  0
LINE
  5
4E8
330
1E
100
AcDbEntity
  8
0
100
AcDbLine
 10
99.53423499999999
 20
799.1515
 30
0.0
 11
100.268235
 21
799.3515
 31
0.0
  0
LINE
  5
4E9
330
1E
100
AcDbEntity
  8
0
100
AcDbLine
 10
99.171235
 20
798.4715
 30
0.0
 11
99.750235
 21
798.3814999999999
 31
0.0
  0
LINE
  5
4EB
330
1E
100
AcDbEntity
  8
0
100
AcDbLine
 10
95.967435
 20
795.1055
 30
0.0
 11
96.236235
 21
794.9044999999999
 31
0.0
  0
LINE
  5
4EC
330
1E
100
AcDbEntity
  8
0
100
AcDbLine
 10
95.274835
 20
795.0934999999999
 30
0.0
 11
95.967435
 21
795.1055
 31
0.0
  0
LINE
  5
4ED
330
1E
100
AcDbEntity
  8
0
100
AcDbLine
 10
95.245835
 20
794.4094999999999
 30
0.0
 11
95.946835
 21
794.6164999999999
 31
0.0
  0
LINE
  5
4EE
330
1E
100
AcDbEntity
  8
0
100
AcDbLine
 10
96.40023499999999
 20
790.1515
 30
0.0
 11
96.650508166363
 21
791.89753326466
 31
0.0
  0
LINE
  5
4EF
330
1E
100
AcDbEntity
  8
0
100
AcDbLine
 10
93.16873499999999
 20
841.6214999999999
 30
0.0
 11
103.368235
 21
839.5215
 31
0.0
  0
LINE
  5
4F1
330
1E
100
AcDbEntity
  8
0
100
AcDbLine
 10
93.068735
 20
846.1414999999998
 30
0.0
 11
103.2682349999999
 21
844.0414999999999
 31
0.0
  0
LINE
  5
4F2
330
1E
100
AcDbEntity
  8
0
100
AcDbLine
 10
95.91233499999999
 20
853.5714999999999
 30
0.0
 11
101.7162349999999
 21
851.3814999999999
 31
0.0
  0
LINE
  5
4F3
330
1E
100
AcDbEntity
  8
0
100
AcDbLine
 10
89.294235
 20
854.8914999999999
 30
0.0
 11
95.91233499999999
 21
853.5714999999999
 31
0.0
  0
LINE
  5
4F4
330
1E
100
AcDbEntity
  8
0
100
AcDbLine
 10
93.16873499999999
 20
846.8215
 30
0.0
 11
103.368235
 21
844.7214999999999
 31
0.0
  0
LINE
  5
4F5
330
1E
100
AcDbEntity
  8
0
100
AcDbLine
 10
82.26873499999999
 20
847.5715
 30
0.0
 11
93.16873499999999
 21
846.8215
 31
0.0
  0
LINE
  5
4F6
330
1E
100
AcDbEntity
  8
0
100
AcDbLine
 10
95.36869526887631
 20
704.9814999999999
 30
0.0
 11
99.61623500000001
 21
704.9814999999999
 31
0.0
  0
LINE
  5
4F7
330
1E
100
AcDbEntity
  8
0
100
AcDbLine
 10
100.0782349999999
 20
691.1434999999999
 30
0.0
 11
100.0782349999999
 21
686.4815
 31
0.0
  0
LINE
  5
4F8
330
1E
100
AcDbEntity
  8
0
100
AcDbLine
 10
100.0782349999999
 20
691.1434999999999
 30
0.0
 11
100.0782349999999
 21
695.4355
 31
0.0
  0
LINE
  5
4F9
330
1E
100
AcDbEntity
  8
0
100
AcDbLine
 10
100.0782349999999
 20
695.4355
 30
0.0
 11
100.0782349999999
 21
691.1434999999999
 31
0.0
  0
LINE
  5
4FA
330
1E
100
AcDbEntity
  8
0
100
AcDbLine
 10
100.0782349999999
 20
695.4355
 30
0.0
 11
100.0782349999999
 21
699.2095
 31
0.0
  0
LINE
  5
4FB
330
1E
100
AcDbEntity
  8
0
100
AcDbLine
 10
100.0782349999999
 20
699.2095
 30
0.0
 11
100.0782349999999
 21
695.4355
 31
0.0
  0
LINE
  5
4FC
330
1E
100
AcDbEntity
  8
0
100
AcDbLine
 10
100.0782349999999
 20
699.2095
 30
0.0
 11
100.0782349999999
 21
702.0955
 31
0.0
  0
LINE
  5
4FD
330
1E
100
AcDbEntity
  8
0
100
AcDbLine
 10
100.0782349999999
 20
702.0955
 30
0.0
 11
100.0782349999999
 21
699.2095
 31
0.0
  0
LINE
  5
4FE
330
1E
100
AcDbEntity
  8
0
100
AcDbLine
 10
100.0782349999999
 20
702.0955
 30
0.0
 11
100.0782349999999
 21
703.8714999999999
 31
0.0
  0
LINE
  5
4FF
330
1E
100
AcDbEntity
  8
0
100
AcDbLine
 10
100.0782349999999
 20
703.8714999999999
 30
0.0
 11
100.0782349999999
 21
702.0955
 31
0.0
  0
LINE
  5
500
330
1E
100
AcDbEntity
  8
0
100
AcDbLine
 10
100.0782349999999
 20
703.8714999999999
 30
0.0
 11
100.0782349999999
 21
704.5374999999999
 31
0.0
  0
LINE
  5
502
330
1E
100
AcDbEntity
  8
0
100
AcDbLine
 10
99.750235
 20
804.0915
 30
0.0
 11
100.484235
 21
804.1814999999999
 31
0.0
  0
LINE
  5
503
330
1E
100
AcDbEntity
  8
0
100
AcDbLine
 10
99.750235
 20
798.3814999999999
 30
0.0
 11
100.484235
 21
798.5915
 31
0.0
  0
LINE
  5
504
330
1E
100
AcDbEntity
  8
0
100
AcDbLine
 10
100.0782349999999
 20
704.5374999999999
 30
0.0
 11
100.0782349999999
 21
703.8714999999999
 31
0.0
  0
LINE
  5
505
330
1E
100
AcDbEntity
  8
0
100
AcDbLine
 10
99.61623500000001
 20
704.9814999999999
 30
0.0
 11
99.61623500000001
 21
704.3155
 31
0.0
  0
LINE
  5
506
330
1E
100
AcDbEntity
  8
0
100
AcDbLine
 10
99.61623500000001
 20
704.9814999999999
 30
0.0
 11
100.0782349999999
 21
704.5374999999999
 31
0.0
  0
LINE
  5
507
330
1E
100
AcDbEntity
  8
0
100
AcDbLine
 10
99.61623500000001
 20
686.4815
 30
0.0
 11
99.61623500000001
 21
681.7454999999999
 31
0.0
  0
LINE
  5
508
330
1E
100
AcDbEntity
  8
0
100
AcDbLine
 10
99.61623500000001
 20
686.4815
 30
0.0
 11
99.61623500000001
 21
691.2174999999999
 31
0.0
  0
LINE
  5
509
330
1E
100
AcDbEntity
  8
0
100
AcDbLine
 10
100.0782349999999
 20
686.4815
 30
0.0
 11
100.0782349999999
 21
681.8194999999999
 31
0.0
  0
LINE
  5
50A
330
1E
100
AcDbEntity
  8
0
100
AcDbLine
 10
100.0782349999999
 20
686.4815
 30
0.0
 11
100.0782349999999
 21
691.1434999999999
 31
0.0
  0
LINE
  5
50B
330
1E
100
AcDbEntity
  8
0
100
AcDbLine
 10
99.61623500000001
 20
681.7454999999999
 30
0.0
 11
99.61623500000001
 21
686.4815
 31
0.0
  0
LINE
  5
50C
330
1E
100
AcDbEntity
  8
0
100
AcDbLine
 10
99.61623500000001
 20
681.7454999999999
 30
0.0
 11
99.61623500000001
 21
677.3055
 31
0.0
  0
LINE
  5
50D
330
1E
100
AcDbEntity
  8
0
100
AcDbLine
 10
100.0782349999999
 20
681.8194999999999
 30
0.0
 11
100.0782349999999
 21
677.5275
 31
0.0
  0
LINE
  5
50E
330
1E
100
AcDbEntity
  8
0
100
AcDbLine
 10
100.0782349999999
 20
681.8194999999999
 30
0.0
 11
100.0782349999999
 21
686.4815
 31
0.0
  0
LINE
  5
50F
330
1E
100
AcDbEntity
  8
0
100
AcDbLine
 10
99.61623500000001
 20
677.3055
 30
0.0
 11
99.61623500000001
 21
681.7454999999999
 31
0.0
  0
LINE
  5
510
330
1E
100
AcDbEntity
  8
0
100
AcDbLine
 10
99.61623500000001
 20
677.3055
 30
0.0
 11
99.61623500000001
 21
673.3835
 31
0.0
  0
LINE
  5
511
330
1E
100
AcDbEntity
  8
0
100
AcDbLine
 10
100.0782349999999
 20
677.5275
 30
0.0
 11
100.0782349999999
 21
673.7535
 31
0.0
  0
LINE
  5
512
330
1E
100
AcDbEntity
  8
0
100
AcDbLine
 10
100.0782349999999
 20
677.5275
 30
0.0
 11
100.0782349999999
 21
681.8194999999999
 31
0.0
  0
LINE
  5
513
330
1E
100
AcDbEntity
  8
0
100
AcDbLine
 10
99.61623500000001
 20
673.3835
 30
0.0
 11
99.61623500000001
 21
677.3055
 31
0.0
  0
LINE
  5
514
330
1E
100
AcDbEntity
  8
0
100
AcDbLine
 10
99.61623500000001
 20
673.3835
 30
0.0
 11
99.61623500000001
 21
670.4234999999999
 31
0.0
  0
LINE
  5
515
330
1E
100
AcDbEntity
  8
0
100
AcDbLine
 10
100.0782349999999
 20
673.7535
 30
0.0
 11
100.0782349999999
 21
670.8674999999999
 31
0.0
  0
LINE
  5
516
330
1E
100
AcDbEntity
  8
0
100
AcDbLine
 10
100.0782349999999
 20
673.7535
 30
0.0
 11
100.0782349999999
 21
677.5275
 31
0.0
  0
LINE
  5
517
330
1E
100
AcDbEntity
  8
0
100
AcDbLine
 10
99.61623500000001
 20
670.4234999999999
 30
0.0
 11
99.61623500000001
 21
673.3835
 31
0.0
  0
LINE
  5
518
330
1E
100
AcDbEntity
  8
0
100
AcDbLine
 10
99.61623500000001
 20
670.4234999999999
 30
0.0
 11
99.61623500000001
 21
668.6475
 31
0.0
  0
LINE
  5
519
330
1E
100
AcDbEntity
  8
0
100
AcDbLine
 10
100.0782349999999
 20
670.8674999999999
 30
0.0
 11
100.0782349999999
 21
669.0915
 31
0.0
  0
LINE
  5
51A
330
1E
100
AcDbEntity
  8
0
100
AcDbLine
 10
100.0782349999999
 20
670.8674999999999
 30
0.0
 11
100.0782349999999
 21
673.7535
 31
0.0
  0
LINE
  5
51B
330
1E
100
AcDbEntity
  8
0
100
AcDbLine
 10
99.61623500000001
 20
668.6475
 30
0.0
 11
99.61623500000001
 21
670.4234999999999
 31
0.0
  0
LINE
  5
51C
330
1E
100
AcDbEntity
  8
0
100
AcDbLine
 10
99.61623500000001
 20
668.6475
 30
0.0
 11
99.61623500000001
 21
667.9814999999999
 31
0.0
  0
LINE
  5
51E
330
1E
100
AcDbEntity
  8
0
100
AcDbLine
 10
100.268235
 20
803.1314999999999
 30
0.0
 11
100.8462349999999
 21
803.5114999999999
 31
0.0
  0
LINE
  5
51F
330
1E
100
AcDbEntity
  8
0
100
AcDbLine
 10
100.4682349999999
 20
826.5814999999999
 30
0.0
 11
108.068235
 21
823.6314999999999
 31
0.0
  0
LINE
  5
521
330
1E
100
AcDbEntity
  8
0
100
AcDbLine
 10
100.484235
 20
804.1814999999999
 30
0.0
 11
100.947235
 21
803.9514999999999
 31
0.0
  0
LINE
  5
523
330
1E
100
AcDbEntity
  8
0
100
AcDbLine
 10
100.268235
 20
799.3515
 30
0.0
 11
100.8462349999999
 21
799.2614999999999
 31
0.0
  0
LINE
  5
527
330
1E
100
AcDbEntity
  8
0
100
AcDbLine
 10
101.5762349999999
 20
795.6014999999999
 30
0.0
 11
102.2682349999999
 21
795.7654999999999
 31
0.0
  0
LINE
  5
528
330
1E
100
AcDbEntity
  8
0
100
AcDbLine
 10
100.931235
 20
795.3044999999999
 30
0.0
 11
101.5762349999999
 21
795.6014999999999
 31
0.0
  0
LINE
  5
529
330
1E
100
AcDbEntity
  8
0
100
AcDbLine
 10
100.7232349999999
 20
795.0454999999999
 30
0.0
 11
101.050235
 21
794.9724999999999
 31
0.0
  0
LINE
  5
52A
330
1E
100
AcDbEntity
  8
0
100
AcDbLine
 10
100.7232349999999
 20
795.0454999999999
 30
0.0
 11
100.931235
 21
795.3044999999999
 31
0.0
  0
LINE
  5
52B
330
1E
100
AcDbEntity
  8
0
100
AcDbLine
 10
101.050235
 20
794.9724999999999
 30
0.0
 11
101.7432349999999
 21
795.1365
 31
0.0
  0
LINE
  5
52D
330
1E
100
AcDbEntity
  8
0
100
AcDbLine
 10
102.8582349999999
 20
794.1855
 30
0.0
 11
103.062235
 21
794.1994999999999
 31
0.0
  0
LINE
  5
52E
330
1E
100
AcDbEntity
  8
0
100
AcDbLine
 10
102.8582349999999
 20
794.1855
 30
0.0
 11
103.175235
 21
794.3814999999999
 31
0.0
  0
LINE
  5
530
330
1E
100
AcDbEntity
  8
0
100
AcDbLine
 10
102.4845758473369
 20
795.0837472964031
 30
0.0
 11
102.8582349999999
 21
794.1855
 31
0.0
  0
LINE
  5
532
330
1E
100
AcDbEntity
  8
0
100
AcDbLine
 10
103.175235
 20
794.3814999999999
 30
0.0
 11
103.8482349999999
 21
794.6805
 31
0.0
  0
LINE
  5
533
330
1E
100
AcDbEntity
  8
0
100
AcDbLine
 10
103.062235
 20
794.1994999999999
 30
0.0
 11
103.6912349999999
 21
794.4255
 31
0.0
  0
LINE
  5
534
330
1E
100
AcDbEntity
  8
0
100
AcDbLine
 10
102.3872349999999
 20
795.4335
 30
0.0
 11
102.595235
 21
795.6915
 31
0.0
  0
LINE
  5
537
330
1E
100
AcDbEntity
  8
0
100
AcDbLine
 10
102.2682349999999
 20
795.7654999999999
 30
0.0
 11
102.595235
 21
795.6915
 31
0.0
  0
LINE
  5
538
330
1E
100
AcDbEntity
  8
0
100
AcDbLine
 10
101.7432349999999
 20
795.1365
 30
0.0
 11
102.3872349999999
 21
795.4335
 31
0.0
  0
LINE
  5
53A
330
1E
100
AcDbEntity
  8
0
100
AcDbLine
 10
100.6682349999999
 20
826.7314999999999
 30
0.0
 11
108.368235
 21
823.7815000000001
 31
0.0
  0
LINE
  5
53C
330
1E
100
AcDbEntity
  8
0
100
AcDbLine
 10
100.7232349999999
 20
810.0815
 30
0.0
 11
101.050235
 21
810.6315
 31
0.0
  0
LINE
  5
53D
330
1E
100
AcDbEntity
  8
0
100
AcDbLine
 10
100.7232349999999
 20
810.0815
 30
0.0
 11
100.931235
 21
809.6114999999999
 31
0.0
  0
LINE
  5
53F
330
1E
100
AcDbEntity
  8
0
100
AcDbLine
 10
100.931235
 20
809.6114999999999
 30
0.0
 11
101.5762349999999
 21
809.5214999999999
 31
0.0
  0
LINE
  5
540
330
1E
100
AcDbEntity
  8
0
100
AcDbLine
 10
102.3872349999999
 20
810.8615
 30
0.0
 11
102.595235
 21
810.3914999999998
 31
0.0
  0
LINE
  5
541
330
1E
100
AcDbEntity
  8
0
100
AcDbLine
 10
102.2682349999999
 20
809.8414999999999
 30
0.0
 11
102.595235
 21
810.3914999999998
 31
0.0
  0
LINE
  5
542
330
1E
100
AcDbEntity
  8
0
100
AcDbLine
 10
101.5762349999999
 20
809.5214999999999
 30
0.0
 11
102.2682349999999
 21
809.8414999999999
 31
0.0
  0
LINE
  5
543
330
1E
100
AcDbEntity
  8
0
100
AcDbLine
 10
101.050235
 20
810.6315
 30
0.0
 11
101.7432349999999
 21
810.9515
 31
0.0
  0
LINE
  5
545
330
1E
100
AcDbEntity
  8
0
100
AcDbLine
 10
102.8582349999999
 20
815.7515
 30
0.0
 11
103.062235
 21
816.3914999999999
 31
0.0
  0
LINE
  5
546
330
1E
100
AcDbEntity
  8
0
100
AcDbLine
 10
102.8582349999999
 20
815.7515
 30
0.0
 11
103.175235
 21
815.2714999999998
 31
0.0
  0
LINE
  5
548
330
1E
100
AcDbEntity
  8
0
100
AcDbLine
 10
103.175235
 20
815.2714999999998
 30
0.0
 11
103.8482349999999
 21
815.2614999999999
 31
0.0
  0
LINE
  5
549
330
1E
100
AcDbEntity
  8
0
100
AcDbLine
 10
103.062235
 20
816.3914999999999
 30
0.0
 11
103.6912349999999
 21
816.8215
 31
0.0
  0
LINE
  5
54C
330
1E
100
AcDbEntity
  8
0
100
AcDbLine
 10
101.7432349999999
 20
810.9515
 30
0.0
 11
102.3872349999999
 21
810.8615
 31
0.0
  0
LINE
  5
54E
330
1E
100
AcDbEntity
  8
0
100
AcDbLine
 10
100.8462349999999
 20
803.5114999999999
 30
0.0
 11
100.947235
 21
803.9514999999999
 31
0.0
  0
LINE
  5
550
330
1E
100
AcDbEntity
  8
0
100
AcDbLine
 10
100.8462349999999
 20
799.2614999999999
 30
0.0
 11
100.947235
 21
798.9514999999999
 31
0.0
  0
LINE
  5
551
330
1E
100
AcDbEntity
  8
0
100
AcDbLine
 10
100.484235
 20
798.5915
 30
0.0
 11
100.947235
 21
798.9514999999999
 31
0.0
  0
LINE
  5
552
330
1E
100
AcDbEntity
  8
0
100
AcDbLine
 10
102.8682349999999
 20
838.6414999999999
 30
0.0
 11
111.568235
 21
835.3415
 31
0.0
  0
LINE
  5
555
330
1E
100
AcDbEntity
  8
0
100
AcDbLine
 10
104.238791202844
 20
795.982711674894
 30
0.0
 11
104.6812349999999
 21
794.9205
 31
0.0
  0
LINE
  5
558
330
1E
100
AcDbEntity
  8
0
100
AcDbLine
 10
104.461325271021
 20
795.448455602601
 30
0.0
 11
106.2682349999999
 21
796.1325
 31
0.0
  0
LINE
  5
559
330
1E
100
AcDbEntity
  8
0
100
AcDbLine
 10
104.364235
 20
794.7245
 30
0.0
 11
104.6812349999999
 21
794.9205
 31
0.0
  0
LINE
  5
55A
330
1E
100
AcDbEntity
  8
0
100
AcDbLine
 10
103.8482349999999
 20
794.6805
 30
0.0
 11
104.4772349999999
 21
794.9065
 31
0.0
  0
LINE
  5
55B
330
1E
100
AcDbEntity
  8
0
100
AcDbLine
 10
103.6912349999999
 20
794.4255
 30
0.0
 11
104.364235
 21
794.7245
 31
0.0
  0
LINE
  5
55C
330
1E
100
AcDbEntity
  8
0
100
AcDbLine
 10
103.985235
 20
797.6905
 30
0.0
 11
104.4642349999999
 21
797.6695
 31
0.0
  0
LINE
  5
55D
330
1E
100
AcDbEntity
  8
0
100
AcDbLine
 10
103.985235
 20
797.6905
 30
0.0
 11
103.998235
 21
797.9635
 31
0.0
  0
LINE
  5
55E
330
1E
100
AcDbEntity
  8
0
100
AcDbLine
 10
104.4772349999999
 20
794.9065
 30
0.0
 11
104.6812349999999
 21
794.9205
 31
0.0
  0
LINE
  5
55F
330
1E
100
AcDbEntity
  8
0
100
AcDbLine
 10
104.4642349999999
 20
797.6695
 30
0.0
 11
105.172235
 21
797.9255000000001
 31
0.0
  0
LINE
  5
562
330
1E
100
AcDbEntity
  8
0
100
AcDbLine
 10
105.694235
 20
798.3015
 30
0.0
 11
105.708235
 21
798.5714999999999
 31
0.0
  0
LINE
  5
566
330
1E
100
AcDbEntity
  8
0
100
AcDbLine
 10
105.229235
 20
798.5915
 30
0.0
 11
105.708235
 21
798.5714999999999
 31
0.0
  0
LINE
  5
567
330
1E
100
AcDbEntity
  8
0
100
AcDbLine
 10
104.521235
 20
798.3414999999999
 30
0.0
 11
105.229235
 21
798.5915
 31
0.0
  0
LINE
  5
568
330
1E
100
AcDbEntity
  8
0
100
AcDbLine
 10
103.998235
 20
797.9635
 30
0.0
 11
104.521235
 21
798.3414999999999
 31
0.0
  0
LINE
  5
569
330
1E
100
AcDbEntity
  8
0
100
AcDbLine
 10
105.172235
 20
797.9255000000001
 30
0.0
 11
105.694235
 21
798.3015
 31
0.0
  0
LINE
  5
56A
330
1E
100
AcDbEntity
  8
0
100
AcDbLine
 10
106.2682349999999
 20
796.1325
 30
0.0
 11
107.958825393596
 21
797.248608639093
 31
0.0
  0
LINE
  5
56C
330
1E
100
AcDbEntity
  8
0
100
AcDbLine
 10
107.870235
 20
797.4425
 30
0.0
 11
108.439235
 21
797.8234999999999
 31
0.0
  0
LINE
  5
56D
330
1E
100
AcDbEntity
  8
0
100
AcDbLine
 10
107.7392349999999
 20
797.2175
 30
0.0
 11
108.099235
 21
797.2685
 31
0.0
  0
LINE
  5
56E
330
1E
100
AcDbEntity
  8
0
100
AcDbLine
 10
107.7392349999999
 20
797.2175
 30
0.0
 11
107.870235
 21
797.4425
 31
0.0
  0
LINE
  5
56F
330
1E
100
AcDbEntity
  8
0
100
AcDbLine
 10
108.099235
 20
797.2685
 30
0.0
 11
108.758235
 21
797.5795
 31
0.0
  0
LINE
  5
575
330
1E
100
AcDbEntity
  8
0
100
AcDbLine
 10
109.327235
 20
797.9605
 30
0.0
 11
109.458235
 21
798.1815
 31
0.0
  0
LINE
  5
576
330
1E
100
AcDbEntity
  8
0
100
AcDbLine
 10
109.435475561488
 20
798.223476363141
 30
0.0
 11
111.568235
 21
799.6315
 31
0.0
  0
LINE
  5
579
330
1E
100
AcDbEntity
  8
0
100
AcDbLine
 10
109.099235
 20
798.1314999999999
 30
0.0
 11
109.458235
 21
798.1815
 31
0.0
  0
LINE
  5
57A
330
1E
100
AcDbEntity
  8
0
100
AcDbLine
 10
108.439235
 20
797.8234999999999
 30
0.0
 11
109.099235
 21
798.1314999999999
 31
0.0
  0
LINE
  5
57B
330
1E
100
AcDbEntity
  8
0
100
AcDbLine
 10
108.758235
 20
797.5795
 30
0.0
 11
109.327235
 21
797.9605
 31
0.0
  0
LINE
  5
57C
330
1E
100
AcDbEntity
  8
0
100
AcDbLine
 10
105.767235
 20
800.6714999999999
 30
0.0
 11
106.364235
 21
800.7215
 31
0.0
  0
LINE
  5
57D
330
1E
100
AcDbEntity
  8
0
100
AcDbLine
 10
106.364235
 20
800.7215
 30
0.0
 11
107.040235
 21
801.0614999999999
 31
0.0
  0
LINE
  5
57E
330
1E
100
AcDbEntity
  8
0
100
AcDbLine
 10
111.568235
 20
799.6315
 30
0.0
 11
113.868235
 21
801.3315
 31
0.0
  0
LINE
  5
57F
330
1E
100
AcDbEntity
  8
0
100
AcDbLine
 10
110.883235
 20
800.7815
 30
0.0
 11
111.374235
 21
800.8815
 31
0.0
  0
LINE
  5
581
330
1E
100
AcDbEntity
  8
0
100
AcDbLine
 10
105.949235
 20
801.3614999999999
 30
0.0
 11
106.625235
 21
801.7115
 31
0.0
  0
LINE
  5
582
330
1E
100
AcDbEntity
  8
0
100
AcDbLine
 10
105.585235
 20
800.9315
 30
0.0
 11
105.767235
 21
800.6714999999999
 31
0.0
  0
LINE
  5
583
330
1E
100
AcDbEntity
  8
0
100
AcDbLine
 10
105.585235
 20
800.9315
 30
0.0
 11
105.949235
 21
801.3614999999999
 31
0.0
  0
LINE
  5
584
330
1E
100
AcDbEntity
  8
0
100
AcDbLine
 10
107.040235
 20
801.0614999999999
 30
0.0
 11
107.405235
 21
801.5015
 31
0.0
  0
LINE
  5
586
330
1E
100
AcDbEntity
  8
0
100
AcDbLine
 10
103.998235
 20
806.9515
 30
0.0
 11
104.521235
 21
806.7915000000001
 31
0.0
  0
LINE
  5
589
330
1E
100
AcDbEntity
  8
0
100
AcDbLine
 10
103.985235
 20
807.4315
 30
0.0
 11
104.4642349999999
 21
807.9315000000001
 31
0.0
  0
LINE
  5
58A
330
1E
100
AcDbEntity
  8
0
100
AcDbLine
 10
103.985235
 20
807.4315
 30
0.0
 11
103.998235
 21
806.9515
 31
0.0
  0
LINE
  5
58C
330
1E
100
AcDbEntity
  8
0
100
AcDbLine
 10
105.229235
 20
807.0114999999999
 30
0.0
 11
105.708235
 21
807.5115
 31
0.0
  0
LINE
  5
58D
330
1E
100
AcDbEntity
  8
0
100
AcDbLine
 10
104.521235
 20
806.7915000000001
 30
0.0
 11
105.229235
 21
807.0114999999999
 31
0.0
  0
LINE
  5
58E
330
1E
100
AcDbEntity
  8
0
100
AcDbLine
 10
104.4642349999999
 20
807.9315000000001
 30
0.0
 11
105.172235
 21
808.1615000000001
 31
0.0
  0
LINE
  5
592
330
1E
100
AcDbEntity
  8
0
100
AcDbLine
 10
105.172235
 20
808.1615000000001
 30
0.0
 11
105.694235
 21
807.9914999999999
 31
0.0
  0
LINE
  5
593
330
1E
100
AcDbEntity
  8
0
100
AcDbLine
 10
105.585235
 20
803.9915
 30
0.0
 11
105.767235
 21
804.4615
 31
0.0
  0
LINE
  5
594
330
1E
100
AcDbEntity
  8
0
100
AcDbLine
 10
105.585235
 20
803.9915
 30
0.0
 11
105.949235
 21
803.7614999999998
 31
0.0
  0
LINE
  5
595
330
1E
100
AcDbEntity
  8
0
100
AcDbLine
 10
105.949235
 20
803.7614999999998
 30
0.0
 11
106.625235
 21
803.9015
 31
0.0
  0
LINE
  5
596
330
1E
100
AcDbEntity
  8
0
100
AcDbLine
 10
105.767235
 20
804.4615
 30
0.0
 11
106.364235
 21
804.8914999999999
 31
0.0
  0
LINE
  5
597
330
1E
100
AcDbEntity
  8
0
100
AcDbLine
 10
107.2232349999999
 20
804.3314999999999
 30
0.0
 11
107.405235
 21
804.8015000000001
 31
0.0
  0
LINE
  5
598
330
1E
100
AcDbEntity
  8
0
100
AcDbLine
 10
106.625235
 20
803.9015
 30
0.0
 11
107.2232349999999
 21
804.3314999999999
 31
0.0
  0
LINE
  5
599
330
1E
100
AcDbEntity
  8
0
100
AcDbLine
 10
106.364235
 20
804.8914999999999
 30
0.0
 11
107.040235
 21
805.0214999999999
 31
0.0
  0
LINE
  5
59B
330
1E
100
AcDbEntity
  8
0
100
AcDbLine
 10
107.040235
 20
805.0214999999999
 30
0.0
 11
107.405235
 21
804.8015000000001
 31
0.0
  0
LINE
  5
59C
330
1E
100
AcDbEntity
  8
0
100
AcDbLine
 10
105.694235
 20
807.9914999999999
 30
0.0
 11
105.708235
 21
807.5115
 31
0.0
  0
LINE
  5
5A0
330
1E
100
AcDbEntity
  8
0
100
AcDbLine
 10
107.870235
 20
812.2115
 30
0.0
 11
108.439235
 21
812.1114999999999
 31
0.0
  0
LINE
  5
5A2
330
1E
100
AcDbEntity
  8
0
100
AcDbLine
 10
107.7392349999999
 20
812.7214999999999
 30
0.0
 11
108.099235
 21
813.3214999999999
 31
0.0
  0
LINE
  5
5A3
330
1E
100
AcDbEntity
  8
0
100
AcDbLine
 10
107.7392349999999
 20
812.7214999999999
 30
0.0
 11
107.870235
 21
812.2115
 31
0.0
  0
LINE
  5
5A4
330
1E
100
AcDbEntity
  8
0
100
AcDbLine
 10
109.327235
 20
813.5715000000001
 30
0.0
 11
109.458235
 21
813.0615
 31
0.0
  0
LINE
  5
5A5
330
1E
100
AcDbEntity
  8
0
100
AcDbLine
 10
109.099235
 20
812.4615
 30
0.0
 11
109.458235
 21
813.0615
 31
0.0
  0
LINE
  5
5A6
330
1E
100
AcDbEntity
  8
0
100
AcDbLine
 10
108.439235
 20
812.1114999999999
 30
0.0
 11
109.099235
 21
812.4615
 31
0.0
  0
LINE
  5
5A7
330
1E
100
AcDbEntity
  8
0
100
AcDbLine
 10
108.099235
 20
813.3214999999999
 30
0.0
 11
108.758235
 21
813.6715
 31
0.0
  0
LINE
  5
5AA
330
1E
100
AcDbEntity
  8
0
100
AcDbLine
 10
108.758235
 20
813.6715
 30
0.0
 11
109.327235
 21
813.5715000000001
 31
0.0
  0
LINE
  5
5AB
330
1E
100
AcDbEntity
  8
0
100
AcDbLine
 10
107.2232349999999
 20
801.7614999999999
 30
0.0
 11
107.405235
 21
801.5015
 31
0.0
  0
LINE
  5
5AC
330
1E
100
AcDbEntity
  8
0
100
AcDbLine
 10
106.625235
 20
801.7115
 30
0.0
 11
107.2232349999999
 21
801.7614999999999
 31
0.0
  0
LINE
  5
5AF
330
1E
100
AcDbEntity
  8
0
100
AcDbLine
 10
110.821235
 20
808.6515
 30
0.0
 11
110.883235
 21
809.1615
 31
0.0
  0
LINE
  5
5B0
330
1E
100
AcDbEntity
  8
0
100
AcDbLine
 10
110.821235
 20
808.6515
 30
0.0
 11
111.246235
 21
808.4815
 31
0.0
  0
LINE
  5
5B5
330
1E
100
AcDbEntity
  8
0
100
AcDbLine
 10
111.246235
 20
808.4815
 30
0.0
 11
111.892235
 21
808.7415
 31
0.0
  0
LINE
  5
5B7
330
1E
100
AcDbEntity
  8
0
100
AcDbLine
 10
110.883235
 20
809.1615
 30
0.0
 11
111.374235
 21
809.7115
 31
0.0
  0
LINE
  5
5B8
330
1E
100
AcDbEntity
  8
0
100
AcDbLine
 10
111.374235
 20
809.7115
 30
0.0
 11
112.020235
 21
809.9714999999999
 31
0.0
  0
LINE
  5
5BB
330
1E
100
AcDbEntity
  8
0
100
AcDbLine
 10
111.892235
 20
808.7415
 30
0.0
 11
112.383235
 21
809.2915000000001
 31
0.0
  0
LINE
  5
5BD
330
1E
100
AcDbEntity
  8
0
100
AcDbLine
 10
111.826235
 20
804.8215
 30
0.0
 11
112.078235
 21
805.3115
 31
0.0
  0
LINE
  5
5BE
330
1E
100
AcDbEntity
  8
0
100
AcDbLine
 10
111.826235
 20
804.8215
 30
0.0
 11
112.078235
 21
804.6115
 31
0.0
  0
LINE
  5
5C0
330
1E
100
AcDbEntity
  8
0
100
AcDbLine
 10
112.020235
 20
809.9714999999999
 30
0.0
 11
112.445235
 21
809.8015
 31
0.0
  0
LINE
  5
5C1
330
1E
100
AcDbEntity
  8
0
100
AcDbLine
 10
111.892235
 20
801.8515
 30
0.0
 11
112.383235
 21
801.9614999999999
 31
0.0
  0
LINE
  5
5C2
330
1E
100
AcDbEntity
  8
0
100
AcDbLine
 10
111.246235
 20
801.4514999999999
 30
0.0
 11
111.892235
 21
801.8515
 31
0.0
  0
LINE
  5
5C3
330
1E
100
AcDbEntity
  8
0
100
AcDbLine
 10
110.821235
 20
801.0114999999998
 30
0.0
 11
110.883235
 21
800.7815
 31
0.0
  0
LINE
  5
5C4
330
1E
100
AcDbEntity
  8
0
100
AcDbLine
 10
110.821235
 20
801.0114999999998
 30
0.0
 11
111.246235
 21
801.4514999999999
 31
0.0
  0
LINE
  5
5C5
330
1E
100
AcDbEntity
  8
0
100
AcDbLine
 10
111.374235
 20
800.8815
 30
0.0
 11
112.020235
 21
801.2814999999999
 31
0.0
  0
LINE
  5
5C6
330
1E
100
AcDbEntity
  8
0
100
AcDbLine
 10
113.868235
 20
801.3315
 30
0.0
 11
117.468235
 21
805.6815
 31
0.0
  0
LINE
  5
5C7
330
1E
100
AcDbEntity
  8
0
100
AcDbLine
 10
113.161387553936
 20
800.809047539866
 30
0.0
 11
114.268235
 21
801.5315000000001
 31
0.0
  0
LINE
  5
5C8
330
1E
100
AcDbEntity
  8
0
100
AcDbLine
 10
114.268235
 20
801.5315000000001
 30
0.0
 11
117.9682349999999
 21
805.9815
 31
0.0
  0
LINE
  5
5C9
330
1E
100
AcDbEntity
  8
0
100
AcDbLine
 10
114.268235
 20
801.5315000000001
 30
0.0
 11
115.168235
 21
802.1015
 31
0.0
  0
LINE
  5
5CB
330
1E
100
AcDbEntity
  8
0
100
AcDbLine
 10
112.666235
 20
804.7914999999999
 30
0.0
 11
113.255235
 21
805.2714999999999
 31
0.0
  0
LINE
  5
5CC
330
1E
100
AcDbEntity
  8
0
100
AcDbLine
 10
112.078235
 20
804.6115
 30
0.0
 11
112.666235
 21
804.7914999999999
 31
0.0
  0
LINE
  5
5CD
330
1E
100
AcDbEntity
  8
0
100
AcDbLine
 10
112.078235
 20
805.3115
 30
0.0
 11
112.666235
 21
805.7915000000001
 31
0.0
  0
LINE
  5
5CE
330
1E
100
AcDbEntity
  8
0
100
AcDbLine
 10
115.168235
 20
802.1015
 30
0.0
 11
117.368235
 21
804.6314999999999
 31
0.0
  0
LINE
  5
5CF
330
1E
100
AcDbEntity
  8
0
100
AcDbLine
 10
117.368235
 20
804.6314999999999
 30
0.0
 11
121.268235
 21
809.4314999999999
 31
0.0
  0
LINE
  5
5D0
330
1E
100
AcDbEntity
  8
0
100
AcDbLine
 10
117.468235
 20
805.6815
 30
0.0
 11
118.868235
 21
810.3814999999999
 31
0.0
  0
LINE
  5
5D1
330
1E
100
AcDbEntity
  8
0
100
AcDbLine
 10
113.255235
 20
805.2714999999999
 30
0.0
 11
113.507235
 21
805.7615
 31
0.0
  0
LINE
  5
5D2
330
1E
100
AcDbEntity
  8
0
100
AcDbLine
 10
112.666235
 20
805.7915000000001
 30
0.0
 11
113.255235
 21
805.9715
 31
0.0
  0
LINE
  5
5D3
330
1E
100
AcDbEntity
  8
0
100
AcDbLine
 10
112.383235
 20
809.2915000000001
 30
0.0
 11
112.445235
 21
809.8015
 31
0.0
  0
LINE
  5
5D6
330
1E
100
AcDbEntity
  8
0
100
AcDbLine
 10
113.255235
 20
805.9715
 30
0.0
 11
113.507235
 21
805.7615
 31
0.0
  0
LINE
  5
5D8
330
1E
100
AcDbEntity
  8
0
100
AcDbLine
 10
112.383235
 20
801.9614999999999
 30
0.0
 11
112.445235
 21
801.7314999999999
 31
0.0
  0
LINE
  5
5D9
330
1E
100
AcDbEntity
  8
0
100
AcDbLine
 10
112.020235
 20
801.2814999999999
 30
0.0
 11
112.445235
 21
801.7314999999999
 31
0.0
  0
LINE
  5
5DC
330
1E
100
AcDbEntity
  8
0
100
AcDbLine
 10
104.364235
 20
816.8115
 30
0.0
 11
104.6812349999999
 21
816.3315
 31
0.0
  0
LINE
  5
5DD
330
1E
100
AcDbEntity
  8
0
100
AcDbLine
 10
113.968235
 20
819.8315
 30
0.0
 11
117.568235
 21
815.4315
 31
0.0
  0
LINE
  5
5DE
330
1E
100
AcDbEntity
  8
0
100
AcDbLine
 10
117.568235
 20
815.4315
 30
0.0
 11
118.868235
 21
810.3814999999999
 31
0.0
  0
LINE
  5
5DF
330
1E
100
AcDbEntity
  8
0
100
AcDbLine
 10
108.068235
 20
823.6314999999999
 30
0.0
 11
113.968235
 21
819.8315
 31
0.0
  0
LINE
  5
5E0
330
1E
100
AcDbEntity
  8
0
100
AcDbLine
 10
108.368235
 20
823.7815000000001
 30
0.0
 11
114.268235
 21
819.9315
 31
0.0
  0
LINE
  5
5E1
330
1E
100
AcDbEntity
  8
0
100
AcDbLine
 10
114.268235
 20
819.9315
 30
0.0
 11
117.9682349999999
 21
815.4814999999999
 31
0.0
  0
LINE
  5
5E2
330
1E
100
AcDbEntity
  8
0
100
AcDbLine
 10
104.4772349999999
 20
815.6914999999999
 30
0.0
 11
104.6812349999999
 21
816.3315
 31
0.0
  0
LINE
  5
5E3
330
1E
100
AcDbEntity
  8
0
100
AcDbLine
 10
103.8482349999999
 20
815.2614999999999
 30
0.0
 11
104.4772349999999
 21
815.6914999999999
 31
0.0
  0
LINE
  5
5E4
330
1E
100
AcDbEntity
  8
0
100
AcDbLine
 10
103.6912349999999
 20
816.8215
 30
0.0
 11
104.364235
 21
816.8115
 31
0.0
  0
LINE
  5
5E6
330
1E
100
AcDbEntity
  8
0
100
AcDbLine
 10
117.9682349999999
 20
805.9815
 30
0.0
 11
119.268235
 21
810.7314999999999
 31
0.0
  0
LINE
  5
5E7
330
1E
100
AcDbEntity
  8
0
100
AcDbLine
 10
121.268235
 20
809.4314999999999
 30
0.0
 11
122.268235
 21
811.4415000000001
 31
0.0
  0
LINE
  5
5E8
330
1E
100
AcDbEntity
  8
0
100
AcDbLine
 10
122.268235
 20
811.4415000000001
 30
0.0
 11
123.768235
 21
816.7915
 31
0.0
  0
LINE
  5
5EA
330
1E
100
AcDbEntity
  8
0
100
AcDbLine
 10
117.9682349999999
 20
815.4814999999999
 30
0.0
 11
119.268235
 21
810.7314999999999
 31
0.0
  0
LINE
  5
5EB
330
1E
100
AcDbEntity
  8
0
100
AcDbLine
 10
122.768235
 20
825.6615
 30
0.0
 11
124.268235
 21
820.2614999999999
 31
0.0
  0
LINE
  5
5EE
330
1E
100
AcDbEntity
  8
0
100
AcDbLine
 10
118.568235
 20
830.7615
 30
0.0
 11
122.768235
 21
825.6615
 31
0.0
  0
LINE
  5
5EF
330
1E
100
AcDbEntity
  8
0
100
AcDbLine
 10
119.068235
 20
831.6715
 30
0.0
 11
123.268235
 21
826.5715
 31
0.0
  0
LINE
  5
5F0
330
1E
100
AcDbEntity
  8
0
100
AcDbLine
 10
123.268235
 20
826.5715
 30
0.0
 11
124.768235
 21
821.1214999999999
 31
0.0
  0
LINE
  5
5F1
330
1E
100
AcDbEntity
  8
0
100
AcDbLine
 10
123.768235
 20
816.7915
 30
0.0
 11
124.268235
 21
820.2614999999999
 31
0.0
  0
LINE
  5
5F2
330
1E
100
AcDbEntity
  8
0
100
AcDbLine
 10
123.978920483871
 20
818.253657258065
 30
0.0
 11
124.768235
 21
821.1214999999999
 31
0.0
  0
LINE
  5
5F3
330
1E
100
AcDbEntity
  8
0
100
AcDbLine
 10
124.768235
 20
825.4514999999999
 30
0.0
 11
124.768235
 21
821.1214999999999
 31
0.0
  0
LINE
  5
5F4
330
1E
100
AcDbEntity
  8
0
100
AcDbLine
 10
124.648510229358
 20
825.8865
 30
0.0
 11
124.768235
 21
826.3215
 31
0.0
  0
LINE
  5
5F5
330
1E
100
AcDbEntity
  8
0
100
AcDbLine
 10
124.768235
 20
821.1214999999999
 30
0.0
 11
124.768235
 21
825.4514999999999
 31
0.0
  0
LINE
  5
5F6
330
1E
100
AcDbEntity
  8
0
100
AcDbLine
 10
123.268235
 20
830.9015
 30
0.0
 11
124.768235
 21
825.4514999999999
 31
0.0
  0
LINE
  5
5F7
330
1E
100
AcDbEntity
  8
0
100
AcDbLine
 10
111.968235
 20
835.1115
 30
0.0
 11
118.568235
 21
830.7615
 31
0.0
  0
LINE
  5
5F8
330
1E
100
AcDbEntity
  8
0
100
AcDbLine
 10
111.568235
 20
835.3415
 30
0.0
 11
111.968235
 21
835.1115
 31
0.0
  0
LINE
  5
5FB
330
1E
100
AcDbEntity
  8
0
100
AcDbLine
 10
112.268235
 20
836.1214999999999
 30
0.0
 11
119.068235
 21
831.6715
 31
0.0
  0
LINE
  5
5FC
330
1E
100
AcDbEntity
  8
0
100
AcDbLine
 10
116.683235
 20
840.7115000000001
 30
0.0
 11
120.552235
 21
835.9215
 31
0.0
  0
LINE
  5
5FE
330
1E
100
AcDbEntity
  8
0
100
AcDbLine
 10
111.968235
 20
840.7415
 30
0.0
 11
118.568235
 21
836.3915
 31
0.0
  0
LINE
  5
5FF
330
1E
100
AcDbEntity
  8
0
100
AcDbLine
 10
112.268235
 20
841.3215
 30
0.0
 11
119.068235
 21
836.8714999999999
 31
0.0
  0
LINE
  5
600
330
1E
100
AcDbEntity
  8
0
100
AcDbLine
 10
120.552235
 20
835.9215
 30
0.0
 11
123.268235
 21
831.7714999999999
 31
0.0
  0
LINE
  5
601
330
1E
100
AcDbEntity
  8
0
100
AcDbLine
 10
119.068235
 20
836.0015
 30
0.0
 11
123.268235
 21
830.9015
 31
0.0
  0
LINE
  5
602
330
1E
100
AcDbEntity
  8
0
100
AcDbLine
 10
119.068235
 20
836.8714999999999
 30
0.0
 11
123.268235
 21
831.7714999999999
 31
0.0
  0
LINE
  5
603
330
1E
100
AcDbEntity
  8
0
100
AcDbLine
 10
118.568235
 20
836.3915
 30
0.0
 11
118.671032202797
 21
836.2666748251751
 31
0.0
  0
LINE
  5
604
330
1E
100
AcDbEntity
  8
0
100
AcDbLine
 10
118.568235
 20
836.3915
 30
0.0
 11
119.068235
 21
836.0015
 31
0.0
  0
LINE
  5
605
330
1E
100
AcDbEntity
  8
0
100
AcDbLine
 10
123.268235
 20
831.7714999999999
 30
0.0
 11
124.768235
 21
826.3215
 31
0.0
  0
LINE
  5
606
330
1E
100
AcDbEntity
  8
0
100
AcDbLine
 10
103.368235
 20
839.5215
 30
0.0
 11
112.268235
 21
836.1214999999999
 31
0.0
  0
LINE
  5
608
330
1E
100
AcDbEntity
  8
0
100
AcDbLine
 10
103.2682349999999
 20
844.0414999999999
 30
0.0
 11
111.968235
 21
840.7415
 31
0.0
  0
LINE
  5
609
330
1E
100
AcDbEntity
  8
0
100
AcDbLine
 10
112.203235
 20
845.4515
 30
0.0
 11
116.683235
 21
840.7115000000001
 31
0.0
  0
LINE
  5
60A
330
1E
100
AcDbEntity
  8
0
100
AcDbLine
 10
106.705235
 20
849.0615
 30
0.0
 11
112.203235
 21
845.4515
 31
0.0
  0
LINE
  5
60B
330
1E
100
AcDbEntity
  8
0
100
AcDbLine
 10
101.7162349999999
 20
851.3814999999999
 30
0.0
 11
106.705235
 21
849.0615
 31
0.0
  0
LINE
  5
60C
330
1E
100
AcDbEntity
  8
0
100
AcDbLine
 10
103.368235
 20
844.7214999999999
 30
0.0
 11
112.268235
 21
841.3215
 31
0.0
  0
LINE
  5
60D
330
1E
100
AcDbEntity
  8
0
100
AcDbLine
 10
100.0782349999999
 20
669.0915
 30
0.0
 11
100.0782349999999
 21
668.4255
 31
0.0
  0
LINE
  5
60E
330
1E
100
AcDbEntity
  8
0
100
AcDbLine
 10
100.0782349999999
 20
669.0915
 30
0.0
 11
100.0782349999999
 21
670.8674999999999
 31
0.0
  0
LINE
  5
613
330
1E
100
AcDbEntity
  8
0
100
AcDbLine
 10
6.007475000000009
 20
716.0495
 30
0.0
 11
10.063456881367
 21
704.905984384819
 31
0.0
  0
LINE
  5
618
330
1E
100
AcDbEntity
  8
0
100
AcDbLine
 10
62.578235
 20
67.98149999999999
 30
0.0
 11
63.078235
 21
68.4815
 31
0.0
  0
LINE
  5
619
330
1E
100
AcDbEntity
  8
0
100
AcDbLine
 10
63.078235
 20
68.4815
 30
0.0
 11
63.078235
 21
119.4814999999999
 31
0.0
  0
LINE
  5
61A
330
1E
100
AcDbEntity
  8
0
100
AcDbLine
 10
41.078235
 20
704.9814999999999
 30
0.0
 11
63.078235
 21
704.9814999999999
 31
0.0
  0
LINE
  5
61B
330
1E
100
AcDbEntity
  8
0
100
AcDbLine
 10
41.078235
 20
667.9814999999999
 30
0.0
 11
63.078235
 21
667.9814999999999
 31
0.0
  0
LINE
  5
61C
330
1E
100
AcDbEntity
  8
0
100
AcDbLine
 10
68.30163500000001
 20
807.8714999999998
 30
0.0
 11
68.59063499999999
 21
808.2815
 31
0.0
  0
ENDSEC
  0
SECTION
  2
OBJECTS
  0
DICTIONARY
  5
C
330
0
100
AcDbDictionary
281
     1
  3
ACAD_GROUP
350
D
  3
ACAD_LAYOUT
350
19
  3
ACAD_MLINESTYLE
350
16
  3
ACAD_PLOTSETTINGS
350
18
  3
ACAD_PLOTSTYLENAME
350
E
  3
AcDbVariableDictionary
350
61D
  0
DICTIONARY
  5
D
102
{ACAD_REACTORS
330
C
102
}
330
C
100
AcDbDictionary
281
     1
  0
DICTIONARY
  5
19
102
{ACAD_REACTORS
330
C
102
}
330
C
100
AcDbDictionary
281
     1
  3
Layout1
350
1D
  3
Model
350
21
  0
DICTIONARY
  5
16
102
{ACAD_REACTORS
330
C
102
}
330
C
100
AcDbDictionary
281
     1
  3
Standard
350
17
  0
DICTIONARY
  5
18
102
{ACAD_REACTORS
330
C
102
}
330
C
100
AcDbDictionary
281
     1
  0
ACDBDICTIONARYWDFLT
  5
E
102
{ACAD_REACTORS
330
C
102
}
330
C
100
AcDbDictionary
281
     1
  3
Normal
350
F
100
AcDbDictionaryWithDefault
340
F
  0
DICTIONARY
  5
61D
102
{ACAD_REACTORS
330
C
102
}
330
C
100
AcDbDictionary
281
     1
  3
DIMASSOC
350
61E
  0
LAYOUT
  5
1D
102
{ACAD_REACTORS
330
19
102
}
330
19
100
AcDbPlotSettings
  1

  2
hp deskjet 980c series
  4

  6

 40
0.0
 41
0.0
 42
0.0
 43
0.0
 44
0.0
 45
0.0
 46
0.0
 47
0.0
 48
0.0
 49
0.0
140
0.0
141
0.0
142
1.0
143
1.0
 70
   688
 72
     0
 73
     0
 74
     5
  7

 75
    16
147
1.0
148
0.0
149
0.0
100
AcDbLayout
  1
Layout1
 70
     1
 71
     1
 10
0.0
 20
0.0
 11
12.0
 21
9.0
 12
0.0
 22
0.0
 32
0.0
 14
1.000000000000000E+20
 24
1.000000000000000E+20
 34
1.000000000000000E+20
 15
-1.000000000000000E+20
 25
-1.000000000000000E+20
 35
-1.000000000000000E+20
146
0.0
 13
0.0
 23
0.0
 33
0.0
 16
1.0
 26
0.0
 36
0.0
 17
0.0
 27
1.0
 37
0.0
 76
     0
330
1A
  0
LAYOUT
  5
21
102
{ACAD_REACTORS
330
19
102
}
330
19
100
AcDbPlotSettings
  1

  2
hp deskjet 980c series
  4

  6

 40
0.0
 41
0.0
 42
0.0
 43
0.0
 44
0.0
 45
0.0
 46
0.0
 47
0.0
 48
0.0
 49
0.0
140
0.0
141
0.0
142
1.0
143
1.0
 70
  1712
 72
     0
 73
     0
 74
     0
  7

 75
     0
147
1.0
148
0.0
149
0.0
100
AcDbLayout
  1
Model
 70
     1
 71
     0
 10
0.0
 20
0.0
 11
12.0
 21
9.0
 12
0.0
 22
0.0
 32
0.0
 14
0.0
 24
0.0
 34
0.0
 15
0.0
 25
0.0
 35
0.0
146
0.0
 13
0.0
 23
0.0
 33
0.0
 16
1.0
 26
0.0
 36
0.0
 17
0.0
 27
1.0
 37
0.0
 76
     0
330
1E
  0
MLINESTYLE
  5
17
102
{ACAD_REACTORS
330
16
102
}
330
16
100
AcDbMlineStyle
  2
STANDARD
 70
     0
  3

 62
   256
 51
90.0
 52
90.0
 71
     2
 49
0.5
 62
   256
  6
BYLAYER
 49
-0.5
 62
   256
  6
BYLAYER
  0
ACDBPLACEHOLDER
  5
F
102
{ACAD_REACTORS
330
E
102
}
330
E
  0
DICTIONARYVAR
  5
61E
102
{ACAD_REACTORS
330
61D
102
}
330
61D
100
DictionaryVariables
280
     0
  1
1
  0
ENDSEC
  0
EOF
