  0
SECTION
  2
HEADER
  9
$ACADVER
  1
AC1015
  9
$ACADMAINTVER
 70
    13
  9
$DWGCODEPAGE
  3
ANSI_1252
  9
$INSBASE
 10
0.0
 20
0.0
 30
0.0
  9
$EXTMIN
 10
-0.174344999999993
 20
0.24999999999999
 30
0.0
  9
$EXTMAX
 10
145.4571406777039
 20
133.25
 30
0.0
  9
$LIMMIN
 10
0.0
 20
0.0
  9
$LIMMAX
 10
12.0
 20
9.0
  9
$ORTHOMODE
 70
     0
  9
$REGENMODE
 70
     1
  9
$FILLMODE
 70
     1
  9
$QTEXTMODE
 70
     0
  9
$MIRRTEXT
 70
     1
  9
$LTSCALE
 40
1.0
  9
$ATTMODE
 70
     1
  9
$TEXTSIZE
 40
0.2
  9
$TRACEWID
 40
0.05
  9
$TEXTSTYLE
  7
Standard
  9
$CLAYER
  8
0
  9
$CELTYPE
  6
Continuous
  9
$CECOLOR
 62
   256
  9
$CELTSCALE
 40
1.0
  9
$DISPSILH
 70
     0
  9
$DIMSCALE
 40
1.0
  9
$DIMASZ
 40
0.18
  9
$DIMEXO
 40
0.0625
  9
$DIMDLI
 40
0.38
  9
$DIMRND
 40
0.0
  9
$DIMDLE
 40
0.0
  9
$DIMEXE
 40
0.18
  9
$DIMTP
 40
0.0
  9
$DIMTM
 40
0.0
  9
$DIMTXT
 40
0.18
  9
$DIMCEN
 40
0.09
  9
$DIMTSZ
 40
0.0
  9
$DIMTOL
 70
     0
  9
$DIMLIM
 70
     0
  9
$DIMTIH
 70
     1
  9
$DIMTOH
 70
     1
  9
$DIMSE1
 70
     0
  9
$DIMSE2
 70
     0
  9
$DIMTAD
 70
     0
  9
$DIMZIN
 70
     0
  9
$DIMBLK
  1

  9
$DIMASO
 70
     1
  9
$DIMSHO
 70
     1
  9
$DIMPOST
  1

  9
$DIMAPOST
  1

  9
$DIMALT
 70
     0
  9
$DIMALTD
 70
     2
  9
$DIMALTF
 40
25.4
  9
$DIMLFAC
 40
1.0
  9
$DIMTOFL
 70
     0
  9
$DIMTVP
 40
0.0
  9
$DIMTIX
 70
     0
  9
$DIMSOXD
 70
     0
  9
$DIMSAH
 70
     0
  9
$DIMBLK1
  1

  9
$DIMBLK2
  1

  9
$DIMSTYLE
  2
Standard
  9
$DIMCLRD
 70
     0
  9
$DIMCLRE
 70
     0
  9
$DIMCLRT
 70
     0
  9
$DIMTFAC
 40
1.0
  9
$DIMGAP
 40
0.09
  9
$DIMJUST
 70
     0
  9
$DIMSD1
 70
     0
  9
$DIMSD2
 70
     0
  9
$DIMTOLJ
 70
     1
  9
$DIMTZIN
 70
     0
  9
$DIMALTZ
 70
     0
  9
$DIMALTTZ
 70
     0
  9
$DIMUPT
 70
     0
  9
$DIMDEC
 70
     4
  9
$DIMTDEC
 70
     4
  9
$DIMALTU
 70
     2
  9
$DIMALTTD
 70
     2
  9
$DIMTXSTY
  7
Standard
  9
$DIMAUNIT
 70
     0
  9
$DIMADEC
 70
     0
  9
$DIMALTRND
 40
0.0
  9
$DIMAZIN
 70
     0
  9
$DIMDSEP
 70
    46
  9
$DIMATFIT
 70
     3
  9
$DIMFRAC
 70
     0
  9
$DIMLDRBLK
  1

  9
$DIMLUNIT
 70
     2
  9
$DIMLWD
 70
    -2
  9
$DIMLWE
 70
    -2
  9
$DIMTMOVE
 70
     0
  9
$LUNITS
 70
     2
  9
$LUPREC
 70
     4
  9
$SKETCHINC
 40
0.1
  9
$FILLETRAD
 40
0.0
  9
$AUNITS
 70
     0
  9
$AUPREC
 70
     0
  9
$MENU
  1
.
  9
$ELEVATION
 40
0.0
  9
$PELEVATION
 40
0.0
  9
$THICKNESS
 40
0.0
  9
$LIMCHECK
 70
     0
  9
$CHAMFERA
 40
0.0
  9
$CHAMFERB
 40
0.0
  9
$CHAMFERC
 40
0.0
  9
$CHAMFERD
 40
0.0
  9
$SKPOLY
 70
     0
  9
$TDCREATE
 40
2454834.875382477
  9
$TDUCREATE
 40
2454834.833715810
  9
$TDUPDATE
 40
2454834.881352893
  9
$TDUUPDATE
 40
2454834.839686227
  9
$TDINDWG
 40
0.0019757292
  9
$TDUSRTIMER
 40
0.0019757292
  9
$USRTIMER
 70
     1
  9
$ANGBASE
 50
0.0
  9
$ANGDIR
 70
     0
  9
$PDMODE
 70
     0
  9
$PDSIZE
 40
0.0
  9
$PLINEWID
 40
0.0
  9
$SPLFRAME
 70
     0
  9
$SPLINETYPE
 70
     6
  9
$SPLINESEGS
 70
     8
  9
$HANDSEED
  5
239
  9
$SURFTAB1
 70
     6
  9
$SURFTAB2
 70
     6
  9
$SURFTYPE
 70
     6
  9
$SURFU
 70
     6
  9
$SURFV
 70
     6
  9
$UCSBASE
  2

  9
$UCSNAME
  2

  9
$UCSORG
 10
0.0
 20
0.0
 30
0.0
  9
$UCSXDIR
 10
1.0
 20
0.0
 30
0.0
  9
$UCSYDIR
 10
0.0
 20
1.0
 30
0.0
  9
$UCSORTHOREF
  2

  9
$UCSORTHOVIEW
 70
     1
  9
$UCSORGTOP
 10
0.0
 20
0.0
 30
0.0
  9
$UCSORGBOTTOM
 10
0.0
 20
0.0
 30
0.0
  9
$UCSORGLEFT
 10
0.0
 20
0.0
 30
0.0
  9
$UCSORGRIGHT
 10
0.0
 20
0.0
 30
0.0
  9
$UCSORGFRONT
 10
0.0
 20
0.0
 30
0.0
  9
$UCSORGBACK
 10
0.0
 20
0.0
 30
0.0
  9
$PUCSBASE
  2

  9
$PUCSNAME
  2

  9
$PUCSORG
 10
0.0
 20
0.0
 30
0.0
  9
$PUCSXDIR
 10
1.0
 20
0.0
 30
0.0
  9
$PUCSYDIR
 10
0.0
 20
1.0
 30
0.0
  9
$PUCSORTHOREF
  2

  9
$PUCSORTHOVIEW
 70
     0
  9
$PUCSORGTOP
 10
0.0
 20
0.0
 30
0.0
  9
$PUCSORGBOTTOM
 10
0.0
 20
0.0
 30
0.0
  9
$PUCSORGLEFT
 10
0.0
 20
0.0
 30
0.0
  9
$PUCSORGRIGHT
 10
0.0
 20
0.0
 30
0.0
  9
$PUCSORGFRONT
 10
0.0
 20
0.0
 30
0.0
  9
$PUCSORGBACK
 10
0.0
 20
0.0
 30
0.0
  9
$USERI1
 70
     0
  9
$USERI2
 70
     0
  9
$USERI3
 70
     0
  9
$USERI4
 70
     0
  9
$USERI5
 70
     0
  9
$USERR1
 40
0.0
  9
$USERR2
 40
0.0
  9
$USERR3
 40
0.0
  9
$USERR4
 40
0.0
  9
$USERR5
 40
0.0
  9
$WORLDVIEW
 70
     1
  9
$SHADEDGE
 70
     3
  9
$SHADEDIF
 70
    70
  9
$TILEMODE
 70
     1
  9
$MAXACTVP
 70
    64
  9
$PINSBASE
 10
0.0
 20
0.0
 30
0.0
  9
$PLIMCHECK
 70
     0
  9
$PEXTMIN
 10
1.000000000000000E+20
 20
1.000000000000000E+20
 30
1.000000000000000E+20
  9
$PEXTMAX
 10
-1.000000000000000E+20
 20
-1.000000000000000E+20
 30
-1.000000000000000E+20
  9
$PLIMMIN
 10
0.0
 20
0.0
  9
$PLIMMAX
 10
12.0
 20
9.0
  9
$UNITMODE
 70
     0
  9
$VISRETAIN
 70
     1
  9
$PLINEGEN
 70
     0
  9
$PSLTSCALE
 70
     1
  9
$TREEDEPTH
 70
  3020
  9
$CMLSTYLE
  2
Standard
  9
$CMLJUST
 70
     0
  9
$CMLSCALE
 40
1.0
  9
$PROXYGRAPHICS
 70
     1
  9
$MEASUREMENT
 70
     0
  9
$CELWEIGHT
370
    -1
  9
$ENDCAPS
280
     0
  9
$JOINSTYLE
280
     0
  9
$LWDISPLAY
290
     0
  9
$INSUNITS
 70
     0
  9
$HYPERLINKBASE
  1

  9
$STYLESHEET
  1

  9
$XEDIT
290
     1
  9
$CEPSNTYPE
380
     0
  9
$PSTYLEMODE
290
     1
  9
$FINGERPRINTGUID
  2
{8D134858-1DA4-40BD-95A5-78E967A1371F}
  9
$VERSIONGUID
  2
{F77651E0-4438-4333-BEF0-25EE95ECC5E1}
  9
$EXTNAMES
290
     1
  9
$PSVPSCALE
 40
0.0
  9
$OLESTARTUP
290
     0
  0
ENDSEC
  0
SECTION
  2
CLASSES
  0
CLASS
  1
ACDBDICTIONARYWDFLT
  2
AcDbDictionaryWithDefault
  3
AutoCAD 2000
 90
        0
280
     0
281
     0
  0
CLASS
  1
ACDBPLACEHOLDER
  2
AcDbPlaceHolder
  3
AutoCAD 2000
 90
        0
280
     0
281
     0
  0
CLASS
  1
LAYOUT
  2
AcDbLayout
  3
AutoCAD 2000
 90
        0
280
     0
281
     0
  0
CLASS
  1
DICTIONARYVAR
  2
AcDbDictionaryVar
  3
AutoCAD 2000
 90
        0
280
     0
281
     0
  0
ENDSEC
  0
SECTION
  2
TABLES
  0
TABLE
  2
VPORT
  5
8
330
0
100
AcDbSymbolTable
 70
     4
  0
VPORT
  5
238
330
8
100
AcDbSymbolTableRecord
100
AcDbViewportTableRecord
  2
*Active
 70
     0
 10
0.0
 20
0.0
 11
1.0
 21
1.0
 12
72.641397838852
 22
66.74999999999998
 13
0.0
 23
0.0
 14
1.0
 24
1.0
 15
0.0
 25
0.0
 16
0.0
 26
0.0
 36
1.0
 17
0.0
 27
0.0
 37
0.0
 40
134.0204603580562
 41
2.078104993597951
 42
50.0
 43
0.0
 44
0.0
 50
0.0
 51
0.0
 71
     0
 72
   100
 73
     1
 74
     3
 75
     0
 76
     0
 77
     0
 78
     0
281
     0
 65
     1
110
0.0
120
0.0
130
0.0
111
1.0
121
0.0
131
0.0
112
0.0
122
1.0
132
0.0
 79
     1
146
0.0
  0
ENDTAB
  0
TABLE
  2
LTYPE
  5
5
330
0
100
AcDbSymbolTable
 70
     1
  0
LTYPE
  5
13
330
5
100
AcDbSymbolTableRecord
100
AcDbLinetypeTableRecord
  2
ByBlock
 70
     0
  3

 72
    65
 73
     0
 40
0.0
  0
LTYPE
  5
14
330
5
100
AcDbSymbolTableRecord
100
AcDbLinetypeTableRecord
  2
ByLayer
 70
     0
  3

 72
    65
 73
     0
 40
0.0
  0
LTYPE
  5
15
330
5
100
AcDbSymbolTableRecord
100
AcDbLinetypeTableRecord
  2
Continuous
 70
     0
  3
Solid line
 72
    65
 73
     0
 40
0.0
  0
ENDTAB
  0
TABLE
  2
LAYER
  5
2
330
0
100
AcDbSymbolTable
 70
     1
  0
LAYER
  5
10
330
2
100
AcDbSymbolTableRecord
100
AcDbLayerTableRecord
  2
0
 70
     0
 62
     7
  6
Continuous
370
    -3
390
F
  0
ENDTAB
  0
TABLE
  2
STYLE
  5
3
330
0
100
AcDbSymbolTable
 70
     1
  0
STYLE
  5
11
330
3
100
AcDbSymbolTableRecord
100
AcDbTextStyleTableRecord
  2
Standard
 70
     0
 40
0.0
 41
1.0
 50
0.0
 71
     0
 42
0.2
  3
txt
  4

  0
ENDTAB
  0
TABLE
  2
VIEW
  5
6
330
0
100
AcDbSymbolTable
 70
     0
  0
ENDTAB
  0
TABLE
  2
UCS
  5
7
330
0
100
AcDbSymbolTable
 70
     0
  0
ENDTAB
  0
TABLE
  2
APPID
  5
9
330
0
100
AcDbSymbolTable
 70
     1
  0
APPID
  5
12
330
9
100
AcDbSymbolTableRecord
100
AcDbRegAppTableRecord
  2
ACAD
 70
     0
  0
ENDTAB
  0
TABLE
  2
DIMSTYLE
  5
A
330
0
100
AcDbSymbolTable
 70
     1
100
AcDbDimStyleTable
 71
     0
  0
DIMSTYLE
105
138
330
A
100
AcDbSymbolTableRecord
100
AcDbDimStyleTableRecord
  2
Standard
 70
     0
340
11
  0
ENDTAB
  0
TABLE
  2
BLOCK_RECORD
  5
1
330
0
100
AcDbSymbolTable
 70
     1
  0
BLOCK_RECORD
  5
1E
330
1
100
AcDbSymbolTableRecord
100
AcDbBlockTableRecord
  2
*Model_Space
340
21
  0
BLOCK_RECORD
  5
1A
330
1
100
AcDbSymbolTableRecord
100
AcDbBlockTableRecord
  2
*Paper_Space
340
1D
  0
ENDTAB
  0
ENDSEC
  0
SECTION
  2
BLOCKS
  0
BLOCK
  5
1F
330
1E
100
AcDbEntity
  8
0
100
AcDbBlockBegin
  2
*Model_Space
 70
     0
 10
0.0
 20
0.0
 30
0.0
  3
*Model_Space
  1

  0
ENDBLK
  5
20
330
1E
100
AcDbEntity
  8
0
100
AcDbBlockEnd
  0
BLOCK
  5
1B
330
1A
100
AcDbEntity
 67
     1
  8
0
100
AcDbBlockBegin
  2
*Paper_Space
 70
     0
 10
0.0
 20
0.0
 30
0.0
  3
*Paper_Space
  1

  0
ENDBLK
  5
1C
330
1A
100
AcDbEntity
 67
     1
  8
0
100
AcDbBlockEnd
  0
ENDSEC
  0
SECTION
  2
ENTITIES
  0
LINE
  5
22
330
1E
100
AcDbEntity
  8
0
100
AcDbLine
 10
140.726345
 20
0.249999999999996
 30
0.0
 11
141.326345
 21
0.249999999999996
 31
0.0
  0
LINE
  5
23
330
1E
100
AcDbEntity
  8
0
100
AcDbLine
 10
126.426345
 20
0.249999999999997
 30
0.0
 11
129.3263449999999
 21
0.249999999999996
 31
0.0
  0
LINE
  5
24
330
1E
100
AcDbEntity
  8
0
100
AcDbLine
 10
129.3263449999999
 20
0.249999999999996
 30
0.0
 11
131.926345
 21
0.249999999999996
 31
0.0
  0
LINE
  5
25
330
1E
100
AcDbEntity
  8
0
100
AcDbLine
 10
134.326345
 20
0.249999999999996
 30
0.0
 11
136.526345
 21
0.249999999999996
 31
0.0
  0
LINE
  5
26
330
1E
100
AcDbEntity
  8
0
100
AcDbLine
 10
136.526345
 20
0.249999999999996
 30
0.0
 11
138.326345
 21
0.249999999999996
 31
0.0
  0
LINE
  5
27
330
1E
100
AcDbEntity
  8
0
100
AcDbLine
 10
131.926345
 20
0.249999999999996
 30
0.0
 11
134.326345
 21
0.249999999999996
 31
0.0
  0
LINE
  5
28
330
1E
100
AcDbEntity
  8
0
100
AcDbLine
 10
123.426345
 20
0.249999999999997
 30
0.0
 11
126.426345
 21
0.249999999999997
 31
0.0
  0
LINE
  5
29
330
1E
100
AcDbEntity
  8
0
100
AcDbLine
 10
120.226345
 20
0.249999999999997
 30
0.0
 11
123.426345
 21
0.249999999999997
 31
0.0
  0
LINE
  5
2A
330
1E
100
AcDbEntity
  8
0
100
AcDbLine
 10
0.4207180000000072
 20
70.96339999999997
 30
0.0
 11
1.81342500000001
 21
66.4037
 31
0.0
  0
LINE
  5
2B
330
1E
100
AcDbEntity
  8
0
100
AcDbLine
 10
4.005715000000009
 20
62.9183
 30
0.0
 11
5.561252481948769
 21
61.56813736258179
 31
0.0
  0
LINE
  5
2C
330
1E
100
AcDbEntity
  8
0
100
AcDbLine
 10
4.005715000000009
 20
62.9183
 30
0.0
 11
5.561252481948769
 21
61.56813736258179
 31
0.0
  0
LINE
  5
2D
330
1E
100
AcDbEntity
  8
0
100
AcDbLine
 10
1.81342500000001
 20
66.4037
 30
0.0
 11
4.005715000000009
 21
62.9183
 31
0.0
  0
LINE
  5
2E
330
1E
100
AcDbEntity
  8
0
100
AcDbLine
 10
0.4207180000000072
 20
70.96339999999997
 30
0.0
 11
1.81342500000001
 21
66.4037
 31
0.0
  0
LINE
  5
2F
330
1E
100
AcDbEntity
  8
0
100
AcDbLine
 10
-0.174344999999993
 20
74.878
 30
0.0
 11
0.4207180000000072
 21
70.96339999999997
 31
0.0
  0
LINE
  5
30
330
1E
100
AcDbEntity
  8
0
100
AcDbLine
 10
27.525545
 20
47.8878
 30
0.0
 11
28.061945
 21
48.2997
 31
0.0
  0
LINE
  5
31
330
1E
100
AcDbEntity
  8
0
100
AcDbLine
 10
27.101445
 20
48.08559999999999
 30
0.0
 11
27.525545
 21
47.8878
 31
0.0
  0
LINE
  5
32
330
1E
100
AcDbEntity
  8
0
100
AcDbLine
 10
25.970345
 20
48.61299999999999
 30
0.0
 11
27.101445
 21
48.08559999999999
 31
0.0
  0
LINE
  5
33
330
1E
100
AcDbEntity
  8
0
100
AcDbLine
 10
24.132345
 20
49.4701
 30
0.0
 11
25.970345
 21
48.61299999999999
 31
0.0
  0
LINE
  5
34
330
1E
100
AcDbEntity
  8
0
100
AcDbLine
 10
21.72884499999998
 20
50.5909
 30
0.0
 11
24.132345
 21
49.4701
 31
0.0
  0
LINE
  5
35
330
1E
100
AcDbEntity
  8
0
100
AcDbLine
 10
18.995445
 20
51.8655
 30
0.0
 11
21.72884499999998
 21
50.5909
 31
0.0
  0
LINE
  5
36
330
1E
100
AcDbEntity
  8
0
100
AcDbLine
 10
16.026345
 20
53.25
 30
0.0
 11
18.995445
 21
51.8655
 31
0.0
  0
LINE
  5
37
330
1E
100
AcDbEntity
  8
0
100
AcDbLine
 10
113.8263449999999
 20
0.249999999999997
 30
0.0
 11
117.0263449999999
 21
0.249999999999997
 31
0.0
  0
LINE
  5
38
330
1E
100
AcDbEntity
  8
0
100
AcDbLine
 10
81.80624499999998
 20
48.6768
 30
0.0
 11
82.705145
 21
46.26809999999998
 31
0.0
  0
LINE
  5
39
330
1E
100
AcDbEntity
  8
0
100
AcDbLine
 10
78.656945
 20
52.96829999999999
 30
0.0
 11
80.42744499999997
 21
51.1019
 31
0.0
  0
LINE
  5
3A
330
1E
100
AcDbEntity
  8
0
100
AcDbLine
 10
77.080345
 20
54.2243
 30
0.0
 11
78.656945
 21
52.96829999999999
 31
0.0
  0
LINE
  5
3B
330
1E
100
AcDbEntity
  8
0
100
AcDbLine
 10
80.42744499999997
 20
51.1019
 30
0.0
 11
81.80624499999998
 21
48.6768
 31
0.0
  0
LINE
  5
3C
330
1E
100
AcDbEntity
  8
0
100
AcDbLine
 10
82.705145
 20
46.26809999999998
 30
0.0
 11
82.78284499999998
 21
45.9442
 31
0.0
  0
LINE
  5
3D
330
1E
100
AcDbEntity
  8
0
100
AcDbLine
 10
82.78284499999998
 20
45.9442
 30
0.0
 11
92.526345
 21
0.249999999999999
 31
0.0
  0
LINE
  5
3E
330
1E
100
AcDbEntity
  8
0
100
AcDbLine
 10
82.78284499999998
 20
45.9442
 30
0.0
 11
92.526345
 21
0.249999999999997
 31
0.0
  0
LINE
  5
3F
330
1E
100
AcDbEntity
  8
0
100
AcDbLine
 10
93.32634500000001
 20
0.249999999999999
 30
0.0
 11
94.02634500000001
 21
0.249999999999999
 31
0.0
  0
LINE
  5
40
330
1E
100
AcDbEntity
  8
0
100
AcDbLine
 10
97.526345
 20
0.249999999999998
 30
0.0
 11
99.72634499999999
 21
0.249999999999998
 31
0.0
  0
LINE
  5
41
330
1E
100
AcDbEntity
  8
0
100
AcDbLine
 10
95.72634499999999
 20
0.249999999999999
 30
0.0
 11
97.526345
 21
0.249999999999998
 31
0.0
  0
LINE
  5
42
330
1E
100
AcDbEntity
  8
0
100
AcDbLine
 10
94.02634500000001
 20
0.249999999999999
 30
0.0
 11
95.72634499999999
 21
0.249999999999999
 31
0.0
  0
LINE
  5
43
330
1E
100
AcDbEntity
  8
0
100
AcDbLine
 10
92.726345
 20
0.249999999999999
 30
0.0
 11
93.32634500000001
 21
0.249999999999999
 31
0.0
  0
LINE
  5
44
330
1E
100
AcDbEntity
  8
0
100
AcDbLine
 10
92.526345
 20
0.249999999999999
 30
0.0
 11
92.726345
 21
0.249999999999999
 31
0.0
  0
LINE
  5
45
330
1E
100
AcDbEntity
  8
0
100
AcDbLine
 10
99.72634499999999
 20
0.249999999999998
 30
0.0
 11
102.1263449999999
 21
0.249999999999998
 31
0.0
  0
LINE
  5
46
330
1E
100
AcDbEntity
  8
0
100
AcDbLine
 10
102.1263449999999
 20
0.249999999999998
 30
0.0
 11
104.7263449999999
 21
0.249999999999998
 31
0.0
  0
LINE
  5
47
330
1E
100
AcDbEntity
  8
0
100
AcDbLine
 10
104.7263449999999
 20
0.249999999999998
 30
0.0
 11
107.626345
 21
0.249999999999998
 31
0.0
  0
LINE
  5
48
330
1E
100
AcDbEntity
  8
0
100
AcDbLine
 10
107.626345
 20
0.249999999999998
 30
0.0
 11
110.6263449999999
 21
0.249999999999998
 31
0.0
  0
LINE
  5
49
330
1E
100
AcDbEntity
  8
0
100
AcDbLine
 10
110.6263449999999
 20
0.249999999999998
 30
0.0
 11
113.8263449999999
 21
0.249999999999997
 31
0.0
  0
LINE
  5
4A
330
1E
100
AcDbEntity
  8
0
100
AcDbLine
 10
28.061945
 20
48.2997
 30
0.0
 11
31.2699329842425
 21
55.1792781186521
 31
0.0
  0
LINE
  5
4B
330
1E
100
AcDbEntity
  8
0
100
AcDbLine
 10
4.527115000000009
 20
58.6122
 30
0.0
 11
4.951265000000009
 21
58.4144
 31
0.0
  0
LINE
  5
4C
330
1E
100
AcDbEntity
  8
0
100
AcDbLine
 10
4.951265000000009
 20
58.4144
 30
0.0
 11
6.082334999999998
 21
57.887
 31
0.0
  0
LINE
  5
4D
330
1E
100
AcDbEntity
  8
0
100
AcDbLine
 10
6.082334999999998
 20
57.887
 30
0.0
 11
7.920325000000008
 21
57.02989999999999
 31
0.0
  0
LINE
  5
4E
330
1E
100
AcDbEntity
  8
0
100
AcDbLine
 10
7.920325000000008
 20
57.02989999999999
 30
0.0
 11
10.323845
 21
55.9091
 31
0.0
  0
LINE
  5
4F
330
1E
100
AcDbEntity
  8
0
100
AcDbLine
 10
75.10084499999997
 20
55.4617
 30
0.0
 11
77.080345
 21
54.2243
 31
0.0
  0
LINE
  5
50
330
1E
100
AcDbEntity
  8
0
100
AcDbLine
 10
31.2699329842425
 20
55.1792781186521
 30
0.0
 11
39.151945
 21
55.4818
 31
0.0
  0
LINE
  5
51
330
1E
100
AcDbEntity
  8
0
100
AcDbLine
 10
72.923845
 20
56.417
 30
0.0
 11
75.10084499999997
 21
55.4617
 31
0.0
  0
LINE
  5
52
330
1E
100
AcDbEntity
  8
0
100
AcDbLine
 10
70.26044499999999
 20
57.037
 30
0.0
 11
72.923845
 21
56.417
 31
0.0
  0
LINE
  5
53
330
1E
100
AcDbEntity
  8
0
100
AcDbLine
 10
67.71674499999999
 20
57.3896
 30
0.0
 11
70.26044499999999
 21
57.037
 31
0.0
  0
LINE
  5
54
330
1E
100
AcDbEntity
  8
0
100
AcDbLine
 10
61.39274499999999
 20
56.8266
 30
0.0
 11
67.71674499999999
 21
57.3896
 31
0.0
  0
LINE
  5
55
330
1E
100
AcDbEntity
  8
0
100
AcDbLine
 10
39.151945
 20
55.4818
 30
0.0
 11
61.39274499999999
 21
56.8266
 31
0.0
  0
LINE
  5
56
330
1E
100
AcDbEntity
  8
0
100
AcDbLine
 10
10.323845
 20
55.9091
 30
0.0
 11
13.057245
 21
54.6345
 31
0.0
  0
LINE
  5
57
330
1E
100
AcDbEntity
  8
0
100
AcDbLine
 10
13.057245
 20
54.6345
 30
0.0
 11
16.026345
 21
53.25
 31
0.0
  0
LINE
  5
58
330
1E
100
AcDbEntity
  8
0
100
AcDbLine
 10
4.497915000000008
 20
59.28779999999999
 30
0.0
 11
5.561252481948769
 21
61.56813736258179
 31
0.0
  0
LINE
  5
59
330
1E
100
AcDbEntity
  8
0
100
AcDbLine
 10
4.497915000000008
 20
59.28779999999999
 30
0.0
 11
4.527115000000009
 21
58.6122
 31
0.0
  0
LINE
  5
5A
330
1E
100
AcDbEntity
  8
0
100
AcDbLine
 10
-0.0004559999999932
 20
75.6195
 30
0.0
 11
0.6368150000000071
 21
76.0365
 31
0.0
  0
LINE
  5
69
330
1E
100
AcDbEntity
  8
0
100
AcDbLine
 10
77.67914499999998
 20
91.063
 30
0.0
 11
78.199145
 21
91.1546
 31
0.0
  0
LINE
  5
6A
330
1E
100
AcDbEntity
  8
0
100
AcDbLine
 10
78.199145
 20
91.1546
 30
0.0
 11
79.152445
 21
91.3227
 31
0.0
  0
LINE
  5
6B
330
1E
100
AcDbEntity
  8
0
100
AcDbLine
 10
79.152445
 20
91.3227
 30
0.0
 11
80.27904499999998
 21
91.52140000000001
 31
0.0
  0
LINE
  5
6C
330
1E
100
AcDbEntity
  8
0
100
AcDbLine
 10
80.27904499999998
 20
91.52140000000001
 30
0.0
 11
81.92564499999997
 21
91.81169999999999
 31
0.0
  0
LINE
  5
6D
330
1E
100
AcDbEntity
  8
0
100
AcDbLine
 10
81.92564499999997
 20
91.81169999999999
 30
0.0
 11
83.832245
 21
92.1479
 31
0.0
  0
LINE
  5
6E
330
1E
100
AcDbEntity
  8
0
100
AcDbLine
 10
83.832245
 20
92.1479
 30
0.0
 11
85.91214499999997
 21
92.51470000000001
 31
0.0
  0
LINE
  5
6F
330
1E
100
AcDbEntity
  8
0
100
AcDbLine
 10
85.91214499999997
 20
92.51470000000001
 30
0.0
 11
88.33874499999998
 21
92.94249999999999
 31
0.0
  0
LINE
  5
70
330
1E
100
AcDbEntity
  8
0
100
AcDbLine
 10
88.33874499999998
 20
92.94249999999999
 30
0.0
 11
90.851945
 21
93.3857
 31
0.0
  0
LINE
  5
71
330
1E
100
AcDbEntity
  8
0
100
AcDbLine
 10
78.122564288442
 20
91.1411100131179
 30
0.0
 11
78.37094581502158
 21
89.7324227315058
 31
0.0
  0
LINE
  5
72
330
1E
100
AcDbEntity
  8
0
100
AcDbLine
 10
77.41924499999997
 20
91.0171
 30
0.0
 11
77.67914499999998
 21
91.063
 31
0.0
  0
LINE
  5
75
330
1E
100
AcDbEntity
  8
0
100
AcDbLine
 10
90.851945
 20
93.3857
 30
0.0
 11
93.538545
 21
93.85939999999999
 31
0.0
  0
LINE
  5
76
330
1E
100
AcDbEntity
  8
0
100
AcDbLine
 10
93.538545
 20
93.85939999999999
 30
0.0
 11
96.22504499999999
 21
94.3331
 31
0.0
  0
LINE
  5
77
330
1E
100
AcDbEntity
  8
0
100
AcDbLine
 10
99.08494500000001
 20
94.8374
 30
0.0
 11
101.7803449999999
 21
96.2256
 31
0.0
  0
LINE
  5
78
330
1E
100
AcDbEntity
  8
0
100
AcDbLine
 10
96.22504499999999
 20
94.3331
 30
0.0
 11
99.08494500000001
 21
94.8374
 31
0.0
  0
LINE
  5
84
330
1E
100
AcDbEntity
  8
0
100
AcDbLine
 10
101.7803449999999
 20
96.2256
 30
0.0
 11
104.3173449999998
 21
97.4768
 31
0.0
  0
LINE
  5
8B
330
1E
100
AcDbEntity
  8
0
100
AcDbLine
 10
119.2533449999999
 20
96.9374
 30
0.0
 11
120.0413449999998
 21
97.07640000000001
 31
0.0
  0
LINE
  5
91
330
1E
100
AcDbEntity
  8
0
100
AcDbLine
 10
0.6368150000000071
 20
76.0365
 30
0.0
 11
119.2533449999999
 21
96.9374
 31
0.0
  0
LINE
  5
92
330
1E
100
AcDbEntity
  8
0
100
AcDbLine
 10
-0.0004559999999932
 20
75.6195
 30
0.0
 11
0.6368150000000071
 21
76.0365
 31
0.0
  0
LINE
  5
94
330
1E
100
AcDbEntity
  8
0
100
AcDbLine
 10
-0.174344999999993
 20
74.878
 30
0.0
 11
-0.0004559999999932
 21
75.6195
 31
0.0
  0
LINE
  5
95
330
1E
100
AcDbEntity
  8
0
100
AcDbLine
 10
-0.174344999999993
 20
74.878
 30
0.0
 11
0.4207180000000072
 21
70.96339999999997
 31
0.0
  0
LINE
  5
98
330
1E
100
AcDbEntity
  8
0
100
AcDbLine
 10
119.733302446773
 20
97.02202193900809
 30
0.0
 11
120.0413449999998
 21
97.07640000000001
 31
0.0
  0
LINE
  5
99
330
1E
100
AcDbEntity
  8
0
100
AcDbLine
 10
17.026345
 20
132.299
 30
0.0
 11
17.117445
 21
133.0579999999999
 31
0.0
  0
LINE
  5
9A
330
1E
100
AcDbEntity
  8
0
100
AcDbLine
 10
17.026345
 20
132.299
 30
0.0
 11
17.590045
 21
131.3919999999999
 31
0.0
  0
LINE
  5
9C
330
1E
100
AcDbEntity
  8
0
100
AcDbLine
 10
72.68634499999997
 20
107.735
 30
0.0
 11
72.705845
 21
107.6659999999999
 31
0.0
  0
LINE
  5
9D
330
1E
100
AcDbEntity
  8
0
100
AcDbLine
 10
72.68634499999997
 20
107.735
 30
0.0
 11
72.73649232301479
 21
107.749061457279
 31
0.0
  0
LINE
  5
9E
330
1E
100
AcDbEntity
  8
0
100
AcDbLine
 10
72.705845
 20
107.6659999999999
 30
0.0
 11
72.757645
 21
107.481
 31
0.0
  0
LINE
  5
9F
330
1E
100
AcDbEntity
  8
0
100
AcDbLine
 10
72.757645
 20
107.481
 30
0.0
 11
72.84404499999998
 21
107.1729999999998
 31
0.0
  0
LINE
  5
A0
330
1E
100
AcDbEntity
  8
0
100
AcDbLine
 10
72.84404499999998
 20
107.1729999999998
 30
0.0
 11
72.958445
 21
106.7639999999999
 31
0.0
  0
LINE
  5
A1
330
1E
100
AcDbEntity
  8
0
100
AcDbLine
 10
72.958445
 20
106.7639999999999
 30
0.0
 11
73.08794499999997
 21
106.302
 31
0.0
  0
LINE
  5
A2
330
1E
100
AcDbEntity
  8
0
100
AcDbLine
 10
73.765945
 20
103.8829999999999
 30
0.0
 11
73.8146591143625
 21
103.8966595813459
 31
0.0
  0
LINE
  5
A3
330
1E
100
AcDbEntity
  8
0
100
AcDbLine
 10
73.74644499999998
 20
103.9529999999998
 30
0.0
 11
73.765945
 21
103.8829999999999
 31
0.0
  0
LINE
  5
A4
330
1E
100
AcDbEntity
  8
0
100
AcDbLine
 10
73.69464499999998
 20
104.1379999999999
 30
0.0
 11
73.74644499999998
 21
103.9529999999998
 31
0.0
  0
LINE
  5
A5
330
1E
100
AcDbEntity
  8
0
100
AcDbLine
 10
73.608345
 20
104.4459999999999
 30
0.0
 11
73.69464499999998
 21
104.1379999999999
 31
0.0
  0
LINE
  5
A6
330
1E
100
AcDbEntity
  8
0
100
AcDbLine
 10
73.49384499999998
 20
104.854
 30
0.0
 11
73.608345
 21
104.4459999999999
 31
0.0
  0
LINE
  5
A7
330
1E
100
AcDbEntity
  8
0
100
AcDbLine
 10
73.364345
 20
105.316
 30
0.0
 11
73.49384499999998
 21
104.854
 31
0.0
  0
LINE
  5
A8
330
1E
100
AcDbEntity
  8
0
100
AcDbLine
 10
73.22614499999997
 20
105.8089999999999
 30
0.0
 11
73.44451458787729
 21
105.870231476505
 31
0.0
  0
LINE
  5
A9
330
1E
100
AcDbEntity
  8
0
100
AcDbLine
 10
73.22614499999997
 20
105.8089999999999
 30
0.0
 11
73.364345
 21
105.316
 31
0.0
  0
LINE
  5
AA
330
1E
100
AcDbEntity
  8
0
100
AcDbLine
 10
73.08794499999997
 20
106.302
 30
0.0
 11
73.22614499999997
 21
105.8089999999999
 31
0.0
  0
LINE
  5
AB
330
1E
100
AcDbEntity
  8
0
100
AcDbLine
 10
65.113945
 20
125.6839999999999
 30
0.0
 11
66.194345
 21
125.045
 31
0.0
  0
LINE
  5
AC
330
1E
100
AcDbEntity
  8
0
100
AcDbLine
 10
63.869845
 20
126.224
 30
0.0
 11
65.113945
 21
125.6839999999999
 31
0.0
  0
LINE
  5
AD
330
1E
100
AcDbEntity
  8
0
100
AcDbLine
 10
62.249145
 20
126.7979999999998
 30
0.0
 11
63.869845
 21
126.224
 31
0.0
  0
LINE
  5
AE
330
1E
100
AcDbEntity
  8
0
100
AcDbLine
 10
60.37814499999999
 20
127.139
 30
0.0
 11
62.249145
 21
126.7979999999998
 31
0.0
  0
LINE
  5
AF
330
1E
100
AcDbEntity
  8
0
100
AcDbLine
 10
57.93254499999999
 20
127.3449999999999
 30
0.0
 11
60.37814499999999
 21
127.139
 31
0.0
  0
LINE
  5
B0
330
1E
100
AcDbEntity
  8
0
100
AcDbLine
 10
55.55654499999999
 20
127.496
 30
0.0
 11
57.93254499999999
 21
127.3449999999999
 31
0.0
  0
LINE
  5
B1
330
1E
100
AcDbEntity
  8
0
100
AcDbLine
 10
67.24204499999999
 20
124.209
 30
0.0
 11
68.109645
 21
123.1439999999998
 31
0.0
  0
LINE
  5
B2
330
1E
100
AcDbEntity
  8
0
100
AcDbLine
 10
66.194345
 20
125.045
 30
0.0
 11
67.24204499999999
 21
124.209
 31
0.0
  0
LINE
  5
B5
330
1E
100
AcDbEntity
  8
0
100
AcDbLine
 10
27.868045
 20
129.2599999999999
 30
0.0
 11
34.364345
 21
128.719
 31
0.0
  0
LINE
  5
BA
330
1E
100
AcDbEntity
  8
0
100
AcDbLine
 10
22.02164499999998
 20
129.9509999999999
 30
0.0
 11
27.868045
 21
129.2599999999999
 31
0.0
  0
LINE
  5
C9
330
1E
100
AcDbEntity
  8
0
100
AcDbLine
 10
19.100745
 20
130.661
 30
0.0
 11
22.02164499999998
 21
129.9509999999999
 31
0.0
  0
LINE
  5
CA
330
1E
100
AcDbEntity
  8
0
100
AcDbLine
 10
17.590045
 20
131.3919999999999
 30
0.0
 11
19.100745
 21
130.661
 31
0.0
  0
LINE
  5
CB
330
1E
100
AcDbEntity
  8
0
100
AcDbLine
 10
34.364345
 20
128.719
 30
0.0
 11
55.55654499999999
 21
127.496
 31
0.0
  0
LINE
  5
CE
330
1E
100
AcDbEntity
  8
0
100
AcDbLine
 10
68.109645
 20
123.1439999999998
 30
0.0
 11
68.78084499999999
 21
121.883
 31
0.0
  0
LINE
  5
CF
330
1E
100
AcDbEntity
  8
0
100
AcDbLine
 10
68.78084499999999
 20
121.883
 30
0.0
 11
72.73649232301479
 21
107.749061457279
 31
0.0
  0
LINE
  5
D0
330
1E
100
AcDbEntity
  8
0
100
AcDbLine
 10
104.3173449999998
 20
97.4768
 30
0.0
 11
106.8363449999999
 21
98.65439999999999
 31
0.0
  0
LINE
  5
D1
330
1E
100
AcDbEntity
  8
0
100
AcDbLine
 10
106.8363449999999
 20
98.65439999999999
 30
0.0
 11
109.190345
 21
99.8136
 31
0.0
  0
LINE
  5
D2
330
1E
100
AcDbEntity
  8
0
100
AcDbLine
 10
109.190345
 20
99.8136
 30
0.0
 11
111.4843449999999
 21
100.9179999999999
 31
0.0
  0
LINE
  5
DA
330
1E
100
AcDbEntity
  8
0
100
AcDbLine
 10
111.4843449999999
 20
100.9179999999999
 30
0.0
 11
113.4333449999999
 21
101.838
 31
0.0
  0
LINE
  5
DF
330
1E
100
AcDbEntity
  8
0
100
AcDbLine
 10
73.8146591143625
 20
103.8966595813459
 30
0.0
 11
77.41924499999997
 21
91.0171
 31
0.0
  0
LINE
  5
EB
330
1E
100
AcDbEntity
  8
0
100
AcDbLine
 10
112.164345
 20
133.247
 30
0.0
 11
112.3583449999999
 21
133.247
 31
0.0
  0
LINE
  5
EC
330
1E
100
AcDbEntity
  8
0
100
AcDbLine
 10
17.409145
 20
133.1929999999998
 30
0.0
 11
18.089745
 21
133.25
 31
0.0
  0
LINE
  5
ED
330
1E
100
AcDbEntity
  8
0
100
AcDbLine
 10
17.117445
 20
133.0579999999999
 30
0.0
 11
17.409145
 21
133.1929999999998
 31
0.0
  0
LINE
  5
EF
330
1E
100
AcDbEntity
  8
0
100
AcDbLine
 10
23.242845
 20
133.25
 30
0.0
 11
24.992945
 21
133.25
 31
0.0
  0
LINE
  5
F0
330
1E
100
AcDbEntity
  8
0
100
AcDbLine
 10
24.992945
 20
133.25
 30
0.0
 11
26.937545
 21
133.25
 31
0.0
  0
LINE
  5
F1
330
1E
100
AcDbEntity
  8
0
100
AcDbLine
 10
26.937545
 20
133.25
 30
0.0
 11
28.979345
 21
133.25
 31
0.0
  0
LINE
  5
F2
330
1E
100
AcDbEntity
  8
0
100
AcDbLine
 10
28.979345
 20
133.25
 30
0.0
 11
31.118345
 21
133.25
 31
0.0
  0
LINE
  5
F3
330
1E
100
AcDbEntity
  8
0
100
AcDbLine
 10
31.118345
 20
133.25
 30
0.0
 11
33.354545
 21
133.25
 31
0.0
  0
LINE
  5
F8
330
1E
100
AcDbEntity
  8
0
100
AcDbLine
 10
33.354545
 20
133.25
 30
0.0
 11
112.164345
 21
133.247
 31
0.0
  0
LINE
  5
F9
330
1E
100
AcDbEntity
  8
0
100
AcDbLine
 10
21.784445
 20
133.25
 30
0.0
 11
23.242845
 21
133.25
 31
0.0
  0
LINE
  5
FA
330
1E
100
AcDbEntity
  8
0
100
AcDbLine
 10
20.423245
 20
133.25
 30
0.0
 11
21.784445
 21
133.25
 31
0.0
  0
LINE
  5
FB
330
1E
100
AcDbEntity
  8
0
100
AcDbLine
 10
19.450945
 20
133.25
 30
0.0
 11
20.423245
 21
133.25
 31
0.0
  0
LINE
  5
FC
330
1E
100
AcDbEntity
  8
0
100
AcDbLine
 10
18.770345
 20
133.25
 30
0.0
 11
19.450945
 21
133.25
 31
0.0
  0
LINE
  5
109
330
1E
100
AcDbEntity
  8
0
100
AcDbLine
 10
18.284245
 20
133.25
 30
0.0
 11
18.770345
 21
133.25
 31
0.0
  0
LINE
  5
10A
330
1E
100
AcDbEntity
  8
0
100
AcDbLine
 10
18.089745
 20
133.25
 30
0.0
 11
18.284245
 21
133.25
 31
0.0
  0
LINE
  5
10B
330
1E
100
AcDbEntity
  8
0
100
AcDbLine
 10
112.3583449999999
 20
133.247
 30
0.0
 11
113.0393449999999
 21
133.19
 31
0.0
  0
LINE
  5
10C
330
1E
100
AcDbEntity
  8
0
100
AcDbLine
 10
113.4333449999999
 20
101.838
 30
0.0
 11
115.254345
 21
102.7209999999999
 31
0.0
  0
LINE
  5
10D
330
1E
100
AcDbEntity
  8
0
100
AcDbLine
 10
115.254345
 20
102.7209999999999
 30
0.0
 11
116.7613449999999
 21
103.4389999999999
 31
0.0
  0
LINE
  5
10E
330
1E
100
AcDbEntity
  8
0
100
AcDbLine
 10
116.7613449999999
 20
103.4389999999999
 30
0.0
 11
117.8093449999999
 21
103.9349999999999
 31
0.0
  0
LINE
  5
10F
330
1E
100
AcDbEntity
  8
0
100
AcDbLine
 10
117.401123697264
 20
103.741796024659
 30
0.0
 11
118.400345
 21
101.8349999999999
 31
0.0
  0
LINE
  5
110
330
1E
100
AcDbEntity
  8
0
100
AcDbLine
 10
118.400345
 20
101.8349999999999
 30
0.0
 11
119.3913449999999
 21
98.963
 31
0.0
  0
LINE
  5
112
330
1E
100
AcDbEntity
  8
0
100
AcDbLine
 10
117.8093449999999
 20
103.9349999999999
 30
0.0
 11
118.6923449999999
 21
104.377
 31
0.0
  0
LINE
  5
113
330
1E
100
AcDbEntity
  8
0
100
AcDbLine
 10
119.2073449999998
 20
104.635
 30
0.0
 11
119.4273449999998
 21
104.7449999999999
 31
0.0
  0
LINE
  5
114
330
1E
100
AcDbEntity
  8
0
100
AcDbLine
 10
119.3913449999999
 20
98.963
 30
0.0
 11
119.733302446773
 21
97.02202193900809
 31
0.0
  0
LINE
  5
115
330
1E
100
AcDbEntity
  8
0
100
AcDbLine
 10
118.6923449999999
 20
104.377
 30
0.0
 11
119.2073449999998
 21
104.635
 31
0.0
  0
LINE
  5
116
330
1E
100
AcDbEntity
  8
0
100
AcDbLine
 10
113.3303449999999
 20
133.055
 30
0.0
 11
119.4273449999998
 21
104.7449999999999
 31
0.0
  0
LINE
  5
117
330
1E
100
AcDbEntity
  8
0
100
AcDbLine
 10
113.0393449999999
 20
133.19
 30
0.0
 11
113.3303449999999
 21
133.055
 31
0.0
  0
LINE
  5
118
330
1E
100
AcDbEntity
  8
0
100
AcDbLine
 10
120.0413449999998
 20
97.07640000000001
 30
0.0
 11
120.783345
 21
96.9025
 31
0.0
  0
LINE
  5
11E
330
1E
100
AcDbEntity
  8
0
100
AcDbLine
 10
137.671094448222
 20
18.46128863421538
 30
0.0
 11
141.5263449999999
 21
0.249999999999996
 31
0.0
  0
LINE
  5
11F
330
1E
100
AcDbEntity
  8
0
100
AcDbLine
 10
137.671094448222
 20
18.4612886342153
 30
0.0
 11
141.5263449999999
 21
0.24999999999999
 31
0.0
  0
LINE
  5
120
330
1E
100
AcDbEntity
  8
0
100
AcDbLine
 10
121.200345
 20
96.26519999999999
 30
0.0
 11
134.895108720363
 21
31.5743863837735
 31
0.0
  0
LINE
  5
121
330
1E
100
AcDbEntity
  8
0
100
AcDbLine
 10
121.200345
 20
96.26519999999999
 30
0.0
 11
134.895108720363
 21
31.5743863837735
 31
0.0
  0
LINE
  5
122
330
1E
100
AcDbEntity
  8
0
100
AcDbLine
 10
120.783345
 20
96.9025
 30
0.0
 11
121.200345
 21
96.26519999999999
 31
0.0
  0
LINE
  5
123
330
1E
100
AcDbEntity
  8
0
100
AcDbLine
 10
117.0263449999999
 20
0.249999999999997
 30
0.0
 11
120.226345
 21
0.249999999999997
 31
0.0
  0
LINE
  5
12B
330
1E
100
AcDbEntity
  8
0
100
AcDbLine
 10
138.326345
 20
0.249999999999996
 30
0.0
 11
140.0263449999999
 21
0.249999999999996
 31
0.0
  0
LINE
  5
12C
330
1E
100
AcDbEntity
  8
0
100
AcDbLine
 10
140.0263449999999
 20
0.249999999999996
 30
0.0
 11
140.726345
 21
0.249999999999996
 31
0.0
  0
LINE
  5
137
330
1E
100
AcDbEntity
  8
0
100
AcDbLine
 10
141.326345
 20
0.249999999999996
 30
0.0
 11
141.5263449999999
 21
0.249999999999996
 31
0.0
  0
LINE
  5
13C
330
1E
100
AcDbEntity
  8
0
100
AcDbLine
 10
5.561252481948769
 20
61.56813736258179
 30
0.0
 11
31.2699329842425
 21
55.1792781186521
 31
0.0
  0
LINE
  5
13D
330
1E
100
AcDbEntity
  8
0
100
AcDbLine
 10
134.895108720363
 20
31.5743863837735
 30
0.0
 11
137.671094448222
 21
18.4612886342153
 31
0.0
  0
LINE
  5
1C0
330
1E
100
AcDbEntity
  8
0
100
AcDbLine
 10
144.8851406777039
 20
11.29890009756169
 30
0.0
 11
145.0101406777039
 21
9.880900097561692
 31
0.0
  0
LINE
  5
1C2
330
1E
100
AcDbEntity
  8
0
100
AcDbLine
 10
143.7641406777039
 20
12.62910009756169
 30
0.0
 11
143.8901406777039
 21
11.21110009756169
 31
0.0
  0
LINE
  5
1C3
330
1E
100
AcDbEntity
  8
0
100
AcDbLine
 10
145.304140677704
 20
6.554150097561691
 30
0.0
 11
145.352140677704
 21
6.006840097561692
 31
0.0
  0
LINE
  5
1C5
330
1E
100
AcDbEntity
  8
0
100
AcDbLine
 10
144.3081406777039
 20
6.466340097561692
 30
0.0
 11
144.3551406777039
 21
5.918940097561693
 31
0.0
  0
LINE
  5
1C6
330
1E
100
AcDbEntity
  8
0
100
AcDbLine
 10
145.155140677704
 20
5.399740097561691
 30
0.0
 11
145.2911406777039
 21
5.562340097561683
 31
0.0
  0
LINE
  5
1C7
330
1E
100
AcDbEntity
  8
0
100
AcDbLine
 10
144.9151406777039
 20
5.278140097561692
 30
0.0
 11
145.155140677704
 21
5.399740097561691
 31
0.0
  0
LINE
  5
1C9
330
1E
100
AcDbEntity
  8
0
100
AcDbLine
 10
144.6571406777039
 20
5.355840097561683
 30
0.0
 11
144.9151406777039
 21
5.278140097561692
 31
0.0
  0
LINE
  5
1CA
330
1E
100
AcDbEntity
  8
0
100
AcDbLine
 10
144.493140677704
 20
5.492040097561691
 30
0.0
 11
144.6571406777039
 21
5.355840097561683
 31
0.0
  0
LINE
  5
1CB
330
1E
100
AcDbEntity
  8
0
100
AcDbLine
 10
144.3731406777039
 20
5.732340097561683
 30
0.0
 11
144.493140677704
 21
5.492040097561691
 31
0.0
  0
LINE
  5
1CC
330
1E
100
AcDbEntity
  8
0
100
AcDbLine
 10
144.3551406777039
 20
5.918940097561693
 30
0.0
 11
144.3731406777039
 21
5.732340097561683
 31
0.0
  0
LINE
  5
1CD
330
1E
100
AcDbEntity
  8
0
100
AcDbLine
 10
145.2911406777039
 20
5.562340097561683
 30
0.0
 11
145.3681406777039
 21
5.820140097561692
 31
0.0
  0
LINE
  5
1CE
330
1E
100
AcDbEntity
  8
0
100
AcDbLine
 10
145.352140677704
 20
6.006840097561692
 30
0.0
 11
145.3681406777039
 21
5.820140097561692
 31
0.0
  0
LINE
  5
1D0
330
1E
100
AcDbEntity
  8
0
100
AcDbLine
 10
145.0101406777039
 20
9.880900097561692
 30
0.0
 11
145.1271406777039
 21
8.559600097561693
 31
0.0
  0
LINE
  5
1D1
330
1E
100
AcDbEntity
  8
0
100
AcDbLine
 10
144.0151406777039
 20
9.793100097561692
 30
0.0
 11
144.131140677704
 21
8.471700097561692
 31
0.0
  0
LINE
  5
1D2
330
1E
100
AcDbEntity
  8
0
100
AcDbLine
 10
145.1271406777039
 20
8.559600097561693
 30
0.0
 11
145.2271406777039
 21
7.424900097561693
 31
0.0
  0
LINE
  5
1D4
330
1E
100
AcDbEntity
  8
0
100
AcDbLine
 10
144.131140677704
 20
8.471700097561692
 30
0.0
 11
144.2301406777039
 21
7.337000097561693
 31
0.0
  0
LINE
  5
1D6
330
1E
100
AcDbEntity
  8
0
100
AcDbLine
 10
144.2301406777039
 20
7.337000097561693
 30
0.0
 11
144.3081406777039
 21
6.466340097561692
 31
0.0
  0
LINE
  5
1D7
330
1E
100
AcDbEntity
  8
0
100
AcDbLine
 10
145.2271406777039
 20
7.424900097561693
 30
0.0
 11
145.304140677704
 21
6.554150097561691
 31
0.0
  0
LINE
  5
1D9
330
1E
100
AcDbEntity
  8
0
100
AcDbLine
 10
143.8901406777039
 20
11.21110009756169
 30
0.0
 11
144.0151406777039
 21
9.793100097561692
 31
0.0
  0
LINE
  5
1DA
330
1E
100
AcDbEntity
  8
0
100
AcDbLine
 10
145.4341406777039
 20
16.38440009756169
 30
0.0
 11
145.4571406777039
 21
16.73540009756169
 31
0.0
  0
LINE
  5
1DB
330
1E
100
AcDbEntity
  8
0
100
AcDbLine
 10
144.4191406777039
 20
16.59100009756169
 30
0.0
 11
144.4671406777039
 21
16.04360009756169
 31
0.0
  0
LINE
  5
1DD
330
1E
100
AcDbEntity
  8
0
100
AcDbLine
 10
142.4721406777039
 20
16.41560009756169
 30
0.0
 11
142.495140677704
 21
16.76590009756169
 31
0.0
  0
LINE
  5
1DE
330
1E
100
AcDbEntity
  8
0
100
AcDbLine
 10
143.6481406777039
 20
13.95050009756169
 30
0.0
 11
143.7641406777039
 21
12.62910009756169
 31
0.0
  0
LINE
  5
1DF
330
1E
100
AcDbEntity
  8
0
100
AcDbLine
 10
143.5416562269939
 20
15.15842491876949
 30
0.0
 11
143.548140677704
 21
15.08510009756169
 31
0.0
  0
LINE
  5
1E0
330
1E
100
AcDbEntity
  8
0
100
AcDbLine
 10
143.471140677704
 20
15.95580009756169
 30
0.0
 11
143.548140677704
 21
15.08510009756169
 31
0.0
  0
LINE
  5
1E1
330
1E
100
AcDbEntity
  8
0
100
AcDbLine
 10
143.423140677704
 20
16.50320009756169
 30
0.0
 11
143.471140677704
 21
15.95580009756169
 31
0.0
  0
LINE
  5
1E2
330
1E
100
AcDbEntity
  8
0
100
AcDbLine
 10
142.541140677704
 20
16.08210009756169
 30
0.0
 11
142.7011406777039
 21
15.76620009756169
 31
0.0
  0
LINE
  5
1E3
330
1E
100
AcDbEntity
  8
0
100
AcDbLine
 10
142.7011406777039
 20
15.76620009756169
 30
0.0
 11
142.9211406777039
 21
15.48760009756169
 31
0.0
  0
LINE
  5
1E4
330
1E
100
AcDbEntity
  8
0
100
AcDbLine
 10
142.9211406777039
 20
15.48760009756169
 30
0.0
 11
143.1961406777039
 21
15.28620009756169
 31
0.0
  0
LINE
  5
1E5
330
1E
100
AcDbEntity
  8
0
100
AcDbLine
 10
143.1961406777039
 20
15.28620009756169
 30
0.0
 11
143.5231406777039
 21
15.16130009756169
 31
0.0
  0
LINE
  5
1E6
330
1E
100
AcDbEntity
  8
0
100
AcDbLine
 10
142.4721406777039
 20
16.41560009756169
 30
0.0
 11
142.541140677704
 21
16.08210009756169
 31
0.0
  0
LINE
  5
1E7
330
1E
100
AcDbEntity
  8
0
100
AcDbLine
 10
143.548140677704
 20
15.08510009756169
 30
0.0
 11
143.6481406777039
 21
13.95050009756169
 31
0.0
  0
LINE
  5
1E8
330
1E
100
AcDbEntity
  8
0
100
AcDbLine
 10
144.644140677704
 20
14.03830009756169
 30
0.0
 11
144.760140677704
 21
12.71690009756169
 31
0.0
  0
LINE
  5
1EA
330
1E
100
AcDbEntity
  8
0
100
AcDbLine
 10
144.760140677704
 20
12.71690009756169
 30
0.0
 11
144.8851406777039
 21
11.29890009756169
 31
0.0
  0
LINE
  5
1EB
330
1E
100
AcDbEntity
  8
0
100
AcDbLine
 10
145.1331406777039
 20
15.68890009756169
 30
0.0
 11
145.3311406777039
 21
16.02580009756169
 31
0.0
  0
LINE
  5
1EC
330
1E
100
AcDbEntity
  8
0
100
AcDbLine
 10
144.8961406777039
 20
15.41180009756169
 30
0.0
 11
145.1331406777039
 21
15.68890009756169
 31
0.0
  0
LINE
  5
1ED
330
1E
100
AcDbEntity
  8
0
100
AcDbLine
 10
144.7731406777039
 20
15.31220009756169
 30
0.0
 11
144.8961406777039
 21
15.41180009756169
 31
0.0
  0
LINE
  5
1EE
330
1E
100
AcDbEntity
  8
0
100
AcDbLine
 10
144.4671406777039
 20
16.04360009756169
 30
0.0
 11
144.5441406777039
 21
15.17300009756169
 31
0.0
  0
LINE
  5
1EF
330
1E
100
AcDbEntity
  8
0
100
AcDbLine
 10
144.5441406777039
 20
15.17300009756169
 30
0.0
 11
144.644140677704
 21
14.03830009756169
 31
0.0
  0
LINE
  5
1F0
330
1E
100
AcDbEntity
  8
0
100
AcDbLine
 10
144.5402761313
 20
15.21669456638299
 30
0.0
 11
144.6311406777039
 21
15.24250009756169
 31
0.0
  0
LINE
  5
1F1
330
1E
100
AcDbEntity
  8
0
100
AcDbLine
 10
144.6311406777039
 20
15.24250009756169
 30
0.0
 11
144.7731406777039
 21
15.31220009756169
 31
0.0
  0
LINE
  5
1F4
330
1E
100
AcDbEntity
  8
0
100
AcDbLine
 10
145.3311406777039
 20
16.02580009756169
 30
0.0
 11
145.4341406777039
 21
16.38440009756169
 31
0.0
  0
LINE
  5
1F5
330
1E
100
AcDbEntity
  8
0
100
AcDbLine
 10
143.6481406777039
 20
18.00720009756169
 30
0.0
 11
144.036140677704
 21
18.04650009756169
 31
0.0
  0
LINE
  5
1F6
330
1E
100
AcDbEntity
  8
0
100
AcDbLine
 10
143.4851406777039
 20
18.85780009756169
 30
0.0
 11
143.5831406777039
 21
19.20860009756169
 31
0.0
  0
LINE
  5
1F7
330
1E
100
AcDbEntity
  8
0
100
AcDbLine
 10
142.338622192078
 20
18.15902114633119
 30
0.0
 11
142.897941338314
 21
17.30916452195559
 31
0.0
  0
LINE
  5
1F8
330
1E
100
AcDbEntity
  8
0
100
AcDbLine
 10
141.9951406777039
 20
18.02850009756169
 30
0.0
 11
142.344140677704
 21
18.05310009756169
 31
0.0
  0
LINE
  5
1F9
330
1E
100
AcDbEntity
  8
0
100
AcDbLine
 10
142.344140677704
 20
18.05310009756169
 30
0.0
 11
142.39812940306
 21
18.06860300528969
 31
0.0
  0
LINE
  5
1FA
330
1E
100
AcDbEntity
  8
0
100
AcDbLine
 10
143.3161406777039
 20
18.59260009756169
 30
0.0
 11
143.415140677704
 21
18.71550009756169
 31
0.0
  0
LINE
  5
1FB
330
1E
100
AcDbEntity
  8
0
100
AcDbLine
 10
143.415140677704
 20
18.71550009756169
 30
0.0
 11
143.4851406777039
 21
18.85780009756169
 31
0.0
  0
LINE
  5
1FC
330
1E
100
AcDbEntity
  8
0
100
AcDbLine
 10
143.2856781494819
 20
18.56656449790179
 30
0.0
 11
143.6430972736389
 21
18.00577472524479
 31
0.0
  0
LINE
  5
1FD
330
1E
100
AcDbEntity
  8
0
100
AcDbLine
 10
143.2280474421169
 20
18.64854723404389
 30
0.0
 11
143.7396709670539
 21
17.85279704242679
 31
0.0
  0
LINE
  5
1FE
330
1E
100
AcDbEntity
  8
0
100
AcDbLine
 10
142.495140677704
 20
16.76590009756169
 30
0.0
 11
142.5981406777039
 21
17.12470009756169
 31
0.0
  0
LINE
  5
1FF
330
1E
100
AcDbEntity
  8
0
100
AcDbLine
 10
142.5981406777039
 20
17.12470009756169
 30
0.0
 11
142.7971406777039
 21
17.46140009756169
 31
0.0
  0
LINE
  5
200
330
1E
100
AcDbEntity
  8
0
100
AcDbLine
 10
142.3061406777039
 20
21.01420009756169
 30
0.0
 11
142.6401406777039
 21
20.94680009756169
 31
0.0
  0
LINE
  5
201
330
1E
100
AcDbEntity
  8
0
100
AcDbLine
 10
141.9541406777039
 20
20.98920009756169
 30
0.0
 11
142.3061406777039
 21
21.01420009756169
 31
0.0
  0
LINE
  5
202
330
1E
100
AcDbEntity
  8
0
100
AcDbLine
 10
143.5621406777039
 20
19.96610009756169
 30
0.0
 11
143.620140677704
 21
19.59740009756169
 31
0.0
  0
LINE
  5
203
330
1E
100
AcDbEntity
  8
0
100
AcDbLine
 10
143.5831406777039
 20
19.20860009756169
 30
0.0
 11
143.620140677704
 21
19.59740009756169
 31
0.0
  0
LINE
  5
204
330
1E
100
AcDbEntity
  8
0
100
AcDbLine
 10
143.4371406777039
 20
20.29430009756169
 30
0.0
 11
143.5621406777039
 21
19.96610009756169
 31
0.0
  0
LINE
  5
205
330
1E
100
AcDbEntity
  8
0
100
AcDbLine
 10
142.6401406777039
 20
20.94680009756169
 30
0.0
 11
142.9541406777039
 21
20.78630009756169
 31
0.0
  0
LINE
  5
206
330
1E
100
AcDbEntity
  8
0
100
AcDbLine
 10
142.9541406777039
 20
20.78630009756169
 30
0.0
 11
143.2351406777039
 21
20.56750009756169
 31
0.0
  0
LINE
  5
207
330
1E
100
AcDbEntity
  8
0
100
AcDbLine
 10
143.2351406777039
 20
20.56750009756169
 30
0.0
 11
143.4371406777039
 21
20.29430009756169
 31
0.0
  0
LINE
  5
208
330
1E
100
AcDbEntity
  8
0
100
AcDbLine
 10
145.0081406777039
 20
17.66270009756169
 30
0.0
 11
145.2271406777039
 21
17.38430009756169
 31
0.0
  0
LINE
  5
209
330
1E
100
AcDbEntity
  8
0
100
AcDbLine
 10
144.7341406777039
 20
17.86410009756169
 30
0.0
 11
145.0081406777039
 21
17.66270009756169
 31
0.0
  0
LINE
  5
20A
330
1E
100
AcDbEntity
  8
0
100
AcDbLine
 10
144.405140677704
 20
17.98910009756169
 30
0.0
 11
144.7341406777039
 21
17.86410009756169
 31
0.0
  0
LINE
  5
20B
330
1E
100
AcDbEntity
  8
0
100
AcDbLine
 10
144.036140677704
 20
18.04650009756169
 30
0.0
 11
144.405140677704
 21
17.98910009756169
 31
0.0
  0
LINE
  5
20C
330
1E
100
AcDbEntity
  8
0
100
AcDbLine
 10
145.3891406777039
 20
17.06820009756169
 30
0.0
 11
145.4571406777039
 21
16.73540009756169
 31
0.0
  0
LINE
  5
20D
330
1E
100
AcDbEntity
  8
0
100
AcDbLine
 10
145.2271406777039
 20
17.38430009756169
 30
0.0
 11
145.3891406777039
 21
17.06820009756169
 31
0.0
  0
LINE
  5
20E
330
1E
100
AcDbEntity
  8
0
100
AcDbLine
 10
140.2771406777039
 20
21.88900009756169
 30
0.0
 11
140.361140677704
 21
21.53460009756169
 31
0.0
  0
LINE
  5
20F
330
1E
100
AcDbEntity
  8
0
100
AcDbLine
 10
140.37733951407
 20
21.24692348991039
 30
0.0
 11
141.256235627176
 21
20.68433411379179
 31
0.0
  0
LINE
  5
210
330
1E
100
AcDbEntity
  8
0
100
AcDbLine
 10
140.2604185328049
 20
21.31394958283599
 30
0.0
 11
141.408641133353
 21
20.58578811852879
 31
0.0
  0
LINE
  5
211
330
1E
100
AcDbEntity
  8
0
100
AcDbLine
 10
140.2604185328049
 20
21.31394958283599
 30
0.0
 11
141.408641133352
 21
20.58578811852879
 31
0.0
  0
LINE
  5
212
330
1E
100
AcDbEntity
  8
0
100
AcDbLine
 10
137.9801406777039
 20
20.15170009756169
 30
0.0
 11
138.3081406777039
 21
19.93840009756169
 31
0.0
  0
LINE
  5
213
330
1E
100
AcDbEntity
  8
0
100
AcDbLine
 10
137.4819114334569
 20
19.86814579923699
 30
0.0
 11
138.1334705431769
 21
20.24671759510679
 31
0.0
  0
LINE
  5
214
330
1E
100
AcDbEntity
  8
0
100
AcDbLine
 10
139.3471406777039
 20
19.83670009756169
 30
0.0
 11
139.6701406777039
 21
19.98340009756169
 31
0.0
  0
LINE
  5
215
330
1E
100
AcDbEntity
  8
0
100
AcDbLine
 10
139.6701406777039
 20
19.98340009756169
 30
0.0
 11
139.958140677704
 21
20.19120009756169
 31
0.0
  0
LINE
  5
216
330
1E
100
AcDbEntity
  8
0
100
AcDbLine
 10
139.958140677704
 20
20.19120009756169
 30
0.0
 11
140.01961544039
 21
20.26779822909679
 31
0.0
  0
LINE
  5
217
330
1E
100
AcDbEntity
  8
0
100
AcDbLine
 10
140.361140677704
 20
21.53460009756169
 30
0.0
 11
140.377755339904
 21
21.23953880113459
 31
0.0
  0
LINE
  5
218
330
1E
100
AcDbEntity
  8
0
100
AcDbLine
 10
139.9361852774209
 20
20.31948499641379
 30
0.0
 11
140.8731684422169
 21
19.73900391984719
 31
0.0
  0
LINE
  5
219
330
1E
100
AcDbEntity
  8
0
100
AcDbLine
 10
141.5971406777039
 20
20.88650009756169
 30
0.0
 11
141.9541406777039
 21
20.98920009756169
 31
0.0
  0
LINE
  5
21A
330
1E
100
AcDbEntity
  8
0
100
AcDbLine
 10
141.2601406777039
 20
20.68770009756169
 30
0.0
 11
141.5971406777039
 21
20.88650009756169
 31
0.0
  0
LINE
  5
21B
330
1E
100
AcDbEntity
  8
0
100
AcDbLine
 10
137.8751406777039
 20
22.37010009756169
 30
0.0
 11
138.1631406777039
 21
22.57670009756169
 31
0.0
  0
LINE
  5
21C
330
1E
100
AcDbEntity
  8
0
100
AcDbLine
 10
137.661140677704
 20
22.10470009756169
 30
0.0
 11
137.8751406777039
 21
22.37010009756169
 31
0.0
  0
LINE
  5
21D
330
1E
100
AcDbEntity
  8
0
100
AcDbLine
 10
139.1711406777039
 20
22.74010009756169
 30
0.0
 11
139.5231406777039
 21
22.62160009756169
 31
0.0
  0
LINE
  5
21E
330
1E
100
AcDbEntity
  8
0
100
AcDbLine
 10
138.8211406777039
 20
22.77840009756169
 30
0.0
 11
139.1711406777039
 21
22.74010009756169
 31
0.0
  0
LINE
  5
21F
330
1E
100
AcDbEntity
  8
0
100
AcDbLine
 10
138.1631406777039
 20
22.57670009756169
 30
0.0
 11
138.4851406777039
 21
22.72450009756169
 31
0.0
  0
LINE
  5
220
330
1E
100
AcDbEntity
  8
0
100
AcDbLine
 10
138.4851406777039
 20
22.72450009756169
 30
0.0
 11
138.8211406777039
 21
22.77840009756169
 31
0.0
  0
LINE
  5
221
330
1E
100
AcDbEntity
  8
0
100
AcDbLine
 10
140.2131406777039
 20
22.03360009756169
 30
0.0
 11
140.2771406777039
 21
21.88900009756169
 31
0.0
  0
LINE
  5
222
330
1E
100
AcDbEntity
  8
0
100
AcDbLine
 10
139.8521406777039
 20
22.40950009756169
 30
0.0
 11
140.1181406777039
 21
22.16140009756169
 31
0.0
  0
LINE
  5
223
330
1E
100
AcDbEntity
  8
0
100
AcDbLine
 10
140.1181406777039
 20
22.16140009756169
 30
0.0
 11
140.2131406777039
 21
22.03360009756169
 31
0.0
  0
LINE
  5
224
330
1E
100
AcDbEntity
  8
0
100
AcDbLine
 10
139.5231406777039
 20
22.62160009756169
 30
0.0
 11
139.8521406777039
 21
22.40950009756169
 31
0.0
  0
LINE
  5
225
330
1E
100
AcDbEntity
  8
0
100
AcDbLine
 10
139.0101406777039
 20
19.78250009756169
 30
0.0
 11
139.3471406777039
 21
19.83670009756169
 31
0.0
  0
LINE
  5
226
330
1E
100
AcDbEntity
  8
0
100
AcDbLine
 10
138.661140677704
 20
19.82110009756169
 30
0.0
 11
139.0101406777039
 21
19.78250009756169
 31
0.0
  0
LINE
  5
227
330
1E
100
AcDbEntity
  8
0
100
AcDbLine
 10
138.3081406777039
 20
19.93840009756169
 30
0.0
 11
138.661140677704
 21
19.82110009756169
 31
0.0
  0
LINE
  5
228
330
1E
100
AcDbEntity
  8
0
100
AcDbLine
 10
137.4501406777039
 20
21.41610009756169
 30
0.0
 11
137.5231406777039
 21
21.78130009756169
 31
0.0
  0
LINE
  5
229
330
1E
100
AcDbEntity
  8
0
100
AcDbLine
 10
137.263801527503
 20
20.89844523061139
 30
0.0
 11
137.473599703123
 21
21.02042529355729
 31
0.0
  0
LINE
  5
22A
330
1E
100
AcDbEntity
  8
0
100
AcDbLine
 10
137.263801527503
 20
20.89844523061139
 30
0.0
 11
137.6325657040539
 21
21.11285070546859
 31
0.0
  0
LINE
  5
22B
330
1E
100
AcDbEntity
  8
0
100
AcDbLine
 10
137.4501406777039
 20
21.41610009756169
 30
0.0
 11
137.4721406777039
 21
21.02660009756169
 31
0.0
  0
LINE
  5
22C
330
1E
100
AcDbEntity
  8
0
100
AcDbLine
 10
137.263801527503
 20
20.89844523061139
 30
0.0
 11
137.6325657040539
 21
21.11285070546859
 31
0.0
  0
LINE
  5
22D
330
1E
100
AcDbEntity
  8
0
100
AcDbLine
 10
137.263801527503
 20
20.89844523061139
 30
0.0
 11
137.473599703123
 21
21.02042529355729
 31
0.0
  0
LINE
  5
22E
330
1E
100
AcDbEntity
  8
0
100
AcDbLine
 10
137.5231406777039
 20
21.78130009756169
 30
0.0
 11
137.661140677704
 21
22.10470009756169
 31
0.0
  0
LINE
  5
22F
330
1E
100
AcDbEntity
  8
0
100
AcDbLine
 10
140.863140677704
 20
18.74890009756169
 30
0.0
 11
141.0661406777039
 21
18.47520009756169
 31
0.0
  0
LINE
  5
230
330
1E
100
AcDbEntity
  8
0
100
AcDbLine
 10
140.6791406777039
 20
19.44500009756169
 30
0.0
 11
140.7371406777039
 21
19.07660009756169
 31
0.0
  0
LINE
  5
231
330
1E
100
AcDbEntity
  8
0
100
AcDbLine
 10
140.7371406777039
 20
19.07660009756169
 30
0.0
 11
140.863140677704
 21
18.74890009756169
 31
0.0
  0
LINE
  5
232
330
1E
100
AcDbEntity
  8
0
100
AcDbLine
 10
140.6791406777039
 20
19.44500009756169
 30
0.0
 11
140.7171406777039
 21
19.83410009756169
 31
0.0
  0
LINE
  5
233
330
1E
100
AcDbEntity
  8
0
100
AcDbLine
 10
141.0661406777039
 20
18.47520009756169
 30
0.0
 11
141.344140677704
 21
18.25600009756169
 31
0.0
  0
LINE
  5
234
330
1E
100
AcDbEntity
  8
0
100
AcDbLine
 10
141.344140677704
 20
18.25600009756169
 30
0.0
 11
141.6611406777039
 21
18.09590009756169
 31
0.0
  0
LINE
  5
235
330
1E
100
AcDbEntity
  8
0
100
AcDbLine
 10
141.6611406777039
 20
18.09590009756169
 30
0.0
 11
141.9951406777039
 21
18.02850009756169
 31
0.0
  0
ENDSEC
  0
SECTION
  2
OBJECTS
  0
DICTIONARY
  5
C
330
0
100
AcDbDictionary
281
     1
  3
ACAD_GROUP
350
D
  3
ACAD_LAYOUT
350
19
  3
ACAD_MLINESTYLE
350
16
  3
ACAD_PLOTSETTINGS
350
18
  3
ACAD_PLOTSTYLENAME
350
E
  3
AcDbVariableDictionary
350
13E
  0
DICTIONARY
  5
D
102
{ACAD_REACTORS
330
C
102
}
330
C
100
AcDbDictionary
281
     1
  0
DICTIONARY
  5
19
102
{ACAD_REACTORS
330
C
102
}
330
C
100
AcDbDictionary
281
     1
  3
Layout1
350
1D
  3
Model
350
21
  0
DICTIONARY
  5
16
102
{ACAD_REACTORS
330
C
102
}
330
C
100
AcDbDictionary
281
     1
  3
Standard
350
17
  0
DICTIONARY
  5
18
102
{ACAD_REACTORS
330
C
102
}
330
C
100
AcDbDictionary
281
     1
  0
ACDBDICTIONARYWDFLT
  5
E
102
{ACAD_REACTORS
330
C
102
}
330
C
100
AcDbDictionary
281
     1
  3
Normal
350
F
100
AcDbDictionaryWithDefault
340
F
  0
DICTIONARY
  5
13E
102
{ACAD_REACTORS
330
C
102
}
330
C
100
AcDbDictionary
281
     1
  3
DIMASSOC
350
13F
  0
LAYOUT
  5
1D
102
{ACAD_REACTORS
330
19
102
}
330
19
100
AcDbPlotSettings
  1

  2
hp deskjet 980c series
  4

  6

 40
0.0
 41
0.0
 42
0.0
 43
0.0
 44
0.0
 45
0.0
 46
0.0
 47
0.0
 48
0.0
 49
0.0
140
0.0
141
0.0
142
1.0
143
1.0
 70
   688
 72
     0
 73
     0
 74
     5
  7

 75
    16
147
1.0
148
0.0
149
0.0
100
AcDbLayout
  1
Layout1
 70
     1
 71
     1
 10
0.0
 20
0.0
 11
12.0
 21
9.0
 12
0.0
 22
0.0
 32
0.0
 14
1.000000000000000E+20
 24
1.000000000000000E+20
 34
1.000000000000000E+20
 15
-1.000000000000000E+20
 25
-1.000000000000000E+20
 35
-1.000000000000000E+20
146
0.0
 13
0.0
 23
0.0
 33
0.0
 16
1.0
 26
0.0
 36
0.0
 17
0.0
 27
1.0
 37
0.0
 76
     0
330
1A
  0
LAYOUT
  5
21
102
{ACAD_REACTORS
330
19
102
}
330
19
100
AcDbPlotSettings
  1

  2
hp deskjet 980c series
  4

  6

 40
0.0
 41
0.0
 42
0.0
 43
0.0
 44
0.0
 45
0.0
 46
0.0
 47
0.0
 48
0.0
 49
0.0
140
0.0
141
0.0
142
1.0
143
1.0
 70
  1712
 72
     0
 73
     0
 74
     0
  7

 75
     0
147
1.0
148
0.0
149
0.0
100
AcDbLayout
  1
Model
 70
     1
 71
     0
 10
0.0
 20
0.0
 11
12.0
 21
9.0
 12
0.0
 22
0.0
 32
0.0
 14
0.0
 24
0.0
 34
0.0
 15
0.0
 25
0.0
 35
0.0
146
0.0
 13
0.0
 23
0.0
 33
0.0
 16
1.0
 26
0.0
 36
0.0
 17
0.0
 27
1.0
 37
0.0
 76
     0
330
1E
  0
MLINESTYLE
  5
17
102
{ACAD_REACTORS
330
16
102
}
330
16
100
AcDbMlineStyle
  2
STANDARD
 70
     0
  3

 62
   256
 51
90.0
 52
90.0
 71
     2
 49
0.5
 62
   256
  6
BYLAYER
 49
-0.5
 62
   256
  6
BYLAYER
  0
ACDBPLACEHOLDER
  5
F
102
{ACAD_REACTORS
330
E
102
}
330
E
  0
DICTIONARYVAR
  5
13F
102
{ACAD_REACTORS
330
13E
102
}
330
13E
100
DictionaryVariables
280
     0
  1
1
  0
ENDSEC
  0
EOF
