  0
SECTION
  2
HEADER
  9
$ACADVER
  1
AC1015
  9
$ACADMAINTVER
 70
    13
  9
$DWGCODEPAGE
  3
ANSI_1252
  9
$INSBASE
 10
0.0
 20
0.0
 30
0.0
  9
$EXTMIN
 10
-0.0000000000000022
 20
-0.0944999999999974
 30
0.0
  9
$EXTMAX
 10
80.0
 20
618.0945
 30
0.0
  9
$LIMMIN
 10
0.0
 20
0.0
  9
$LIMMAX
 10
12.0
 20
9.0
  9
$ORTHOMODE
 70
     0
  9
$REGENMODE
 70
     1
  9
$FILLMODE
 70
     1
  9
$QTEXTMODE
 70
     0
  9
$MIRRTEXT
 70
     1
  9
$LTSCALE
 40
1.0
  9
$ATTMODE
 70
     1
  9
$TEXTSIZE
 40
0.2
  9
$TRACEWID
 40
0.05
  9
$TEXTSTYLE
  7
Standard
  9
$CLAYER
  8
0
  9
$CELTYPE
  6
Continuous
  9
$CECOLOR
 62
   256
  9
$CELTSCALE
 40
1.0
  9
$DISPSILH
 70
     0
  9
$DIMSCALE
 40
1.0
  9
$DIMASZ
 40
0.18
  9
$DIMEXO
 40
0.0625
  9
$DIMDLI
 40
0.38
  9
$DIMRND
 40
0.0
  9
$DIMDLE
 40
0.0
  9
$DIMEXE
 40
0.18
  9
$DIMTP
 40
0.0
  9
$DIMTM
 40
0.0
  9
$DIMTXT
 40
0.18
  9
$DIMCEN
 40
0.09
  9
$DIMTSZ
 40
0.0
  9
$DIMTOL
 70
     0
  9
$DIMLIM
 70
     0
  9
$DIMTIH
 70
     1
  9
$DIMTOH
 70
     1
  9
$DIMSE1
 70
     0
  9
$DIMSE2
 70
     0
  9
$DIMTAD
 70
     0
  9
$DIMZIN
 70
     0
  9
$DIMBLK
  1

  9
$DIMASO
 70
     1
  9
$DIMSHO
 70
     1
  9
$DIMPOST
  1

  9
$DIMAPOST
  1

  9
$DIMALT
 70
     0
  9
$DIMALTD
 70
     2
  9
$DIMALTF
 40
25.4
  9
$DIMLFAC
 40
1.0
  9
$DIMTOFL
 70
     0
  9
$DIMTVP
 40
0.0
  9
$DIMTIX
 70
     0
  9
$DIMSOXD
 70
     0
  9
$DIMSAH
 70
     0
  9
$DIMBLK1
  1

  9
$DIMBLK2
  1

  9
$DIMSTYLE
  2
Standard
  9
$DIMCLRD
 70
     0
  9
$DIMCLRE
 70
     0
  9
$DIMCLRT
 70
     0
  9
$DIMTFAC
 40
1.0
  9
$DIMGAP
 40
0.09
  9
$DIMJUST
 70
     0
  9
$DIMSD1
 70
     0
  9
$DIMSD2
 70
     0
  9
$DIMTOLJ
 70
     1
  9
$DIMTZIN
 70
     0
  9
$DIMALTZ
 70
     0
  9
$DIMALTTZ
 70
     0
  9
$DIMUPT
 70
     0
  9
$DIMDEC
 70
     4
  9
$DIMTDEC
 70
     4
  9
$DIMALTU
 70
     2
  9
$DIMALTTD
 70
     2
  9
$DIMTXSTY
  7
Standard
  9
$DIMAUNIT
 70
     0
  9
$DIMADEC
 70
     0
  9
$DIMALTRND
 40
0.0
  9
$DIMAZIN
 70
     0
  9
$DIMDSEP
 70
    46
  9
$DIMATFIT
 70
     3
  9
$DIMFRAC
 70
     0
  9
$DIMLDRBLK
  1

  9
$DIMLUNIT
 70
     2
  9
$DIMLWD
 70
    -2
  9
$DIMLWE
 70
    -2
  9
$DIMTMOVE
 70
     0
  9
$LUNITS
 70
     2
  9
$LUPREC
 70
     4
  9
$SKETCHINC
 40
0.1
  9
$FILLETRAD
 40
0.0
  9
$AUNITS
 70
     0
  9
$AUPREC
 70
     0
  9
$MENU
  1
.
  9
$ELEVATION
 40
0.0
  9
$PELEVATION
 40
0.0
  9
$THICKNESS
 40
0.0
  9
$LIMCHECK
 70
     0
  9
$CHAMFERA
 40
0.0
  9
$CHAMFERB
 40
0.0
  9
$CHAMFERC
 40
0.0
  9
$CHAMFERD
 40
0.0
  9
$SKPOLY
 70
     0
  9
$TDCREATE
 40
2454780.845094734
  9
$TDUCREATE
 40
2454780.803428067
  9
$TDUPDATE
 40
2454780.852979757
  9
$TDUUPDATE
 40
2454780.811313090
  9
$TDINDWG
 40
0.0078850231
  9
$TDUSRTIMER
 40
0.0078850231
  9
$USRTIMER
 70
     1
  9
$ANGBASE
 50
0.0
  9
$ANGDIR
 70
     0
  9
$PDMODE
 70
     0
  9
$PDSIZE
 40
0.0
  9
$PLINEWID
 40
0.0
  9
$SPLFRAME
 70
     0
  9
$SPLINETYPE
 70
     6
  9
$SPLINESEGS
 70
     8
  9
$HANDSEED
  5
29D
  9
$SURFTAB1
 70
     6
  9
$SURFTAB2
 70
     6
  9
$SURFTYPE
 70
     6
  9
$SURFU
 70
     6
  9
$SURFV
 70
     6
  9
$UCSBASE
  2

  9
$UCSNAME
  2

  9
$UCSORG
 10
0.0
 20
0.0
 30
0.0
  9
$UCSXDIR
 10
1.0
 20
0.0
 30
0.0
  9
$UCSYDIR
 10
0.0
 20
1.0
 30
0.0
  9
$UCSORTHOREF
  2

  9
$UCSORTHOVIEW
 70
     1
  9
$UCSORGTOP
 10
0.0
 20
0.0
 30
0.0
  9
$UCSORGBOTTOM
 10
0.0
 20
0.0
 30
0.0
  9
$UCSORGLEFT
 10
0.0
 20
0.0
 30
0.0
  9
$UCSORGRIGHT
 10
0.0
 20
0.0
 30
0.0
  9
$UCSORGFRONT
 10
0.0
 20
0.0
 30
0.0
  9
$UCSORGBACK
 10
0.0
 20
0.0
 30
0.0
  9
$PUCSBASE
  2

  9
$PUCSNAME
  2

  9
$PUCSORG
 10
0.0
 20
0.0
 30
0.0
  9
$PUCSXDIR
 10
1.0
 20
0.0
 30
0.0
  9
$PUCSYDIR
 10
0.0
 20
1.0
 30
0.0
  9
$PUCSORTHOREF
  2

  9
$PUCSORTHOVIEW
 70
     0
  9
$PUCSORGTOP
 10
0.0
 20
0.0
 30
0.0
  9
$PUCSORGBOTTOM
 10
0.0
 20
0.0
 30
0.0
  9
$PUCSORGLEFT
 10
0.0
 20
0.0
 30
0.0
  9
$PUCSORGRIGHT
 10
0.0
 20
0.0
 30
0.0
  9
$PUCSORGFRONT
 10
0.0
 20
0.0
 30
0.0
  9
$PUCSORGBACK
 10
0.0
 20
0.0
 30
0.0
  9
$USERI1
 70
     0
  9
$USERI2
 70
     0
  9
$USERI3
 70
     0
  9
$USERI4
 70
     0
  9
$USERI5
 70
     0
  9
$USERR1
 40
0.0
  9
$USERR2
 40
0.0
  9
$USERR3
 40
0.0
  9
$USERR4
 40
0.0
  9
$USERR5
 40
0.0
  9
$WORLDVIEW
 70
     1
  9
$SHADEDGE
 70
     3
  9
$SHADEDIF
 70
    70
  9
$TILEMODE
 70
     1
  9
$MAXACTVP
 70
    64
  9
$PINSBASE
 10
0.0
 20
0.0
 30
0.0
  9
$PLIMCHECK
 70
     0
  9
$PEXTMIN
 10
1.000000000000000E+20
 20
1.000000000000000E+20
 30
1.000000000000000E+20
  9
$PEXTMAX
 10
-1.000000000000000E+20
 20
-1.000000000000000E+20
 30
-1.000000000000000E+20
  9
$PLIMMIN
 10
0.0
 20
0.0
  9
$PLIMMAX
 10
12.0
 20
9.0
  9
$UNITMODE
 70
     0
  9
$VISRETAIN
 70
     1
  9
$PLINEGEN
 70
     0
  9
$PSLTSCALE
 70
     1
  9
$TREEDEPTH
 70
  3020
  9
$CMLSTYLE
  2
Standard
  9
$CMLJUST
 70
     0
  9
$CMLSCALE
 40
1.0
  9
$PROXYGRAPHICS
 70
     1
  9
$MEASUREMENT
 70
     0
  9
$CELWEIGHT
370
    -1
  9
$ENDCAPS
280
     0
  9
$JOINSTYLE
280
     0
  9
$LWDISPLAY
290
     0
  9
$INSUNITS
 70
     0
  9
$HYPERLINKBASE
  1

  9
$STYLESHEET
  1

  9
$XEDIT
290
     1
  9
$CEPSNTYPE
380
     0
  9
$PSTYLEMODE
290
     1
  9
$FINGERPRINTGUID
  2
{3FE351B7-53B8-4DDC-B9A7-7B3AD21D3532}
  9
$VERSIONGUID
  2
{5E0BF3B0-F191-4688-8517-24CE3CF27C03}
  9
$EXTNAMES
290
     1
  9
$PSVPSCALE
 40
0.0
  9
$OLESTARTUP
290
     0
  0
ENDSEC
  0
SECTION
  2
CLASSES
  0
CLASS
  1
ACDBDICTIONARYWDFLT
  2
AcDbDictionaryWithDefault
  3
AutoCAD 2000
 90
        0
280
     0
281
     0
  0
CLASS
  1
ACDBPLACEHOLDER
  2
AcDbPlaceHolder
  3
AutoCAD 2000
 90
        0
280
     0
281
     0
  0
CLASS
  1
LAYOUT
  2
AcDbLayout
  3
AutoCAD 2000
 90
        0
280
     0
281
     0
  0
CLASS
  1
DICTIONARYVAR
  2
AcDbDictionaryVar
  3
AutoCAD 2000
 90
        0
280
     0
281
     0
  0
ENDSEC
  0
SECTION
  2
TABLES
  0
TABLE
  2
VPORT
  5
8
330
0
100
AcDbSymbolTable
 70
     2
  0
VPORT
  5
29C
330
8
100
AcDbSymbolTableRecord
100
AcDbViewportTableRecord
  2
*Active
 70
     0
 10
0.0
 20
0.0
 11
1.0
 21
1.0
 12
40.0
 22
309.0
 13
0.0
 23
0.0
 14
1.0
 24
1.0
 15
0.0
 25
0.0
 16
0.0
 26
0.0
 36
1.0
 17
0.0
 27
0.0
 37
0.0
 40
622.9321381074169
 41
2.078104993597951
 42
50.0
 43
0.0
 44
0.0
 50
0.0
 51
0.0
 71
     0
 72
   100
 73
     1
 74
     3
 75
     0
 76
     0
 77
     0
 78
     0
281
     0
 65
     1
110
0.0
120
0.0
130
0.0
111
1.0
121
0.0
131
0.0
112
0.0
122
1.0
132
0.0
 79
     1
146
0.0
  0
ENDTAB
  0
TABLE
  2
LTYPE
  5
5
330
0
100
AcDbSymbolTable
 70
     1
  0
LTYPE
  5
13
330
5
100
AcDbSymbolTableRecord
100
AcDbLinetypeTableRecord
  2
ByBlock
 70
     0
  3

 72
    65
 73
     0
 40
0.0
  0
LTYPE
  5
14
330
5
100
AcDbSymbolTableRecord
100
AcDbLinetypeTableRecord
  2
ByLayer
 70
     0
  3

 72
    65
 73
     0
 40
0.0
  0
LTYPE
  5
15
330
5
100
AcDbSymbolTableRecord
100
AcDbLinetypeTableRecord
  2
Continuous
 70
     0
  3
Solid line
 72
    65
 73
     0
 40
0.0
  0
ENDTAB
  0
TABLE
  2
LAYER
  5
2
330
0
100
AcDbSymbolTable
 70
     1
  0
LAYER
  5
10
330
2
100
AcDbSymbolTableRecord
100
AcDbLayerTableRecord
  2
0
 70
     0
 62
     7
  6
Continuous
370
    -3
390
F
  0
ENDTAB
  0
TABLE
  2
STYLE
  5
3
330
0
100
AcDbSymbolTable
 70
     1
  0
STYLE
  5
11
330
3
100
AcDbSymbolTableRecord
100
AcDbTextStyleTableRecord
  2
Standard
 70
     0
 40
0.0
 41
1.0
 50
0.0
 71
     0
 42
0.2
  3
txt
  4

  0
ENDTAB
  0
TABLE
  2
VIEW
  5
6
330
0
100
AcDbSymbolTable
 70
     0
  0
ENDTAB
  0
TABLE
  2
UCS
  5
7
330
0
100
AcDbSymbolTable
 70
     0
  0
ENDTAB
  0
TABLE
  2
APPID
  5
9
330
0
100
AcDbSymbolTable
 70
     1
  0
APPID
  5
12
330
9
100
AcDbSymbolTableRecord
100
AcDbRegAppTableRecord
  2
ACAD
 70
     0
  0
ENDTAB
  0
TABLE
  2
DIMSTYLE
  5
A
330
0
100
AcDbSymbolTable
 70
     1
100
AcDbDimStyleTable
 71
     0
  0
DIMSTYLE
105
290
330
A
100
AcDbSymbolTableRecord
100
AcDbDimStyleTableRecord
  2
Standard
 70
     0
340
11
  0
ENDTAB
  0
TABLE
  2
BLOCK_RECORD
  5
1
330
0
100
AcDbSymbolTable
 70
     0
  0
BLOCK_RECORD
  5
1E
330
1
100
AcDbSymbolTableRecord
100
AcDbBlockTableRecord
  2
*Model_Space
340
21
  0
BLOCK_RECORD
  5
1A
330
1
100
AcDbSymbolTableRecord
100
AcDbBlockTableRecord
  2
*Paper_Space
340
1D
  0
ENDTAB
  0
ENDSEC
  0
SECTION
  2
BLOCKS
  0
BLOCK
  5
1F
330
1E
100
AcDbEntity
  8
0
100
AcDbBlockBegin
  2
*Model_Space
 70
     0
 10
0.0
 20
0.0
 30
0.0
  3
*Model_Space
  1

  0
ENDBLK
  5
20
330
1E
100
AcDbEntity
  8
0
100
AcDbBlockEnd
  0
BLOCK
  5
1B
330
1A
100
AcDbEntity
 67
     1
  8
0
100
AcDbBlockBegin
  2
*Paper_Space
 70
     0
 10
0.0
 20
0.0
 30
0.0
  3
*Paper_Space
  1

  0
ENDBLK
  5
1C
330
1A
100
AcDbEntity
 67
     1
  8
0
100
AcDbBlockEnd
  0
ENDSEC
  0
SECTION
  2
ENTITIES
  0
LINE
  5
22
330
1E
100
AcDbEntity
  8
0
100
AcDbLine
 10
2.99999999999997
 20
96.5835
 30
0.0
 11
15.0
 21
96.5835
 31
0.0
  0
LINE
  5
23
330
1E
100
AcDbEntity
  8
0
100
AcDbLine
 10
2.99999999999997
 20
96.5835
 30
0.0
 11
2.99999999999997
 21
121.5834999999999
 31
0.0
  0
LINE
  5
24
330
1E
100
AcDbEntity
  8
0
100
AcDbLine
 10
2.99999999999997
 20
96.5835
 30
0.0
 11
15.0
 21
96.5835
 31
0.0
  0
LINE
  5
25
330
1E
100
AcDbEntity
  8
0
100
AcDbLine
 10
2.99999999999997
 20
121.5834999999999
 30
0.0
 11
2.99999999999997
 21
131.5834999999999
 31
0.0
  0
LINE
  5
26
330
1E
100
AcDbEntity
  8
0
100
AcDbLine
 10
2.99999999999997
 20
131.5834999999999
 30
0.0
 11
9.999999999999969
 21
131.5834999999999
 31
0.0
  0
LINE
  5
27
330
1E
100
AcDbEntity
  8
0
100
AcDbLine
 10
1.999999999999969
 20
140.5834999999999
 30
0.0
 11
3.36799999999997
 21
140.5834999999999
 31
0.0
  0
LINE
  5
28
330
1E
100
AcDbEntity
  8
0
100
AcDbLine
 10
1.999999999999969
 20
136.5834999999999
 30
0.0
 11
3.36799999999997
 21
136.5834999999999
 31
0.0
  0
LINE
  5
29
330
1E
100
AcDbEntity
  8
0
100
AcDbLine
 10
1.999999999999969
 20
136.5834999999999
 30
0.0
 11
1.999999999999969
 21
140.5834999999999
 31
0.0
  0
LINE
  5
2A
330
1E
100
AcDbEntity
  8
0
100
AcDbLine
 10
2.99999999999997
 20
131.5834999999999
 30
0.0
 11
9.999999999999969
 21
131.5834999999999
 31
0.0
  0
LINE
  5
2B
330
1E
100
AcDbEntity
  8
0
100
AcDbLine
 10
3.32399999999997
 20
123.8874999999999
 30
0.0
 11
4.18799999999997
 21
126.0475
 31
0.0
  0
LINE
  5
2C
330
1E
100
AcDbEntity
  8
0
100
AcDbLine
 10
2.99999999999997
 20
121.5834999999999
 30
0.0
 11
3.32399999999997
 21
119.2795
 31
0.0
  0
LINE
  5
2D
330
1E
100
AcDbEntity
  8
0
100
AcDbLine
 10
2.99999999999997
 20
121.5834999999999
 30
0.0
 11
3.32399999999997
 21
123.8874999999999
 31
0.0
  0
LINE
  5
2E
330
1E
100
AcDbEntity
  8
0
100
AcDbLine
 10
3.36799999999997
 20
140.5834999999999
 30
0.0
 11
7.015999999999981
 21
140.5834999999999
 31
0.0
  0
LINE
  5
2F
330
1E
100
AcDbEntity
  8
0
100
AcDbLine
 10
3.36799999999997
 20
136.5834999999999
 30
0.0
 11
7.015999999999981
 21
136.5834999999999
 31
0.0
  0
LINE
  5
30
330
1E
100
AcDbEntity
  8
0
100
AcDbLine
 10
4.18799999999997
 20
126.0475
 30
0.0
 11
5.627999999999969
 21
127.9554999999999
 31
0.0
  0
LINE
  5
31
330
1E
100
AcDbEntity
  8
0
100
AcDbLine
 10
3.32399999999997
 20
119.2795
 30
0.0
 11
4.18799999999997
 21
117.1194999999999
 31
0.0
  0
LINE
  5
32
330
1E
100
AcDbEntity
  8
0
100
AcDbLine
 10
4.18799999999997
 20
117.1194999999999
 30
0.0
 11
5.627999999999969
 21
115.2115
 31
0.0
  0
LINE
  5
33
330
1E
100
AcDbEntity
  8
0
100
AcDbLine
 10
5.627999999999969
 20
127.9554999999999
 30
0.0
 11
7.53599999999997
 21
129.3954999999999
 31
0.0
  0
LINE
  5
34
330
1E
100
AcDbEntity
  8
0
100
AcDbLine
 10
7.015999999999981
 20
140.5834999999999
 30
0.0
 11
13.09599999999999
 21
140.5834999999999
 31
0.0
  0
LINE
  5
35
330
1E
100
AcDbEntity
  8
0
100
AcDbLine
 10
7.015999999999981
 20
136.5834999999999
 30
0.0
 11
9.999999999999969
 21
136.5834999999999
 31
0.0
  0
LINE
  5
36
330
1E
100
AcDbEntity
  8
0
100
AcDbLine
 10
7.015999999999981
 20
136.5834999999999
 30
0.0
 11
13.09599999999999
 21
136.5834999999999
 31
0.0
  0
LINE
  5
37
330
1E
100
AcDbEntity
  8
0
100
AcDbLine
 10
7.53599999999997
 20
129.3954999999999
 30
0.0
 11
9.695999999999969
 21
130.2594999999999
 31
0.0
  0
LINE
  5
38
330
1E
100
AcDbEntity
  8
0
100
AcDbLine
 10
5.627999999999969
 20
115.2115
 30
0.0
 11
7.53599999999997
 21
113.7715
 31
0.0
  0
LINE
  5
39
330
1E
100
AcDbEntity
  8
0
100
AcDbLine
 10
7.53599999999997
 20
113.7715
 30
0.0
 11
9.695999999999969
 21
112.9075
 31
0.0
  0
LINE
  5
3A
330
1E
100
AcDbEntity
  8
0
100
AcDbLine
 10
4.999999999999969
 20
150.5834999999999
 30
0.0
 11
4.999999999999969
 21
152.5834999999999
 31
0.0
  0
LINE
  5
3B
330
1E
100
AcDbEntity
  8
0
100
AcDbLine
 10
4.999999999999969
 20
150.5834999999999
 30
0.0
 11
6.25999999999997
 21
150.5834999999999
 31
0.0
  0
LINE
  5
3C
330
1E
100
AcDbEntity
  8
0
100
AcDbLine
 10
4.999999999999969
 20
152.5834999999999
 30
0.0
 11
4.999999999999969
 21
150.5834999999999
 31
0.0
  0
LINE
  5
3D
330
1E
100
AcDbEntity
  8
0
100
AcDbLine
 10
4.999999999999969
 20
152.5834999999999
 30
0.0
 11
6.25999999999997
 21
152.5834999999999
 31
0.0
  0
LINE
  5
3E
330
1E
100
AcDbEntity
  8
0
100
AcDbLine
 10
1.439999999999999
 20
567.9235
 30
0.0
 11
5.27999999999999
 21
558.4695
 31
0.0
  0
LINE
  5
3F
330
1E
100
AcDbEntity
  8
0
100
AcDbLine
 10
5.27999999999999
 20
558.4695
 30
0.0
 11
11.67999999999999
 21
550.1185
 31
0.0
  0
LINE
  5
40
330
1E
100
AcDbEntity
  8
0
100
AcDbLine
 10
-0.0000000000000022
 20
578.0075
 30
0.0
 11
1.439999999999999
 21
567.9235
 31
0.0
  0
LINE
  5
41
330
1E
100
AcDbEntity
  8
0
100
AcDbLine
 10
-0.0000000000000021
 20
578.0075
 30
0.0
 11
1.439999999999999
 21
567.9235
 31
0.0
  0
LINE
  5
42
330
1E
100
AcDbEntity
  8
0
100
AcDbLine
 10
-0.0000000000000021
 20
578.0075
 30
0.0
 11
-0.000000000000002
 21
578.7024999999999
 31
0.0
  0
LINE
  5
43
330
1E
100
AcDbEntity
  8
0
100
AcDbLine
 10
2.0
 20
578.7024999999999
 30
0.0
 11
3.36799999999999
 21
569.1224999999999
 31
0.0
  0
LINE
  5
44
330
1E
100
AcDbEntity
  8
0
100
AcDbLine
 10
2.0
 20
578.7024999999999
 30
0.0
 11
2.0
 21
579.3964999999999
 31
0.0
  0
LINE
  5
45
330
1E
100
AcDbEntity
  8
0
100
AcDbLine
 10
3.36799999999999
 20
569.1224999999999
 30
0.0
 11
7.016
 21
560.1404999999999
 31
0.0
  0
LINE
  5
46
330
1E
100
AcDbEntity
  8
0
100
AcDbLine
 10
3.36799999999999
 20
569.8165
 30
0.0
 11
7.016
 21
560.8355
 31
0.0
  0
LINE
  5
47
330
1E
100
AcDbEntity
  8
0
100
AcDbLine
 10
3.36799999999999
 20
588.9774999999999
 30
0.0
 11
7.016
 21
597.9585
 31
0.0
  0
LINE
  5
48
330
1E
100
AcDbEntity
  8
0
100
AcDbLine
 10
2.0
 20
579.3964999999999
 30
0.0
 11
3.36799999999999
 21
569.8165
 31
0.0
  0
LINE
  5
49
330
1E
100
AcDbEntity
  8
0
100
AcDbLine
 10
2.0
 20
579.3964999999999
 30
0.0
 11
2.0
 21
578.7024999999999
 31
0.0
  0
LINE
  5
4A
330
1E
100
AcDbEntity
  8
0
100
AcDbLine
 10
2.0
 20
579.3964999999999
 30
0.0
 11
3.36799999999999
 21
588.9774999999999
 31
0.0
  0
LINE
  5
4B
330
1E
100
AcDbEntity
  8
0
100
AcDbLine
 10
1.439999999999999
 20
588.7865
 30
0.0
 11
5.27999999999999
 21
598.2404999999999
 31
0.0
  0
LINE
  5
4C
330
1E
100
AcDbEntity
  8
0
100
AcDbLine
 10
-0.0000000000000019
 20
578.7024999999999
 30
0.0
 11
1.439999999999999
 21
568.6174999999999
 31
0.0
  0
LINE
  5
4D
330
1E
100
AcDbEntity
  8
0
100
AcDbLine
 10
-0.0000000000000019
 20
578.7024999999999
 30
0.0
 11
1.439999999999999
 21
588.7865
 31
0.0
  0
LINE
  5
4E
330
1E
100
AcDbEntity
  8
0
100
AcDbLine
 10
-0.000000000000002
 20
578.7024999999999
 30
0.0
 11
1.439999999999999
 21
568.6174999999999
 31
0.0
  0
LINE
  5
4F
330
1E
100
AcDbEntity
  8
0
100
AcDbLine
 10
-0.000000000000002
 20
578.7024999999999
 30
0.0
 11
1.439999999999999
 21
588.7865
 31
0.0
  0
LINE
  5
50
330
1E
100
AcDbEntity
  8
0
100
AcDbLine
 10
1.439999999999999
 20
568.6174999999999
 30
0.0
 11
5.27999999999999
 21
559.1635
 31
0.0
  0
LINE
  5
51
330
1E
100
AcDbEntity
  8
0
100
AcDbLine
 10
7.016
 20
560.1404999999999
 30
0.0
 11
13.09599999999999
 21
552.2075
 31
0.0
  0
LINE
  5
52
330
1E
100
AcDbEntity
  8
0
100
AcDbLine
 10
7.016
 20
597.9585
 30
0.0
 11
13.09599999999999
 21
605.8925
 31
0.0
  0
LINE
  5
53
330
1E
100
AcDbEntity
  8
0
100
AcDbLine
 10
7.016
 20
560.8355
 30
0.0
 11
13.09599999999999
 21
552.9015
 31
0.0
  0
LINE
  5
54
330
1E
100
AcDbEntity
  8
0
100
AcDbLine
 10
5.27999999999999
 20
598.2404999999999
 30
0.0
 11
11.67999999999999
 21
606.5925
 31
0.0
  0
LINE
  5
55
330
1E
100
AcDbEntity
  8
0
100
AcDbLine
 10
5.27999999999999
 20
559.1635
 30
0.0
 11
11.67999999999999
 21
550.8124999999999
 31
0.0
  0
LINE
  5
56
330
1E
100
AcDbEntity
  8
0
100
AcDbLine
 10
6.25999999999997
 20
152.5834999999999
 30
0.0
 11
9.61999999999997
 21
152.5834999999999
 31
0.0
  0
LINE
  5
57
330
1E
100
AcDbEntity
  8
0
100
AcDbLine
 10
9.61999999999997
 20
152.5834999999999
 30
0.0
 11
15.22
 21
152.5834999999999
 31
0.0
  0
LINE
  5
58
330
1E
100
AcDbEntity
  8
0
100
AcDbLine
 10
6.25999999999997
 20
150.5834999999999
 30
0.0
 11
9.61999999999997
 21
150.5834999999999
 31
0.0
  0
LINE
  5
59
330
1E
100
AcDbEntity
  8
0
100
AcDbLine
 10
40.0
 20
-0.0944999999999974
 30
0.0
 11
46.39999999999999
 21
0.542500000000003
 31
0.0
  0
LINE
  5
5A
330
1E
100
AcDbEntity
  8
0
100
AcDbLine
 10
46.39999999999999
 20
0.542500000000003
 30
0.0
 11
52.4
 21
2.2395
 31
0.0
  0
LINE
  5
5B
330
1E
100
AcDbEntity
  8
0
100
AcDbLine
 10
40.0
 20
-0.0944999999999974
 30
0.0
 11
46.39999999999999
 21
0.542500000000003
 31
0.0
  0
LINE
  5
5D
330
1E
100
AcDbEntity
  8
0
100
AcDbLine
 10
13.648
 20
31.5835
 30
0.0
 11
14.61999999999999
 21
31.5835
 31
0.0
  0
LINE
  5
5E
330
1E
100
AcDbEntity
  8
0
100
AcDbLine
 10
13.0
 20
32.5455
 30
0.0
 11
13.648
 21
31.5835
 31
0.0
  0
LINE
  5
5F
330
1E
100
AcDbEntity
  8
0
100
AcDbLine
 10
13.0
 20
32.5455
 30
0.0
 11
13.0
 21
55.622
 31
0.0
  0
LINE
  5
60
330
1E
100
AcDbEntity
  8
0
100
AcDbLine
 10
14.61999999999999
 20
31.5835
 30
0.0
 11
15.0
 21
31.5835
 31
0.0
  0
LINE
  5
61
330
1E
100
AcDbEntity
  8
0
100
AcDbLine
 10
15.0
 20
17.5835
 30
0.0
 11
15.0
 21
52.23169999999999
 31
0.0
  0
LINE
  5
62
330
1E
100
AcDbEntity
  8
0
100
AcDbLine
 10
15.9
 20
22.1085
 30
0.0
 11
18.3
 21
26.3515
 31
0.0
  0
LINE
  5
63
330
1E
100
AcDbEntity
  8
0
100
AcDbLine
 10
18.3
 20
26.3515
 30
0.0
 11
22.29999999999999
 21
30.09949999999999
 31
0.0
  0
LINE
  5
64
330
1E
100
AcDbEntity
  8
0
100
AcDbLine
 10
15.0
 20
17.5835
 30
0.0
 11
15.9
 21
13.0585
 31
0.0
  0
LINE
  5
65
330
1E
100
AcDbEntity
  8
0
100
AcDbLine
 10
15.0
 20
17.5835
 30
0.0
 11
15.0
 21
52.23169999999999
 31
0.0
  0
LINE
  5
66
330
1E
100
AcDbEntity
  8
0
100
AcDbLine
 10
15.0
 20
17.5835
 30
0.0
 11
15.9
 21
22.1085
 31
0.0
  0
LINE
  5
67
330
1E
100
AcDbEntity
  8
0
100
AcDbLine
 10
15.9
 20
13.0585
 30
0.0
 11
18.3
 21
8.8155
 31
0.0
  0
LINE
  5
68
330
1E
100
AcDbEntity
  8
0
100
AcDbLine
 10
19.3429
 20
21.46249999999999
 30
0.0
 11
21.4
 21
25.09949999999999
 31
0.0
  0
LINE
  5
69
330
1E
100
AcDbEntity
  8
0
100
AcDbLine
 10
18.5714
 20
17.5835
 30
0.0
 11
19.3429
 21
13.70449999999999
 31
0.0
  0
LINE
  5
6A
330
1E
100
AcDbEntity
  8
0
100
AcDbLine
 10
18.5714
 20
17.5835
 30
0.0
 11
19.3429
 21
21.46249999999999
 31
0.0
  0
LINE
  5
6B
330
1E
100
AcDbEntity
  8
0
100
AcDbLine
 10
19.3429
 20
13.70449999999999
 30
0.0
 11
21.4
 21
10.0675
 31
0.0
  0
LINE
  5
6C
330
1E
100
AcDbEntity
  8
0
100
AcDbLine
 10
21.4
 20
25.09949999999999
 30
0.0
 11
24.8286
 21
28.3115
 31
0.0
  0
LINE
  5
6D
330
1E
100
AcDbEntity
  8
0
100
AcDbLine
 10
24.8286
 20
28.3115
 30
0.0
 11
29.3714
 21
30.7355
 31
0.0
  0
LINE
  5
6E
330
1E
100
AcDbEntity
  8
0
100
AcDbLine
 10
22.29999999999999
 20
30.09949999999999
 30
0.0
 11
27.6
 21
32.9275
 31
0.0
  0
LINE
  5
6F
330
1E
100
AcDbEntity
  8
0
100
AcDbLine
 10
21.4
 20
10.0675
 30
0.0
 11
24.8286
 21
6.85549999999999
 31
0.0
  0
LINE
  5
70
330
1E
100
AcDbEntity
  8
0
100
AcDbLine
 10
24.8286
 20
6.85549999999999
 30
0.0
 11
29.3714
 21
4.43149999999999
 31
0.0
  0
LINE
  5
71
330
1E
100
AcDbEntity
  8
0
100
AcDbLine
 10
18.3
 20
8.8155
 30
0.0
 11
22.29999999999999
 21
5.067500000000009
 31
0.0
  0
LINE
  5
72
330
1E
100
AcDbEntity
  8
0
100
AcDbLine
 10
22.29999999999999
 20
5.067500000000009
 30
0.0
 11
27.6
 21
2.239500000000009
 31
0.0
  0
LINE
  5
73
330
1E
100
AcDbEntity
  8
0
100
AcDbLine
 10
52.4
 20
2.2395
 30
0.0
 11
57.7
 21
5.067500000000009
 31
0.0
  0
LINE
  5
74
330
1E
100
AcDbEntity
  8
0
100
AcDbLine
 10
45.4857
 20
2.9765
 30
0.0
 11
50.6286
 21
4.43149999999998
 31
0.0
  0
LINE
  5
75
330
1E
100
AcDbEntity
  8
0
100
AcDbLine
 10
40.0
 20
2.43149999999999
 30
0.0
 11
45.4857
 21
2.9765
 31
0.0
  0
LINE
  5
76
330
1E
100
AcDbEntity
  8
0
100
AcDbLine
 10
29.3714
 20
30.7355
 30
0.0
 11
34.5143
 21
32.1905
 31
0.0
  0
LINE
  5
77
330
1E
100
AcDbEntity
  8
0
100
AcDbLine
 10
27.6
 20
32.9275
 30
0.0
 11
33.6
 21
34.6245
 31
0.0
  0
LINE
  5
78
330
1E
100
AcDbEntity
  8
0
100
AcDbLine
 10
50.6286
 20
4.43149999999998
 30
0.0
 11
55.1714
 21
6.85549999999999
 31
0.0
  0
LINE
  5
79
330
1E
100
AcDbEntity
  8
0
100
AcDbLine
 10
50.6286
 20
30.7355
 30
0.0
 11
55.1714
 21
28.3115
 31
0.0
  0
LINE
  5
7A
330
1E
100
AcDbEntity
  8
0
100
AcDbLine
 10
45.4857
 20
32.1905
 30
0.0
 11
50.6286
 21
30.7355
 31
0.0
  0
LINE
  5
7B
330
1E
100
AcDbEntity
  8
0
100
AcDbLine
 10
40.0
 20
32.7355
 30
0.0
 11
45.4857
 21
32.1905
 31
0.0
  0
LINE
  5
7C
330
1E
100
AcDbEntity
  8
0
100
AcDbLine
 10
57.7
 20
5.067500000000009
 30
0.0
 11
61.7
 21
8.8155
 31
0.0
  0
LINE
  5
7D
330
1E
100
AcDbEntity
  8
0
100
AcDbLine
 10
58.6
 20
10.0675
 30
0.0
 11
60.6571
 21
13.70449999999999
 31
0.0
  0
LINE
  5
7E
330
1E
100
AcDbEntity
  8
0
100
AcDbLine
 10
55.1714
 20
6.85549999999999
 30
0.0
 11
58.6
 21
10.0675
 31
0.0
  0
LINE
  5
7F
330
1E
100
AcDbEntity
  8
0
100
AcDbLine
 10
60.6571
 20
13.70449999999999
 30
0.0
 11
61.4286
 21
17.5835
 31
0.0
  0
LINE
  5
80
330
1E
100
AcDbEntity
  8
0
100
AcDbLine
 10
61.7
 20
8.8155
 30
0.0
 11
64.1
 21
13.0585
 31
0.0
  0
LINE
  5
81
330
1E
100
AcDbEntity
  8
0
100
AcDbLine
 10
60.6571
 20
21.46249999999999
 30
0.0
 11
61.4286
 21
17.5835
 31
0.0
  0
LINE
  5
82
330
1E
100
AcDbEntity
  8
0
100
AcDbLine
 10
58.6
 20
25.09949999999999
 30
0.0
 11
60.6571
 21
21.46249999999999
 31
0.0
  0
LINE
  5
83
330
1E
100
AcDbEntity
  8
0
100
AcDbLine
 10
55.1714
 20
28.3115
 30
0.0
 11
58.6
 21
25.09949999999999
 31
0.0
  0
LINE
  5
84
330
1E
100
AcDbEntity
  8
0
100
AcDbLine
 10
64.1
 20
13.0585
 30
0.0
 11
65.0
 21
17.5835
 31
0.0
  0
LINE
  5
85
330
1E
100
AcDbEntity
  8
0
100
AcDbLine
 10
65.0
 20
17.5835
 30
0.0
 11
65.0
 21
52.23169999999999
 31
0.0
  0
LINE
  5
86
330
1E
100
AcDbEntity
  8
0
100
AcDbLine
 10
64.1
 20
22.1085
 30
0.0
 11
65.0
 21
17.5835
 31
0.0
  0
LINE
  5
87
330
1E
100
AcDbEntity
  8
0
100
AcDbLine
 10
65.0
 20
17.5835
 30
0.0
 11
65.0
 21
52.23169999999999
 31
0.0
  0
LINE
  5
88
330
1E
100
AcDbEntity
  8
0
100
AcDbLine
 10
61.7
 20
26.3515
 30
0.0
 11
64.1
 21
22.1085
 31
0.0
  0
LINE
  5
8A
330
1E
100
AcDbEntity
  8
0
100
AcDbLine
 10
65.0
 20
31.5835
 30
0.0
 11
65.38
 21
31.5835
 31
0.0
  0
LINE
  5
8B
330
1E
100
AcDbEntity
  8
0
100
AcDbLine
 10
57.7
 20
30.09949999999999
 30
0.0
 11
61.7
 21
26.3515
 31
0.0
  0
LINE
  5
8C
330
1E
100
AcDbEntity
  8
0
100
AcDbLine
 10
52.4
 20
32.9275
 30
0.0
 11
57.7
 21
30.09949999999999
 31
0.0
  0
LINE
  5
8D
330
1E
100
AcDbEntity
  8
0
100
AcDbLine
 10
46.39999999999999
 20
34.6245
 30
0.0
 11
52.4
 21
32.9275
 31
0.0
  0
LINE
  5
8E
330
1E
100
AcDbEntity
  8
0
100
AcDbLine
 10
34.5143
 20
32.1905
 30
0.0
 11
40.0
 21
32.7355
 31
0.0
  0
LINE
  5
8F
330
1E
100
AcDbEntity
  8
0
100
AcDbLine
 10
40.0
 20
35.26149999999999
 30
0.0
 11
46.39999999999999
 21
34.6245
 31
0.0
  0
LINE
  5
90
330
1E
100
AcDbEntity
  8
0
100
AcDbLine
 10
33.6
 20
34.6245
 30
0.0
 11
40.0
 21
35.26149999999999
 31
0.0
  0
LINE
  5
91
330
1E
100
AcDbEntity
  8
0
100
AcDbLine
 10
29.3714
 20
4.43149999999999
 30
0.0
 11
34.5143
 21
2.9765
 31
0.0
  0
LINE
  5
92
330
1E
100
AcDbEntity
  8
0
100
AcDbLine
 10
34.5143
 20
2.9765
 30
0.0
 11
40.0
 21
2.43149999999999
 31
0.0
  0
LINE
  5
93
330
1E
100
AcDbEntity
  8
0
100
AcDbLine
 10
27.6
 20
2.239500000000009
 30
0.0
 11
33.6
 21
0.542500000000004
 31
0.0
  0
LINE
  5
94
330
1E
100
AcDbEntity
  8
0
100
AcDbLine
 10
27.6
 20
2.239500000000009
 30
0.0
 11
33.6
 21
0.542500000000004
 31
0.0
  0
LINE
  5
95
330
1E
100
AcDbEntity
  8
0
100
AcDbLine
 10
33.6
 20
0.542500000000004
 30
0.0
 11
40.0
 21
-0.0944999999999974
 31
0.0
  0
LINE
  5
96
330
1E
100
AcDbEntity
  8
0
100
AcDbLine
 10
67.0
 20
32.5455
 30
0.0
 11
67.0
 21
55.622
 31
0.0
  0
LINE
  5
97
330
1E
100
AcDbEntity
  8
0
100
AcDbLine
 10
65.38
 20
31.5835
 30
0.0
 11
66.35200000000001
 21
31.5835
 31
0.0
  0
LINE
  5
98
330
1E
100
AcDbEntity
  8
0
100
AcDbLine
 10
65.06399999999999
 20
47.52519999999999
 30
0.0
 11
66.0
 21
52.23169999999999
 31
0.0
  0
LINE
  5
99
330
1E
100
AcDbEntity
  8
0
100
AcDbLine
 10
65.0
 20
47.41206410256411
 30
0.0
 11
65.06399999999999
 21
47.52519999999999
 31
0.0
  0
LINE
  5
9A
330
1E
100
AcDbEntity
  8
0
100
AcDbLine
 10
9.999999999999969
 20
129.5834999999999
 30
0.0
 11
11.08
 21
129.5834999999999
 31
0.0
  0
LINE
  5
9B
330
1E
100
AcDbEntity
  8
0
100
AcDbLine
 10
9.999999999999969
 20
129.5834999999999
 30
0.0
 11
9.999999999999969
 21
136.5834999999999
 31
0.0
  0
LINE
  5
9C
330
1E
100
AcDbEntity
  8
0
100
AcDbLine
 10
11.08
 20
129.5834999999999
 30
0.0
 11
13.96
 21
129.5834999999999
 31
0.0
  0
LINE
  5
9D
330
1E
100
AcDbEntity
  8
0
100
AcDbLine
 10
9.999999999999969
 20
136.5834999999999
 30
0.0
 11
9.999999999999969
 21
129.5834999999999
 31
0.0
  0
LINE
  5
9E
330
1E
100
AcDbEntity
  8
0
100
AcDbLine
 10
9.695999999999969
 20
130.2594999999999
 30
0.0
 11
9.999999999999969
 21
130.3022499999999
 31
0.0
  0
LINE
  5
9F
330
1E
100
AcDbEntity
  8
0
100
AcDbLine
 10
9.695999999999969
 20
112.9075
 30
0.0
 11
12.0
 21
112.5835
 31
0.0
  0
LINE
  5
A0
330
1E
100
AcDbEntity
  8
0
100
AcDbLine
 10
12.0
 20
112.5835
 30
0.0
 11
14.1838107098381
 21
112.890598381071
 31
0.0
  0
LINE
  5
A1
330
1E
100
AcDbEntity
  8
0
100
AcDbLine
 10
13.09599999999999
 20
140.5834999999999
 30
0.0
 11
21.15199999999999
 21
140.5834999999999
 31
0.0
  0
LINE
  5
A2
330
1E
100
AcDbEntity
  8
0
100
AcDbLine
 10
13.09599999999999
 20
136.5834999999999
 30
0.0
 11
21.15199999999999
 21
136.5834999999999
 31
0.0
  0
LINE
  5
A3
330
1E
100
AcDbEntity
  8
0
100
AcDbLine
 10
13.96
 20
129.5834999999999
 30
0.0
 11
18.76
 21
129.5834999999999
 31
0.0
  0
LINE
  5
A4
330
1E
100
AcDbEntity
  8
0
100
AcDbLine
 10
13.96
 20
129.5834999999999
 30
0.0
 11
15.0
 21
129.5834999999999
 31
0.0
  0
LINE
  5
A5
330
1E
100
AcDbEntity
  8
0
100
AcDbLine
 10
13.648
 20
56.5835
 30
0.0
 11
14.61999999999999
 21
56.5835
 31
0.0
  0
LINE
  5
A7
330
1E
100
AcDbEntity
  8
0
100
AcDbLine
 10
13.0
 20
55.622
 30
0.0
 11
13.648
 21
56.5835
 31
0.0
  0
LINE
  5
A8
330
1E
100
AcDbEntity
  8
0
100
AcDbLine
 10
14.0
 20
52.9388
 30
0.0
 11
14.0
 21
52.23169999999999
 31
0.0
  0
LINE
  5
A9
330
1E
100
AcDbEntity
  8
0
100
AcDbLine
 10
14.0
 20
52.9388
 30
0.0
 11
14.93599999999999
 21
57.6453
 31
0.0
  0
LINE
  5
AA
330
1E
100
AcDbEntity
  8
0
100
AcDbLine
 10
14.61999999999999
 20
56.5835
 30
0.0
 11
14.724835695315
 21
56.5835
 31
0.0
  0
LINE
  5
AB
330
1E
100
AcDbEntity
  8
0
100
AcDbLine
 10
15.0
 20
52.23169999999999
 30
0.0
 11
15.9
 21
56.7572
 31
0.0
  0
LINE
  5
AC
330
1E
100
AcDbEntity
  8
0
100
AcDbLine
 10
15.9
 20
56.7572
 30
0.0
 11
18.3
 21
60.9999
 31
0.0
  0
LINE
  5
AD
330
1E
100
AcDbEntity
  8
0
100
AcDbLine
 10
14.5
 20
64.5835
 30
0.0
 11
14.5
 21
78.5835
 31
0.0
  0
LINE
  5
AE
330
1E
100
AcDbEntity
  8
0
100
AcDbLine
 10
14.5
 20
64.5835
 30
0.0
 11
17.5
 21
64.5835
 31
0.0
  0
LINE
  5
AF
330
1E
100
AcDbEntity
  8
0
100
AcDbLine
 10
17.0
 20
64.5835
 30
0.0
 11
17.82799999999999
 21
64.5835
 31
0.0
  0
LINE
  5
B0
330
1E
100
AcDbEntity
  8
0
100
AcDbLine
 10
14.93599999999999
 20
57.6453
 30
0.0
 11
17.432
 21
62.0577
 31
0.0
  0
LINE
  5
B1
330
1E
100
AcDbEntity
  8
0
100
AcDbLine
 10
17.432
 20
62.0577
 30
0.0
 11
21.59199999999999
 21
65.9553
 31
0.0
  0
LINE
  5
B2
330
1E
100
AcDbEntity
  8
0
100
AcDbLine
 10
14.93599999999999
 20
56.9382
 30
0.0
 11
17.432
 21
61.3506
 31
0.0
  0
LINE
  5
B3
330
1E
100
AcDbEntity
  8
0
100
AcDbLine
 10
17.82799999999999
 20
64.5835
 30
0.0
 11
20.0
 21
64.5835
 31
0.0
  0
LINE
  5
B4
330
1E
100
AcDbEntity
  8
0
100
AcDbLine
 10
20.0
 20
64.46371846153849
 30
0.0
 11
20.0
 21
102.5037999999999
 31
0.0
  0
LINE
  5
B5
330
1E
100
AcDbEntity
  8
0
100
AcDbLine
 10
18.3
 20
60.9999
 30
0.0
 11
22.29999999999999
 21
64.7475
 31
0.0
  0
LINE
  5
B6
330
1E
100
AcDbEntity
  8
0
100
AcDbLine
 10
22.29999999999999
 20
64.7475
 30
0.0
 11
27.6
 21
67.5759
 31
0.0
  0
LINE
  5
B7
330
1E
100
AcDbEntity
  8
0
100
AcDbLine
 10
17.432
 20
61.3506
 30
0.0
 11
21.59199999999999
 21
65.2482
 31
0.0
  0
LINE
  5
B8
330
1E
100
AcDbEntity
  8
0
100
AcDbLine
 10
21.59199999999999
 20
65.9553
 30
0.0
 11
27.10399999999999
 21
68.8968
 31
0.0
  0
LINE
  5
B9
330
1E
100
AcDbEntity
  8
0
100
AcDbLine
 10
27.10399999999999
 20
68.8968
 30
0.0
 11
33.344
 21
70.6618
 31
0.0
  0
LINE
  5
BA
330
1E
100
AcDbEntity
  8
0
100
AcDbLine
 10
21.59199999999999
 20
65.2482
 30
0.0
 11
27.10399999999999
 21
68.1897
 31
0.0
  0
LINE
  5
BB
330
1E
100
AcDbEntity
  8
0
100
AcDbLine
 10
52.4
 20
67.5759
 30
0.0
 11
57.7
 21
64.7475
 31
0.0
  0
LINE
  5
BC
330
1E
100
AcDbEntity
  8
0
100
AcDbLine
 10
27.6
 20
67.5759
 30
0.0
 11
33.6
 21
69.27299999999999
 31
0.0
  0
LINE
  5
BD
330
1E
100
AcDbEntity
  8
0
100
AcDbLine
 10
46.39999999999999
 20
69.27299999999999
 30
0.0
 11
52.4
 21
67.5759
 31
0.0
  0
LINE
  5
BE
330
1E
100
AcDbEntity
  8
0
100
AcDbLine
 10
40.0
 20
69.90940000000001
 30
0.0
 11
46.39999999999999
 21
69.27299999999999
 31
0.0
  0
LINE
  5
BF
330
1E
100
AcDbEntity
  8
0
100
AcDbLine
 10
33.6
 20
69.27299999999999
 30
0.0
 11
40.0
 21
69.90940000000001
 31
0.0
  0
LINE
  5
C0
330
1E
100
AcDbEntity
  8
0
100
AcDbLine
 10
52.896
 20
68.8968
 30
0.0
 11
58.408
 21
65.9553
 31
0.0
  0
LINE
  5
C1
330
1E
100
AcDbEntity
  8
0
100
AcDbLine
 10
61.7
 20
60.9999
 30
0.0
 11
64.1
 21
56.7572
 31
0.0
  0
LINE
  5
C2
330
1E
100
AcDbEntity
  8
0
100
AcDbLine
 10
60.0
 20
64.46371846153849
 30
0.0
 11
60.0
 21
102.5037999999999
 31
0.0
  0
LINE
  5
C3
330
1E
100
AcDbEntity
  8
0
100
AcDbLine
 10
62.5
 20
64.5835
 30
0.0
 11
65.5
 21
64.5835
 31
0.0
  0
LINE
  5
C4
330
1E
100
AcDbEntity
  8
0
100
AcDbLine
 10
60.0
 20
64.5835
 30
0.0
 11
62.172
 21
64.5835
 31
0.0
  0
LINE
  5
C5
330
1E
100
AcDbEntity
  8
0
100
AcDbLine
 10
62.172
 20
64.5835
 30
0.0
 11
63.0
 21
64.5835
 31
0.0
  0
LINE
  5
C6
330
1E
100
AcDbEntity
  8
0
100
AcDbLine
 10
57.7
 20
64.7475
 30
0.0
 11
61.7
 21
60.9999
 31
0.0
  0
LINE
  5
C7
330
1E
100
AcDbEntity
  8
0
100
AcDbLine
 10
62.56800000000001
 20
62.0577
 30
0.0
 11
65.06399999999999
 21
57.6453
 31
0.0
  0
LINE
  5
C8
330
1E
100
AcDbEntity
  8
0
100
AcDbLine
 10
65.38
 20
56.5835
 30
0.0
 11
66.35200000000001
 21
56.5835
 31
0.0
  0
LINE
  5
C9
330
1E
100
AcDbEntity
  8
0
100
AcDbLine
 10
65.27516430468501
 20
56.5835
 30
0.0
 11
65.38
 21
56.5835
 31
0.0
  0
LINE
  5
CB
330
1E
100
AcDbEntity
  8
0
100
AcDbLine
 10
64.1
 20
56.7572
 30
0.0
 11
65.0
 21
52.23169999999999
 31
0.0
  0
LINE
  5
CC
330
1E
100
AcDbEntity
  8
0
100
AcDbLine
 10
66.0
 20
52.9388
 30
0.0
 11
66.0
 21
52.23169999999999
 31
0.0
  0
LINE
  5
CD
330
1E
100
AcDbEntity
  8
0
100
AcDbLine
 10
67.0
 20
55.622
 30
0.0
 11
67.0
 21
32.5455
 31
0.0
  0
LINE
  5
CE
330
1E
100
AcDbEntity
  8
0
100
AcDbLine
 10
66.0
 20
52.23169999999999
 30
0.0
 11
66.0
 21
52.9388
 31
0.0
  0
LINE
  5
CF
330
1E
100
AcDbEntity
  8
0
100
AcDbLine
 10
65.5
 20
64.5835
 30
0.0
 11
65.5
 21
78.5835
 31
0.0
  0
LINE
  5
D0
330
1E
100
AcDbEntity
  8
0
100
AcDbLine
 10
65.06399999999999
 20
57.6453
 30
0.0
 11
66.0
 21
52.9388
 31
0.0
  0
LINE
  5
D1
330
1E
100
AcDbEntity
  8
0
100
AcDbLine
 10
65.06399999999999
 20
56.9382
 30
0.0
 11
66.0
 21
52.23169999999999
 31
0.0
  0
LINE
  5
D2
330
1E
100
AcDbEntity
  8
0
100
AcDbLine
 10
62.56800000000001
 20
61.3506
 30
0.0
 11
65.06399999999999
 21
56.9382
 31
0.0
  0
LINE
  5
D3
330
1E
100
AcDbEntity
  8
0
100
AcDbLine
 10
58.408
 20
65.9553
 30
0.0
 11
62.56800000000001
 21
62.0577
 31
0.0
  0
LINE
  5
D4
330
1E
100
AcDbEntity
  8
0
100
AcDbLine
 10
58.408
 20
65.2482
 30
0.0
 11
62.56800000000001
 21
61.3506
 31
0.0
  0
LINE
  5
D5
330
1E
100
AcDbEntity
  8
0
100
AcDbLine
 10
52.896
 20
68.1897
 30
0.0
 11
58.408
 21
65.2482
 31
0.0
  0
LINE
  5
D6
330
1E
100
AcDbEntity
  8
0
100
AcDbLine
 10
46.656
 20
69.9547
 30
0.0
 11
52.896
 21
68.1897
 31
0.0
  0
LINE
  5
D7
330
1E
100
AcDbEntity
  8
0
100
AcDbLine
 10
27.10399999999999
 20
68.1897
 30
0.0
 11
33.344
 21
69.9547
 31
0.0
  0
LINE
  5
D8
330
1E
100
AcDbEntity
  8
0
100
AcDbLine
 10
14.0
 20
78.5835
 30
0.0
 11
14.0
 21
80.5835
 31
0.0
  0
LINE
  5
D9
330
1E
100
AcDbEntity
  8
0
100
AcDbLine
 10
14.0
 20
78.5835
 30
0.0
 11
14.93599999999999
 21
78.5835
 31
0.0
  0
LINE
  5
DA
330
1E
100
AcDbEntity
  8
0
100
AcDbLine
 10
14.0
 20
78.5835
 30
0.0
 11
14.5
 21
78.5835
 31
0.0
  0
LINE
  5
DB
330
1E
100
AcDbEntity
  8
0
100
AcDbLine
 10
14.0
 20
80.5835
 30
0.0
 11
14.93599999999999
 21
80.5835
 31
0.0
  0
LINE
  5
DC
330
1E
100
AcDbEntity
  8
0
100
AcDbLine
 10
14.0
 20
80.5835
 30
0.0
 11
14.0
 21
78.5835
 31
0.0
  0
LINE
  5
DD
330
1E
100
AcDbEntity
  8
0
100
AcDbLine
 10
14.0
 20
84.58350000000001
 30
0.0
 11
14.93599999999999
 21
84.58350000000001
 31
0.0
  0
LINE
  5
DE
330
1E
100
AcDbEntity
  8
0
100
AcDbLine
 10
14.0
 20
84.58350000000001
 30
0.0
 11
14.0
 21
82.5835
 31
0.0
  0
LINE
  5
DF
330
1E
100
AcDbEntity
  8
0
100
AcDbLine
 10
14.5
 20
78.5835
 30
0.0
 11
17.0
 21
78.5835
 31
0.0
  0
LINE
  5
E0
330
1E
100
AcDbEntity
  8
0
100
AcDbLine
 10
14.93599999999999
 20
78.5835
 30
0.0
 11
17.432
 21
78.5835
 31
0.0
  0
LINE
  5
E1
330
1E
100
AcDbEntity
  8
0
100
AcDbLine
 10
14.93599999999999
 20
80.5835
 30
0.0
 11
17.432
 21
80.5835
 31
0.0
  0
LINE
  5
E2
330
1E
100
AcDbEntity
  8
0
100
AcDbLine
 10
14.5
 20
82.5835
 30
0.0
 11
14.5
 21
80.5835
 31
0.0
  0
LINE
  5
E3
330
1E
100
AcDbEntity
  8
0
100
AcDbLine
 10
14.5
 20
82.5835
 30
0.0
 11
17.0
 21
82.5835
 31
0.0
  0
LINE
  5
E4
330
1E
100
AcDbEntity
  8
0
100
AcDbLine
 10
14.5
 20
80.5835
 30
0.0
 11
14.5
 21
82.5835
 31
0.0
  0
LINE
  5
E5
330
1E
100
AcDbEntity
  8
0
100
AcDbLine
 10
14.93599999999999
 20
82.5835
 30
0.0
 11
17.432
 21
82.5835
 31
0.0
  0
LINE
  5
E6
330
1E
100
AcDbEntity
  8
0
100
AcDbLine
 10
14.93599999999999
 20
84.58350000000001
 30
0.0
 11
17.432
 21
84.58350000000001
 31
0.0
  0
LINE
  5
E7
330
1E
100
AcDbEntity
  8
0
100
AcDbLine
 10
14.0
 20
82.5835
 30
0.0
 11
14.0
 21
84.58350000000001
 31
0.0
  0
LINE
  5
E8
330
1E
100
AcDbEntity
  8
0
100
AcDbLine
 10
14.0
 20
82.5835
 30
0.0
 11
14.5
 21
82.5835
 31
0.0
  0
LINE
  5
E9
330
1E
100
AcDbEntity
  8
0
100
AcDbLine
 10
14.0
 20
82.5835
 30
0.0
 11
14.93599999999999
 21
82.5835
 31
0.0
  0
LINE
  5
EA
330
1E
100
AcDbEntity
  8
0
100
AcDbLine
 10
14.5
 20
110.5835
 30
0.0
 11
17.5
 21
110.5835
 31
0.0
  0
LINE
  5
EB
330
1E
100
AcDbEntity
  8
0
100
AcDbLine
 10
14.5
 20
110.5835
 30
0.0
 11
17.140625
 21
110.5835
 31
0.0
  0
LINE
  5
EC
330
1E
100
AcDbEntity
  8
0
100
AcDbLine
 10
14.5
 20
110.5835
 30
0.0
 11
14.5
 21
112.5835
 31
0.0
  0
LINE
  5
ED
330
1E
100
AcDbEntity
  8
0
100
AcDbLine
 10
17.0
 20
78.5835
 30
0.0
 11
17.82799999999999
 21
78.5835
 31
0.0
  0
LINE
  5
EE
330
1E
100
AcDbEntity
  8
0
100
AcDbLine
 10
17.432
 20
78.5835
 30
0.0
 11
20.0
 21
78.5835
 31
0.0
  0
LINE
  5
EF
330
1E
100
AcDbEntity
  8
0
100
AcDbLine
 10
17.432
 20
78.5835
 30
0.0
 11
20.0
 21
78.5835
 31
0.0
  0
LINE
  5
F0
330
1E
100
AcDbEntity
  8
0
100
AcDbLine
 10
17.432
 20
80.5835
 30
0.0
 11
20.0
 21
80.5835
 31
0.0
  0
LINE
  5
F1
330
1E
100
AcDbEntity
  8
0
100
AcDbLine
 10
17.432
 20
80.5835
 30
0.0
 11
20.0
 21
80.5835
 31
0.0
  0
LINE
  5
F2
330
1E
100
AcDbEntity
  8
0
100
AcDbLine
 10
17.0
 20
82.5835
 30
0.0
 11
17.82799999999999
 21
82.5835
 31
0.0
  0
LINE
  5
F3
330
1E
100
AcDbEntity
  8
0
100
AcDbLine
 10
15.0
 20
84.58350000000001
 30
0.0
 11
15.0
 21
104.7674999999999
 31
0.0
  0
LINE
  5
F4
330
1E
100
AcDbEntity
  8
0
100
AcDbLine
 10
17.432
 20
82.5835
 30
0.0
 11
20.0
 21
82.5835
 31
0.0
  0
LINE
  5
F5
330
1E
100
AcDbEntity
  8
0
100
AcDbLine
 10
17.82799999999999
 20
78.5835
 30
0.0
 11
20.0
 21
78.5835
 31
0.0
  0
LINE
  5
F6
330
1E
100
AcDbEntity
  8
0
100
AcDbLine
 10
17.82799999999999
 20
82.5835
 30
0.0
 11
20.0
 21
82.5835
 31
0.0
  0
LINE
  5
F7
330
1E
100
AcDbEntity
  8
0
100
AcDbLine
 10
17.432
 20
84.58350000000001
 30
0.0
 11
20.0
 21
84.58350000000001
 31
0.0
  0
LINE
  5
F8
330
1E
100
AcDbEntity
  8
0
100
AcDbLine
 10
17.5
 20
110.5835
 30
0.0
 11
17.5
 21
112.5835
 31
0.0
  0
LINE
  5
F9
330
1E
100
AcDbEntity
  8
0
100
AcDbLine
 10
17.140625
 20
110.5835
 30
0.0
 11
17.82799999999999
 21
105.6954999999999
 31
0.0
  0
LINE
  5
FA
330
1E
100
AcDbEntity
  8
0
100
AcDbLine
 10
17.140625
 20
112.5835
 30
0.0
 11
17.82799999999999
 21
117.4715
 31
0.0
  0
LINE
  5
FB
330
1E
100
AcDbEntity
  8
0
100
AcDbLine
 10
20.0
 20
102.5037999999999
 30
0.0
 11
20.0
 21
107.4303
 31
0.0
  0
LINE
  5
FC
330
1E
100
AcDbEntity
  8
0
100
AcDbLine
 10
20.0
 20
107.4303
 30
0.0
 11
20.0
 21
110.5272
 31
0.0
  0
LINE
  5
FD
330
1E
100
AcDbEntity
  8
0
100
AcDbLine
 10
20.0
 20
111.5835
 30
0.0
 11
20.0
 21
110.5272
 31
0.0
  0
LINE
  5
FE
330
1E
100
AcDbEntity
  8
0
100
AcDbLine
 10
20.0
 20
111.5835
 30
0.0
 11
20.72
 21
116.7035
 31
0.0
  0
LINE
  5
FF
330
1E
100
AcDbEntity
  8
0
100
AcDbLine
 10
20.0
 20
110.5272
 30
0.0
 11
20.0
 21
107.4303
 31
0.0
  0
LINE
  5
100
330
1E
100
AcDbEntity
  8
0
100
AcDbLine
 10
20.0
 20
110.5272
 30
0.0
 11
20.0
 21
111.5835
 31
0.0
  0
LINE
  5
101
330
1E
100
AcDbEntity
  8
0
100
AcDbLine
 10
17.82799999999999
 20
105.6954999999999
 30
0.0
 11
20.0
 21
100.2655
 31
0.0
  0
LINE
  5
102
330
1E
100
AcDbEntity
  8
0
100
AcDbLine
 10
17.432
 20
98.6875
 30
0.0
 11
20.0
 21
95.28489999999999
 31
0.0
  0
LINE
  5
103
330
1E
100
AcDbEntity
  8
0
100
AcDbLine
 10
14.93599999999999
 20
104.9274999999999
 30
0.0
 11
17.432
 21
98.6875
 31
0.0
  0
LINE
  5
104
330
1E
100
AcDbEntity
  8
0
100
AcDbLine
 10
14.5
 20
112.5835
 30
0.0
 11
14.5
 21
110.5835
 31
0.0
  0
LINE
  5
105
330
1E
100
AcDbEntity
  8
0
100
AcDbLine
 10
14.5
 20
112.5835
 30
0.0
 11
17.5
 21
112.5835
 31
0.0
  0
LINE
  5
106
330
1E
100
AcDbEntity
  8
0
100
AcDbLine
 10
15.0
 20
118.3995
 30
0.0
 11
15.0
 21
129.5834999999999
 31
0.0
  0
LINE
  5
107
330
1E
100
AcDbEntity
  8
0
100
AcDbLine
 10
15.0
 20
129.5834999999999
 30
0.0
 11
15.9
 21
129.5834999999999
 31
0.0
  0
LINE
  5
108
330
1E
100
AcDbEntity
  8
0
100
AcDbLine
 10
15.9
 20
129.5834999999999
 30
0.0
 11
18.3
 21
129.5834999999999
 31
0.0
  0
LINE
  5
109
330
1E
100
AcDbEntity
  8
0
100
AcDbLine
 10
17.5
 20
112.5835
 30
0.0
 11
17.5
 21
110.5835
 31
0.0
  0
LINE
  5
10A
330
1E
100
AcDbEntity
  8
0
100
AcDbLine
 10
18.76
 20
129.5834999999999
 30
0.0
 11
21.2840754716981
 21
129.5834999999999
 31
0.0
  0
LINE
  5
10B
330
1E
100
AcDbEntity
  8
0
100
AcDbLine
 10
18.3
 20
129.5834999999999
 30
0.0
 11
21.2840754716981
 21
129.5834999999999
 31
0.0
  0
LINE
  5
10C
330
1E
100
AcDbEntity
  8
0
100
AcDbLine
 10
25.84
 20
125.7435
 30
0.0
 11
30.08
 21
128.9435
 31
0.0
  0
LINE
  5
10D
330
1E
100
AcDbEntity
  8
0
100
AcDbLine
 10
22.64
 20
121.5035
 30
0.0
 11
25.84
 21
125.7435
 31
0.0
  0
LINE
  5
10E
330
1E
100
AcDbEntity
  8
0
100
AcDbLine
 10
30.08
 20
128.9435
 30
0.0
 11
34.88
 21
130.8634999999999
 31
0.0
  0
LINE
  5
10F
330
1E
100
AcDbEntity
  8
0
100
AcDbLine
 10
23.71599999999999
 20
127.8675
 30
0.0
 11
27.70542705393182
 21
130.87838834259
 31
0.0
  0
LINE
  5
110
330
1E
100
AcDbEntity
  8
0
100
AcDbLine
 10
20.036
 20
122.9915
 30
0.0
 11
23.71599999999999
 21
127.8675
 31
0.0
  0
LINE
  5
111
330
1E
100
AcDbEntity
  8
0
100
AcDbLine
 10
17.82799999999999
 20
117.4715
 30
0.0
 11
20.036
 21
122.9915
 31
0.0
  0
LINE
  5
112
330
1E
100
AcDbEntity
  8
0
100
AcDbLine
 10
17.432
 20
124.4795
 30
0.0
 11
21.59199999999999
 21
129.9915
 31
0.0
  0
LINE
  5
113
330
1E
100
AcDbEntity
  8
0
100
AcDbLine
 10
21.15199999999999
 20
140.5834999999999
 30
0.0
 11
30.272
 21
140.5834999999999
 31
0.0
  0
LINE
  5
114
330
1E
100
AcDbEntity
  8
0
100
AcDbLine
 10
21.15199999999999
 20
136.5834999999999
 30
0.0
 11
30.272
 21
136.5834999999999
 31
0.0
  0
LINE
  5
115
330
1E
100
AcDbEntity
  8
0
100
AcDbLine
 10
26.384
 20
133.1671
 30
0.0
 11
28.116
 21
134.1671
 31
0.0
  0
LINE
  5
116
330
1E
100
AcDbEntity
  8
0
100
AcDbLine
 10
26.384
 20
133.1671
 30
0.0
 11
27.884
 21
130.5690999999999
 31
0.0
  0
LINE
  5
117
330
1E
100
AcDbEntity
  8
0
100
AcDbLine
 10
27.884
 20
130.5690999999999
 30
0.0
 11
29.616
 21
131.5690999999999
 31
0.0
  0
LINE
  5
118
330
1E
100
AcDbEntity
  8
0
100
AcDbLine
 10
30.272
 20
140.5834999999999
 30
0.0
 11
40.0
 21
140.5834999999999
 31
0.0
  0
LINE
  5
119
330
1E
100
AcDbEntity
  8
0
100
AcDbLine
 10
30.272
 20
136.5834999999999
 30
0.0
 11
33.184
 21
136.5834999999999
 31
0.0
  0
LINE
  5
11A
330
1E
100
AcDbEntity
  8
0
100
AcDbLine
 10
28.116
 20
134.1671
 30
0.0
 11
29.616
 21
131.5690999999999
 31
0.0
  0
LINE
  5
11B
330
1E
100
AcDbEntity
  8
0
100
AcDbLine
 10
29.43401125703564
 20
131.8843045028142
 30
0.0
 11
34.11199999999999
 21
133.7555
 31
0.0
  0
LINE
  5
11C
330
1E
100
AcDbEntity
  8
0
100
AcDbLine
 10
27.10399999999999
 20
134.1515
 30
0.0
 11
33.344
 21
136.6475
 31
0.0
  0
LINE
  5
11D
330
1E
100
AcDbEntity
  8
0
100
AcDbLine
 10
21.59199999999999
 20
129.9915
 30
0.0
 11
27.10399999999999
 21
134.1515
 31
0.0
  0
LINE
  5
11E
330
1E
100
AcDbEntity
  8
0
100
AcDbLine
 10
14.93599999999999
 20
118.2395
 30
0.0
 11
17.432
 21
124.4795
 31
0.0
  0
LINE
  5
11F
330
1E
100
AcDbEntity
  8
0
100
AcDbLine
 10
14.0
 20
111.5835
 30
0.0
 11
14.93599999999999
 21
104.9274999999999
 31
0.0
  0
LINE
  5
120
330
1E
100
AcDbEntity
  8
0
100
AcDbLine
 10
14.0
 20
111.5835
 30
0.0
 11
14.93599999999999
 21
118.2395
 31
0.0
  0
LINE
  5
121
330
1E
100
AcDbEntity
  8
0
100
AcDbLine
 10
34.88
 20
130.8634999999999
 30
0.0
 11
40.0
 21
131.5834999999999
 31
0.0
  0
LINE
  5
122
330
1E
100
AcDbEntity
  8
0
100
AcDbLine
 10
34.11199999999999
 20
133.7555
 30
0.0
 11
40.0
 21
134.5834999999999
 31
0.0
  0
LINE
  5
123
330
1E
100
AcDbEntity
  8
0
100
AcDbLine
 10
33.344
 20
136.6475
 30
0.0
 11
40.0
 21
137.5834999999999
 31
0.0
  0
LINE
  5
124
330
1E
100
AcDbEntity
  8
0
100
AcDbLine
 10
60.0
 20
78.5835
 30
0.0
 11
62.56800000000001
 21
78.5835
 31
0.0
  0
LINE
  5
125
330
1E
100
AcDbEntity
  8
0
100
AcDbLine
 10
60.0
 20
78.5835
 30
0.0
 11
62.172
 21
78.5835
 31
0.0
  0
LINE
  5
126
330
1E
100
AcDbEntity
  8
0
100
AcDbLine
 10
60.0
 20
80.5835
 30
0.0
 11
62.56800000000001
 21
80.5835
 31
0.0
  0
LINE
  5
127
330
1E
100
AcDbEntity
  8
0
100
AcDbLine
 10
60.0
 20
82.5835
 30
0.0
 11
62.56800000000001
 21
82.5835
 31
0.0
  0
LINE
  5
128
330
1E
100
AcDbEntity
  8
0
100
AcDbLine
 10
60.0
 20
82.5835
 30
0.0
 11
62.172
 21
82.5835
 31
0.0
  0
LINE
  5
129
330
1E
100
AcDbEntity
  8
0
100
AcDbLine
 10
60.0
 20
84.58350000000001
 30
0.0
 11
62.56800000000001
 21
84.58350000000001
 31
0.0
  0
LINE
  5
12A
330
1E
100
AcDbEntity
  8
0
100
AcDbLine
 10
62.172
 20
78.5835
 30
0.0
 11
63.0
 21
78.5835
 31
0.0
  0
LINE
  5
12B
330
1E
100
AcDbEntity
  8
0
100
AcDbLine
 10
62.56800000000001
 20
78.5835
 30
0.0
 11
65.06399999999999
 21
78.5835
 31
0.0
  0
LINE
  5
12C
330
1E
100
AcDbEntity
  8
0
100
AcDbLine
 10
62.56800000000001
 20
80.5835
 30
0.0
 11
65.06399999999999
 21
80.5835
 31
0.0
  0
LINE
  5
12D
330
1E
100
AcDbEntity
  8
0
100
AcDbLine
 10
62.172
 20
82.5835
 30
0.0
 11
63.0
 21
82.5835
 31
0.0
  0
LINE
  5
12E
330
1E
100
AcDbEntity
  8
0
100
AcDbLine
 10
62.56800000000001
 20
82.5835
 30
0.0
 11
65.06399999999999
 21
82.5835
 31
0.0
  0
LINE
  5
12F
330
1E
100
AcDbEntity
  8
0
100
AcDbLine
 10
63.0
 20
78.5835
 30
0.0
 11
65.5
 21
78.5835
 31
0.0
  0
LINE
  5
130
330
1E
100
AcDbEntity
  8
0
100
AcDbLine
 10
65.06399999999999
 20
78.5835
 30
0.0
 11
66.0
 21
78.5835
 31
0.0
  0
LINE
  5
131
330
1E
100
AcDbEntity
  8
0
100
AcDbLine
 10
65.06399999999999
 20
80.5835
 30
0.0
 11
66.0
 21
80.5835
 31
0.0
  0
LINE
  5
132
330
1E
100
AcDbEntity
  8
0
100
AcDbLine
 10
63.0
 20
82.5835
 30
0.0
 11
65.5
 21
82.5835
 31
0.0
  0
LINE
  5
133
330
1E
100
AcDbEntity
  8
0
100
AcDbLine
 10
65.0
 20
84.58350000000001
 30
0.0
 11
65.0
 21
104.7674999999999
 31
0.0
  0
LINE
  5
134
330
1E
100
AcDbEntity
  8
0
100
AcDbLine
 10
65.06399999999999
 20
82.5835
 30
0.0
 11
66.0
 21
82.5835
 31
0.0
  0
LINE
  5
135
330
1E
100
AcDbEntity
  8
0
100
AcDbLine
 10
62.56800000000001
 20
84.58350000000001
 30
0.0
 11
65.06399999999999
 21
84.58350000000001
 31
0.0
  0
LINE
  5
136
330
1E
100
AcDbEntity
  8
0
100
AcDbLine
 10
65.06399999999999
 20
84.58350000000001
 30
0.0
 11
66.0
 21
84.58350000000001
 31
0.0
  0
LINE
  5
137
330
1E
100
AcDbEntity
  8
0
100
AcDbLine
 10
60.0
 20
95.28489999999999
 30
0.0
 11
62.56800000000001
 21
98.6875
 31
0.0
  0
LINE
  5
138
330
1E
100
AcDbEntity
  8
0
100
AcDbLine
 10
40.0
 20
131.5834999999999
 30
0.0
 11
45.11999999999999
 21
130.8634999999999
 31
0.0
  0
LINE
  5
139
330
1E
100
AcDbEntity
  8
0
100
AcDbLine
 10
40.0
 20
140.5834999999999
 30
0.0
 11
49.728
 21
140.5834999999999
 31
0.0
  0
LINE
  5
13A
330
1E
100
AcDbEntity
  8
0
100
AcDbLine
 10
40.0
 20
134.5834999999999
 30
0.0
 11
45.888
 21
133.7555
 31
0.0
  0
LINE
  5
13B
330
1E
100
AcDbEntity
  8
0
100
AcDbLine
 10
60.0
 20
111.5835
 30
0.0
 11
60.0
 21
110.5272
 31
0.0
  0
LINE
  5
13C
330
1E
100
AcDbEntity
  8
0
100
AcDbLine
 10
59.28
 20
116.7035
 30
0.0
 11
60.0
 21
111.5835
 31
0.0
  0
LINE
  5
13D
330
1E
100
AcDbEntity
  8
0
100
AcDbLine
 10
60.0
 20
110.5272
 30
0.0
 11
60.0
 21
107.4303
 31
0.0
  0
LINE
  5
13E
330
1E
100
AcDbEntity
  8
0
100
AcDbLine
 10
60.0
 20
110.5272
 30
0.0
 11
60.0
 21
111.5835
 31
0.0
  0
LINE
  5
13F
330
1E
100
AcDbEntity
  8
0
100
AcDbLine
 10
60.0
 20
107.4303
 30
0.0
 11
60.0
 21
110.5272
 31
0.0
  0
LINE
  5
140
330
1E
100
AcDbEntity
  8
0
100
AcDbLine
 10
60.0
 20
107.4303
 30
0.0
 11
60.0
 21
102.5037999999999
 31
0.0
  0
LINE
  5
141
330
1E
100
AcDbEntity
  8
0
100
AcDbLine
 10
60.0
 20
102.5037999999999
 30
0.0
 11
60.0
 21
64.46371846153849
 31
0.0
  0
LINE
  5
142
330
1E
100
AcDbEntity
  8
0
100
AcDbLine
 10
60.0
 20
102.5037999999999
 30
0.0
 11
60.0
 21
107.4303
 31
0.0
  0
LINE
  5
143
330
1E
100
AcDbEntity
  8
0
100
AcDbLine
 10
62.172
 20
117.4715
 30
0.0
 11
62.859375
 21
112.5835
 31
0.0
  0
LINE
  5
144
330
1E
100
AcDbEntity
  8
0
100
AcDbLine
 10
62.172
 20
117.4715
 30
0.0
 11
62.859375
 21
112.5835
 31
0.0
  0
LINE
  5
145
330
1E
100
AcDbEntity
  8
0
100
AcDbLine
 10
60.0
 20
100.2655
 30
0.0
 11
62.172
 21
105.6954999999999
 31
0.0
  0
LINE
  5
146
330
1E
100
AcDbEntity
  8
0
100
AcDbLine
 10
65.0
 20
104.7674999999999
 30
0.0
 11
65.0
 21
84.58350000000001
 31
0.0
  0
LINE
  5
147
330
1E
100
AcDbEntity
  8
0
100
AcDbLine
 10
62.859375
 20
110.5835
 30
0.0
 11
65.5
 21
110.5835
 31
0.0
  0
LINE
  5
148
330
1E
100
AcDbEntity
  8
0
100
AcDbLine
 10
62.5
 20
112.5835
 30
0.0
 11
65.5
 21
112.5835
 31
0.0
  0
LINE
  5
149
330
1E
100
AcDbEntity
  8
0
100
AcDbLine
 10
62.5
 20
112.5835
 30
0.0
 11
62.5
 21
110.5835
 31
0.0
  0
LINE
  5
14A
330
1E
100
AcDbEntity
  8
0
100
AcDbLine
 10
62.5
 20
110.5835
 30
0.0
 11
65.5
 21
110.5835
 31
0.0
  0
LINE
  5
14B
330
1E
100
AcDbEntity
  8
0
100
AcDbLine
 10
62.5
 20
110.5835
 30
0.0
 11
62.5
 21
112.5835
 31
0.0
  0
LINE
  5
14C
330
1E
100
AcDbEntity
  8
0
100
AcDbLine
 10
62.172
 20
105.6954999999999
 30
0.0
 11
62.859375
 21
110.5835
 31
0.0
  0
LINE
  5
14D
330
1E
100
AcDbEntity
  8
0
100
AcDbLine
 10
62.172
 20
105.6954999999999
 30
0.0
 11
62.859375
 21
110.5835
 31
0.0
  0
LINE
  5
14E
330
1E
100
AcDbEntity
  8
0
100
AcDbLine
 10
54.16
 20
125.7435
 30
0.0
 11
57.36
 21
121.5035
 31
0.0
  0
LINE
  5
14F
330
1E
100
AcDbEntity
  8
0
100
AcDbLine
 10
58.71592452830189
 20
129.5834999999999
 30
0.0
 11
61.7
 21
129.5834999999999
 31
0.0
  0
LINE
  5
150
330
1E
100
AcDbEntity
  8
0
100
AcDbLine
 10
58.71592452830189
 20
129.5834999999999
 30
0.0
 11
61.24
 21
129.5834999999999
 31
0.0
  0
LINE
  5
151
330
1E
100
AcDbEntity
  8
0
100
AcDbLine
 10
49.92
 20
128.9435
 30
0.0
 11
54.16
 21
125.7435
 31
0.0
  0
LINE
  5
152
330
1E
100
AcDbEntity
  8
0
100
AcDbLine
 10
56.284
 20
127.8675
 30
0.0
 11
59.964
 21
122.9915
 31
0.0
  0
LINE
  5
153
330
1E
100
AcDbEntity
  8
0
100
AcDbLine
 10
61.24
 20
129.5834999999999
 30
0.0
 11
66.04
 21
129.5834999999999
 31
0.0
  0
LINE
  5
154
330
1E
100
AcDbEntity
  8
0
100
AcDbLine
 10
61.7
 20
129.5834999999999
 30
0.0
 11
64.1
 21
129.5834999999999
 31
0.0
  0
LINE
  5
155
330
1E
100
AcDbEntity
  8
0
100
AcDbLine
 10
59.964
 20
122.9915
 30
0.0
 11
62.172
 21
117.4715
 31
0.0
  0
LINE
  5
156
330
1E
100
AcDbEntity
  8
0
100
AcDbLine
 10
45.11999999999999
 20
130.8634999999999
 30
0.0
 11
49.92
 21
128.9435
 31
0.0
  0
LINE
  5
157
330
1E
100
AcDbEntity
  8
0
100
AcDbLine
 10
50.38399999999999
 20
131.5690999999999
 30
0.0
 11
51.88399999999999
 21
134.1671
 31
0.0
  0
LINE
  5
158
330
1E
100
AcDbEntity
  8
0
100
AcDbLine
 10
50.38399999999999
 20
131.5690999999999
 30
0.0
 11
52.116
 21
130.5690999999999
 31
0.0
  0
LINE
  5
159
330
1E
100
AcDbEntity
  8
0
100
AcDbLine
 10
49.728
 20
136.5834999999999
 30
0.0
 11
58.848
 21
136.5834999999999
 31
0.0
  0
LINE
  5
15A
330
1E
100
AcDbEntity
  8
0
100
AcDbLine
 10
46.816
 20
136.5834999999999
 30
0.0
 11
49.728
 21
136.5834999999999
 31
0.0
  0
LINE
  5
15B
330
1E
100
AcDbEntity
  8
0
100
AcDbLine
 10
45.888
 20
133.7555
 30
0.0
 11
50.56598874296436
 21
131.8843045028142
 31
0.0
  0
LINE
  5
15C
330
1E
100
AcDbEntity
  8
0
100
AcDbLine
 10
51.88399999999999
 20
134.1671
 30
0.0
 11
53.61600000000001
 21
133.1671
 31
0.0
  0
LINE
  5
15D
330
1E
100
AcDbEntity
  8
0
100
AcDbLine
 10
52.116
 20
130.5690999999999
 30
0.0
 11
53.61600000000001
 21
133.1671
 31
0.0
  0
LINE
  5
15E
330
1E
100
AcDbEntity
  8
0
100
AcDbLine
 10
52.29457294606818
 20
130.87838834259
 30
0.0
 11
56.284
 21
127.8675
 31
0.0
  0
LINE
  5
15F
330
1E
100
AcDbEntity
  8
0
100
AcDbLine
 10
49.728
 20
140.5834999999999
 30
0.0
 11
58.848
 21
140.5834999999999
 31
0.0
  0
LINE
  5
160
330
1E
100
AcDbEntity
  8
0
100
AcDbLine
 10
46.656
 20
136.6475
 30
0.0
 11
52.896
 21
134.1515
 31
0.0
  0
LINE
  5
161
330
1E
100
AcDbEntity
  8
0
100
AcDbLine
 10
58.848
 20
140.5834999999999
 30
0.0
 11
66.904
 21
140.5834999999999
 31
0.0
  0
LINE
  5
162
330
1E
100
AcDbEntity
  8
0
100
AcDbLine
 10
58.848
 20
136.5834999999999
 30
0.0
 11
66.904
 21
136.5834999999999
 31
0.0
  0
LINE
  5
163
330
1E
100
AcDbEntity
  8
0
100
AcDbLine
 10
52.896
 20
134.1515
 30
0.0
 11
58.408
 21
129.9915
 31
0.0
  0
LINE
  5
164
330
1E
100
AcDbEntity
  8
0
100
AcDbLine
 10
58.408
 20
129.9915
 30
0.0
 11
62.56800000000001
 21
124.4795
 31
0.0
  0
LINE
  5
165
330
1E
100
AcDbEntity
  8
0
100
AcDbLine
 10
65.0
 20
118.3995
 30
0.0
 11
65.0
 21
129.5834999999999
 31
0.0
  0
LINE
  5
166
330
1E
100
AcDbEntity
  8
0
100
AcDbLine
 10
64.1
 20
129.5834999999999
 30
0.0
 11
65.0
 21
129.5834999999999
 31
0.0
  0
LINE
  5
167
330
1E
100
AcDbEntity
  8
0
100
AcDbLine
 10
65.0
 20
129.5834999999999
 30
0.0
 11
65.0
 21
118.3995
 31
0.0
  0
LINE
  5
168
330
1E
100
AcDbEntity
  8
0
100
AcDbLine
 10
65.0
 20
129.5834999999999
 30
0.0
 11
66.04
 21
129.5834999999999
 31
0.0
  0
LINE
  5
169
330
1E
100
AcDbEntity
  8
0
100
AcDbLine
 10
62.56800000000001
 20
124.4795
 30
0.0
 11
65.06399999999999
 21
118.2395
 31
0.0
  0
LINE
  5
16A
330
1E
100
AcDbEntity
  8
0
100
AcDbLine
 10
65.06399999999999
 20
118.2395
 30
0.0
 11
66.0
 21
111.5835
 31
0.0
  0
LINE
  5
16B
330
1E
100
AcDbEntity
  8
0
100
AcDbLine
 10
40.0
 20
137.5834999999999
 30
0.0
 11
46.656
 21
136.6475
 31
0.0
  0
LINE
  5
16C
330
1E
100
AcDbEntity
  8
0
100
AcDbLine
 10
62.56800000000001
 20
98.6875
 30
0.0
 11
65.06399999999999
 21
104.9274999999999
 31
0.0
  0
LINE
  5
16D
330
1E
100
AcDbEntity
  8
0
100
AcDbLine
 10
65.5
 20
78.5835
 30
0.0
 11
66.0
 21
78.5835
 31
0.0
  0
LINE
  5
16E
330
1E
100
AcDbEntity
  8
0
100
AcDbLine
 10
65.5
 20
78.5835
 30
0.0
 11
65.5
 21
64.5835
 31
0.0
  0
LINE
  5
16F
330
1E
100
AcDbEntity
  8
0
100
AcDbLine
 10
65.5
 20
80.5835
 30
0.0
 11
65.5
 21
82.5835
 31
0.0
  0
LINE
  5
170
330
1E
100
AcDbEntity
  8
0
100
AcDbLine
 10
66.0
 20
78.5835
 30
0.0
 11
66.0
 21
80.5835
 31
0.0
  0
LINE
  5
171
330
1E
100
AcDbEntity
  8
0
100
AcDbLine
 10
66.0
 20
80.5835
 30
0.0
 11
66.0
 21
78.5835
 31
0.0
  0
LINE
  5
172
330
1E
100
AcDbEntity
  8
0
100
AcDbLine
 10
66.0
 20
82.5835
 30
0.0
 11
66.0
 21
84.58350000000001
 31
0.0
  0
LINE
  5
173
330
1E
100
AcDbEntity
  8
0
100
AcDbLine
 10
66.0
 20
84.58350000000001
 30
0.0
 11
66.0
 21
82.5835
 31
0.0
  0
LINE
  5
174
330
1E
100
AcDbEntity
  8
0
100
AcDbLine
 10
65.5
 20
82.5835
 30
0.0
 11
66.0
 21
82.5835
 31
0.0
  0
LINE
  5
175
330
1E
100
AcDbEntity
  8
0
100
AcDbLine
 10
65.5
 20
82.5835
 30
0.0
 11
65.5
 21
80.5835
 31
0.0
  0
LINE
  5
176
330
1E
100
AcDbEntity
  8
0
100
AcDbLine
 10
66.904
 20
140.5834999999999
 30
0.0
 11
72.98399999999999
 21
140.5834999999999
 31
0.0
  0
LINE
  5
177
330
1E
100
AcDbEntity
  8
0
100
AcDbLine
 10
66.904
 20
136.5834999999999
 30
0.0
 11
72.98399999999999
 21
136.5834999999999
 31
0.0
  0
LINE
  5
178
330
1E
100
AcDbEntity
  8
0
100
AcDbLine
 10
66.04
 20
129.5834999999999
 30
0.0
 11
68.92
 21
129.5834999999999
 31
0.0
  0
LINE
  5
179
330
1E
100
AcDbEntity
  8
0
100
AcDbLine
 10
65.5
 20
112.5835
 30
0.0
 11
65.5
 21
110.5835
 31
0.0
  0
LINE
  5
17A
330
1E
100
AcDbEntity
  8
0
100
AcDbLine
 10
65.5
 20
110.5835
 30
0.0
 11
65.5
 21
112.5835
 31
0.0
  0
LINE
  5
17B
330
1E
100
AcDbEntity
  8
0
100
AcDbLine
 10
65.06399999999999
 20
104.9274999999999
 30
0.0
 11
66.0
 21
111.5835
 31
0.0
  0
LINE
  5
17C
330
1E
100
AcDbEntity
  8
0
100
AcDbLine
 10
46.656
 20
70.6618
 30
0.0
 11
52.896
 21
68.8968
 31
0.0
  0
LINE
  5
17D
330
1E
100
AcDbEntity
  8
0
100
AcDbLine
 10
40.0
 20
71.3236
 30
0.0
 11
46.656
 21
70.6618
 31
0.0
  0
LINE
  5
17E
330
1E
100
AcDbEntity
  8
0
100
AcDbLine
 10
40.0
 20
70.6165
 30
0.0
 11
46.656
 21
69.9547
 31
0.0
  0
LINE
  5
17F
330
1E
100
AcDbEntity
  8
0
100
AcDbLine
 10
33.344
 20
70.6618
 30
0.0
 11
40.0
 21
71.3236
 31
0.0
  0
LINE
  5
180
330
1E
100
AcDbEntity
  8
0
100
AcDbLine
 10
33.344
 20
69.9547
 30
0.0
 11
40.0
 21
70.6165
 31
0.0
  0
LINE
  5
181
330
1E
100
AcDbEntity
  8
0
100
AcDbLine
 10
14.0
 20
52.23169999999999
 30
0.0
 11
14.93599999999999
 21
47.52519999999999
 31
0.0
  0
LINE
  5
182
330
1E
100
AcDbEntity
  8
0
100
AcDbLine
 10
14.0
 20
52.23169999999999
 30
0.0
 11
14.0
 21
52.9388
 31
0.0
  0
LINE
  5
183
330
1E
100
AcDbEntity
  8
0
100
AcDbLine
 10
14.0
 20
52.23169999999999
 30
0.0
 11
14.93599999999999
 21
56.9382
 31
0.0
  0
LINE
  5
184
330
1E
100
AcDbEntity
  8
0
100
AcDbLine
 10
14.93599999999999
 20
47.52519999999999
 30
0.0
 11
15.0
 21
47.41206410256411
 31
0.0
  0
LINE
  5
185
330
1E
100
AcDbEntity
  8
0
100
AcDbLine
 10
70.0
 20
129.5834999999999
 30
0.0
 11
70.0
 21
136.5834999999999
 31
0.0
  0
LINE
  5
186
330
1E
100
AcDbEntity
  8
0
100
AcDbLine
 10
78.0
 20
136.5834999999999
 30
0.0
 11
78.0
 21
140.5834999999999
 31
0.0
  0
LINE
  5
187
330
1E
100
AcDbEntity
  8
0
100
AcDbLine
 10
76.632
 20
136.5834999999999
 30
0.0
 11
78.0
 21
136.5834999999999
 31
0.0
  0
LINE
  5
188
330
1E
100
AcDbEntity
  8
0
100
AcDbLine
 10
78.0
 20
140.5834999999999
 30
0.0
 11
78.0
 21
136.5834999999999
 31
0.0
  0
LINE
  5
189
330
1E
100
AcDbEntity
  8
0
100
AcDbLine
 10
76.632
 20
140.5834999999999
 30
0.0
 11
78.0
 21
140.5834999999999
 31
0.0
  0
LINE
  5
18A
330
1E
100
AcDbEntity
  8
0
100
AcDbLine
 10
72.98399999999999
 20
140.5834999999999
 30
0.0
 11
76.632
 21
140.5834999999999
 31
0.0
  0
LINE
  5
18B
330
1E
100
AcDbEntity
  8
0
100
AcDbLine
 10
72.98399999999999
 20
136.5834999999999
 30
0.0
 11
76.632
 21
136.5834999999999
 31
0.0
  0
LINE
  5
18C
330
1E
100
AcDbEntity
  8
0
100
AcDbLine
 10
70.0
 20
136.5834999999999
 30
0.0
 11
70.0
 21
129.5834999999999
 31
0.0
  0
LINE
  5
18D
330
1E
100
AcDbEntity
  8
0
100
AcDbLine
 10
70.0
 20
136.5834999999999
 30
0.0
 11
72.98399999999999
 21
136.5834999999999
 31
0.0
  0
LINE
  5
18E
330
1E
100
AcDbEntity
  8
0
100
AcDbLine
 10
68.92
 20
129.5834999999999
 30
0.0
 11
70.0
 21
129.5834999999999
 31
0.0
  0
LINE
  5
18F
330
1E
100
AcDbEntity
  8
0
100
AcDbLine
 10
67.0
 20
140.5834999999999
 30
0.0
 11
67.0
 21
150.5834999999999
 31
0.0
  0
LINE
  5
190
330
1E
100
AcDbEntity
  8
0
100
AcDbLine
 10
13.0
 20
150.5834999999999
 30
0.0
 11
13.0
 21
140.5834999999999
 31
0.0
  0
LINE
  5
191
330
1E
100
AcDbEntity
  8
0
100
AcDbLine
 10
13.0
 20
150.5834999999999
 30
0.0
 11
13.972
 21
150.5834999999999
 31
0.0
  0
LINE
  5
192
330
1E
100
AcDbEntity
  8
0
100
AcDbLine
 10
13.972
 20
150.5834999999999
 30
0.0
 11
16.564
 21
150.5834999999999
 31
0.0
  0
LINE
  5
193
330
1E
100
AcDbEntity
  8
0
100
AcDbLine
 10
16.564
 20
150.5834999999999
 30
0.0
 11
20.884
 21
150.5834999999999
 31
0.0
  0
LINE
  5
194
330
1E
100
AcDbEntity
  8
0
100
AcDbLine
 10
20.884
 20
150.5834999999999
 30
0.0
 11
26.608
 21
150.5834999999999
 31
0.0
  0
LINE
  5
195
330
1E
100
AcDbEntity
  8
0
100
AcDbLine
 10
26.608
 20
150.5834999999999
 30
0.0
 11
33.088
 21
150.5834999999999
 31
0.0
  0
LINE
  5
196
330
1E
100
AcDbEntity
  8
0
100
AcDbLine
 10
15.22
 20
150.5834999999999
 30
0.0
 11
22.64
 21
150.5834999999999
 31
0.0
  0
LINE
  5
197
330
1E
100
AcDbEntity
  8
0
100
AcDbLine
 10
20.0
 20
152.5834999999999
 30
0.0
 11
20.0
 21
170.4183999999999
 31
0.0
  0
LINE
  5
198
330
1E
100
AcDbEntity
  8
0
100
AcDbLine
 10
15.22
 20
152.5834999999999
 30
0.0
 11
22.64
 21
152.5834999999999
 31
0.0
  0
LINE
  5
199
330
1E
100
AcDbEntity
  8
0
100
AcDbLine
 10
20.0
 20
170.4183999999999
 30
0.0
 11
20.0
 21
152.5834999999999
 31
0.0
  0
LINE
  5
1A4
330
1E
100
AcDbEntity
  8
0
100
AcDbLine
 10
20.0
 20
170.4183999999999
 30
0.0
 11
20.0
 21
543.9344245283019
 31
0.0
  0
LINE
  5
1A6
330
1E
100
AcDbEntity
  8
0
100
AcDbLine
 10
20.16
 20
543.8155
 30
0.0
 11
29.76
 21
540.0335
 31
0.0
  0
LINE
  5
1A7
330
1E
100
AcDbEntity
  8
0
100
AcDbLine
 10
29.76
 20
540.0335
 30
0.0
 11
34.88
 21
539.3244999999999
 31
0.0
  0
LINE
  5
1A8
330
1E
100
AcDbEntity
  8
0
100
AcDbLine
 10
10.0
 20
579.3964999999999
 30
0.0
 11
11.08
 21
571.8334999999999
 31
0.0
  0
LINE
  5
1A9
330
1E
100
AcDbEntity
  8
0
100
AcDbLine
 10
10.0
 20
579.3964999999999
 30
0.0
 11
10.0
 21
580.2654999999999
 31
0.0
  0
LINE
  5
1AA
330
1E
100
AcDbEntity
  8
0
100
AcDbLine
 10
11.08
 20
571.8334999999999
 30
0.0
 11
13.96
 21
564.7435
 31
0.0
  0
LINE
  5
1AB
330
1E
100
AcDbEntity
  8
0
100
AcDbLine
 10
11.08
 20
587.8284999999999
 30
0.0
 11
13.96
 21
594.9194999999999
 31
0.0
  0
LINE
  5
1AC
330
1E
100
AcDbEntity
  8
0
100
AcDbLine
 10
10.0
 20
580.2654999999999
 30
0.0
 11
11.08
 21
572.7015
 31
0.0
  0
LINE
  5
1AD
330
1E
100
AcDbEntity
  8
0
100
AcDbLine
 10
10.0
 20
580.2654999999999
 30
0.0
 11
10.0
 21
579.3964999999999
 31
0.0
  0
LINE
  5
1AE
330
1E
100
AcDbEntity
  8
0
100
AcDbLine
 10
10.0
 20
580.2654999999999
 30
0.0
 11
11.08
 21
587.8284999999999
 31
0.0
  0
LINE
  5
1AF
330
1E
100
AcDbEntity
  8
0
100
AcDbLine
 10
11.08
 20
572.7015
 30
0.0
 11
13.96
 21
565.6114999999999
 31
0.0
  0
LINE
  5
1B0
330
1E
100
AcDbEntity
  8
0
100
AcDbLine
 10
11.67999999999999
 20
550.1185
 30
0.0
 11
20.16
 21
543.8155
 31
0.0
  0
LINE
  5
1B1
330
1E
100
AcDbEntity
  8
0
100
AcDbLine
 10
21.15199999999999
 20
546.2195
 30
0.0
 11
30.272
 21
542.6264999999999
 31
0.0
  0
LINE
  5
1B2
330
1E
100
AcDbEntity
  8
0
100
AcDbLine
 10
13.09599999999999
 20
552.2075
 30
0.0
 11
21.15199999999999
 21
546.2195
 31
0.0
  0
LINE
  5
1B3
330
1E
100
AcDbEntity
  8
0
100
AcDbLine
 10
13.09599999999999
 20
552.9015
 30
0.0
 11
21.15199999999999
 21
546.9145
 31
0.0
  0
LINE
  5
1B4
330
1E
100
AcDbEntity
  8
0
100
AcDbLine
 10
21.15199999999999
 20
546.9145
 30
0.0
 11
30.272
 21
543.3215
 31
0.0
  0
LINE
  5
1B5
330
1E
100
AcDbEntity
  8
0
100
AcDbLine
 10
25.12
 20
553.7525
 30
0.0
 11
32.32
 21
550.9165
 31
0.0
  0
LINE
  5
1B6
330
1E
100
AcDbEntity
  8
0
100
AcDbLine
 10
13.96
 20
564.7435
 30
0.0
 11
18.76
 21
558.4795
 31
0.0
  0
LINE
  5
1B7
330
1E
100
AcDbEntity
  8
0
100
AcDbLine
 10
18.76
 20
558.4795
 30
0.0
 11
25.12
 21
553.7525
 31
0.0
  0
LINE
  5
1B8
330
1E
100
AcDbEntity
  8
0
100
AcDbLine
 10
13.09599999999999
 20
605.8925
 30
0.0
 11
21.15199999999999
 21
611.8795
 31
0.0
  0
LINE
  5
1B9
330
1E
100
AcDbEntity
  8
0
100
AcDbLine
 10
13.96
 20
594.9194999999999
 30
0.0
 11
18.76
 21
601.1824999999999
 31
0.0
  0
LINE
  5
1BA
330
1E
100
AcDbEntity
  8
0
100
AcDbLine
 10
13.96
 20
565.6114999999999
 30
0.0
 11
18.76
 21
559.3474999999999
 31
0.0
  0
LINE
  5
1BB
330
1E
100
AcDbEntity
  8
0
100
AcDbLine
 10
25.84
 20
566.3205
 30
0.0
 11
30.08
 21
563.1685
 31
0.0
  0
LINE
  5
1BC
330
1E
100
AcDbEntity
  8
0
100
AcDbLine
 10
20.72
 20
575.2225
 30
0.0
 11
22.64
 21
570.4954999999999
 31
0.0
  0
LINE
  5
1BD
330
1E
100
AcDbEntity
  8
0
100
AcDbLine
 10
22.64
 20
570.4954999999999
 30
0.0
 11
25.84
 21
566.3205
 31
0.0
  0
LINE
  5
1BE
330
1E
100
AcDbEntity
  8
0
100
AcDbLine
 10
20.0
 20
580.2654999999999
 30
0.0
 11
20.72
 21
575.2225
 31
0.0
  0
LINE
  5
1BF
330
1E
100
AcDbEntity
  8
0
100
AcDbLine
 10
20.0
 20
580.2654999999999
 30
0.0
 11
20.0
 21
582.0014999999999
 31
0.0
  0
LINE
  5
1C0
330
1E
100
AcDbEntity
  8
0
100
AcDbLine
 10
20.72
 20
587.0434999999999
 30
0.0
 11
22.64
 21
591.7714999999999
 31
0.0
  0
LINE
  5
1C1
330
1E
100
AcDbEntity
  8
0
100
AcDbLine
 10
20.0
 20
582.0014999999999
 30
0.0
 11
20.72
 21
576.9595
 31
0.0
  0
LINE
  5
1C2
330
1E
100
AcDbEntity
  8
0
100
AcDbLine
 10
20.0
 20
582.0014999999999
 30
0.0
 11
20.0
 21
580.2654999999999
 31
0.0
  0
LINE
  5
1C3
330
1E
100
AcDbEntity
  8
0
100
AcDbLine
 10
20.0
 20
582.0014999999999
 30
0.0
 11
20.72
 21
587.0434999999999
 31
0.0
  0
LINE
  5
1C4
330
1E
100
AcDbEntity
  8
0
100
AcDbLine
 10
20.72
 20
576.9595
 30
0.0
 11
22.64
 21
572.2324999999999
 31
0.0
  0
LINE
  5
1C5
330
1E
100
AcDbEntity
  8
0
100
AcDbLine
 10
22.64
 20
591.7714999999999
 30
0.0
 11
25.84
 21
595.9465
 31
0.0
  0
LINE
  5
1C6
330
1E
100
AcDbEntity
  8
0
100
AcDbLine
 10
25.84
 20
595.9465
 30
0.0
 11
30.08
 21
599.0974999999999
 31
0.0
  0
LINE
  5
1C7
330
1E
100
AcDbEntity
  8
0
100
AcDbLine
 10
22.64
 20
572.2324999999999
 30
0.0
 11
25.84
 21
568.0565
 31
0.0
  0
LINE
  5
1C8
330
1E
100
AcDbEntity
  8
0
100
AcDbLine
 10
25.84
 20
568.0565
 30
0.0
 11
30.08
 21
564.9054999999999
 31
0.0
  0
LINE
  5
1C9
330
1E
100
AcDbEntity
  8
0
100
AcDbLine
 10
18.76
 20
601.1824999999999
 30
0.0
 11
25.12
 21
605.9095
 31
0.0
  0
LINE
  5
1CA
330
1E
100
AcDbEntity
  8
0
100
AcDbLine
 10
21.15199999999999
 20
611.8795
 30
0.0
 11
30.272
 21
615.4725
 31
0.0
  0
LINE
  5
1CB
330
1E
100
AcDbEntity
  8
0
100
AcDbLine
 10
25.12
 20
605.9095
 30
0.0
 11
32.32
 21
608.7455
 31
0.0
  0
LINE
  5
1CC
330
1E
100
AcDbEntity
  8
0
100
AcDbLine
 10
18.76
 20
559.3474999999999
 30
0.0
 11
25.12
 21
554.6204999999999
 31
0.0
  0
LINE
  5
1CD
330
1E
100
AcDbEntity
  8
0
100
AcDbLine
 10
25.12
 20
554.6204999999999
 30
0.0
 11
32.32
 21
551.7845
 31
0.0
  0
LINE
  5
1CE
330
1E
100
AcDbEntity
  8
0
100
AcDbLine
 10
11.67999999999999
 20
606.5925
 30
0.0
 11
20.16
 21
612.8944999999999
 31
0.0
  0
LINE
  5
1CF
330
1E
100
AcDbEntity
  8
0
100
AcDbLine
 10
20.16
 20
612.8944999999999
 30
0.0
 11
29.76
 21
616.6765
 31
0.0
  0
LINE
  5
1D0
330
1E
100
AcDbEntity
  8
0
100
AcDbLine
 10
11.67999999999999
 20
550.8124999999999
 30
0.0
 11
20.16
 21
544.5095
 31
0.0
  0
LINE
  5
1D1
330
1E
100
AcDbEntity
  8
0
100
AcDbLine
 10
20.16
 20
544.5095
 30
0.0
 11
29.76
 21
540.7285
 31
0.0
  0
LINE
  5
1D5
330
1E
100
AcDbEntity
  8
0
100
AcDbLine
 10
30.08
 20
599.0974999999999
 30
0.0
 11
34.88
 21
600.9885
 31
0.0
  0
LINE
  5
1D6
330
1E
100
AcDbEntity
  8
0
100
AcDbLine
 10
30.08
 20
563.1685
 30
0.0
 11
34.88
 21
561.2785
 31
0.0
  0
LINE
  5
1D7
330
1E
100
AcDbEntity
  8
0
100
AcDbLine
 10
30.272
 20
542.6264999999999
 30
0.0
 11
40.0
 21
541.2795
 31
0.0
  0
LINE
  5
1D8
330
1E
100
AcDbEntity
  8
0
100
AcDbLine
 10
30.272
 20
615.4725
 30
0.0
 11
40.0
 21
616.8194999999999
 31
0.0
  0
LINE
  5
1D9
330
1E
100
AcDbEntity
  8
0
100
AcDbLine
 10
30.272
 20
543.3215
 30
0.0
 11
40.0
 21
541.9745
 31
0.0
  0
LINE
  5
1DA
330
1E
100
AcDbEntity
  8
0
100
AcDbLine
 10
30.08
 20
564.9054999999999
 30
0.0
 11
34.88
 21
563.0144999999999
 31
0.0
  0
LINE
  5
1DB
330
1E
100
AcDbEntity
  8
0
100
AcDbLine
 10
29.76
 20
616.6765
 30
0.0
 11
40.0
 21
618.0945
 31
0.0
  0
LINE
  5
1DC
330
1E
100
AcDbEntity
  8
0
100
AcDbLine
 10
29.76
 20
540.7285
 30
0.0
 11
40.0
 21
539.3105
 31
0.0
  0
LINE
  5
1DD
330
1E
100
AcDbEntity
  8
0
100
AcDbLine
 10
22.64
 20
152.5834999999999
 30
0.0
 11
31.04
 21
152.5834999999999
 31
0.0
  0
LINE
  5
1DE
330
1E
100
AcDbEntity
  8
0
100
AcDbLine
 10
31.04
 20
152.5834999999999
 30
0.0
 11
40.0
 21
152.5834999999999
 31
0.0
  0
LINE
  5
1DF
330
1E
100
AcDbEntity
  8
0
100
AcDbLine
 10
22.64
 20
150.5834999999999
 30
0.0
 11
31.04
 21
150.5834999999999
 31
0.0
  0
LINE
  5
1E0
330
1E
100
AcDbEntity
  8
0
100
AcDbLine
 10
48.96
 20
150.5834999999999
 30
0.0
 11
57.36
 21
150.5834999999999
 31
0.0
  0
LINE
  5
1E1
330
1E
100
AcDbEntity
  8
0
100
AcDbLine
 10
57.36
 20
150.5834999999999
 30
0.0
 11
64.78
 21
150.5834999999999
 31
0.0
  0
LINE
  5
1E2
330
1E
100
AcDbEntity
  8
0
100
AcDbLine
 10
67.0
 20
150.5834999999999
 30
0.0
 11
67.0
 21
140.5834999999999
 31
0.0
  0
LINE
  5
1E3
330
1E
100
AcDbEntity
  8
0
100
AcDbLine
 10
67.0
 20
150.5834999999999
 30
0.0
 11
70.38
 21
150.5834999999999
 31
0.0
  0
LINE
  5
1E4
330
1E
100
AcDbEntity
  8
0
100
AcDbLine
 10
75.0
 20
150.5834999999999
 30
0.0
 11
75.0
 21
152.5834999999999
 31
0.0
  0
LINE
  5
1E5
330
1E
100
AcDbEntity
  8
0
100
AcDbLine
 10
73.73999999999999
 20
150.5834999999999
 30
0.0
 11
75.0
 21
150.5834999999999
 31
0.0
  0
LINE
  5
1E6
330
1E
100
AcDbEntity
  8
0
100
AcDbLine
 10
70.38
 20
150.5834999999999
 30
0.0
 11
73.73999999999999
 21
150.5834999999999
 31
0.0
  0
LINE
  5
1E7
330
1E
100
AcDbEntity
  8
0
100
AcDbLine
 10
64.78
 20
150.5834999999999
 30
0.0
 11
70.38
 21
150.5834999999999
 31
0.0
  0
LINE
  5
1E8
330
1E
100
AcDbEntity
  8
0
100
AcDbLine
 10
66.02800000000001
 20
150.5834999999999
 30
0.0
 11
67.0
 21
150.5834999999999
 31
0.0
  0
LINE
  5
1E9
330
1E
100
AcDbEntity
  8
0
100
AcDbLine
 10
63.43600000000001
 20
150.5834999999999
 30
0.0
 11
66.02800000000001
 21
150.5834999999999
 31
0.0
  0
LINE
  5
1EA
330
1E
100
AcDbEntity
  8
0
100
AcDbLine
 10
59.116
 20
150.5834999999999
 30
0.0
 11
63.43600000000001
 21
150.5834999999999
 31
0.0
  0
LINE
  5
1EB
330
1E
100
AcDbEntity
  8
0
100
AcDbLine
 10
53.39199999999999
 20
150.5834999999999
 30
0.0
 11
59.116
 21
150.5834999999999
 31
0.0
  0
LINE
  5
1EC
330
1E
100
AcDbEntity
  8
0
100
AcDbLine
 10
46.912
 20
150.5834999999999
 30
0.0
 11
53.39199999999999
 21
150.5834999999999
 31
0.0
  0
LINE
  5
1ED
330
1E
100
AcDbEntity
  8
0
100
AcDbLine
 10
40.0
 20
150.5834999999999
 30
0.0
 11
46.912
 21
150.5834999999999
 31
0.0
  0
LINE
  5
1EE
330
1E
100
AcDbEntity
  8
0
100
AcDbLine
 10
40.0
 20
150.5834999999999
 30
0.0
 11
48.96
 21
150.5834999999999
 31
0.0
  0
LINE
  5
1F2
330
1E
100
AcDbEntity
  8
0
100
AcDbLine
 10
32.32
 20
550.9165
 30
0.0
 11
40.0
 21
549.8524999999999
 31
0.0
  0
LINE
  5
1F3
330
1E
100
AcDbEntity
  8
0
100
AcDbLine
 10
34.88
 20
561.2785
 30
0.0
 11
40.0
 21
560.5694999999999
 31
0.0
  0
LINE
  5
1F4
330
1E
100
AcDbEntity
  8
0
100
AcDbLine
 10
35.65999999999999
 20
579.5594999999999
 30
0.0
 11
36.46
 21
578.5154999999999
 31
0.0
  0
LINE
  5
1F5
330
1E
100
AcDbEntity
  8
0
100
AcDbLine
 10
36.46
 20
578.5154999999999
 30
0.0
 11
37.52
 21
577.7274999999999
 31
0.0
  0
LINE
  5
1F6
330
1E
100
AcDbEntity
  8
0
100
AcDbLine
 10
37.52
 20
577.7274999999999
 30
0.0
 11
38.71999999999999
 21
577.2545
 31
0.0
  0
LINE
  5
1F7
330
1E
100
AcDbEntity
  8
0
100
AcDbLine
 10
38.71999999999999
 20
577.2545
 30
0.0
 11
40.0
 21
577.0774999999999
 31
0.0
  0
LINE
  5
1F8
330
1E
100
AcDbEntity
  8
0
100
AcDbLine
 10
35.18
 20
580.7414999999999
 30
0.0
 11
35.65999999999999
 21
579.5594999999999
 31
0.0
  0
LINE
  5
1F9
330
1E
100
AcDbEntity
  8
0
100
AcDbLine
 10
35.0
 20
582.0014999999999
 30
0.0
 11
35.18
 21
580.7414999999999
 31
0.0
  0
LINE
  5
1FA
330
1E
100
AcDbEntity
  8
0
100
AcDbLine
 10
35.0
 20
582.0014999999999
 30
0.0
 11
35.0
 21
584.6065
 31
0.0
  0
LINE
  5
1FB
330
1E
100
AcDbEntity
  8
0
100
AcDbLine
 10
35.18
 20
585.8665
 30
0.0
 11
35.65999999999999
 21
587.0485
 31
0.0
  0
LINE
  5
1FC
330
1E
100
AcDbEntity
  8
0
100
AcDbLine
 10
35.0
 20
584.6065
 30
0.0
 11
35.18
 21
583.3454999999999
 31
0.0
  0
LINE
  5
1FD
330
1E
100
AcDbEntity
  8
0
100
AcDbLine
 10
35.0
 20
584.6065
 30
0.0
 11
35.0
 21
582.0014999999999
 31
0.0
  0
LINE
  5
1FE
330
1E
100
AcDbEntity
  8
0
100
AcDbLine
 10
35.0
 20
584.6065
 30
0.0
 11
35.18
 21
585.8665
 31
0.0
  0
LINE
  5
1FF
330
1E
100
AcDbEntity
  8
0
100
AcDbLine
 10
35.18
 20
583.3454999999999
 30
0.0
 11
35.65999999999999
 21
582.1645
 31
0.0
  0
LINE
  5
200
330
1E
100
AcDbEntity
  8
0
100
AcDbLine
 10
35.65999999999999
 20
587.0485
 30
0.0
 11
36.46
 21
588.0924999999999
 31
0.0
  0
LINE
  5
201
330
1E
100
AcDbEntity
  8
0
100
AcDbLine
 10
36.46
 20
588.0924999999999
 30
0.0
 11
37.52
 21
588.8804999999999
 31
0.0
  0
LINE
  5
202
330
1E
100
AcDbEntity
  8
0
100
AcDbLine
 10
37.52
 20
588.8804999999999
 30
0.0
 11
38.71999999999999
 21
589.3535
 31
0.0
  0
LINE
  5
203
330
1E
100
AcDbEntity
  8
0
100
AcDbLine
 10
35.65999999999999
 20
582.1645
 30
0.0
 11
36.46
 21
581.1205
 31
0.0
  0
LINE
  5
204
330
1E
100
AcDbEntity
  8
0
100
AcDbLine
 10
36.46
 20
581.1205
 30
0.0
 11
37.52
 21
580.3325
 31
0.0
  0
LINE
  5
205
330
1E
100
AcDbEntity
  8
0
100
AcDbLine
 10
38.71999999999999
 20
589.3535
 30
0.0
 11
40.0
 21
589.5304999999999
 31
0.0
  0
LINE
  5
206
330
1E
100
AcDbEntity
  8
0
100
AcDbLine
 10
37.52
 20
580.3325
 30
0.0
 11
38.71999999999999
 21
579.8595
 31
0.0
  0
LINE
  5
207
330
1E
100
AcDbEntity
  8
0
100
AcDbLine
 10
38.71999999999999
 20
579.8595
 30
0.0
 11
40.0
 21
579.6825
 31
0.0
  0
LINE
  5
208
330
1E
100
AcDbEntity
  8
0
100
AcDbLine
 10
34.88
 20
600.9885
 30
0.0
 11
40.0
 21
601.6975
 31
0.0
  0
LINE
  5
209
330
1E
100
AcDbEntity
  8
0
100
AcDbLine
 10
34.88
 20
563.0144999999999
 30
0.0
 11
40.0
 21
562.3055
 31
0.0
  0
LINE
  5
20A
330
1E
100
AcDbEntity
  8
0
100
AcDbLine
 10
32.32
 20
608.7455
 30
0.0
 11
40.0
 21
609.8094999999999
 31
0.0
  0
LINE
  5
20B
330
1E
100
AcDbEntity
  8
0
100
AcDbLine
 10
32.32
 20
551.7845
 30
0.0
 11
40.0
 21
550.7204999999999
 31
0.0
  0
LINE
  5
20C
330
1E
100
AcDbEntity
  8
0
100
AcDbLine
 10
60.0
 20
152.5834999999999
 30
0.0
 11
60.0
 21
170.4183999999999
 31
0.0
  0
LINE
  5
20D
330
1E
100
AcDbEntity
  8
0
100
AcDbLine
 10
75.0
 20
152.5834999999999
 30
0.0
 11
75.0
 21
150.5834999999999
 31
0.0
  0
LINE
  5
20E
330
1E
100
AcDbEntity
  8
0
100
AcDbLine
 10
73.73999999999999
 20
152.5834999999999
 30
0.0
 11
75.0
 21
152.5834999999999
 31
0.0
  0
LINE
  5
20F
330
1E
100
AcDbEntity
  8
0
100
AcDbLine
 10
70.38
 20
152.5834999999999
 30
0.0
 11
73.73999999999999
 21
152.5834999999999
 31
0.0
  0
LINE
  5
210
330
1E
100
AcDbEntity
  8
0
100
AcDbLine
 10
64.78
 20
152.5834999999999
 30
0.0
 11
70.38
 21
152.5834999999999
 31
0.0
  0
LINE
  5
211
330
1E
100
AcDbEntity
  8
0
100
AcDbLine
 10
57.36
 20
152.5834999999999
 30
0.0
 11
64.78
 21
152.5834999999999
 31
0.0
  0
LINE
  5
215
330
1E
100
AcDbEntity
  8
0
100
AcDbLine
 10
40.0
 20
541.2795
 30
0.0
 11
49.728
 21
542.6264999999999
 31
0.0
  0
LINE
  5
216
330
1E
100
AcDbEntity
  8
0
100
AcDbLine
 10
40.0
 20
541.9745
 30
0.0
 11
49.728
 21
543.3215
 31
0.0
  0
LINE
  5
217
330
1E
100
AcDbEntity
  8
0
100
AcDbLine
 10
40.0
 20
549.8524999999999
 30
0.0
 11
47.67999999999999
 21
550.9165
 31
0.0
  0
LINE
  5
218
330
1E
100
AcDbEntity
  8
0
100
AcDbLine
 10
40.0
 20
560.5694999999999
 30
0.0
 11
45.11999999999999
 21
561.2785
 31
0.0
  0
LINE
  5
219
330
1E
100
AcDbEntity
  8
0
100
AcDbLine
 10
40.0
 20
577.0774999999999
 30
0.0
 11
41.28
 21
577.2545
 31
0.0
  0
LINE
  5
21A
330
1E
100
AcDbEntity
  8
0
100
AcDbLine
 10
40.0
 20
616.8194999999999
 30
0.0
 11
49.728
 21
615.4725
 31
0.0
  0
LINE
  5
21B
330
1E
100
AcDbEntity
  8
0
100
AcDbLine
 10
40.0
 20
579.6825
 30
0.0
 11
41.28
 21
579.8595
 31
0.0
  0
LINE
  5
21C
330
1E
100
AcDbEntity
  8
0
100
AcDbLine
 10
40.0
 20
589.5304999999999
 30
0.0
 11
41.28
 21
589.3535
 31
0.0
  0
LINE
  5
21D
330
1E
100
AcDbEntity
  8
0
100
AcDbLine
 10
40.0
 20
562.3055
 30
0.0
 11
45.11999999999999
 21
563.0144999999999
 31
0.0
  0
LINE
  5
21E
330
1E
100
AcDbEntity
  8
0
100
AcDbLine
 10
40.0
 20
601.6975
 30
0.0
 11
45.11999999999999
 21
600.9885
 31
0.0
  0
LINE
  5
21F
330
1E
100
AcDbEntity
  8
0
100
AcDbLine
 10
40.0
 20
550.7204999999999
 30
0.0
 11
47.67999999999999
 21
551.7845
 31
0.0
  0
LINE
  5
220
330
1E
100
AcDbEntity
  8
0
100
AcDbLine
 10
40.0
 20
609.8094999999999
 30
0.0
 11
47.67999999999999
 21
608.7455
 31
0.0
  0
LINE
  5
221
330
1E
100
AcDbEntity
  8
0
100
AcDbLine
 10
40.0
 20
539.3105
 30
0.0
 11
50.24
 21
540.7285
 31
0.0
  0
LINE
  5
230
330
1E
100
AcDbEntity
  8
0
100
AcDbLine
 10
50.24
 20
540.0335
 30
0.0
 11
59.84
 21
543.8155
 31
0.0
  0
LINE
  5
231
330
1E
100
AcDbEntity
  8
0
100
AcDbLine
 10
45.7084862005987
 20
539.4059915461379
 30
0.0
 11
50.24
 21
540.0335
 31
0.0
  0
LINE
  5
232
330
1E
100
AcDbEntity
  8
0
100
AcDbLine
 10
49.728
 20
542.6264999999999
 30
0.0
 11
58.848
 21
546.2195
 31
0.0
  0
LINE
  5
233
330
1E
100
AcDbEntity
  8
0
100
AcDbLine
 10
49.728
 20
543.3215
 30
0.0
 11
58.848
 21
546.9145
 31
0.0
  0
LINE
  5
234
330
1E
100
AcDbEntity
  8
0
100
AcDbLine
 10
47.67999999999999
 20
550.9165
 30
0.0
 11
54.88
 21
553.7525
 31
0.0
  0
LINE
  5
235
330
1E
100
AcDbEntity
  8
0
100
AcDbLine
 10
45.11999999999999
 20
561.2785
 30
0.0
 11
49.92
 21
563.1685
 31
0.0
  0
LINE
  5
236
330
1E
100
AcDbEntity
  8
0
100
AcDbLine
 10
41.28
 20
577.2545
 30
0.0
 11
42.48
 21
577.7274999999999
 31
0.0
  0
LINE
  5
237
330
1E
100
AcDbEntity
  8
0
100
AcDbLine
 10
41.28
 20
579.8595
 30
0.0
 11
42.48
 21
580.3325
 31
0.0
  0
LINE
  5
238
330
1E
100
AcDbEntity
  8
0
100
AcDbLine
 10
43.54
 20
578.5154999999999
 30
0.0
 11
44.34
 21
579.5594999999999
 31
0.0
  0
LINE
  5
239
330
1E
100
AcDbEntity
  8
0
100
AcDbLine
 10
42.48
 20
577.7274999999999
 30
0.0
 11
43.54
 21
578.5154999999999
 31
0.0
  0
LINE
  5
23A
330
1E
100
AcDbEntity
  8
0
100
AcDbLine
 10
43.54
 20
581.1205
 30
0.0
 11
44.34
 21
582.1645
 31
0.0
  0
LINE
  5
23B
330
1E
100
AcDbEntity
  8
0
100
AcDbLine
 10
42.48
 20
580.3325
 30
0.0
 11
43.54
 21
581.1205
 31
0.0
  0
LINE
  5
23C
330
1E
100
AcDbEntity
  8
0
100
AcDbLine
 10
44.82
 20
580.7414999999999
 30
0.0
 11
45.0
 21
582.0014999999999
 31
0.0
  0
LINE
  5
23D
330
1E
100
AcDbEntity
  8
0
100
AcDbLine
 10
44.34
 20
579.5594999999999
 30
0.0
 11
44.82
 21
580.7414999999999
 31
0.0
  0
LINE
  5
23E
330
1E
100
AcDbEntity
  8
0
100
AcDbLine
 10
44.82
 20
583.3454999999999
 30
0.0
 11
45.0
 21
584.6065
 31
0.0
  0
LINE
  5
23F
330
1E
100
AcDbEntity
  8
0
100
AcDbLine
 10
44.34
 20
582.1645
 30
0.0
 11
44.82
 21
583.3454999999999
 31
0.0
  0
LINE
  5
240
330
1E
100
AcDbEntity
  8
0
100
AcDbLine
 10
45.0
 20
582.0014999999999
 30
0.0
 11
45.0
 21
584.6065
 31
0.0
  0
LINE
  5
241
330
1E
100
AcDbEntity
  8
0
100
AcDbLine
 10
45.0
 20
584.6065
 30
0.0
 11
45.0
 21
582.0014999999999
 31
0.0
  0
LINE
  5
242
330
1E
100
AcDbEntity
  8
0
100
AcDbLine
 10
44.82
 20
585.8665
 30
0.0
 11
45.0
 21
584.6065
 31
0.0
  0
LINE
  5
243
330
1E
100
AcDbEntity
  8
0
100
AcDbLine
 10
44.34
 20
587.0485
 30
0.0
 11
44.82
 21
585.8665
 31
0.0
  0
LINE
  5
244
330
1E
100
AcDbEntity
  8
0
100
AcDbLine
 10
43.54
 20
588.0924999999999
 30
0.0
 11
44.34
 21
587.0485
 31
0.0
  0
LINE
  5
245
330
1E
100
AcDbEntity
  8
0
100
AcDbLine
 10
42.48
 20
588.8804999999999
 30
0.0
 11
43.54
 21
588.0924999999999
 31
0.0
  0
LINE
  5
246
330
1E
100
AcDbEntity
  8
0
100
AcDbLine
 10
41.28
 20
589.3535
 30
0.0
 11
42.48
 21
588.8804999999999
 31
0.0
  0
LINE
  5
247
330
1E
100
AcDbEntity
  8
0
100
AcDbLine
 10
45.11999999999999
 20
563.0144999999999
 30
0.0
 11
49.92
 21
564.9054999999999
 31
0.0
  0
LINE
  5
248
330
1E
100
AcDbEntity
  8
0
100
AcDbLine
 10
45.11999999999999
 20
600.9885
 30
0.0
 11
49.92
 21
599.0974999999999
 31
0.0
  0
LINE
  5
249
330
1E
100
AcDbEntity
  8
0
100
AcDbLine
 10
47.67999999999999
 20
551.7845
 30
0.0
 11
54.88
 21
554.6204999999999
 31
0.0
  0
LINE
  5
24A
330
1E
100
AcDbEntity
  8
0
100
AcDbLine
 10
49.92
 20
563.1685
 30
0.0
 11
54.16
 21
566.3205
 31
0.0
  0
LINE
  5
24B
330
1E
100
AcDbEntity
  8
0
100
AcDbLine
 10
49.92
 20
564.9054999999999
 30
0.0
 11
54.16
 21
568.0565
 31
0.0
  0
LINE
  5
24C
330
1E
100
AcDbEntity
  8
0
100
AcDbLine
 10
54.16
 20
566.3205
 30
0.0
 11
57.36
 21
570.4954999999999
 31
0.0
  0
LINE
  5
24D
330
1E
100
AcDbEntity
  8
0
100
AcDbLine
 10
54.16
 20
568.0565
 30
0.0
 11
57.36
 21
572.2324999999999
 31
0.0
  0
LINE
  5
24E
330
1E
100
AcDbEntity
  8
0
100
AcDbLine
 10
54.16
 20
595.9465
 30
0.0
 11
57.36
 21
591.7714999999999
 31
0.0
  0
LINE
  5
24F
330
1E
100
AcDbEntity
  8
0
100
AcDbLine
 10
49.92
 20
599.0974999999999
 30
0.0
 11
54.16
 21
595.9465
 31
0.0
  0
LINE
  5
250
330
1E
100
AcDbEntity
  8
0
100
AcDbLine
 10
54.88
 20
553.7525
 30
0.0
 11
61.24
 21
558.4795
 31
0.0
  0
LINE
  5
251
330
1E
100
AcDbEntity
  8
0
100
AcDbLine
 10
58.848
 20
546.2195
 30
0.0
 11
66.904
 21
552.2075
 31
0.0
  0
LINE
  5
252
330
1E
100
AcDbEntity
  8
0
100
AcDbLine
 10
58.848
 20
546.9145
 30
0.0
 11
66.904
 21
552.9015
 31
0.0
  0
LINE
  5
253
330
1E
100
AcDbEntity
  8
0
100
AcDbLine
 10
57.36
 20
570.4954999999999
 30
0.0
 11
59.28
 21
575.2225
 31
0.0
  0
LINE
  5
254
330
1E
100
AcDbEntity
  8
0
100
AcDbLine
 10
59.28
 20
575.2225
 30
0.0
 11
60.0
 21
580.2654999999999
 31
0.0
  0
LINE
  5
255
330
1E
100
AcDbEntity
  8
0
100
AcDbLine
 10
59.28
 20
576.9595
 30
0.0
 11
60.0
 21
582.0014999999999
 31
0.0
  0
LINE
  5
256
330
1E
100
AcDbEntity
  8
0
100
AcDbLine
 10
57.36
 20
572.2324999999999
 30
0.0
 11
59.28
 21
576.9595
 31
0.0
  0
LINE
  5
257
330
1E
100
AcDbEntity
  8
0
100
AcDbLine
 10
59.28
 20
587.0434999999999
 30
0.0
 11
60.0
 21
582.0014999999999
 31
0.0
  0
LINE
  5
258
330
1E
100
AcDbEntity
  8
0
100
AcDbLine
 10
57.36
 20
591.7714999999999
 30
0.0
 11
59.28
 21
587.0434999999999
 31
0.0
  0
LINE
  5
259
330
1E
100
AcDbEntity
  8
0
100
AcDbLine
 10
54.88
 20
554.6204999999999
 30
0.0
 11
61.24
 21
559.3474999999999
 31
0.0
  0
LINE
  5
25A
330
1E
100
AcDbEntity
  8
0
100
AcDbLine
 10
58.848
 20
611.8795
 30
0.0
 11
66.904
 21
605.8925
 31
0.0
  0
LINE
  5
25B
330
1E
100
AcDbEntity
  8
0
100
AcDbLine
 10
49.728
 20
615.4725
 30
0.0
 11
58.848
 21
611.8795
 31
0.0
  0
LINE
  5
25C
330
1E
100
AcDbEntity
  8
0
100
AcDbLine
 10
54.88
 20
605.9095
 30
0.0
 11
61.24
 21
601.1824999999999
 31
0.0
  0
LINE
  5
25D
330
1E
100
AcDbEntity
  8
0
100
AcDbLine
 10
47.67999999999999
 20
608.7455
 30
0.0
 11
54.88
 21
605.9095
 31
0.0
  0
LINE
  5
25E
330
1E
100
AcDbEntity
  8
0
100
AcDbLine
 10
59.84
 20
543.8155
 30
0.0
 11
68.31999999999999
 21
550.1185
 31
0.0
  0
LINE
  5
25F
330
1E
100
AcDbEntity
  8
0
100
AcDbLine
 10
59.84
 20
544.5095
 30
0.0
 11
68.31999999999999
 21
550.8124999999999
 31
0.0
  0
LINE
  5
260
330
1E
100
AcDbEntity
  8
0
100
AcDbLine
 10
50.24
 20
540.7285
 30
0.0
 11
59.84
 21
544.5095
 31
0.0
  0
LINE
  5
261
330
1E
100
AcDbEntity
  8
0
100
AcDbLine
 10
60.0
 20
170.4183999999999
 30
0.0
 11
60.0
 21
152.5834999999999
 31
0.0
  0
LINE
  5
262
330
1E
100
AcDbEntity
  8
0
100
AcDbLine
 10
60.0
 20
170.4183999999999
 30
0.0
 11
60.0
 21
543.9344245283019
 31
0.0
  0
LINE
  5
263
330
1E
100
AcDbEntity
  8
0
100
AcDbLine
 10
68.31999999999999
 20
550.1185
 30
0.0
 11
74.72
 21
558.4695
 31
0.0
  0
LINE
  5
264
330
1E
100
AcDbEntity
  8
0
100
AcDbLine
 10
66.904
 20
552.2075
 30
0.0
 11
72.98399999999999
 21
560.1404999999999
 31
0.0
  0
LINE
  5
265
330
1E
100
AcDbEntity
  8
0
100
AcDbLine
 10
66.904
 20
552.9015
 30
0.0
 11
72.98399999999999
 21
560.8355
 31
0.0
  0
LINE
  5
266
330
1E
100
AcDbEntity
  8
0
100
AcDbLine
 10
61.24
 20
558.4795
 30
0.0
 11
66.04
 21
564.7435
 31
0.0
  0
LINE
  5
267
330
1E
100
AcDbEntity
  8
0
100
AcDbLine
 10
60.0
 20
580.2654999999999
 30
0.0
 11
60.0
 21
582.0014999999999
 31
0.0
  0
LINE
  5
268
330
1E
100
AcDbEntity
  8
0
100
AcDbLine
 10
60.0
 20
582.0014999999999
 30
0.0
 11
60.0
 21
580.2654999999999
 31
0.0
  0
LINE
  5
269
330
1E
100
AcDbEntity
  8
0
100
AcDbLine
 10
61.24
 20
559.3474999999999
 30
0.0
 11
66.04
 21
565.6114999999999
 31
0.0
  0
LINE
  5
26A
330
1E
100
AcDbEntity
  8
0
100
AcDbLine
 10
66.04
 20
564.7435
 30
0.0
 11
68.92
 21
571.8334999999999
 31
0.0
  0
LINE
  5
26B
330
1E
100
AcDbEntity
  8
0
100
AcDbLine
 10
68.92
 20
571.8334999999999
 30
0.0
 11
70.0
 21
579.3964999999999
 31
0.0
  0
LINE
  5
26C
330
1E
100
AcDbEntity
  8
0
100
AcDbLine
 10
68.92
 20
572.7015
 30
0.0
 11
70.0
 21
580.2654999999999
 31
0.0
  0
LINE
  5
26D
330
1E
100
AcDbEntity
  8
0
100
AcDbLine
 10
66.04
 20
565.6114999999999
 30
0.0
 11
68.92
 21
572.7015
 31
0.0
  0
LINE
  5
26E
330
1E
100
AcDbEntity
  8
0
100
AcDbLine
 10
72.98399999999999
 20
560.1404999999999
 30
0.0
 11
76.632
 21
569.1224999999999
 31
0.0
  0
LINE
  5
26F
330
1E
100
AcDbEntity
  8
0
100
AcDbLine
 10
72.98399999999999
 20
560.8355
 30
0.0
 11
76.632
 21
569.8165
 31
0.0
  0
LINE
  5
270
330
1E
100
AcDbEntity
  8
0
100
AcDbLine
 10
70.0
 20
579.3964999999999
 30
0.0
 11
70.0
 21
580.2654999999999
 31
0.0
  0
LINE
  5
271
330
1E
100
AcDbEntity
  8
0
100
AcDbLine
 10
70.0
 20
580.2654999999999
 30
0.0
 11
70.0
 21
579.3964999999999
 31
0.0
  0
LINE
  5
272
330
1E
100
AcDbEntity
  8
0
100
AcDbLine
 10
68.92
 20
587.8284999999999
 30
0.0
 11
70.0
 21
580.2654999999999
 31
0.0
  0
LINE
  5
273
330
1E
100
AcDbEntity
  8
0
100
AcDbLine
 10
72.98399999999999
 20
597.9585
 30
0.0
 11
76.632
 21
588.9774999999999
 31
0.0
  0
LINE
  5
274
330
1E
100
AcDbEntity
  8
0
100
AcDbLine
 10
66.904
 20
605.8925
 30
0.0
 11
72.98399999999999
 21
597.9585
 31
0.0
  0
LINE
  5
275
330
1E
100
AcDbEntity
  8
0
100
AcDbLine
 10
66.04
 20
594.9194999999999
 30
0.0
 11
68.92
 21
587.8284999999999
 31
0.0
  0
LINE
  5
276
330
1E
100
AcDbEntity
  8
0
100
AcDbLine
 10
61.24
 20
601.1824999999999
 30
0.0
 11
66.04
 21
594.9194999999999
 31
0.0
  0
LINE
  5
277
330
1E
100
AcDbEntity
  8
0
100
AcDbLine
 10
74.72
 20
558.4695
 30
0.0
 11
78.56
 21
567.9235
 31
0.0
  0
LINE
  5
278
330
1E
100
AcDbEntity
  8
0
100
AcDbLine
 10
74.72
 20
559.1635
 30
0.0
 11
78.56
 21
568.6174999999999
 31
0.0
  0
LINE
  5
279
330
1E
100
AcDbEntity
  8
0
100
AcDbLine
 10
68.31999999999999
 20
550.8124999999999
 30
0.0
 11
74.72
 21
559.1635
 31
0.0
  0
LINE
  5
27A
330
1E
100
AcDbEntity
  8
0
100
AcDbLine
 10
78.56
 20
567.9235
 30
0.0
 11
80.0
 21
578.0075
 31
0.0
  0
LINE
  5
27B
330
1E
100
AcDbEntity
  8
0
100
AcDbLine
 10
76.632
 20
569.1224999999999
 30
0.0
 11
78.0
 21
578.7024999999999
 31
0.0
  0
LINE
  5
27C
330
1E
100
AcDbEntity
  8
0
100
AcDbLine
 10
78.0
 20
578.7024999999999
 30
0.0
 11
78.0
 21
579.3964999999999
 31
0.0
  0
LINE
  5
27D
330
1E
100
AcDbEntity
  8
0
100
AcDbLine
 10
76.632
 20
569.8165
 30
0.0
 11
78.0
 21
579.3964999999999
 31
0.0
  0
LINE
  5
27E
330
1E
100
AcDbEntity
  8
0
100
AcDbLine
 10
78.0
 20
579.3964999999999
 30
0.0
 11
78.0
 21
578.7024999999999
 31
0.0
  0
LINE
  5
27F
330
1E
100
AcDbEntity
  8
0
100
AcDbLine
 10
80.0
 20
578.0075
 30
0.0
 11
80.0
 21
578.7024999999999
 31
0.0
  0
LINE
  5
280
330
1E
100
AcDbEntity
  8
0
100
AcDbLine
 10
78.56
 20
568.6174999999999
 30
0.0
 11
80.0
 21
578.7024999999999
 31
0.0
  0
LINE
  5
281
330
1E
100
AcDbEntity
  8
0
100
AcDbLine
 10
80.0
 20
578.7024999999999
 30
0.0
 11
80.0
 21
578.0075
 31
0.0
  0
LINE
  5
282
330
1E
100
AcDbEntity
  8
0
100
AcDbLine
 10
76.632
 20
588.9774999999999
 30
0.0
 11
78.0
 21
579.3964999999999
 31
0.0
  0
LINE
  5
283
330
1E
100
AcDbEntity
  8
0
100
AcDbLine
 10
78.56
 20
588.7865
 30
0.0
 11
80.0
 21
578.7024999999999
 31
0.0
  0
LINE
  5
284
330
1E
100
AcDbEntity
  8
0
100
AcDbLine
 10
74.72
 20
598.2404999999999
 30
0.0
 11
78.56
 21
588.7865
 31
0.0
  0
LINE
  5
285
330
1E
100
AcDbEntity
  8
0
100
AcDbLine
 10
68.31999999999999
 20
606.5925
 30
0.0
 11
74.72
 21
598.2404999999999
 31
0.0
  0
LINE
  5
286
330
1E
100
AcDbEntity
  8
0
100
AcDbLine
 10
59.84
 20
612.8944999999999
 30
0.0
 11
68.31999999999999
 21
606.5925
 31
0.0
  0
LINE
  5
287
330
1E
100
AcDbEntity
  8
0
100
AcDbLine
 10
50.24
 20
616.6765
 30
0.0
 11
59.84
 21
612.8944999999999
 31
0.0
  0
LINE
  5
288
330
1E
100
AcDbEntity
  8
0
100
AcDbLine
 10
40.0
 20
618.0945
 30
0.0
 11
50.24
 21
616.6765
 31
0.0
  0
LINE
  5
289
330
1E
100
AcDbEntity
  8
0
100
AcDbLine
 10
48.96
 20
152.5834999999999
 30
0.0
 11
57.36
 21
152.5834999999999
 31
0.0
  0
LINE
  5
28A
330
1E
100
AcDbEntity
  8
0
100
AcDbLine
 10
40.0
 20
152.5834999999999
 30
0.0
 11
48.96
 21
152.5834999999999
 31
0.0
  0
LINE
  5
28B
330
1E
100
AcDbEntity
  8
0
100
AcDbLine
 10
33.088
 20
150.5834999999999
 30
0.0
 11
40.0
 21
150.5834999999999
 31
0.0
  0
LINE
  5
28C
330
1E
100
AcDbEntity
  8
0
100
AcDbLine
 10
31.04
 20
150.5834999999999
 30
0.0
 11
40.0
 21
150.5834999999999
 31
0.0
  0
LINE
  5
28D
330
1E
100
AcDbEntity
  8
0
100
AcDbLine
 10
13.0
 20
140.5834999999999
 30
0.0
 11
13.0
 21
150.5834999999999
 31
0.0
  0
LINE
  5
28E
330
1E
100
AcDbEntity
  8
0
100
AcDbLine
 10
9.61999999999997
 20
150.5834999999999
 30
0.0
 11
13.0
 21
150.5834999999999
 31
0.0
  0
LINE
  5
28F
330
1E
100
AcDbEntity
  8
0
100
AcDbLine
 10
9.61999999999997
 20
150.5834999999999
 30
0.0
 11
15.22
 21
150.5834999999999
 31
0.0
  0
LINE
  5
294
330
1E
100
AcDbEntity
  8
0
100
AcDbLine
 10
34.88
 20
539.3244999999999
 30
0.0
 11
39.88954614822569
 21
538.7796869482297
 31
0.0
  0
LINE
  5
295
330
1E
100
AcDbEntity
  8
0
100
AcDbLine
 10
39.88954614822569
 20
538.7796869482297
 30
0.0
 11
45.7084862005987
 21
539.4059915461379
 31
0.0
  0
LINE
  5
296
330
1E
100
AcDbEntity
  8
0
100
AcDbLine
 10
22.64
 20
121.5035
 30
0.0
 11
20.72
 21
116.7035
 31
0.0
  0
LINE
  5
297
330
1E
100
AcDbEntity
  8
0
100
AcDbLine
 10
59.28
 20
116.7035
 30
0.0
 11
57.36
 21
121.5035
 31
0.0
  0
LINE
  5
298
330
1E
100
AcDbEntity
  8
0
100
AcDbLine
 10
66.35200000000001
 20
31.5835
 30
0.0
 11
67.0
 21
32.5455
 31
0.0
  0
LINE
  5
299
330
1E
100
AcDbEntity
  8
0
100
AcDbLine
 10
66.35200000000001
 20
56.5835
 30
0.0
 11
67.0
 21
55.622
 31
0.0
  0
ENDSEC
  0
SECTION
  2
OBJECTS
  0
DICTIONARY
  5
C
330
0
100
AcDbDictionary
281
     1
  3
ACAD_GROUP
350
D
  3
ACAD_LAYOUT
350
19
  3
ACAD_MLINESTYLE
350
16
  3
ACAD_PLOTSETTINGS
350
18
  3
ACAD_PLOTSTYLENAME
350
E
  3
AcDbVariableDictionary
350
29A
  0
DICTIONARY
  5
D
102
{ACAD_REACTORS
330
C
102
}
330
C
100
AcDbDictionary
281
     1
  0
DICTIONARY
  5
19
102
{ACAD_REACTORS
330
C
102
}
330
C
100
AcDbDictionary
281
     1
  3
Layout1
350
1D
  3
Model
350
21
  0
DICTIONARY
  5
16
102
{ACAD_REACTORS
330
C
102
}
330
C
100
AcDbDictionary
281
     1
  3
Standard
350
17
  0
DICTIONARY
  5
18
102
{ACAD_REACTORS
330
C
102
}
330
C
100
AcDbDictionary
281
     1
  0
ACDBDICTIONARYWDFLT
  5
E
102
{ACAD_REACTORS
330
C
102
}
330
C
100
AcDbDictionary
281
     1
  3
Normal
350
F
100
AcDbDictionaryWithDefault
340
F
  0
DICTIONARY
  5
29A
102
{ACAD_REACTORS
330
C
102
}
330
C
100
AcDbDictionary
281
     1
  3
DIMASSOC
350
29B
  0
LAYOUT
  5
1D
102
{ACAD_REACTORS
330
19
102
}
330
19
100
AcDbPlotSettings
  1

  2
hp deskjet 980c series
  4

  6

 40
0.0
 41
0.0
 42
0.0
 43
0.0
 44
0.0
 45
0.0
 46
0.0
 47
0.0
 48
0.0
 49
0.0
140
0.0
141
0.0
142
1.0
143
1.0
 70
   688
 72
     0
 73
     0
 74
     5
  7

 75
    16
147
1.0
148
0.0
149
0.0
100
AcDbLayout
  1
Layout1
 70
     1
 71
     1
 10
0.0
 20
0.0
 11
12.0
 21
9.0
 12
0.0
 22
0.0
 32
0.0
 14
1.000000000000000E+20
 24
1.000000000000000E+20
 34
1.000000000000000E+20
 15
-1.000000000000000E+20
 25
-1.000000000000000E+20
 35
-1.000000000000000E+20
146
0.0
 13
0.0
 23
0.0
 33
0.0
 16
1.0
 26
0.0
 36
0.0
 17
0.0
 27
1.0
 37
0.0
 76
     0
330
1A
  0
LAYOUT
  5
21
102
{ACAD_REACTORS
330
19
102
}
330
19
100
AcDbPlotSettings
  1

  2
hp deskjet 980c series
  4

  6

 40
0.0
 41
0.0
 42
0.0
 43
0.0
 44
0.0
 45
0.0
 46
0.0
 47
0.0
 48
0.0
 49
0.0
140
0.0
141
0.0
142
1.0
143
1.0
 70
  1712
 72
     0
 73
     0
 74
     0
  7

 75
     0
147
1.0
148
0.0
149
0.0
100
AcDbLayout
  1
Model
 70
     1
 71
     0
 10
0.0
 20
0.0
 11
12.0
 21
9.0
 12
0.0
 22
0.0
 32
0.0
 14
0.0
 24
0.0
 34
0.0
 15
0.0
 25
0.0
 35
0.0
146
0.0
 13
0.0
 23
0.0
 33
0.0
 16
1.0
 26
0.0
 36
0.0
 17
0.0
 27
1.0
 37
0.0
 76
     0
330
1E
  0
MLINESTYLE
  5
17
102
{ACAD_REACTORS
330
16
102
}
330
16
100
AcDbMlineStyle
  2
STANDARD
 70
     0
  3

 62
   256
 51
90.0
 52
90.0
 71
     2
 49
0.5
 62
   256
  6
BYLAYER
 49
-0.5
 62
   256
  6
BYLAYER
  0
ACDBPLACEHOLDER
  5
F
102
{ACAD_REACTORS
330
E
102
}
330
E
  0
DICTIONARYVAR
  5
29B
102
{ACAD_REACTORS
330
29A
102
}
330
29A
100
DictionaryVariables
280
     0
  1
1
  0
ENDSEC
  0
EOF
