  0
SECTION
  2
HEADER
  9
$ACADVER
  1
AC1015
  9
$ACADMAINTVER
 70
    13
  9
$DWGCODEPAGE
  3
ANSI_1252
  9
$INSBASE
 10
0.0
 20
0.0
 30
0.0
  9
$EXTMIN
 10
-0.189750000000067
 20
-0.0944999999999974
 30
0.0
  9
$EXTMAX
 10
595.18975
 20
618.0945
 30
0.0
  9
$LIMMIN
 10
0.0
 20
0.0
  9
$LIMMAX
 10
12.0
 20
9.0
  9
$ORTHOMODE
 70
     0
  9
$REGENMODE
 70
     1
  9
$FILLMODE
 70
     1
  9
$QTEXTMODE
 70
     0
  9
$MIRRTEXT
 70
     1
  9
$LTSCALE
 40
1.0
  9
$ATTMODE
 70
     1
  9
$TEXTSIZE
 40
0.2
  9
$TRACEWID
 40
0.05
  9
$TEXTSTYLE
  7
Standard
  9
$CLAYER
  8
0
  9
$CELTYPE
  6
Continuous
  9
$CECOLOR
 62
   256
  9
$CELTSCALE
 40
1.0
  9
$DISPSILH
 70
     0
  9
$DIMSCALE
 40
1.0
  9
$DIMASZ
 40
0.18
  9
$DIMEXO
 40
0.0625
  9
$DIMDLI
 40
0.38
  9
$DIMRND
 40
0.0
  9
$DIMDLE
 40
0.0
  9
$DIMEXE
 40
0.18
  9
$DIMTP
 40
0.0
  9
$DIMTM
 40
0.0
  9
$DIMTXT
 40
0.18
  9
$DIMCEN
 40
0.09
  9
$DIMTSZ
 40
0.0
  9
$DIMTOL
 70
     0
  9
$DIMLIM
 70
     0
  9
$DIMTIH
 70
     1
  9
$DIMTOH
 70
     1
  9
$DIMSE1
 70
     0
  9
$DIMSE2
 70
     0
  9
$DIMTAD
 70
     0
  9
$DIMZIN
 70
     0
  9
$DIMBLK
  1

  9
$DIMASO
 70
     1
  9
$DIMSHO
 70
     1
  9
$DIMPOST
  1

  9
$DIMAPOST
  1

  9
$DIMALT
 70
     0
  9
$DIMALTD
 70
     2
  9
$DIMALTF
 40
25.4
  9
$DIMLFAC
 40
1.0
  9
$DIMTOFL
 70
     0
  9
$DIMTVP
 40
0.0
  9
$DIMTIX
 70
     0
  9
$DIMSOXD
 70
     0
  9
$DIMSAH
 70
     0
  9
$DIMBLK1
  1

  9
$DIMBLK2
  1

  9
$DIMSTYLE
  2
Standard
  9
$DIMCLRD
 70
     0
  9
$DIMCLRE
 70
     0
  9
$DIMCLRT
 70
     0
  9
$DIMTFAC
 40
1.0
  9
$DIMGAP
 40
0.09
  9
$DIMJUST
 70
     0
  9
$DIMSD1
 70
     0
  9
$DIMSD2
 70
     0
  9
$DIMTOLJ
 70
     1
  9
$DIMTZIN
 70
     0
  9
$DIMALTZ
 70
     0
  9
$DIMALTTZ
 70
     0
  9
$DIMUPT
 70
     0
  9
$DIMDEC
 70
     4
  9
$DIMTDEC
 70
     4
  9
$DIMALTU
 70
     2
  9
$DIMALTTD
 70
     2
  9
$DIMTXSTY
  7
Standard
  9
$DIMAUNIT
 70
     0
  9
$DIMADEC
 70
     0
  9
$DIMALTRND
 40
0.0
  9
$DIMAZIN
 70
     0
  9
$DIMDSEP
 70
    46
  9
$DIMATFIT
 70
     3
  9
$DIMFRAC
 70
     0
  9
$DIMLDRBLK
  1

  9
$DIMLUNIT
 70
     2
  9
$DIMLWD
 70
    -2
  9
$DIMLWE
 70
    -2
  9
$DIMTMOVE
 70
     0
  9
$LUNITS
 70
     2
  9
$LUPREC
 70
     4
  9
$SKETCHINC
 40
0.1
  9
$FILLETRAD
 40
0.0
  9
$AUNITS
 70
     0
  9
$AUPREC
 70
     0
  9
$MENU
  1
.
  9
$ELEVATION
 40
0.0
  9
$PELEVATION
 40
0.0
  9
$THICKNESS
 40
0.0
  9
$LIMCHECK
 70
     0
  9
$CHAMFERA
 40
0.0
  9
$CHAMFERB
 40
0.0
  9
$CHAMFERC
 40
0.0
  9
$CHAMFERD
 40
0.0
  9
$SKPOLY
 70
     0
  9
$TDCREATE
 40
2454780.845092384
  9
$TDUCREATE
 40
2454780.803425717
  9
$TDUPDATE
 40
2454780.855027106
  9
$TDUUPDATE
 40
2454780.813360439
  9
$TDINDWG
 40
0.0099348958
  9
$TDUSRTIMER
 40
0.0099348958
  9
$USRTIMER
 70
     1
  9
$ANGBASE
 50
0.0
  9
$ANGDIR
 70
     0
  9
$PDMODE
 70
     0
  9
$PDSIZE
 40
0.0
  9
$PLINEWID
 40
0.0
  9
$SPLFRAME
 70
     0
  9
$SPLINETYPE
 70
     6
  9
$SPLINESEGS
 70
     8
  9
$HANDSEED
  5
438
  9
$SURFTAB1
 70
     6
  9
$SURFTAB2
 70
     6
  9
$SURFTYPE
 70
     6
  9
$SURFU
 70
     6
  9
$SURFV
 70
     6
  9
$UCSBASE
  2

  9
$UCSNAME
  2

  9
$UCSORG
 10
0.0
 20
0.0
 30
0.0
  9
$UCSXDIR
 10
1.0
 20
0.0
 30
0.0
  9
$UCSYDIR
 10
0.0
 20
1.0
 30
0.0
  9
$UCSORTHOREF
  2

  9
$UCSORTHOVIEW
 70
     1
  9
$UCSORGTOP
 10
0.0
 20
0.0
 30
0.0
  9
$UCSORGBOTTOM
 10
0.0
 20
0.0
 30
0.0
  9
$UCSORGLEFT
 10
0.0
 20
0.0
 30
0.0
  9
$UCSORGRIGHT
 10
0.0
 20
0.0
 30
0.0
  9
$UCSORGFRONT
 10
0.0
 20
0.0
 30
0.0
  9
$UCSORGBACK
 10
0.0
 20
0.0
 30
0.0
  9
$PUCSBASE
  2

  9
$PUCSNAME
  2

  9
$PUCSORG
 10
0.0
 20
0.0
 30
0.0
  9
$PUCSXDIR
 10
1.0
 20
0.0
 30
0.0
  9
$PUCSYDIR
 10
0.0
 20
1.0
 30
0.0
  9
$PUCSORTHOREF
  2

  9
$PUCSORTHOVIEW
 70
     0
  9
$PUCSORGTOP
 10
0.0
 20
0.0
 30
0.0
  9
$PUCSORGBOTTOM
 10
0.0
 20
0.0
 30
0.0
  9
$PUCSORGLEFT
 10
0.0
 20
0.0
 30
0.0
  9
$PUCSORGRIGHT
 10
0.0
 20
0.0
 30
0.0
  9
$PUCSORGFRONT
 10
0.0
 20
0.0
 30
0.0
  9
$PUCSORGBACK
 10
0.0
 20
0.0
 30
0.0
  9
$USERI1
 70
     0
  9
$USERI2
 70
     0
  9
$USERI3
 70
     0
  9
$USERI4
 70
     0
  9
$USERI5
 70
     0
  9
$USERR1
 40
0.0
  9
$USERR2
 40
0.0
  9
$USERR3
 40
0.0
  9
$USERR4
 40
0.0
  9
$USERR5
 40
0.0
  9
$WORLDVIEW
 70
     1
  9
$SHADEDGE
 70
     3
  9
$SHADEDIF
 70
    70
  9
$TILEMODE
 70
     1
  9
$MAXACTVP
 70
    64
  9
$PINSBASE
 10
0.0
 20
0.0
 30
0.0
  9
$PLIMCHECK
 70
     0
  9
$PEXTMIN
 10
1.000000000000000E+20
 20
1.000000000000000E+20
 30
1.000000000000000E+20
  9
$PEXTMAX
 10
-1.000000000000000E+20
 20
-1.000000000000000E+20
 30
-1.000000000000000E+20
  9
$PLIMMIN
 10
0.0
 20
0.0
  9
$PLIMMAX
 10
12.0
 20
9.0
  9
$UNITMODE
 70
     0
  9
$VISRETAIN
 70
     1
  9
$PLINEGEN
 70
     0
  9
$PSLTSCALE
 70
     1
  9
$TREEDEPTH
 70
  3020
  9
$CMLSTYLE
  2
Standard
  9
$CMLJUST
 70
     0
  9
$CMLSCALE
 40
1.0
  9
$PROXYGRAPHICS
 70
     1
  9
$MEASUREMENT
 70
     0
  9
$CELWEIGHT
370
    -1
  9
$ENDCAPS
280
     0
  9
$JOINSTYLE
280
     0
  9
$LWDISPLAY
290
     0
  9
$INSUNITS
 70
     0
  9
$HYPERLINKBASE
  1

  9
$STYLESHEET
  1

  9
$XEDIT
290
     1
  9
$CEPSNTYPE
380
     0
  9
$PSTYLEMODE
290
     1
  9
$FINGERPRINTGUID
  2
{ED058D7A-1647-445F-AD20-4E9C27A7A16F}
  9
$VERSIONGUID
  2
{E81ACF60-D3DE-4348-BE16-E2065292C80E}
  9
$EXTNAMES
290
     1
  9
$PSVPSCALE
 40
0.0
  9
$OLESTARTUP
290
     0
  0
ENDSEC
  0
SECTION
  2
CLASSES
  0
CLASS
  1
ACDBDICTIONARYWDFLT
  2
AcDbDictionaryWithDefault
  3
AutoCAD 2000
 90
        0
280
     0
281
     0
  0
CLASS
  1
ACDBPLACEHOLDER
  2
AcDbPlaceHolder
  3
AutoCAD 2000
 90
        0
280
     0
281
     0
  0
CLASS
  1
LAYOUT
  2
AcDbLayout
  3
AutoCAD 2000
 90
        0
280
     0
281
     0
  0
CLASS
  1
DICTIONARYVAR
  2
AcDbDictionaryVar
  3
AutoCAD 2000
 90
        0
280
     0
281
     0
  0
ENDSEC
  0
SECTION
  2
TABLES
  0
TABLE
  2
VPORT
  5
8
330
0
100
AcDbSymbolTable
 70
     2
  0
VPORT
  5
437
330
8
100
AcDbSymbolTableRecord
100
AcDbViewportTableRecord
  2
*Active
 70
     0
 10
0.0
 20
0.0
 11
1.0
 21
1.0
 12
297.5
 22
309.0
 13
0.0
 23
0.0
 14
1.0
 24
1.0
 15
0.0
 25
0.0
 16
0.0
 26
0.0
 36
1.0
 17
0.0
 27
0.0
 37
0.0
 40
622.9321381074169
 41
2.078104993597951
 42
50.0
 43
0.0
 44
0.0
 50
0.0
 51
0.0
 71
     0
 72
   100
 73
     1
 74
     3
 75
     0
 76
     0
 77
     0
 78
     0
281
     0
 65
     1
110
0.0
120
0.0
130
0.0
111
1.0
121
0.0
131
0.0
112
0.0
122
1.0
132
0.0
 79
     1
146
0.0
  0
ENDTAB
  0
TABLE
  2
LTYPE
  5
5
330
0
100
AcDbSymbolTable
 70
     1
  0
LTYPE
  5
13
330
5
100
AcDbSymbolTableRecord
100
AcDbLinetypeTableRecord
  2
ByBlock
 70
     0
  3

 72
    65
 73
     0
 40
0.0
  0
LTYPE
  5
14
330
5
100
AcDbSymbolTableRecord
100
AcDbLinetypeTableRecord
  2
ByLayer
 70
     0
  3

 72
    65
 73
     0
 40
0.0
  0
LTYPE
  5
15
330
5
100
AcDbSymbolTableRecord
100
AcDbLinetypeTableRecord
  2
Continuous
 70
     0
  3
Solid line
 72
    65
 73
     0
 40
0.0
  0
ENDTAB
  0
TABLE
  2
LAYER
  5
2
330
0
100
AcDbSymbolTable
 70
     1
  0
LAYER
  5
10
330
2
100
AcDbSymbolTableRecord
100
AcDbLayerTableRecord
  2
0
 70
     0
 62
     7
  6
Continuous
370
    -3
390
F
  0
ENDTAB
  0
TABLE
  2
STYLE
  5
3
330
0
100
AcDbSymbolTable
 70
     1
  0
STYLE
  5
11
330
3
100
AcDbSymbolTableRecord
100
AcDbTextStyleTableRecord
  2
Standard
 70
     0
 40
0.0
 41
1.0
 50
0.0
 71
     0
 42
0.2
  3
txt
  4

  0
ENDTAB
  0
TABLE
  2
VIEW
  5
6
330
0
100
AcDbSymbolTable
 70
     0
  0
ENDTAB
  0
TABLE
  2
UCS
  5
7
330
0
100
AcDbSymbolTable
 70
     0
  0
ENDTAB
  0
TABLE
  2
APPID
  5
9
330
0
100
AcDbSymbolTable
 70
     1
  0
APPID
  5
12
330
9
100
AcDbSymbolTableRecord
100
AcDbRegAppTableRecord
  2
ACAD
 70
     0
  0
ENDTAB
  0
TABLE
  2
DIMSTYLE
  5
A
330
0
100
AcDbSymbolTable
 70
     1
100
AcDbDimStyleTable
 71
     0
  0
DIMSTYLE
105
42D
330
A
100
AcDbSymbolTableRecord
100
AcDbDimStyleTableRecord
  2
Standard
 70
     0
340
11
  0
ENDTAB
  0
TABLE
  2
BLOCK_RECORD
  5
1
330
0
100
AcDbSymbolTable
 70
     0
  0
BLOCK_RECORD
  5
1E
330
1
100
AcDbSymbolTableRecord
100
AcDbBlockTableRecord
  2
*Model_Space
340
21
  0
BLOCK_RECORD
  5
1A
330
1
100
AcDbSymbolTableRecord
100
AcDbBlockTableRecord
  2
*Paper_Space
340
1D
  0
ENDTAB
  0
ENDSEC
  0
SECTION
  2
BLOCKS
  0
BLOCK
  5
1F
330
1E
100
AcDbEntity
  8
0
100
AcDbBlockBegin
  2
*Model_Space
 70
     0
 10
0.0
 20
0.0
 30
0.0
  3
*Model_Space
  1

  0
ENDBLK
  5
20
330
1E
100
AcDbEntity
  8
0
100
AcDbBlockEnd
  0
BLOCK
  5
1B
330
1A
100
AcDbEntity
 67
     1
  8
0
100
AcDbBlockBegin
  2
*Paper_Space
 70
     0
 10
0.0
 20
0.0
 30
0.0
  3
*Paper_Space
  1

  0
ENDBLK
  5
1C
330
1A
100
AcDbEntity
 67
     1
  8
0
100
AcDbBlockEnd
  0
ENDSEC
  0
SECTION
  2
ENTITIES
  0
LINE
  5
22
330
1E
100
AcDbEntity
  8
0
100
AcDbLine
 10
142.5117499999999
 20
110.3399
 30
0.0
 11
176.2767499999999
 21
96.35390000000001
 31
0.0
  0
LINE
  5
23
330
1E
100
AcDbEntity
  8
0
100
AcDbLine
 10
173.2947499999999
 20
117.2434999999999
 30
0.0
 11
173.5017499999999
 21
118.0434999999999
 31
0.0
  0
LINE
  5
24
330
1E
100
AcDbEntity
  8
0
100
AcDbLine
 10
173.1707499999999
 20
116.7634999999999
 30
0.0
 11
173.2947499999999
 21
117.2434999999999
 31
0.0
  0
LINE
  5
25
330
1E
100
AcDbEntity
  8
0
100
AcDbLine
 10
173.77475
 20
119.1035
 30
0.0
 11
174.08475
 21
120.3035
 31
0.0
  0
LINE
  5
26
330
1E
100
AcDbEntity
  8
0
100
AcDbLine
 10
174.08475
 20
120.3035
 30
0.0
 11
174.4147499999999
 21
121.5834999999999
 31
0.0
  0
LINE
  5
27
330
1E
100
AcDbEntity
  8
0
100
AcDbLine
 10
173.5017499999999
 20
118.0434999999999
 30
0.0
 11
173.77475
 21
119.1035
 31
0.0
  0
LINE
  5
28
330
1E
100
AcDbEntity
  8
0
100
AcDbLine
 10
173.12475
 20
116.5834999999999
 30
0.0
 11
218.51175
 21
116.5834999999999
 31
0.0
  0
LINE
  5
29
330
1E
100
AcDbEntity
  8
0
100
AcDbLine
 10
173.12475
 20
116.5834999999999
 30
0.0
 11
173.1707499999999
 21
116.7634999999999
 31
0.0
  0
LINE
  5
2A
330
1E
100
AcDbEntity
  8
0
100
AcDbLine
 10
174.7457499999999
 20
122.8635
 30
0.0
 11
175.05475
 21
124.0635
 31
0.0
  0
LINE
  5
2B
330
1E
100
AcDbEntity
  8
0
100
AcDbLine
 10
175.05475
 20
124.0635
 30
0.0
 11
175.32875
 21
125.1235
 31
0.0
  0
LINE
  5
2C
330
1E
100
AcDbEntity
  8
0
100
AcDbLine
 10
175.32875
 20
125.1235
 30
0.0
 11
175.53475
 21
125.9235
 31
0.0
  0
LINE
  5
2D
330
1E
100
AcDbEntity
  8
0
100
AcDbLine
 10
174.4147499999999
 20
121.5834999999999
 30
0.0
 11
174.7457499999999
 21
122.8635
 31
0.0
  0
LINE
  5
30
330
1E
100
AcDbEntity
  8
0
100
AcDbLine
 10
162.5117499999999
 20
144.98096
 30
0.0
 11
186.6297499999999
 21
134.9909199999999
 31
0.0
  0
LINE
  5
31
330
1E
100
AcDbEntity
  8
0
100
AcDbLine
 10
113.51685
 20
132.58855
 30
0.0
 11
142.5117499999999
 21
110.3399
 31
0.0
  0
LINE
  5
32
330
1E
100
AcDbEntity
  8
0
100
AcDbLine
 10
175.65875
 20
126.4035
 30
0.0
 11
175.7057499999999
 21
126.5835
 31
0.0
  0
LINE
  5
33
330
1E
100
AcDbEntity
  8
0
100
AcDbLine
 10
175.53475
 20
125.9235
 30
0.0
 11
175.65875
 21
126.4035
 31
0.0
  0
LINE
  5
35
330
1E
100
AcDbEntity
  8
0
100
AcDbLine
 10
176.2767499999999
 20
96.35390000000001
 30
0.0
 11
212.5117499999999
 21
91.5835
 31
0.0
  0
LINE
  5
3F
330
1E
100
AcDbEntity
  8
0
100
AcDbLine
 10
212.5117499999999
 20
91.5835
 30
0.0
 11
282.51175
 21
91.5835
 31
0.0
  0
LINE
  5
41
330
1E
100
AcDbEntity
  8
0
100
AcDbLine
 10
218.51175
 20
116.6274999999999
 30
0.0
 11
218.51175
 21
115.5074999999999
 31
0.0
  0
LINE
  5
42
330
1E
100
AcDbEntity
  8
0
100
AcDbLine
 10
218.51175
 20
116.6274999999999
 30
0.0
 11
218.51175
 21
118.1115
 31
0.0
  0
LINE
  5
43
330
1E
100
AcDbEntity
  8
0
100
AcDbLine
 10
218.51175
 20
115.5074999999999
 30
0.0
 11
218.51175
 21
116.5834999999999
 31
0.0
  0
LINE
  5
44
330
1E
100
AcDbEntity
  8
0
100
AcDbLine
 10
218.51175
 20
115.5074999999999
 30
0.0
 11
218.51175
 21
114.8355
 31
0.0
  0
LINE
  5
45
330
1E
100
AcDbEntity
  8
0
100
AcDbLine
 10
218.51175
 20
115.5074999999999
 30
0.0
 11
218.51175
 21
116.6274999999999
 31
0.0
  0
LINE
  5
46
330
1E
100
AcDbEntity
  8
0
100
AcDbLine
 10
218.51175
 20
114.8355
 30
0.0
 11
218.51175
 21
115.5074999999999
 31
0.0
  0
LINE
  5
47
330
1E
100
AcDbEntity
  8
0
100
AcDbLine
 10
218.51175
 20
114.8355
 30
0.0
 11
218.51175
 21
114.5834999999999
 31
0.0
  0
LINE
  5
48
330
1E
100
AcDbEntity
  8
0
100
AcDbLine
 10
218.51175
 20
114.5834999999999
 30
0.0
 11
218.51175
 21
114.8355
 31
0.0
  0
LINE
  5
49
330
1E
100
AcDbEntity
  8
0
100
AcDbLine
 10
218.51175
 20
114.5834999999999
 30
0.0
 11
238.51175
 21
114.5834999999999
 31
0.0
  0
LINE
  5
4A
330
1E
100
AcDbEntity
  8
0
100
AcDbLine
 10
238.51175
 20
113.7715
 30
0.0
 11
238.51175
 21
114.5834999999999
 31
0.0
  0
LINE
  5
4B
330
1E
100
AcDbEntity
  8
0
100
AcDbLine
 10
238.51175
 20
113.7715
 30
0.0
 11
238.51175
 21
112.9075
 31
0.0
  0
LINE
  5
4C
330
1E
100
AcDbEntity
  8
0
100
AcDbLine
 10
238.51175
 20
113.7715
 30
0.0
 11
238.51175
 21
115.2115
 31
0.0
  0
LINE
  5
4D
330
1E
100
AcDbEntity
  8
0
100
AcDbLine
 10
238.51175
 20
112.9075
 30
0.0
 11
238.51175
 21
113.7715
 31
0.0
  0
LINE
  5
4E
330
1E
100
AcDbEntity
  8
0
100
AcDbLine
 10
238.51175
 20
112.9075
 30
0.0
 11
238.51175
 21
112.5835
 31
0.0
  0
LINE
  5
4F
330
1E
100
AcDbEntity
  8
0
100
AcDbLine
 10
238.51175
 20
112.5835
 30
0.0
 11
238.51175
 21
112.9075
 31
0.0
  0
LINE
  5
50
330
1E
100
AcDbEntity
  8
0
100
AcDbLine
 10
238.51175
 20
112.5835
 30
0.0
 11
248.51175
 21
112.5835
 31
0.0
  0
LINE
  5
51
330
1E
100
AcDbEntity
  8
0
100
AcDbLine
 10
248.51175
 20
112.5835
 30
0.0
 11
248.51175
 21
112.9075
 31
0.0
  0
LINE
  5
52
330
1E
100
AcDbEntity
  8
0
100
AcDbLine
 10
248.51175
 20
113.7715
 30
0.0
 11
248.51175
 21
112.9075
 31
0.0
  0
LINE
  5
53
330
1E
100
AcDbEntity
  8
0
100
AcDbLine
 10
248.51175
 20
113.7715
 30
0.0
 11
248.51175
 21
115.2115
 31
0.0
  0
LINE
  5
54
330
1E
100
AcDbEntity
  8
0
100
AcDbLine
 10
258.5117499999999
 20
96.5835
 30
0.0
 11
288.51175
 21
96.5835
 31
0.0
  0
LINE
  5
55
330
1E
100
AcDbEntity
  8
0
100
AcDbLine
 10
258.5117499999999
 20
96.5835
 30
0.0
 11
258.5117499999999
 21
131.5834999999999
 31
0.0
  0
LINE
  5
56
330
1E
100
AcDbEntity
  8
0
100
AcDbLine
 10
248.51175
 20
112.9075
 30
0.0
 11
248.51175
 21
112.5835
 31
0.0
  0
LINE
  5
57
330
1E
100
AcDbEntity
  8
0
100
AcDbLine
 10
248.51175
 20
112.9075
 30
0.0
 11
248.51175
 21
113.7715
 31
0.0
  0
LINE
  5
58
330
1E
100
AcDbEntity
  8
0
100
AcDbLine
 10
248.51175
 20
114.5834999999999
 30
0.0
 11
258.5117499999999
 21
114.5834999999999
 31
0.0
  0
LINE
  5
59
330
1E
100
AcDbEntity
  8
0
100
AcDbLine
 10
238.51175
 20
114.5834999999999
 30
0.0
 11
238.51175
 21
114.8355
 31
0.0
  0
LINE
  5
5A
330
1E
100
AcDbEntity
  8
0
100
AcDbLine
 10
238.51175
 20
114.5834999999999
 30
0.0
 11
238.51175
 21
113.7715
 31
0.0
  0
LINE
  5
5B
330
1E
100
AcDbEntity
  8
0
100
AcDbLine
 10
238.51175
 20
115.2115
 30
0.0
 11
238.51175
 21
113.7715
 31
0.0
  0
LINE
  5
5C
330
1E
100
AcDbEntity
  8
0
100
AcDbLine
 10
238.51175
 20
115.2115
 30
0.0
 11
238.51175
 21
117.1194999999999
 31
0.0
  0
LINE
  5
5D
330
1E
100
AcDbEntity
  8
0
100
AcDbLine
 10
238.51175
 20
116.6274999999999
 30
0.0
 11
238.51175
 21
115.5074999999999
 31
0.0
  0
LINE
  5
5E
330
1E
100
AcDbEntity
  8
0
100
AcDbLine
 10
238.51175
 20
116.6274999999999
 30
0.0
 11
238.51175
 21
118.1115
 31
0.0
  0
LINE
  5
5F
330
1E
100
AcDbEntity
  8
0
100
AcDbLine
 10
248.51175
 20
115.2115
 30
0.0
 11
248.51175
 21
113.7715
 31
0.0
  0
LINE
  5
60
330
1E
100
AcDbEntity
  8
0
100
AcDbLine
 10
248.51175
 20
115.2115
 30
0.0
 11
248.51175
 21
117.1194999999999
 31
0.0
  0
LINE
  5
61
330
1E
100
AcDbEntity
  8
0
100
AcDbLine
 10
238.51175
 20
115.5074999999999
 30
0.0
 11
238.51175
 21
114.8355
 31
0.0
  0
LINE
  5
62
330
1E
100
AcDbEntity
  8
0
100
AcDbLine
 10
238.51175
 20
115.5074999999999
 30
0.0
 11
238.51175
 21
116.6274999999999
 31
0.0
  0
LINE
  5
63
330
1E
100
AcDbEntity
  8
0
100
AcDbLine
 10
238.51175
 20
114.8355
 30
0.0
 11
238.51175
 21
114.5834999999999
 31
0.0
  0
LINE
  5
64
330
1E
100
AcDbEntity
  8
0
100
AcDbLine
 10
238.51175
 20
114.8355
 30
0.0
 11
238.51175
 21
115.5074999999999
 31
0.0
  0
LINE
  5
65
330
1E
100
AcDbEntity
  8
0
100
AcDbLine
 10
218.51175
 20
116.5834999999999
 30
0.0
 11
218.51175
 21
116.7634999999999
 31
0.0
  0
LINE
  5
66
330
1E
100
AcDbEntity
  8
0
100
AcDbLine
 10
218.51175
 20
116.5834999999999
 30
0.0
 11
218.51175
 21
115.5074999999999
 31
0.0
  0
LINE
  5
67
330
1E
100
AcDbEntity
  8
0
100
AcDbLine
 10
218.51175
 20
119.7915
 30
0.0
 11
218.51175
 21
118.1115
 31
0.0
  0
LINE
  5
68
330
1E
100
AcDbEntity
  8
0
100
AcDbLine
 10
218.51175
 20
119.7915
 30
0.0
 11
218.51175
 21
121.5834999999999
 31
0.0
  0
LINE
  5
69
330
1E
100
AcDbEntity
  8
0
100
AcDbLine
 10
218.51175
 20
118.1115
 30
0.0
 11
218.51175
 21
116.6274999999999
 31
0.0
  0
LINE
  5
6A
330
1E
100
AcDbEntity
  8
0
100
AcDbLine
 10
218.51175
 20
118.1115
 30
0.0
 11
218.51175
 21
119.7915
 31
0.0
  0
LINE
  5
6B
330
1E
100
AcDbEntity
  8
0
100
AcDbLine
 10
218.51175
 20
123.3755
 30
0.0
 11
218.51175
 21
121.5834999999999
 31
0.0
  0
LINE
  5
6C
330
1E
100
AcDbEntity
  8
0
100
AcDbLine
 10
218.51175
 20
123.3755
 30
0.0
 11
218.51175
 21
125.0555
 31
0.0
  0
LINE
  5
6D
330
1E
100
AcDbEntity
  8
0
100
AcDbLine
 10
218.51175
 20
122.8635
 30
0.0
 11
218.51175
 21
121.5834999999999
 31
0.0
  0
LINE
  5
6E
330
1E
100
AcDbEntity
  8
0
100
AcDbLine
 10
218.51175
 20
122.8635
 30
0.0
 11
218.51175
 21
124.0635
 31
0.0
  0
LINE
  5
6F
330
1E
100
AcDbEntity
  8
0
100
AcDbLine
 10
218.51175
 20
125.0555
 30
0.0
 11
218.51175
 21
123.3755
 31
0.0
  0
LINE
  5
70
330
1E
100
AcDbEntity
  8
0
100
AcDbLine
 10
218.51175
 20
125.0555
 30
0.0
 11
218.51175
 21
126.5395
 31
0.0
  0
LINE
  5
71
330
1E
100
AcDbEntity
  8
0
100
AcDbLine
 10
218.51175
 20
124.0635
 30
0.0
 11
218.51175
 21
122.8635
 31
0.0
  0
LINE
  5
72
330
1E
100
AcDbEntity
  8
0
100
AcDbLine
 10
218.51175
 20
124.0635
 30
0.0
 11
218.51175
 21
125.1235
 31
0.0
  0
LINE
  5
73
330
1E
100
AcDbEntity
  8
0
100
AcDbLine
 10
218.51175
 20
125.1235
 30
0.0
 11
218.51175
 21
124.0635
 31
0.0
  0
LINE
  5
74
330
1E
100
AcDbEntity
  8
0
100
AcDbLine
 10
218.51175
 20
125.1235
 30
0.0
 11
218.51175
 21
125.9235
 31
0.0
  0
LINE
  5
77
330
1E
100
AcDbEntity
  8
0
100
AcDbLine
 10
218.51175
 20
126.5395
 30
0.0
 11
218.51175
 21
125.0555
 31
0.0
  0
LINE
  5
78
330
1E
100
AcDbEntity
  8
0
100
AcDbLine
 10
218.51175
 20
126.5395
 30
0.0
 11
218.51175
 21
127.6594999999999
 31
0.0
  0
LINE
  5
79
330
1E
100
AcDbEntity
  8
0
100
AcDbLine
 10
218.51175
 20
125.9235
 30
0.0
 11
218.51175
 21
125.1235
 31
0.0
  0
LINE
  5
7A
330
1E
100
AcDbEntity
  8
0
100
AcDbLine
 10
218.51175
 20
125.9235
 30
0.0
 11
218.51175
 21
126.4035
 31
0.0
  0
LINE
  5
7B
330
1E
100
AcDbEntity
  8
0
100
AcDbLine
 10
218.51175
 20
126.4035
 30
0.0
 11
218.51175
 21
125.9235
 31
0.0
  0
LINE
  5
7C
330
1E
100
AcDbEntity
  8
0
100
AcDbLine
 10
218.51175
 20
126.4035
 30
0.0
 11
218.51175
 21
126.5835
 31
0.0
  0
LINE
  5
7D
330
1E
100
AcDbEntity
  8
0
100
AcDbLine
 10
218.51175
 20
127.6594999999999
 30
0.0
 11
218.51175
 21
128.3314999999999
 31
0.0
  0
LINE
  5
7E
330
1E
100
AcDbEntity
  8
0
100
AcDbLine
 10
218.51175
 20
127.6594999999999
 30
0.0
 11
218.51175
 21
126.5835
 31
0.0
  0
LINE
  5
7F
330
1E
100
AcDbEntity
  8
0
100
AcDbLine
 10
218.51175
 20
127.6594999999999
 30
0.0
 11
218.51175
 21
126.5395
 31
0.0
  0
LINE
  5
82
330
1E
100
AcDbEntity
  8
0
100
AcDbLine
 10
186.6297499999999
 20
134.9909199999999
 30
0.0
 11
212.5117499999999
 21
131.5834999999999
 31
0.0
  0
LINE
  5
88
330
1E
100
AcDbEntity
  8
0
100
AcDbLine
 10
212.5117499999999
 20
131.5834999999999
 30
0.0
 11
258.5117499999999
 21
131.5834999999999
 31
0.0
  0
LINE
  5
89
330
1E
100
AcDbEntity
  8
0
100
AcDbLine
 10
218.51175
 20
128.3314999999999
 30
0.0
 11
218.51175
 21
128.5834999999999
 31
0.0
  0
LINE
  5
8A
330
1E
100
AcDbEntity
  8
0
100
AcDbLine
 10
218.51175
 20
128.3314999999999
 30
0.0
 11
218.51175
 21
127.6594999999999
 31
0.0
  0
LINE
  5
8B
330
1E
100
AcDbEntity
  8
0
100
AcDbLine
 10
218.51175
 20
128.5834999999999
 30
0.0
 11
238.51175
 21
128.5834999999999
 31
0.0
  0
LINE
  5
8C
330
1E
100
AcDbEntity
  8
0
100
AcDbLine
 10
218.51175
 20
128.5834999999999
 30
0.0
 11
218.51175
 21
128.3314999999999
 31
0.0
  0
LINE
  5
8D
330
1E
100
AcDbEntity
  8
0
100
AcDbLine
 10
218.51175
 20
126.5835
 30
0.0
 11
218.51175
 21
126.4035
 31
0.0
  0
LINE
  5
8E
330
1E
100
AcDbEntity
  8
0
100
AcDbLine
 10
218.51175
 20
126.5835
 30
0.0
 11
218.51175
 21
127.6594999999999
 31
0.0
  0
LINE
  5
8F
330
1E
100
AcDbEntity
  8
0
100
AcDbLine
 10
218.51175
 20
121.5834999999999
 30
0.0
 11
218.51175
 21
120.3035
 31
0.0
  0
LINE
  5
90
330
1E
100
AcDbEntity
  8
0
100
AcDbLine
 10
218.51175
 20
121.5834999999999
 30
0.0
 11
218.51175
 21
122.8635
 31
0.0
  0
LINE
  5
91
330
1E
100
AcDbEntity
  8
0
100
AcDbLine
 10
218.51175
 20
121.5834999999999
 30
0.0
 11
218.51175
 21
119.7915
 31
0.0
  0
LINE
  5
92
330
1E
100
AcDbEntity
  8
0
100
AcDbLine
 10
218.51175
 20
121.5834999999999
 30
0.0
 11
218.51175
 21
123.3755
 31
0.0
  0
LINE
  5
93
330
1E
100
AcDbEntity
  8
0
100
AcDbLine
 10
218.51175
 20
120.3035
 30
0.0
 11
218.51175
 21
119.1035
 31
0.0
  0
LINE
  5
94
330
1E
100
AcDbEntity
  8
0
100
AcDbLine
 10
218.51175
 20
120.3035
 30
0.0
 11
218.51175
 21
121.5834999999999
 31
0.0
  0
LINE
  5
95
330
1E
100
AcDbEntity
  8
0
100
AcDbLine
 10
218.51175
 20
119.1035
 30
0.0
 11
218.51175
 21
118.0434999999999
 31
0.0
  0
LINE
  5
96
330
1E
100
AcDbEntity
  8
0
100
AcDbLine
 10
218.51175
 20
119.1035
 30
0.0
 11
218.51175
 21
120.3035
 31
0.0
  0
LINE
  5
97
330
1E
100
AcDbEntity
  8
0
100
AcDbLine
 10
218.51175
 20
118.0434999999999
 30
0.0
 11
218.51175
 21
117.2434999999999
 31
0.0
  0
LINE
  5
98
330
1E
100
AcDbEntity
  8
0
100
AcDbLine
 10
218.51175
 20
118.0434999999999
 30
0.0
 11
218.51175
 21
119.1035
 31
0.0
  0
LINE
  5
99
330
1E
100
AcDbEntity
  8
0
100
AcDbLine
 10
238.51175
 20
117.1194999999999
 30
0.0
 11
238.51175
 21
115.2115
 31
0.0
  0
LINE
  5
9A
330
1E
100
AcDbEntity
  8
0
100
AcDbLine
 10
238.51175
 20
117.1194999999999
 30
0.0
 11
238.51175
 21
119.2795
 31
0.0
  0
LINE
  5
9B
330
1E
100
AcDbEntity
  8
0
100
AcDbLine
 10
248.51175
 20
117.1194999999999
 30
0.0
 11
248.51175
 21
115.2115
 31
0.0
  0
LINE
  5
9C
330
1E
100
AcDbEntity
  8
0
100
AcDbLine
 10
248.51175
 20
117.1194999999999
 30
0.0
 11
248.51175
 21
119.2795
 31
0.0
  0
LINE
  5
9D
330
1E
100
AcDbEntity
  8
0
100
AcDbLine
 10
238.51175
 20
119.2795
 30
0.0
 11
238.51175
 21
117.1194999999999
 31
0.0
  0
LINE
  5
9E
330
1E
100
AcDbEntity
  8
0
100
AcDbLine
 10
238.51175
 20
119.2795
 30
0.0
 11
238.51175
 21
121.5834999999999
 31
0.0
  0
LINE
  5
9F
330
1E
100
AcDbEntity
  8
0
100
AcDbLine
 10
238.51175
 20
123.8874999999999
 30
0.0
 11
238.51175
 21
121.5834999999999
 31
0.0
  0
LINE
  5
A0
330
1E
100
AcDbEntity
  8
0
100
AcDbLine
 10
238.51175
 20
123.8874999999999
 30
0.0
 11
238.51175
 21
126.0475
 31
0.0
  0
LINE
  5
A1
330
1E
100
AcDbEntity
  8
0
100
AcDbLine
 10
238.51175
 20
126.0475
 30
0.0
 11
238.51175
 21
123.8874999999999
 31
0.0
  0
LINE
  5
A2
330
1E
100
AcDbEntity
  8
0
100
AcDbLine
 10
238.51175
 20
126.0475
 30
0.0
 11
238.51175
 21
127.9554999999999
 31
0.0
  0
LINE
  5
A3
330
1E
100
AcDbEntity
  8
0
100
AcDbLine
 10
238.51175
 20
123.3755
 30
0.0
 11
238.51175
 21
121.5834999999999
 31
0.0
  0
LINE
  5
A4
330
1E
100
AcDbEntity
  8
0
100
AcDbLine
 10
238.51175
 20
123.3755
 30
0.0
 11
238.51175
 21
125.0555
 31
0.0
  0
LINE
  5
A5
330
1E
100
AcDbEntity
  8
0
100
AcDbLine
 10
238.51175
 20
125.0555
 30
0.0
 11
238.51175
 21
123.3755
 31
0.0
  0
LINE
  5
A6
330
1E
100
AcDbEntity
  8
0
100
AcDbLine
 10
238.51175
 20
125.0555
 30
0.0
 11
238.51175
 21
126.5395
 31
0.0
  0
LINE
  5
A7
330
1E
100
AcDbEntity
  8
0
100
AcDbLine
 10
238.51175
 20
127.9554999999999
 30
0.0
 11
238.51175
 21
126.0475
 31
0.0
  0
LINE
  5
A8
330
1E
100
AcDbEntity
  8
0
100
AcDbLine
 10
238.51175
 20
127.9554999999999
 30
0.0
 11
238.51175
 21
129.3954999999999
 31
0.0
  0
LINE
  5
A9
330
1E
100
AcDbEntity
  8
0
100
AcDbLine
 10
238.51175
 20
126.5395
 30
0.0
 11
238.51175
 21
125.0555
 31
0.0
  0
LINE
  5
AA
330
1E
100
AcDbEntity
  8
0
100
AcDbLine
 10
238.51175
 20
126.5395
 30
0.0
 11
238.51175
 21
127.6594999999999
 31
0.0
  0
LINE
  5
AB
330
1E
100
AcDbEntity
  8
0
100
AcDbLine
 10
238.51175
 20
127.6594999999999
 30
0.0
 11
238.51175
 21
126.5395
 31
0.0
  0
LINE
  5
AC
330
1E
100
AcDbEntity
  8
0
100
AcDbLine
 10
238.51175
 20
127.6594999999999
 30
0.0
 11
238.51175
 21
128.3314999999999
 31
0.0
  0
LINE
  5
AD
330
1E
100
AcDbEntity
  8
0
100
AcDbLine
 10
238.51175
 20
129.3954999999999
 30
0.0
 11
238.51175
 21
130.2594999999999
 31
0.0
  0
LINE
  5
AE
330
1E
100
AcDbEntity
  8
0
100
AcDbLine
 10
238.51175
 20
129.3954999999999
 30
0.0
 11
238.51175
 21
128.5834999999999
 31
0.0
  0
LINE
  5
AF
330
1E
100
AcDbEntity
  8
0
100
AcDbLine
 10
238.51175
 20
129.3954999999999
 30
0.0
 11
238.51175
 21
127.9554999999999
 31
0.0
  0
LINE
  5
B0
330
1E
100
AcDbEntity
  8
0
100
AcDbLine
 10
238.51175
 20
130.2594999999999
 30
0.0
 11
238.51175
 21
130.5834999999999
 31
0.0
  0
LINE
  5
B1
330
1E
100
AcDbEntity
  8
0
100
AcDbLine
 10
238.51175
 20
130.2594999999999
 30
0.0
 11
238.51175
 21
129.3954999999999
 31
0.0
  0
LINE
  5
B2
330
1E
100
AcDbEntity
  8
0
100
AcDbLine
 10
238.51175
 20
130.5834999999999
 30
0.0
 11
248.51175
 21
130.5834999999999
 31
0.0
  0
LINE
  5
B3
330
1E
100
AcDbEntity
  8
0
100
AcDbLine
 10
238.51175
 20
130.5834999999999
 30
0.0
 11
238.51175
 21
130.2594999999999
 31
0.0
  0
LINE
  5
B4
330
1E
100
AcDbEntity
  8
0
100
AcDbLine
 10
238.51175
 20
128.3314999999999
 30
0.0
 11
238.51175
 21
127.6594999999999
 31
0.0
  0
LINE
  5
B5
330
1E
100
AcDbEntity
  8
0
100
AcDbLine
 10
238.51175
 20
128.3314999999999
 30
0.0
 11
238.51175
 21
128.5834999999999
 31
0.0
  0
LINE
  5
B6
330
1E
100
AcDbEntity
  8
0
100
AcDbLine
 10
238.51175
 20
128.5834999999999
 30
0.0
 11
238.51175
 21
128.3314999999999
 31
0.0
  0
LINE
  5
B7
330
1E
100
AcDbEntity
  8
0
100
AcDbLine
 10
238.51175
 20
128.5834999999999
 30
0.0
 11
238.51175
 21
129.3954999999999
 31
0.0
  0
LINE
  5
B8
330
1E
100
AcDbEntity
  8
0
100
AcDbLine
 10
238.51175
 20
121.5834999999999
 30
0.0
 11
238.51175
 21
119.7915
 31
0.0
  0
LINE
  5
B9
330
1E
100
AcDbEntity
  8
0
100
AcDbLine
 10
238.51175
 20
121.5834999999999
 30
0.0
 11
238.51175
 21
123.3755
 31
0.0
  0
LINE
  5
BA
330
1E
100
AcDbEntity
  8
0
100
AcDbLine
 10
238.51175
 20
121.5834999999999
 30
0.0
 11
238.51175
 21
119.2795
 31
0.0
  0
LINE
  5
BB
330
1E
100
AcDbEntity
  8
0
100
AcDbLine
 10
238.51175
 20
121.5834999999999
 30
0.0
 11
238.51175
 21
123.8874999999999
 31
0.0
  0
LINE
  5
BC
330
1E
100
AcDbEntity
  8
0
100
AcDbLine
 10
248.51175
 20
123.8874999999999
 30
0.0
 11
248.51175
 21
121.5834999999999
 31
0.0
  0
LINE
  5
BD
330
1E
100
AcDbEntity
  8
0
100
AcDbLine
 10
248.51175
 20
123.8874999999999
 30
0.0
 11
248.51175
 21
126.0475
 31
0.0
  0
LINE
  5
BE
330
1E
100
AcDbEntity
  8
0
100
AcDbLine
 10
248.51175
 20
126.0475
 30
0.0
 11
248.51175
 21
123.8874999999999
 31
0.0
  0
LINE
  5
BF
330
1E
100
AcDbEntity
  8
0
100
AcDbLine
 10
248.51175
 20
126.0475
 30
0.0
 11
248.51175
 21
127.9554999999999
 31
0.0
  0
LINE
  5
C0
330
1E
100
AcDbEntity
  8
0
100
AcDbLine
 10
248.51175
 20
127.9554999999999
 30
0.0
 11
248.51175
 21
126.0475
 31
0.0
  0
LINE
  5
C1
330
1E
100
AcDbEntity
  8
0
100
AcDbLine
 10
248.51175
 20
127.9554999999999
 30
0.0
 11
248.51175
 21
129.3954999999999
 31
0.0
  0
LINE
  5
C2
330
1E
100
AcDbEntity
  8
0
100
AcDbLine
 10
248.51175
 20
121.5834999999999
 30
0.0
 11
248.51175
 21
119.2795
 31
0.0
  0
LINE
  5
C3
330
1E
100
AcDbEntity
  8
0
100
AcDbLine
 10
248.51175
 20
121.5834999999999
 30
0.0
 11
248.51175
 21
123.8874999999999
 31
0.0
  0
LINE
  5
C4
330
1E
100
AcDbEntity
  8
0
100
AcDbLine
 10
248.51175
 20
119.2795
 30
0.0
 11
248.51175
 21
117.1194999999999
 31
0.0
  0
LINE
  5
C5
330
1E
100
AcDbEntity
  8
0
100
AcDbLine
 10
248.51175
 20
119.2795
 30
0.0
 11
248.51175
 21
121.5834999999999
 31
0.0
  0
LINE
  5
C6
330
1E
100
AcDbEntity
  8
0
100
AcDbLine
 10
248.51175
 20
129.3954999999999
 30
0.0
 11
248.51175
 21
127.9554999999999
 31
0.0
  0
LINE
  5
C7
330
1E
100
AcDbEntity
  8
0
100
AcDbLine
 10
248.51175
 20
129.3954999999999
 30
0.0
 11
248.51175
 21
130.2594999999999
 31
0.0
  0
LINE
  5
C8
330
1E
100
AcDbEntity
  8
0
100
AcDbLine
 10
248.51175
 20
130.2594999999999
 30
0.0
 11
248.51175
 21
129.3954999999999
 31
0.0
  0
LINE
  5
C9
330
1E
100
AcDbEntity
  8
0
100
AcDbLine
 10
248.51175
 20
130.2594999999999
 30
0.0
 11
248.51175
 21
130.5834999999999
 31
0.0
  0
LINE
  5
CA
330
1E
100
AcDbEntity
  8
0
100
AcDbLine
 10
269.51175
 20
140.5834999999999
 30
0.0
 11
269.51175
 21
136.5834999999999
 31
0.0
  0
LINE
  5
CB
330
1E
100
AcDbEntity
  8
0
100
AcDbLine
 10
269.51175
 20
140.5834999999999
 30
0.0
 11
270.87975
 21
140.5834999999999
 31
0.0
  0
LINE
  5
CC
330
1E
100
AcDbEntity
  8
0
100
AcDbLine
 10
270.87975
 20
140.5834999999999
 30
0.0
 11
274.52775
 21
140.5834999999999
 31
0.0
  0
LINE
  5
CD
330
1E
100
AcDbEntity
  8
0
100
AcDbLine
 10
270.87975
 20
136.5834999999999
 30
0.0
 11
274.52775
 21
136.5834999999999
 31
0.0
  0
LINE
  5
CE
330
1E
100
AcDbEntity
  8
0
100
AcDbLine
 10
269.51175
 20
136.5834999999999
 30
0.0
 11
270.87975
 21
136.5834999999999
 31
0.0
  0
LINE
  5
CF
330
1E
100
AcDbEntity
  8
0
100
AcDbLine
 10
269.51175
 20
136.5834999999999
 30
0.0
 11
269.51175
 21
140.5834999999999
 31
0.0
  0
LINE
  5
D0
330
1E
100
AcDbEntity
  8
0
100
AcDbLine
 10
258.5117499999999
 20
131.5834999999999
 30
0.0
 11
288.51175
 21
131.5834999999999
 31
0.0
  0
LINE
  5
D1
330
1E
100
AcDbEntity
  8
0
100
AcDbLine
 10
258.5117499999999
 20
131.5834999999999
 30
0.0
 11
258.5117499999999
 21
96.5835
 31
0.0
  0
LINE
  5
D2
330
1E
100
AcDbEntity
  8
0
100
AcDbLine
 10
248.51175
 20
130.5834999999999
 30
0.0
 11
248.51175
 21
130.2594999999999
 31
0.0
  0
LINE
  5
D3
330
1E
100
AcDbEntity
  8
0
100
AcDbLine
 10
248.51175
 20
128.5834999999999
 30
0.0
 11
258.5117499999999
 21
128.5834999999999
 31
0.0
  0
LINE
  5
D4
330
1E
100
AcDbEntity
  8
0
100
AcDbLine
 10
238.51175
 20
119.7915
 30
0.0
 11
238.51175
 21
118.1115
 31
0.0
  0
LINE
  5
D5
330
1E
100
AcDbEntity
  8
0
100
AcDbLine
 10
238.51175
 20
119.7915
 30
0.0
 11
238.51175
 21
121.5834999999999
 31
0.0
  0
LINE
  5
D6
330
1E
100
AcDbEntity
  8
0
100
AcDbLine
 10
238.51175
 20
118.1115
 30
0.0
 11
238.51175
 21
116.6274999999999
 31
0.0
  0
LINE
  5
D7
330
1E
100
AcDbEntity
  8
0
100
AcDbLine
 10
238.51175
 20
118.1115
 30
0.0
 11
238.51175
 21
119.7915
 31
0.0
  0
LINE
  5
D8
330
1E
100
AcDbEntity
  8
0
100
AcDbLine
 10
218.51175
 20
117.2434999999999
 30
0.0
 11
218.51175
 21
116.7634999999999
 31
0.0
  0
LINE
  5
D9
330
1E
100
AcDbEntity
  8
0
100
AcDbLine
 10
218.51175
 20
117.2434999999999
 30
0.0
 11
218.51175
 21
118.0434999999999
 31
0.0
  0
LINE
  5
DA
330
1E
100
AcDbEntity
  8
0
100
AcDbLine
 10
218.51175
 20
116.7634999999999
 30
0.0
 11
218.51175
 21
116.5834999999999
 31
0.0
  0
LINE
  5
DB
330
1E
100
AcDbEntity
  8
0
100
AcDbLine
 10
218.51175
 20
116.7634999999999
 30
0.0
 11
218.51175
 21
117.2434999999999
 31
0.0
  0
LINE
  5
DC
330
1E
100
AcDbEntity
  8
0
100
AcDbLine
 10
175.7057499999999
 20
126.5835
 30
0.0
 11
218.51175
 21
126.5835
 31
0.0
  0
LINE
  5
DD
330
1E
100
AcDbEntity
  8
0
100
AcDbLine
 10
-0.189750000000067
 20
588.3265
 30
0.0
 11
0.389849999999932
 21
589.0254999999999
 31
0.0
  0
LINE
  5
DE
330
1E
100
AcDbEntity
  8
0
100
AcDbLine
 10
-0.0671500000000686
 20
587.6314999999999
 30
0.0
 11
0.25964999999993
 21
585.7775
 31
0.0
  0
LINE
  5
DF
330
1E
100
AcDbEntity
  8
0
100
AcDbLine
 10
0.25964999999993
 20
585.7775
 30
0.0
 11
0.7806499999999309
 21
582.8224999999999
 31
0.0
  0
LINE
  5
E0
330
1E
100
AcDbEntity
  8
0
100
AcDbLine
 10
-0.0671500000000686
 20
587.6314999999999
 30
0.0
 11
0.25964999999993
 21
585.7775
 31
0.0
  0
LINE
  5
E1
330
1E
100
AcDbEntity
  8
0
100
AcDbLine
 10
0.389849999999932
 20
589.0254999999999
 30
0.0
 11
1.702349999999939
 21
589.5555
 31
0.0
  0
LINE
  5
E2
330
1E
100
AcDbEntity
  8
0
100
AcDbLine
 10
-0.189750000000067
 20
588.3265
 30
0.0
 11
-0.0671500000000686
 21
587.6314999999999
 31
0.0
  0
LINE
  5
E3
330
1E
100
AcDbEntity
  8
0
100
AcDbLine
 10
-0.189750000000067
 20
588.3265
 30
0.0
 11
0.389849999999932
 21
589.0254999999999
 31
0.0
  0
LINE
  5
E4
330
1E
100
AcDbEntity
  8
0
100
AcDbLine
 10
2.27194999999993
 20
574.3655
 30
0.0
 11
3.129949999999939
 21
569.4995
 31
0.0
  0
LINE
  5
E5
330
1E
100
AcDbEntity
  8
0
100
AcDbLine
 10
4.628239303535139
 20
561.0020553239959
 30
0.0
 11
8.23114999999994
 21
519.8205
 31
0.0
  0
LINE
  5
E6
330
1E
100
AcDbEntity
  8
0
100
AcDbLine
 10
4.62823930353513
 20
561.0020553239959
 30
0.0
 11
8.23114999999994
 21
519.8205
 31
0.0
  0
LINE
  5
E7
330
1E
100
AcDbEntity
  8
0
100
AcDbLine
 10
8.55394999999995
 20
519.8484999999999
 30
0.0
 11
9.414649999999928
 21
519.9244999999999
 31
0.0
  0
LINE
  5
E8
330
1E
100
AcDbEntity
  8
0
100
AcDbLine
 10
8.23114999999994
 20
519.8205
 30
0.0
 11
8.55394999999995
 21
519.8484999999999
 31
0.0
  0
LINE
  5
E9
330
1E
100
AcDbEntity
  8
0
100
AcDbLine
 10
9.414649999999928
 20
519.9244999999999
 30
0.0
 11
10.8491499999999
 21
520.0495
 31
0.0
  0
LINE
  5
EA
330
1E
100
AcDbEntity
  8
0
100
AcDbLine
 10
9.414649999999928
 20
519.9244999999999
 30
0.0
 11
10.8491499999999
 21
520.0495
 31
0.0
  0
LINE
  5
EE
330
1E
100
AcDbEntity
  8
0
100
AcDbLine
 10
3.98804999999993
 20
564.6325
 30
0.0
 11
4.784749999999929
 21
560.1145
 31
0.0
  0
LINE
  5
EF
330
1E
100
AcDbEntity
  8
0
100
AcDbLine
 10
3.129949999999939
 20
569.4995
 30
0.0
 11
3.98804999999993
 21
564.6325
 31
0.0
  0
LINE
  5
F0
330
1E
100
AcDbEntity
  8
0
100
AcDbLine
 10
1.702349999999939
 20
589.5555
 30
0.0
 11
12.4596165801441
 21
591.452283542975
 31
0.0
  0
LINE
  5
F1
330
1E
100
AcDbEntity
  8
0
100
AcDbLine
 10
0.7806499999999309
 20
582.8224999999999
 30
0.0
 11
1.475249999999929
 21
578.8835
 31
0.0
  0
LINE
  5
F2
330
1E
100
AcDbEntity
  8
0
100
AcDbLine
 10
1.475249999999929
 20
578.8835
 30
0.0
 11
2.27194999999993
 21
574.3655
 31
0.0
  0
LINE
  5
F3
330
1E
100
AcDbEntity
  8
0
100
AcDbLine
 10
0.389849999999932
 20
589.0254999999999
 30
0.0
 11
1.702349999999939
 21
589.5555
 31
0.0
  0
LINE
  5
F4
330
1E
100
AcDbEntity
  8
0
100
AcDbLine
 10
1.702349999999939
 20
589.5555
 30
0.0
 11
12.4596165801441
 21
591.452283542975
 31
0.0
  0
LINE
  5
F8
330
1E
100
AcDbEntity
  8
0
100
AcDbLine
 10
10.8491499999999
 20
520.0495
 30
0.0
 11
12.7499499999999
 21
520.2155
 31
0.0
  0
LINE
  5
F9
330
1E
100
AcDbEntity
  8
0
100
AcDbLine
 10
10.8491499999999
 20
520.0495
 30
0.0
 11
12.21600514266099
 21
520.168869714689
 31
0.0
  0
LINE
  5
FA
330
1E
100
AcDbEntity
  8
0
100
AcDbLine
 10
12.3888617750578
 20
520.183965569581
 30
0.0
 11
12.442393501214
 21
520.1886405835449
 31
0.0
  0
LINE
  5
FB
330
1E
100
AcDbEntity
  8
0
100
AcDbLine
 10
12.3888617750578
 20
520.183965569581
 30
0.0
 11
12.442393501214
 21
520.1886405835449
 31
0.0
  0
LINE
  5
FC
330
1E
100
AcDbEntity
  8
0
100
AcDbLine
 10
12.7499499999999
 20
520.2155
 30
0.0
 11
14.9016499999999
 21
520.4044999999999
 31
0.0
  0
LINE
  5
FD
330
1E
100
AcDbEntity
  8
0
100
AcDbLine
 10
13.8858191570612
 20
520.3152719341381
 30
0.0
 11
14.7263499999999
 21
520.3885
 31
0.0
  0
LINE
  5
FE
330
1E
100
AcDbEntity
  8
0
100
AcDbLine
 10
13.8858191570612
 20
520.3152719341381
 30
0.0
 11
14.9016499999999
 21
520.4044999999999
 31
0.0
  0
LINE
  5
FF
330
1E
100
AcDbEntity
  8
0
100
AcDbLine
 10
12.21600514266099
 20
520.168869714689
 30
0.0
 11
20.4266499999999
 21
426.3205
 31
0.0
  0
LINE
  5
100
330
1E
100
AcDbEntity
  8
0
100
AcDbLine
 10
14.9016499999999
 20
520.4044999999999
 30
0.0
 11
17.1969499999999
 21
520.6055
 31
0.0
  0
LINE
  5
101
330
1E
100
AcDbEntity
  8
0
100
AcDbLine
 10
15.92184999999989
 20
520.4935
 30
0.0
 11
17.1969499999999
 21
520.6055
 31
0.0
  0
LINE
  5
102
330
1E
100
AcDbEntity
  8
0
100
AcDbLine
 10
14.7263499999999
 20
520.3885
 30
0.0
 11
15.92184999999989
 21
520.4935
 31
0.0
  0
LINE
  5
106
330
1E
100
AcDbEntity
  8
0
100
AcDbLine
 10
17.1969499999999
 20
520.6055
 30
0.0
 11
18.47204999999989
 21
520.7164999999999
 31
0.0
  0
LINE
  5
107
330
1E
100
AcDbEntity
  8
0
100
AcDbLine
 10
17.1969499999999
 20
520.6055
 30
0.0
 11
19.49214999999989
 21
520.8055
 31
0.0
  0
LINE
  5
109
330
1E
100
AcDbEntity
  8
0
100
AcDbLine
 10
19.49214999999989
 20
520.8055
 30
0.0
 11
21.6439499999999
 21
520.9945
 31
0.0
  0
LINE
  5
10A
330
1E
100
AcDbEntity
  8
0
100
AcDbLine
 10
18.47204999999989
 20
520.7164999999999
 30
0.0
 11
18.6297729227509
 21
520.7303538622129
 31
0.0
  0
LINE
  5
10B
330
1E
100
AcDbEntity
  8
0
100
AcDbLine
 10
20.59834999999989
 20
426.4235
 30
0.0
 11
21.0563499999999
 21
426.6964999999999
 31
0.0
  0
LINE
  5
10C
330
1E
100
AcDbEntity
  8
0
100
AcDbLine
 10
20.4266499999999
 20
426.3205
 30
0.0
 11
20.59834999999989
 21
426.4235
 31
0.0
  0
LINE
  5
10D
330
1E
100
AcDbEntity
  8
0
100
AcDbLine
 10
20.5138029412518
 20
520.8952352941239
 30
0.0
 11
20.72344999999989
 21
520.9134999999999
 31
0.0
  0
LINE
  5
10E
330
1E
100
AcDbEntity
  8
0
100
AcDbLine
 10
21.0563499999999
 20
426.6964999999999
 30
0.0
 11
21.8196499999999
 21
427.1505
 31
0.0
  0
LINE
  5
10F
330
1E
100
AcDbEntity
  8
0
100
AcDbLine
 10
21.8196499999999
 20
427.1505
 30
0.0
 11
22.8309499999999
 21
427.7524999999999
 31
0.0
  0
LINE
  5
110
330
1E
100
AcDbEntity
  8
0
100
AcDbLine
 10
20.72344999999989
 20
520.9134999999999
 30
0.0
 11
21.52044999999989
 21
520.9835
 31
0.0
  0
LINE
  5
112
330
1E
100
AcDbEntity
  8
0
100
AcDbLine
 10
21.52044999999989
 20
520.9835
 30
0.0
 11
21.93878749984159
 21
521.0202499999859
 31
0.0
  0
LINE
  5
115
330
1E
100
AcDbEntity
  8
0
100
AcDbLine
 10
25.1972499999999
 20
429.1615
 30
0.0
 11
26.4184499999999
 21
429.8885
 31
0.0
  0
LINE
  5
116
330
1E
100
AcDbEntity
  8
0
100
AcDbLine
 10
26.4184499999999
 20
429.8885
 30
0.0
 11
27.5634499999999
 21
430.5695
 31
0.0
  0
LINE
  5
117
330
1E
100
AcDbEntity
  8
0
100
AcDbLine
 10
27.5634499999999
 20
430.5695
 30
0.0
 11
28.5747499999999
 21
431.1725
 31
0.0
  0
LINE
  5
118
330
1E
100
AcDbEntity
  8
0
100
AcDbLine
 10
28.5747499999999
 20
431.1725
 30
0.0
 11
29.3381499999999
 21
431.6265
 31
0.0
  0
LINE
  5
119
330
1E
100
AcDbEntity
  8
0
100
AcDbLine
 10
29.3381499999999
 20
431.6265
 30
0.0
 11
29.7960499999999
 21
431.8995
 31
0.0
  0
LINE
  5
11A
330
1E
100
AcDbEntity
  8
0
100
AcDbLine
 10
29.7960499999999
 20
431.8995
 30
0.0
 11
29.9677499999999
 21
432.0015
 31
0.0
  0
LINE
  5
11B
330
1E
100
AcDbEntity
  8
0
100
AcDbLine
 10
23.9759499999999
 20
428.4345
 30
0.0
 11
25.1972499999999
 21
429.1615
 31
0.0
  0
LINE
  5
11C
330
1E
100
AcDbEntity
  8
0
100
AcDbLine
 10
22.8309499999999
 20
427.7524999999999
 30
0.0
 11
23.9759499999999
 21
428.4345
 31
0.0
  0
LINE
  5
11D
330
1E
100
AcDbEntity
  8
0
100
AcDbLine
 10
22.3432268513216
 20
521.055572214089
 30
0.0
 11
44.3594299999999
 21
390.0874999999999
 31
0.0
  0
LINE
  5
11E
330
1E
100
AcDbEntity
  8
0
100
AcDbLine
 10
22.17794999999989
 20
521.0404999999999
 30
0.0
 11
29.9677499999999
 21
432.0015
 31
0.0
  0
LINE
  5
11F
330
1E
100
AcDbEntity
  8
0
100
AcDbLine
 10
22.00675784315889
 20
521.026186274512
 30
0.0
 11
22.17794999999989
 21
521.0404999999999
 31
0.0
  0
LINE
  5
127
330
1E
100
AcDbEntity
  8
0
100
AcDbLine
 10
11.4303499999999
 20
601.2765
 30
0.0
 11
12.3777499999999
 21
595.9035
 31
0.0
  0
LINE
  5
128
330
1E
100
AcDbEntity
  8
0
100
AcDbLine
 10
10.84044999999989
 20
604.6215
 30
0.0
 11
11.4303499999999
 21
601.2765
 31
0.0
  0
LINE
  5
12C
330
1E
100
AcDbEntity
  8
0
100
AcDbLine
 10
10.62594999999989
 20
605.8384999999999
 30
0.0
 11
11.9001499999999
 21
606.5854999999999
 31
0.0
  0
LINE
  5
12D
330
1E
100
AcDbEntity
  8
0
100
AcDbLine
 10
10.62594999999989
 20
605.8384999999999
 30
0.0
 11
10.84044999999989
 21
604.6215
 31
0.0
  0
LINE
  5
131
330
1E
100
AcDbEntity
  8
0
100
AcDbLine
 10
44.43963999999989
 20
617.4005
 30
0.0
 11
48.37887299999989
 21
618.0945
 31
0.0
  0
LINE
  5
132
330
1E
100
AcDbEntity
  8
0
100
AcDbLine
 10
44.43963999999989
 20
617.4005
 30
0.0
 11
59.9002019453322
 21
538.89227064504
 31
0.0
  0
LINE
  5
136
330
1E
100
AcDbEntity
  8
0
100
AcDbLine
 10
11.9001499999999
 20
606.5854999999999
 30
0.0
 11
45.3078268165727
 21
612.476490621824
 31
0.0
  0
LINE
  5
144
330
1E
100
AcDbEntity
  8
0
100
AcDbLine
 10
59.9002019453322
 20
538.89227064504
 30
0.0
 11
62.27074999999989
 21
539.3105
 31
0.0
  0
LINE
  5
145
330
1E
100
AcDbEntity
  8
0
100
AcDbLine
 10
59.9002019453322
 20
538.89227064504
 30
0.0
 11
84.05374999999999
 21
395.0235
 31
0.0
  0
LINE
  5
149
330
1E
100
AcDbEntity
  8
0
100
AcDbLine
 10
91.26814999999991
 20
161.5834999999999
 30
0.0
 11
113.51685
 21
132.58855
 31
0.0
  0
LINE
  5
14F
330
1E
100
AcDbEntity
  8
0
100
AcDbLine
 10
124.02575
 20
183.5963
 30
0.0
 11
141.80105
 21
160.8728
 31
0.0
  0
LINE
  5
157
330
1E
100
AcDbEntity
  8
0
100
AcDbLine
 10
141.80105
 20
160.8728
 30
0.0
 11
162.5117499999999
 21
144.98096
 31
0.0
  0
LINE
  5
15E
330
1E
100
AcDbEntity
  8
0
100
AcDbLine
 10
65.62514999999989
 20
543.3215
 30
0.0
 11
65.86264999999989
 21
541.9745
 31
0.0
  0
LINE
  5
15F
330
1E
100
AcDbEntity
  8
0
100
AcDbLine
 10
64.99164999999989
 20
546.9145
 30
0.0
 11
65.62514999999989
 21
543.3215
 31
0.0
  0
LINE
  5
160
330
1E
100
AcDbEntity
  8
0
100
AcDbLine
 10
62.0206499999999
 20
540.7285
 30
0.0
 11
62.27074999999989
 21
539.3105
 31
0.0
  0
LINE
  5
161
330
1E
100
AcDbEntity
  8
0
100
AcDbLine
 10
61.9234772915354
 20
541.279504815094
 30
0.0
 11
62.0206499999999
 21
540.7285
 31
0.0
  0
LINE
  5
162
330
1E
100
AcDbEntity
  8
0
100
AcDbLine
 10
61.9234772915354
 20
541.279504815094
 30
0.0
 11
65.86264999999989
 21
541.9745
 31
0.0
  0
LINE
  5
163
330
1E
100
AcDbEntity
  8
0
100
AcDbLine
 10
64.4735347222591
 20
549.85251493449
 30
0.0
 11
69.3975499999999
 21
550.7204999999999
 31
0.0
  0
LINE
  5
164
330
1E
100
AcDbEntity
  8
0
100
AcDbLine
 10
52.90294999999989
 20
615.4725
 30
0.0
 11
64.99164999999989
 21
546.9145
 31
0.0
  0
LINE
  5
16F
330
1E
100
AcDbEntity
  8
0
100
AcDbLine
 10
68.70984999999989
 20
554.6204999999999
 30
0.0
 11
69.20994999999989
 21
551.7845
 31
0.0
  0
LINE
  5
170
330
1E
100
AcDbEntity
  8
0
100
AcDbLine
 10
69.20994999999989
 20
551.7845
 30
0.0
 11
69.3975499999999
 21
550.7204999999999
 31
0.0
  0
LINE
  5
173
330
1E
100
AcDbEntity
  8
0
100
AcDbLine
 10
77.0506499999999
 20
564.9054999999999
 30
0.0
 11
77.3840499999999
 21
563.0144999999999
 31
0.0
  0
LINE
  5
175
330
1E
100
AcDbEntity
  8
0
100
AcDbLine
 10
67.66104999999988
 20
560.5694999999999
 30
0.0
 11
77.50914999999991
 21
562.3055
 31
0.0
  0
LINE
  5
176
330
1E
100
AcDbEntity
  8
0
100
AcDbLine
 10
77.3840499999999
 20
563.0144999999999
 30
0.0
 11
77.50914999999991
 21
562.3055
 31
0.0
  0
LINE
  5
178
330
1E
100
AcDbEntity
  8
0
100
AcDbLine
 10
76.4950499999999
 20
568.0565
 30
0.0
 11
77.0506499999999
 21
564.9054999999999
 31
0.0
  0
LINE
  5
17C
330
1E
100
AcDbEntity
  8
0
100
AcDbLine
 10
67.87634999999989
 20
559.3474999999999
 30
0.0
 11
68.70984999999989
 21
554.6204999999999
 31
0.0
  0
LINE
  5
185
330
1E
100
AcDbEntity
  8
0
100
AcDbLine
 10
75.75874999999991
 20
572.2324999999999
 30
0.0
 11
76.4950499999999
 21
568.0565
 31
0.0
  0
LINE
  5
186
330
1E
100
AcDbEntity
  8
0
100
AcDbLine
 10
74.90443925156959
 20
577.077515739046
 30
0.0
 11
89.67654999999991
 21
579.6825
 31
0.0
  0
LINE
  5
187
330
1E
100
AcDbEntity
  8
0
100
AcDbLine
 10
74.9252499999999
 20
576.9595
 30
0.0
 11
75.75874999999991
 21
572.2324999999999
 31
0.0
  0
LINE
  5
191
330
1E
100
AcDbEntity
  8
0
100
AcDbLine
 10
74.25844999999991
 20
580.7414999999999
 30
0.0
 11
74.436484721401
 21
579.731240563149
 31
0.0
  0
LINE
  5
192
330
1E
100
AcDbEntity
  8
0
100
AcDbLine
 10
89.4229499999999
 20
581.1205
 30
0.0
 11
89.5618499999999
 21
580.3325
 31
0.0
  0
LINE
  5
193
330
1E
100
AcDbEntity
  8
0
100
AcDbLine
 10
89.64524999999991
 20
579.8595
 30
0.0
 11
89.67654999999991
 21
579.6825
 31
0.0
  0
LINE
  5
194
330
1E
100
AcDbEntity
  8
0
100
AcDbLine
 10
89.5618499999999
 20
580.3325
 30
0.0
 11
89.64524999999991
 21
579.8595
 31
0.0
  0
LINE
  5
195
330
1E
100
AcDbEntity
  8
0
100
AcDbLine
 10
73.8138499999999
 20
583.2625
 30
0.0
 11
74.03614999999991
 21
582.0014999999999
 31
0.0
  0
LINE
  5
196
330
1E
100
AcDbEntity
  8
0
100
AcDbLine
 10
73.6055499999999
 20
584.4444999999999
 30
0.0
 11
73.8138499999999
 21
583.2625
 31
0.0
  0
LINE
  5
197
330
1E
100
AcDbEntity
  8
0
100
AcDbLine
 10
88.80824999999999
 20
584.6065
 30
0.0
 11
89.03054999999991
 21
583.3454999999999
 31
0.0
  0
LINE
  5
198
330
1E
100
AcDbEntity
  8
0
100
AcDbLine
 10
89.03054999999991
 20
583.3454999999999
 30
0.0
 11
89.23894999999991
 21
582.1645
 31
0.0
  0
LINE
  5
199
330
1E
100
AcDbEntity
  8
0
100
AcDbLine
 10
89.23894999999991
 20
582.1645
 30
0.0
 11
89.4229499999999
 21
581.1205
 31
0.0
  0
LINE
  5
19A
330
1E
100
AcDbEntity
  8
0
100
AcDbLine
 10
88.58594999999992
 20
585.8665
 30
0.0
 11
88.80824999999999
 21
584.6065
 31
0.0
  0
LINE
  5
19B
330
1E
100
AcDbEntity
  8
0
100
AcDbLine
 10
73.42144999999991
 20
585.4874999999999
 30
0.0
 11
73.6055499999999
 21
584.4444999999999
 31
0.0
  0
LINE
  5
19C
330
1E
100
AcDbEntity
  8
0
100
AcDbLine
 10
73.2825499999999
 20
586.2754999999999
 30
0.0
 11
73.42144999999991
 21
585.4874999999999
 31
0.0
  0
LINE
  5
19D
330
1E
100
AcDbEntity
  8
0
100
AcDbLine
 10
73.19914999999991
 20
586.7485
 30
0.0
 11
73.2825499999999
 21
586.2754999999999
 31
0.0
  0
LINE
  5
19E
330
1E
100
AcDbEntity
  8
0
100
AcDbLine
 10
73.16794999999991
 20
586.9255
 30
0.0
 11
87.94004999999989
 21
589.5304999999999
 31
0.0
  0
LINE
  5
19F
330
1E
100
AcDbEntity
  8
0
100
AcDbLine
 10
73.16794999999991
 20
586.9255
 30
0.0
 11
73.19914999999991
 21
586.7485
 31
0.0
  0
LINE
  5
1A0
330
1E
100
AcDbEntity
  8
0
100
AcDbLine
 10
74.03614999999991
 20
582.0014999999999
 30
0.0
 11
74.9252499999999
 21
576.9595
 31
0.0
  0
LINE
  5
1A1
330
1E
100
AcDbEntity
  8
0
100
AcDbLine
 10
74.03614999999991
 20
582.0014999999999
 30
0.0
 11
74.25844999999991
 21
580.7414999999999
 31
0.0
  0
LINE
  5
1A6
330
1E
100
AcDbEntity
  8
0
100
AcDbLine
 10
88.3776499999999
 20
587.0485
 30
0.0
 11
88.58594999999992
 21
585.8665
 31
0.0
  0
LINE
  5
1A7
330
1E
100
AcDbEntity
  8
0
100
AcDbLine
 10
73.14704999999991
 20
587.0434999999999
 30
0.0
 11
74.03614999999991
 21
582.0014999999999
 31
0.0
  0
LINE
  5
1A9
330
1E
100
AcDbEntity
  8
0
100
AcDbLine
 10
88.0546499999999
 20
588.8804999999999
 30
0.0
 11
88.1935499999999
 21
588.0924999999999
 31
0.0
  0
LINE
  5
1AA
330
1E
100
AcDbEntity
  8
0
100
AcDbLine
 10
88.1935499999999
 20
588.0924999999999
 30
0.0
 11
88.3776499999999
 21
587.0485
 31
0.0
  0
LINE
  5
1AB
330
1E
100
AcDbEntity
  8
0
100
AcDbLine
 10
87.94004999999989
 20
589.5304999999999
 30
0.0
 11
87.9712499999999
 21
589.3535
 31
0.0
  0
LINE
  5
1AC
330
1E
100
AcDbEntity
  8
0
100
AcDbLine
 10
87.9712499999999
 20
589.3535
 30
0.0
 11
88.0546499999999
 21
588.8804999999999
 31
0.0
  0
LINE
  5
1AD
330
1E
100
AcDbEntity
  8
0
100
AcDbLine
 10
72.3135499999999
 20
591.7714999999999
 30
0.0
 11
73.14704999999991
 21
587.0434999999999
 31
0.0
  0
LINE
  5
1AE
330
1E
100
AcDbEntity
  8
0
100
AcDbLine
 10
71.57724999999991
 20
595.9465
 30
0.0
 11
72.3135499999999
 21
591.7714999999999
 31
0.0
  0
LINE
  5
1AF
330
1E
100
AcDbEntity
  8
0
100
AcDbLine
 10
71.02164999999999
 20
599.0974999999999
 30
0.0
 11
71.57724999999991
 21
595.9465
 31
0.0
  0
LINE
  5
1BE
330
1E
100
AcDbEntity
  8
0
100
AcDbLine
 10
48.7261699999999
 20
616.1254999999999
 30
0.0
 11
52.66539999999989
 21
616.8194999999999
 31
0.0
  0
LINE
  5
1BF
330
1E
100
AcDbEntity
  8
0
100
AcDbLine
 10
48.7261699999999
 20
616.1254999999999
 30
0.0
 11
61.9234772915354
 21
541.279504815094
 31
0.0
  0
LINE
  5
1C1
330
1E
100
AcDbEntity
  8
0
100
AcDbLine
 10
48.37887299999989
 20
618.0945
 30
0.0
 11
48.62892999999989
 21
616.6765
 31
0.0
  0
LINE
  5
1C5
330
1E
100
AcDbEntity
  8
0
100
AcDbLine
 10
60.7151499999999
 20
599.9615
 30
0.0
 11
70.56314999999999
 21
601.6975
 31
0.0
  0
LINE
  5
1C7
330
1E
100
AcDbEntity
  8
0
100
AcDbLine
 10
70.68824999999991
 20
600.9885
 30
0.0
 11
71.02164999999999
 21
599.0974999999999
 31
0.0
  0
LINE
  5
1C8
330
1E
100
AcDbEntity
  8
0
100
AcDbLine
 10
70.56314999999999
 20
601.6975
 30
0.0
 11
70.68824999999991
 21
600.9885
 31
0.0
  0
LINE
  5
1D0
330
1E
100
AcDbEntity
  8
0
100
AcDbLine
 10
59.16614999999989
 20
608.7455
 30
0.0
 11
59.66624999999989
 21
605.9095
 31
0.0
  0
LINE
  5
1D1
330
1E
100
AcDbEntity
  8
0
100
AcDbLine
 10
58.97864999999989
 20
609.8094999999999
 30
0.0
 11
59.16614999999989
 21
608.7455
 31
0.0
  0
LINE
  5
1D2
330
1E
100
AcDbEntity
  8
0
100
AcDbLine
 10
54.05458999999989
 20
608.9415
 30
0.0
 11
58.97864999999989
 21
609.8094999999999
 31
0.0
  0
LINE
  5
1D3
330
1E
100
AcDbEntity
  8
0
100
AcDbLine
 10
54.05458999999989
 20
608.9415
 30
0.0
 11
54.1922313676623
 21
608.16059771146
 31
0.0
  0
LINE
  5
1D4
330
1E
100
AcDbEntity
  8
0
100
AcDbLine
 10
54.05458999999989
 20
608.9415
 30
0.0
 11
54.1922313676623
 21
608.16059771146
 31
0.0
  0
LINE
  5
1D5
330
1E
100
AcDbEntity
  8
0
100
AcDbLine
 10
59.66624999999989
 20
605.9095
 30
0.0
 11
67.87634999999989
 21
559.3474999999999
 31
0.0
  0
LINE
  5
1D8
330
1E
100
AcDbEntity
  8
0
100
AcDbLine
 10
52.66539999999989
 20
616.8194999999999
 30
0.0
 11
52.90294999999989
 21
615.4725
 31
0.0
  0
LINE
  5
1DC
330
1E
100
AcDbEntity
  8
0
100
AcDbLine
 10
272.51175
 20
152.5834999999999
 30
0.0
 11
272.51175
 21
150.5834999999999
 31
0.0
  0
LINE
  5
1DD
330
1E
100
AcDbEntity
  8
0
100
AcDbLine
 10
272.51175
 20
152.5834999999999
 30
0.0
 11
273.77175
 21
152.5834999999999
 31
0.0
  0
LINE
  5
1DE
330
1E
100
AcDbEntity
  8
0
100
AcDbLine
 10
274.52775
 20
140.5834999999999
 30
0.0
 11
280.60775
 21
140.5834999999999
 31
0.0
  0
LINE
  5
1DF
330
1E
100
AcDbEntity
  8
0
100
AcDbLine
 10
274.52775
 20
136.5834999999999
 30
0.0
 11
280.60775
 21
136.5834999999999
 31
0.0
  0
LINE
  5
1E0
330
1E
100
AcDbEntity
  8
0
100
AcDbLine
 10
274.52775
 20
136.5834999999999
 30
0.0
 11
277.5117499999999
 21
136.5834999999999
 31
0.0
  0
LINE
  5
1E1
330
1E
100
AcDbEntity
  8
0
100
AcDbLine
 10
277.5117499999999
 20
136.5834999999999
 30
0.0
 11
277.5117499999999
 21
131.5834999999999
 31
0.0
  0
LINE
  5
1E2
330
1E
100
AcDbEntity
  8
0
100
AcDbLine
 10
280.60775
 20
140.5834999999999
 30
0.0
 11
288.6637499999999
 21
140.5834999999999
 31
0.0
  0
LINE
  5
1E3
330
1E
100
AcDbEntity
  8
0
100
AcDbLine
 10
280.60775
 20
136.5834999999999
 30
0.0
 11
288.6637499999999
 21
136.5834999999999
 31
0.0
  0
LINE
  5
1E4
330
1E
100
AcDbEntity
  8
0
100
AcDbLine
 10
277.5117499999999
 20
131.5834999999999
 30
0.0
 11
277.5117499999999
 21
136.5834999999999
 31
0.0
  0
LINE
  5
1E5
330
1E
100
AcDbEntity
  8
0
100
AcDbLine
 10
280.51175
 20
140.5834999999999
 30
0.0
 11
280.51175
 21
150.5834999999999
 31
0.0
  0
LINE
  5
1E6
330
1E
100
AcDbEntity
  8
0
100
AcDbLine
 10
281.5117499999999
 20
82.5835
 30
0.0
 11
282.44775
 21
82.5835
 31
0.0
  0
LINE
  5
1E7
330
1E
100
AcDbEntity
  8
0
100
AcDbLine
 10
281.5117499999999
 20
82.5835
 30
0.0
 11
281.5117499999999
 21
84.58350000000001
 31
0.0
  0
LINE
  5
1E8
330
1E
100
AcDbEntity
  8
0
100
AcDbLine
 10
282.44775
 20
82.5835
 30
0.0
 11
284.94375
 21
82.5835
 31
0.0
  0
LINE
  5
1E9
330
1E
100
AcDbEntity
  8
0
100
AcDbLine
 10
282.44775
 20
82.5835
 30
0.0
 11
284.51175
 21
82.5835
 31
0.0
  0
LINE
  5
1EA
330
1E
100
AcDbEntity
  8
0
100
AcDbLine
 10
281.5117499999999
 20
84.58350000000001
 30
0.0
 11
282.44775
 21
84.58350000000001
 31
0.0
  0
LINE
  5
1EB
330
1E
100
AcDbEntity
  8
0
100
AcDbLine
 10
281.5117499999999
 20
84.58350000000001
 30
0.0
 11
281.5117499999999
 21
82.5835
 31
0.0
  0
LINE
  5
1EC
330
1E
100
AcDbEntity
  8
0
100
AcDbLine
 10
284.51175
 20
68.5835
 30
0.0
 11
285.3397499999999
 21
68.5835
 31
0.0
  0
LINE
  5
1ED
330
1E
100
AcDbEntity
  8
0
100
AcDbLine
 10
284.51175
 20
68.5835
 30
0.0
 11
284.51175
 21
82.5835
 31
0.0
  0
LINE
  5
1EE
330
1E
100
AcDbEntity
  8
0
100
AcDbLine
 10
284.9277499999999
 20
68.5835
 30
0.0
 11
285.92775
 21
68.5835
 31
0.0
  0
LINE
  5
1EF
330
1E
100
AcDbEntity
  8
0
100
AcDbLine
 10
284.9277499999999
 20
68.5835
 30
0.0
 11
287.5117499999999
 21
68.5835
 31
0.0
  0
LINE
  5
1F0
330
1E
100
AcDbEntity
  8
0
100
AcDbLine
 10
284.9277499999999
 20
68.5835
 30
0.0
 11
284.9277499999999
 21
82.5835
 31
0.0
  0
LINE
  5
1F1
330
1E
100
AcDbEntity
  8
0
100
AcDbLine
 10
284.9277499999999
 20
68.5835
 30
0.0
 11
287.52575
 21
68.5835
 31
0.0
  0
LINE
  5
1F2
330
1E
100
AcDbEntity
  8
0
100
AcDbLine
 10
287.5117499999999
 20
32.5455
 30
0.0
 11
288.1597499999999
 21
31.5835
 31
0.0
  0
LINE
  5
1F3
330
1E
100
AcDbEntity
  8
0
100
AcDbLine
 10
287.5117499999999
 20
32.5455
 30
0.0
 11
287.5117499999999
 21
55.622
 31
0.0
  0
LINE
  5
1F4
330
1E
100
AcDbEntity
  8
0
100
AcDbLine
 10
287.5117499999999
 20
55.622
 30
0.0
 11
287.5117499999999
 21
32.5455
 31
0.0
  0
LINE
  5
1F5
330
1E
100
AcDbEntity
  8
0
100
AcDbLine
 10
287.5117499999999
 20
68.5835
 30
0.0
 11
288.2317499999999
 21
68.5835
 31
0.0
  0
LINE
  5
1F6
330
1E
100
AcDbEntity
  8
0
100
AcDbLine
 10
287.5117499999999
 20
68.5835
 30
0.0
 11
287.5117499999999
 21
46.5835
 31
0.0
  0
LINE
  5
1F7
330
1E
100
AcDbEntity
  8
0
100
AcDbLine
 10
287.5117499999999
 20
46.5835
 30
0.0
 11
287.5117499999999
 21
68.5835
 31
0.0
  0
LINE
  5
1F9
330
1E
100
AcDbEntity
  8
0
100
AcDbLine
 10
288.1597499999999
 20
31.5835
 30
0.0
 11
289.1317499999999
 21
31.5835
 31
0.0
  0
LINE
  5
1FA
330
1E
100
AcDbEntity
  8
0
100
AcDbLine
 10
288.2317499999999
 20
68.5835
 30
0.0
 11
290.15175
 21
68.5835
 31
0.0
  0
LINE
  5
1FB
330
1E
100
AcDbEntity
  8
0
100
AcDbLine
 10
287.52575
 20
68.5835
 30
0.0
 11
288.52575
 21
68.5835
 31
0.0
  0
LINE
  5
1FC
330
1E
100
AcDbEntity
  8
0
100
AcDbLine
 10
285.92775
 20
68.5835
 30
0.0
 11
287.5117499999999
 21
68.5835
 31
0.0
  0
LINE
  5
1FD
330
1E
100
AcDbEntity
  8
0
100
AcDbLine
 10
285.92775
 20
68.5835
 30
0.0
 11
285.92775
 21
82.5835
 31
0.0
  0
LINE
  5
1FE
330
1E
100
AcDbEntity
  8
0
100
AcDbLine
 10
285.92775
 20
68.5835
 30
0.0
 11
288.52575
 21
68.5835
 31
0.0
  0
LINE
  5
1FF
330
1E
100
AcDbEntity
  8
0
100
AcDbLine
 10
285.3397499999999
 20
68.5835
 30
0.0
 11
287.54775
 21
68.5835
 31
0.0
  0
LINE
  5
200
330
1E
100
AcDbEntity
  8
0
100
AcDbLine
 10
285.3397499999999
 20
68.5835
 30
0.0
 11
287.5117499999999
 21
68.5835
 31
0.0
  0
LINE
  5
201
330
1E
100
AcDbEntity
  8
0
100
AcDbLine
 10
285.92775
 20
82.5835
 30
0.0
 11
285.92775
 21
68.5835
 31
0.0
  0
LINE
  5
202
330
1E
100
AcDbEntity
  8
0
100
AcDbLine
 10
285.92775
 20
82.5835
 30
0.0
 11
288.52575
 21
82.5835
 31
0.0
  0
LINE
  5
203
330
1E
100
AcDbEntity
  8
0
100
AcDbLine
 10
284.9277499999999
 20
82.5835
 30
0.0
 11
284.9277499999999
 21
68.5835
 31
0.0
  0
LINE
  5
204
330
1E
100
AcDbEntity
  8
0
100
AcDbLine
 10
284.9277499999999
 20
82.5835
 30
0.0
 11
285.92775
 21
82.5835
 31
0.0
  0
LINE
  5
205
330
1E
100
AcDbEntity
  8
0
100
AcDbLine
 10
287.54775
 20
68.5835
 30
0.0
 11
291.22775
 21
68.5835
 31
0.0
  0
LINE
  5
206
330
1E
100
AcDbEntity
  8
0
100
AcDbLine
 10
284.51175
 20
82.5835
 30
0.0
 11
284.9277499999999
 21
82.5835
 31
0.0
  0
LINE
  5
207
330
1E
100
AcDbEntity
  8
0
100
AcDbLine
 10
284.51175
 20
82.5835
 30
0.0
 11
284.51175
 21
68.5835
 31
0.0
  0
LINE
  5
208
330
1E
100
AcDbEntity
  8
0
100
AcDbLine
 10
282.51175
 20
84.58350000000001
 30
0.0
 11
282.51175
 21
91.5835
 31
0.0
  0
LINE
  5
209
330
1E
100
AcDbEntity
  8
0
100
AcDbLine
 10
284.94375
 20
82.5835
 30
0.0
 11
289.1037499999999
 21
82.5835
 31
0.0
  0
LINE
  5
20A
330
1E
100
AcDbEntity
  8
0
100
AcDbLine
 10
282.44775
 20
84.58350000000001
 30
0.0
 11
284.94375
 21
84.58350000000001
 31
0.0
  0
LINE
  5
20B
330
1E
100
AcDbEntity
  8
0
100
AcDbLine
 10
282.51175
 20
91.5835
 30
0.0
 11
282.51175
 21
84.58350000000001
 31
0.0
  0
LINE
  5
20C
330
1E
100
AcDbEntity
  8
0
100
AcDbLine
 10
284.94375
 20
84.58350000000001
 30
0.0
 11
289.1037499999999
 21
84.58350000000001
 31
0.0
  0
LINE
  5
20F
330
1E
100
AcDbEntity
  8
0
100
AcDbLine
 10
288.52575
 20
82.5835
 30
0.0
 11
291.22775
 21
82.5835
 31
0.0
  0
LINE
  5
210
330
1E
100
AcDbEntity
  8
0
100
AcDbLine
 10
287.5117499999999
 20
56.5835
 30
0.0
 11
291.72375
 21
56.5835
 31
0.0
  0
LINE
  5
211
330
1E
100
AcDbEntity
  8
0
100
AcDbLine
 10
289.1317499999999
 20
31.5835
 30
0.0
 11
291.72375
 21
31.5835
 31
0.0
  0
LINE
  5
212
330
1E
100
AcDbEntity
  8
0
100
AcDbLine
 10
290.15175
 20
68.5835
 30
0.0
 11
293.3517499999999
 21
68.5835
 31
0.0
  0
LINE
  5
213
330
1E
100
AcDbEntity
  8
0
100
AcDbLine
 10
289.1037499999999
 20
82.5835
 30
0.0
 11
294.6157499999999
 21
82.5835
 31
0.0
  0
LINE
  5
214
330
1E
100
AcDbEntity
  8
0
100
AcDbLine
 10
288.51175
 20
96.5835
 30
0.0
 11
288.51175
 21
131.5834999999999
 31
0.0
  0
LINE
  5
215
330
1E
100
AcDbEntity
  8
0
100
AcDbLine
 10
288.51175
 20
131.5834999999999
 30
0.0
 11
288.51175
 21
96.5835
 31
0.0
  0
LINE
  5
216
330
1E
100
AcDbEntity
  8
0
100
AcDbLine
 10
288.51175
 20
112.5835
 30
0.0
 11
290.51175
 21
112.5835
 31
0.0
  0
LINE
  5
217
330
1E
100
AcDbEntity
  8
0
100
AcDbLine
 10
288.6637499999999
 20
140.5834999999999
 30
0.0
 11
297.78375
 21
140.5834999999999
 31
0.0
  0
LINE
  5
218
330
1E
100
AcDbEntity
  8
0
100
AcDbLine
 10
288.6637499999999
 20
136.5834999999999
 30
0.0
 11
297.78375
 21
136.5834999999999
 31
0.0
  0
LINE
  5
219
330
1E
100
AcDbEntity
  8
0
100
AcDbLine
 10
288.51175
 20
130.5834999999999
 30
0.0
 11
290.51175
 21
130.5834999999999
 31
0.0
  0
LINE
  5
21A
330
1E
100
AcDbEntity
  8
0
100
AcDbLine
 10
289.1037499999999
 20
84.58350000000001
 30
0.0
 11
294.6157499999999
 21
84.58350000000001
 31
0.0
  0
LINE
  5
21B
330
1E
100
AcDbEntity
  8
0
100
AcDbLine
 10
288.39575
 20
150.5834999999999
 30
0.0
 11
294.11975
 21
150.5834999999999
 31
0.0
  0
LINE
  5
21C
330
1E
100
AcDbEntity
  8
0
100
AcDbLine
 10
284.07575
 20
150.5834999999999
 30
0.0
 11
288.39575
 21
150.5834999999999
 31
0.0
  0
LINE
  5
21D
330
1E
100
AcDbEntity
  8
0
100
AcDbLine
 10
281.4837499999999
 20
150.5834999999999
 30
0.0
 11
284.07575
 21
150.5834999999999
 31
0.0
  0
LINE
  5
21E
330
1E
100
AcDbEntity
  8
0
100
AcDbLine
 10
280.51175
 20
150.5834999999999
 30
0.0
 11
280.51175
 21
140.5834999999999
 31
0.0
  0
LINE
  5
21F
330
1E
100
AcDbEntity
  8
0
100
AcDbLine
 10
280.51175
 20
150.5834999999999
 30
0.0
 11
281.4837499999999
 21
150.5834999999999
 31
0.0
  0
LINE
  5
222
330
1E
100
AcDbEntity
  8
0
100
AcDbLine
 10
291.72375
 20
56.5835
 30
0.0
 11
295.9357499999999
 21
56.5835
 31
0.0
  0
LINE
  5
223
330
1E
100
AcDbEntity
  8
0
100
AcDbLine
 10
291.72375
 20
31.5835
 30
0.0
 11
295.9357499999999
 21
31.5835
 31
0.0
  0
LINE
  5
224
330
1E
100
AcDbEntity
  8
0
100
AcDbLine
 10
293.3517499999999
 20
68.5835
 30
0.0
 11
297.5917499999999
 21
68.5835
 31
0.0
  0
LINE
  5
225
330
1E
100
AcDbEntity
  8
0
100
AcDbLine
 10
291.22775
 20
68.5835
 30
0.0
 11
296.1037499999999
 21
68.5835
 31
0.0
  0
LINE
  5
226
330
1E
100
AcDbEntity
  8
0
100
AcDbLine
 10
290.51175
 20
112.5835
 30
0.0
 11
290.51175
 21
112.9075
 31
0.0
  0
LINE
  5
227
330
1E
100
AcDbEntity
  8
0
100
AcDbLine
 10
290.51175
 20
123.8874999999999
 30
0.0
 11
290.51175
 21
121.5834999999999
 31
0.0
  0
LINE
  5
228
330
1E
100
AcDbEntity
  8
0
100
AcDbLine
 10
290.51175
 20
123.8874999999999
 30
0.0
 11
290.51175
 21
126.0475
 31
0.0
  0
LINE
  5
229
330
1E
100
AcDbEntity
  8
0
100
AcDbLine
 10
290.51175
 20
126.0475
 30
0.0
 11
290.51175
 21
123.8874999999999
 31
0.0
  0
LINE
  5
22A
330
1E
100
AcDbEntity
  8
0
100
AcDbLine
 10
290.51175
 20
126.0475
 30
0.0
 11
290.51175
 21
127.9554999999999
 31
0.0
  0
LINE
  5
22B
330
1E
100
AcDbEntity
  8
0
100
AcDbLine
 10
290.51175
 20
129.5834999999999
 30
0.0
 11
295.1117499999999
 21
129.5834999999999
 31
0.0
  0
LINE
  5
22C
330
1E
100
AcDbEntity
  8
0
100
AcDbLine
 10
290.51175
 20
129.5834999999999
 30
0.0
 11
292.63175
 21
129.5834999999999
 31
0.0
  0
LINE
  5
22D
330
1E
100
AcDbEntity
  8
0
100
AcDbLine
 10
290.51175
 20
127.9554999999999
 30
0.0
 11
290.51175
 21
126.0475
 31
0.0
  0
LINE
  5
22E
330
1E
100
AcDbEntity
  8
0
100
AcDbLine
 10
290.51175
 20
127.9554999999999
 30
0.0
 11
290.51175
 21
129.3954999999999
 31
0.0
  0
LINE
  5
22F
330
1E
100
AcDbEntity
  8
0
100
AcDbLine
 10
290.51175
 20
129.3954999999999
 30
0.0
 11
290.51175
 21
127.9554999999999
 31
0.0
  0
LINE
  5
230
330
1E
100
AcDbEntity
  8
0
100
AcDbLine
 10
290.51175
 20
129.3954999999999
 30
0.0
 11
290.51175
 21
130.2594999999999
 31
0.0
  0
LINE
  5
231
330
1E
100
AcDbEntity
  8
0
100
AcDbLine
 10
290.51175
 20
130.2594999999999
 30
0.0
 11
290.51175
 21
129.3954999999999
 31
0.0
  0
LINE
  5
232
330
1E
100
AcDbEntity
  8
0
100
AcDbLine
 10
290.51175
 20
130.2594999999999
 30
0.0
 11
290.51175
 21
130.5834999999999
 31
0.0
  0
LINE
  5
233
330
1E
100
AcDbEntity
  8
0
100
AcDbLine
 10
290.51175
 20
130.5834999999999
 30
0.0
 11
290.51175
 21
130.2594999999999
 31
0.0
  0
LINE
  5
234
330
1E
100
AcDbEntity
  8
0
100
AcDbLine
 10
290.51175
 20
121.5834999999999
 30
0.0
 11
290.51175
 21
119.2795
 31
0.0
  0
LINE
  5
235
330
1E
100
AcDbEntity
  8
0
100
AcDbLine
 10
290.51175
 20
121.5834999999999
 30
0.0
 11
290.51175
 21
123.8874999999999
 31
0.0
  0
LINE
  5
236
330
1E
100
AcDbEntity
  8
0
100
AcDbLine
 10
290.51175
 20
119.2795
 30
0.0
 11
290.51175
 21
117.1194999999999
 31
0.0
  0
LINE
  5
237
330
1E
100
AcDbEntity
  8
0
100
AcDbLine
 10
290.51175
 20
119.2795
 30
0.0
 11
290.51175
 21
121.5834999999999
 31
0.0
  0
LINE
  5
238
330
1E
100
AcDbEntity
  8
0
100
AcDbLine
 10
290.51175
 20
117.1194999999999
 30
0.0
 11
290.51175
 21
115.2115
 31
0.0
  0
LINE
  5
239
330
1E
100
AcDbEntity
  8
0
100
AcDbLine
 10
290.51175
 20
117.1194999999999
 30
0.0
 11
290.51175
 21
119.2795
 31
0.0
  0
LINE
  5
23A
330
1E
100
AcDbEntity
  8
0
100
AcDbLine
 10
290.51175
 20
115.2115
 30
0.0
 11
290.51175
 21
113.7715
 31
0.0
  0
LINE
  5
23B
330
1E
100
AcDbEntity
  8
0
100
AcDbLine
 10
290.51175
 20
115.2115
 30
0.0
 11
290.51175
 21
117.1194999999999
 31
0.0
  0
LINE
  5
23C
330
1E
100
AcDbEntity
  8
0
100
AcDbLine
 10
290.51175
 20
113.7715
 30
0.0
 11
290.51175
 21
112.9075
 31
0.0
  0
LINE
  5
23D
330
1E
100
AcDbEntity
  8
0
100
AcDbLine
 10
290.51175
 20
113.7715
 30
0.0
 11
290.51175
 21
115.2115
 31
0.0
  0
LINE
  5
23E
330
1E
100
AcDbEntity
  8
0
100
AcDbLine
 10
292.63175
 20
129.5834999999999
 30
0.0
 11
299.83175
 21
129.5834999999999
 31
0.0
  0
LINE
  5
23F
330
1E
100
AcDbEntity
  8
0
100
AcDbLine
 10
290.51175
 20
112.9075
 30
0.0
 11
290.51175
 21
112.5835
 31
0.0
  0
LINE
  5
240
330
1E
100
AcDbEntity
  8
0
100
AcDbLine
 10
290.51175
 20
112.9075
 30
0.0
 11
290.51175
 21
113.7715
 31
0.0
  0
LINE
  5
241
330
1E
100
AcDbEntity
  8
0
100
AcDbLine
 10
291.22775
 20
82.5835
 30
0.0
 11
296.1037499999999
 21
82.5835
 31
0.0
  0
LINE
  5
242
330
1E
100
AcDbEntity
  8
0
100
AcDbLine
 10
294.6157499999999
 20
82.5835
 30
0.0
 11
300.85575
 21
82.5835
 31
0.0
  0
LINE
  5
244
330
1E
100
AcDbEntity
  8
0
100
AcDbLine
 10
295.9357499999999
 20
56.5835
 30
0.0
 11
301.44375
 21
56.5835
 31
0.0
  0
LINE
  5
245
330
1E
100
AcDbEntity
  8
0
100
AcDbLine
 10
295.9357499999999
 20
31.5835
 30
0.0
 11
301.44375
 21
31.5835
 31
0.0
  0
LINE
  5
247
330
1E
100
AcDbEntity
  8
0
100
AcDbLine
 10
296.1037499999999
 20
68.5835
 30
0.0
 11
301.6237499999999
 21
68.5835
 31
0.0
  0
LINE
  5
249
330
1E
100
AcDbEntity
  8
0
100
AcDbLine
 10
301.44375
 20
56.5835
 30
0.0
 11
307.7077499999999
 21
56.5835
 31
0.0
  0
LINE
  5
24A
330
1E
100
AcDbEntity
  8
0
100
AcDbLine
 10
301.44375
 20
31.5835
 30
0.0
 11
307.7077499999999
 21
31.5835
 31
0.0
  0
LINE
  5
24B
330
1E
100
AcDbEntity
  8
0
100
AcDbLine
 10
301.44375
 20
31.5835
 30
0.0
 11
307.7077499999999
 21
31.5835
 31
0.0
  0
LINE
  5
24D
330
1E
100
AcDbEntity
  8
0
100
AcDbLine
 10
297.5917499999999
 20
68.5835
 30
0.0
 11
302.39175
 21
68.5835
 31
0.0
  0
LINE
  5
24E
330
1E
100
AcDbEntity
  8
0
100
AcDbLine
 10
302.39175
 20
68.5835
 30
0.0
 11
307.51175
 21
68.5835
 31
0.0
  0
LINE
  5
24F
330
1E
100
AcDbEntity
  8
0
100
AcDbLine
 10
306.5117499999999
 20
68.5835
 30
0.0
 11
306.5117499999999
 21
82.5835
 31
0.0
  0
LINE
  5
250
330
1E
100
AcDbEntity
  8
0
100
AcDbLine
 10
306.5117499999999
 20
68.5835
 30
0.0
 11
308.5117499999999
 21
68.5835
 31
0.0
  0
LINE
  5
251
330
1E
100
AcDbEntity
  8
0
100
AcDbLine
 10
307.51175
 20
68.5835
 30
0.0
 11
313.3997499999999
 21
68.5835
 31
0.0
  0
LINE
  5
252
330
1E
100
AcDbEntity
  8
0
100
AcDbLine
 10
307.51175
 20
68.5835
 30
0.0
 11
312.63175
 21
68.5835
 31
0.0
  0
LINE
  5
253
330
1E
100
AcDbEntity
  8
0
100
AcDbLine
 10
306.5117499999999
 20
82.5835
 30
0.0
 11
306.5117499999999
 21
68.5835
 31
0.0
  0
LINE
  5
254
330
1E
100
AcDbEntity
  8
0
100
AcDbLine
 10
306.5117499999999
 20
82.5835
 30
0.0
 11
308.5117499999999
 21
82.5835
 31
0.0
  0
LINE
  5
255
330
1E
100
AcDbEntity
  8
0
100
AcDbLine
 10
301.6237499999999
 20
68.5835
 30
0.0
 11
307.51175
 21
68.5835
 31
0.0
  0
LINE
  5
256
330
1E
100
AcDbEntity
  8
0
100
AcDbLine
 10
296.1037499999999
 20
82.5835
 30
0.0
 11
301.6237499999999
 21
82.5835
 31
0.0
  0
LINE
  5
257
330
1E
100
AcDbEntity
  8
0
100
AcDbLine
 10
301.6237499999999
 20
82.5835
 30
0.0
 11
306.5117499999999
 21
82.5835
 31
0.0
  0
LINE
  5
258
330
1E
100
AcDbEntity
  8
0
100
AcDbLine
 10
307.7077499999999
 20
31.5835
 30
0.0
 11
314.51175
 21
31.5835
 31
0.0
  0
LINE
  5
259
330
1E
100
AcDbEntity
  8
0
100
AcDbLine
 10
307.7077499999999
 20
56.5835
 30
0.0
 11
314.51175
 21
56.5835
 31
0.0
  0
LINE
  5
25A
330
1E
100
AcDbEntity
  8
0
100
AcDbLine
 10
307.7077499999999
 20
31.5835
 30
0.0
 11
314.51175
 21
31.5835
 31
0.0
  0
LINE
  5
25B
330
1E
100
AcDbEntity
  8
0
100
AcDbLine
 10
308.5117499999999
 20
68.5835
 30
0.0
 11
308.5117499999999
 21
82.5835
 31
0.0
  0
LINE
  5
25C
330
1E
100
AcDbEntity
  8
0
100
AcDbLine
 10
312.63175
 20
68.5835
 30
0.0
 11
317.43175
 21
68.5835
 31
0.0
  0
LINE
  5
25D
330
1E
100
AcDbEntity
  8
0
100
AcDbLine
 10
313.3997499999999
 20
68.5835
 30
0.0
 11
318.91975
 21
68.5835
 31
0.0
  0
LINE
  5
25E
330
1E
100
AcDbEntity
  8
0
100
AcDbLine
 10
313.3997499999999
 20
82.5835
 30
0.0
 11
318.91975
 21
82.5835
 31
0.0
  0
LINE
  5
25F
330
1E
100
AcDbEntity
  8
0
100
AcDbLine
 10
308.5117499999999
 20
82.5835
 30
0.0
 11
313.3997499999999
 21
82.5835
 31
0.0
  0
LINE
  5
260
330
1E
100
AcDbEntity
  8
0
100
AcDbLine
 10
308.5117499999999
 20
82.5835
 30
0.0
 11
308.5117499999999
 21
68.5835
 31
0.0
  0
LINE
  5
261
330
1E
100
AcDbEntity
  8
0
100
AcDbLine
 10
314.16775
 20
82.5835
 30
0.0
 11
320.40775
 21
82.5835
 31
0.0
  0
LINE
  5
262
330
1E
100
AcDbEntity
  8
0
100
AcDbLine
 10
307.51175
 20
82.5835
 30
0.0
 11
314.16775
 21
82.5835
 31
0.0
  0
LINE
  5
263
330
1E
100
AcDbEntity
  8
0
100
AcDbLine
 10
314.16775
 20
84.58350000000001
 30
0.0
 11
320.40775
 21
84.58350000000001
 31
0.0
  0
LINE
  5
264
330
1E
100
AcDbEntity
  8
0
100
AcDbLine
 10
307.51175
 20
84.58350000000001
 30
0.0
 11
314.16775
 21
84.58350000000001
 31
0.0
  0
LINE
  5
265
330
1E
100
AcDbEntity
  8
0
100
AcDbLine
 10
300.85575
 20
82.5835
 30
0.0
 11
307.51175
 21
82.5835
 31
0.0
  0
LINE
  5
266
330
1E
100
AcDbEntity
  8
0
100
AcDbLine
 10
294.6157499999999
 20
84.58350000000001
 30
0.0
 11
300.85575
 21
84.58350000000001
 31
0.0
  0
LINE
  5
267
330
1E
100
AcDbEntity
  8
0
100
AcDbLine
 10
299.83175
 20
129.5834999999999
 30
0.0
 11
307.51175
 21
129.5834999999999
 31
0.0
  0
LINE
  5
268
330
1E
100
AcDbEntity
  8
0
100
AcDbLine
 10
301.1117499999999
 20
129.5834999999999
 30
0.0
 11
307.51175
 21
129.5834999999999
 31
0.0
  0
LINE
  5
269
330
1E
100
AcDbEntity
  8
0
100
AcDbLine
 10
295.1117499999999
 20
129.5834999999999
 30
0.0
 11
301.1117499999999
 21
129.5834999999999
 31
0.0
  0
LINE
  5
26A
330
1E
100
AcDbEntity
  8
0
100
AcDbLine
 10
297.78375
 20
140.5834999999999
 30
0.0
 11
307.51175
 21
140.5834999999999
 31
0.0
  0
LINE
  5
26B
330
1E
100
AcDbEntity
  8
0
100
AcDbLine
 10
307.51175
 20
140.5834999999999
 30
0.0
 11
317.23975
 21
140.5834999999999
 31
0.0
  0
LINE
  5
26C
330
1E
100
AcDbEntity
  8
0
100
AcDbLine
 10
307.51175
 20
136.5834999999999
 30
0.0
 11
317.23975
 21
136.5834999999999
 31
0.0
  0
LINE
  5
26D
330
1E
100
AcDbEntity
  8
0
100
AcDbLine
 10
297.78375
 20
136.5834999999999
 30
0.0
 11
307.51175
 21
136.5834999999999
 31
0.0
  0
LINE
  5
26E
330
1E
100
AcDbEntity
  8
0
100
AcDbLine
 10
307.51175
 20
129.5834999999999
 30
0.0
 11
313.9117499999999
 21
129.5834999999999
 31
0.0
  0
LINE
  5
26F
330
1E
100
AcDbEntity
  8
0
100
AcDbLine
 10
307.51175
 20
129.5834999999999
 30
0.0
 11
315.19175
 21
129.5834999999999
 31
0.0
  0
LINE
  5
270
330
1E
100
AcDbEntity
  8
0
100
AcDbLine
 10
313.9117499999999
 20
129.5834999999999
 30
0.0
 11
319.9117499999999
 21
129.5834999999999
 31
0.0
  0
LINE
  5
271
330
1E
100
AcDbEntity
  8
0
100
AcDbLine
 10
300.85575
 20
84.58350000000001
 30
0.0
 11
307.51175
 21
84.58350000000001
 31
0.0
  0
LINE
  5
272
330
1E
100
AcDbEntity
  8
0
100
AcDbLine
 10
314.51175
 20
31.5835
 30
0.0
 11
380.51175
 21
31.5835
 31
0.0
  0
LINE
  5
273
330
1E
100
AcDbEntity
  8
0
100
AcDbLine
 10
315.19175
 20
129.5834999999999
 30
0.0
 11
322.39175
 21
129.5834999999999
 31
0.0
  0
LINE
  5
274
330
1E
100
AcDbEntity
  8
0
100
AcDbLine
 10
314.51175
 20
56.5835
 30
0.0
 11
380.51175
 21
56.5835
 31
0.0
  0
LINE
  5
275
330
1E
100
AcDbEntity
  8
0
100
AcDbLine
 10
314.51175
 20
31.5835
 30
0.0
 11
380.51175
 21
31.5835
 31
0.0
  0
LINE
  5
276
330
1E
100
AcDbEntity
  8
0
100
AcDbLine
 10
314.42375
 20
150.5834999999999
 30
0.0
 11
320.9037499999999
 21
150.5834999999999
 31
0.0
  0
LINE
  5
277
330
1E
100
AcDbEntity
  8
0
100
AcDbLine
 10
307.51175
 20
150.5834999999999
 30
0.0
 11
316.47175
 21
150.5834999999999
 31
0.0
  0
LINE
  5
278
330
1E
100
AcDbEntity
  8
0
100
AcDbLine
 10
307.51175
 20
150.5834999999999
 30
0.0
 11
314.42375
 21
150.5834999999999
 31
0.0
  0
LINE
  5
279
330
1E
100
AcDbEntity
  8
0
100
AcDbLine
 10
317.43175
 20
68.5835
 30
0.0
 11
321.6717499999999
 21
68.5835
 31
0.0
  0
LINE
  5
27A
330
1E
100
AcDbEntity
  8
0
100
AcDbLine
 10
318.91975
 20
68.5835
 30
0.0
 11
323.79575
 21
68.5835
 31
0.0
  0
LINE
  5
27B
330
1E
100
AcDbEntity
  8
0
100
AcDbLine
 10
318.91975
 20
82.5835
 30
0.0
 11
323.79575
 21
82.5835
 31
0.0
  0
LINE
  5
27C
330
1E
100
AcDbEntity
  8
0
100
AcDbLine
 10
317.23975
 20
140.5834999999999
 30
0.0
 11
326.35975
 21
140.5834999999999
 31
0.0
  0
LINE
  5
27D
330
1E
100
AcDbEntity
  8
0
100
AcDbLine
 10
317.23975
 20
136.5834999999999
 30
0.0
 11
326.35975
 21
136.5834999999999
 31
0.0
  0
LINE
  5
27E
330
1E
100
AcDbEntity
  8
0
100
AcDbLine
 10
319.9117499999999
 20
129.5834999999999
 30
0.0
 11
325.21175
 21
129.5834999999999
 31
0.0
  0
LINE
  5
27F
330
1E
100
AcDbEntity
  8
0
100
AcDbLine
 10
320.40775
 20
82.5835
 30
0.0
 11
325.91975
 21
82.5835
 31
0.0
  0
LINE
  5
280
330
1E
100
AcDbEntity
  8
0
100
AcDbLine
 10
321.6717499999999
 20
68.5835
 30
0.0
 11
324.87175
 21
68.5835
 31
0.0
  0
LINE
  5
281
330
1E
100
AcDbEntity
  8
0
100
AcDbLine
 10
324.87175
 20
68.5835
 30
0.0
 11
326.7917499999999
 21
68.5835
 31
0.0
  0
LINE
  5
282
330
1E
100
AcDbEntity
  8
0
100
AcDbLine
 10
323.79575
 20
68.5835
 30
0.0
 11
327.47575
 21
68.5835
 31
0.0
  0
LINE
  5
283
330
1E
100
AcDbEntity
  8
0
100
AcDbLine
 10
323.79575
 20
82.5835
 30
0.0
 11
326.49775
 21
82.5835
 31
0.0
  0
LINE
  5
284
330
1E
100
AcDbEntity
  8
0
100
AcDbLine
 10
326.49775
 20
82.5835
 30
0.0
 11
329.09575
 21
82.5835
 31
0.0
  0
LINE
  5
285
330
1E
100
AcDbEntity
  8
0
100
AcDbLine
 10
326.49775
 20
68.5835
 30
0.0
 11
329.09575
 21
68.5835
 31
0.0
  0
LINE
  5
286
330
1E
100
AcDbEntity
  8
0
100
AcDbLine
 10
326.49775
 20
68.5835
 30
0.0
 11
327.4977499999999
 21
68.5835
 31
0.0
  0
LINE
  5
287
330
1E
100
AcDbEntity
  8
0
100
AcDbLine
 10
325.91975
 20
82.5835
 30
0.0
 11
330.0797499999999
 21
82.5835
 31
0.0
  0
LINE
  5
288
330
1E
100
AcDbEntity
  8
0
100
AcDbLine
 10
322.39175
 20
129.5834999999999
 30
0.0
 11
328.75175
 21
129.5834999999999
 31
0.0
  0
LINE
  5
289
330
1E
100
AcDbEntity
  8
0
100
AcDbLine
 10
326.35975
 20
140.5834999999999
 30
0.0
 11
334.41575
 21
140.5834999999999
 31
0.0
  0
LINE
  5
28A
330
1E
100
AcDbEntity
  8
0
100
AcDbLine
 10
326.35975
 20
136.5834999999999
 30
0.0
 11
334.41575
 21
136.5834999999999
 31
0.0
  0
LINE
  5
28B
330
1E
100
AcDbEntity
  8
0
100
AcDbLine
 10
325.21175
 20
129.5834999999999
 30
0.0
 11
329.2117499999999
 21
129.5834999999999
 31
0.0
  0
LINE
  5
28C
330
1E
100
AcDbEntity
  8
0
100
AcDbLine
 10
325.91975
 20
84.58350000000001
 30
0.0
 11
330.0797499999999
 21
84.58350000000001
 31
0.0
  0
LINE
  5
28D
330
1E
100
AcDbEntity
  8
0
100
AcDbLine
 10
320.40775
 20
84.58350000000001
 30
0.0
 11
325.91975
 21
84.58350000000001
 31
0.0
  0
LINE
  5
28E
330
1E
100
AcDbEntity
  8
0
100
AcDbLine
 10
320.9037499999999
 20
150.5834999999999
 30
0.0
 11
326.62775
 21
150.5834999999999
 31
0.0
  0
LINE
  5
28F
330
1E
100
AcDbEntity
  8
0
100
AcDbLine
 10
326.7917499999999
 20
68.5835
 30
0.0
 11
327.51175
 21
68.5835
 31
0.0
  0
LINE
  5
290
330
1E
100
AcDbEntity
  8
0
100
AcDbLine
 10
327.51175
 20
56.5835
 30
0.0
 11
327.51175
 21
68.5835
 31
0.0
  0
LINE
  5
291
330
1E
100
AcDbEntity
  8
0
100
AcDbLine
 10
329.09575
 20
68.5835
 30
0.0
 11
329.09575
 21
82.5835
 31
0.0
  0
LINE
  5
292
330
1E
100
AcDbEntity
  8
0
100
AcDbLine
 10
329.09575
 20
68.5835
 30
0.0
 11
330.0957499999999
 21
68.5835
 31
0.0
  0
LINE
  5
293
330
1E
100
AcDbEntity
  8
0
100
AcDbLine
 10
327.4977499999999
 20
68.5835
 30
0.0
 11
330.0957499999999
 21
68.5835
 31
0.0
  0
LINE
  5
294
330
1E
100
AcDbEntity
  8
0
100
AcDbLine
 10
327.47575
 20
68.5835
 30
0.0
 11
329.6837499999999
 21
68.5835
 31
0.0
  0
LINE
  5
295
330
1E
100
AcDbEntity
  8
0
100
AcDbLine
 10
329.6837499999999
 20
68.5835
 30
0.0
 11
330.51175
 21
68.5835
 31
0.0
  0
LINE
  5
296
330
1E
100
AcDbEntity
  8
0
100
AcDbLine
 10
329.09575
 20
82.5835
 30
0.0
 11
330.0957499999999
 21
82.5835
 31
0.0
  0
LINE
  5
297
330
1E
100
AcDbEntity
  8
0
100
AcDbLine
 10
329.09575
 20
82.5835
 30
0.0
 11
329.09575
 21
68.5835
 31
0.0
  0
LINE
  5
298
330
1E
100
AcDbEntity
  8
0
100
AcDbLine
 10
327.51175
 20
68.5835
 30
0.0
 11
329.6837499999999
 21
68.5835
 31
0.0
  0
LINE
  5
299
330
1E
100
AcDbEntity
  8
0
100
AcDbLine
 10
327.51175
 20
68.5835
 30
0.0
 11
329.09575
 21
68.5835
 31
0.0
  0
LINE
  5
29A
330
1E
100
AcDbEntity
  8
0
100
AcDbLine
 10
327.51175
 20
68.5835
 30
0.0
 11
330.0957499999999
 21
68.5835
 31
0.0
  0
LINE
  5
29B
330
1E
100
AcDbEntity
  8
0
100
AcDbLine
 10
327.51175
 20
68.5835
 30
0.0
 11
327.51175
 21
56.5835
 31
0.0
  0
LINE
  5
29C
330
1E
100
AcDbEntity
  8
0
100
AcDbLine
 10
330.0957499999999
 20
68.5835
 30
0.0
 11
330.0957499999999
 21
82.5835
 31
0.0
  0
LINE
  5
29D
330
1E
100
AcDbEntity
  8
0
100
AcDbLine
 10
330.51175
 20
68.5835
 30
0.0
 11
330.51175
 21
82.5835
 31
0.0
  0
LINE
  5
29E
330
1E
100
AcDbEntity
  8
0
100
AcDbLine
 10
330.0957499999999
 20
82.5835
 30
0.0
 11
330.51175
 21
82.5835
 31
0.0
  0
LINE
  5
29F
330
1E
100
AcDbEntity
  8
0
100
AcDbLine
 10
330.0957499999999
 20
82.5835
 30
0.0
 11
330.0957499999999
 21
68.5835
 31
0.0
  0
LINE
  5
2A0
330
1E
100
AcDbEntity
  8
0
100
AcDbLine
 10
330.0797499999999
 20
82.5835
 30
0.0
 11
332.57575
 21
82.5835
 31
0.0
  0
LINE
  5
2A1
330
1E
100
AcDbEntity
  8
0
100
AcDbLine
 10
328.75175
 20
129.5834999999999
 30
0.0
 11
333.55175
 21
129.5834999999999
 31
0.0
  0
LINE
  5
2A2
330
1E
100
AcDbEntity
  8
0
100
AcDbLine
 10
329.2117499999999
 20
129.5834999999999
 30
0.0
 11
331.6117499999999
 21
129.5834999999999
 31
0.0
  0
LINE
  5
2A3
330
1E
100
AcDbEntity
  8
0
100
AcDbLine
 10
331.6117499999999
 20
129.5834999999999
 30
0.0
 11
332.51175
 21
129.5834999999999
 31
0.0
  0
LINE
  5
2A4
330
1E
100
AcDbEntity
  8
0
100
AcDbLine
 10
330.0797499999999
 20
84.58350000000001
 30
0.0
 11
332.57575
 21
84.58350000000001
 31
0.0
  0
LINE
  5
2A5
330
1E
100
AcDbEntity
  8
0
100
AcDbLine
 10
330.51175
 20
82.5835
 30
0.0
 11
332.57575
 21
82.5835
 31
0.0
  0
LINE
  5
2A6
330
1E
100
AcDbEntity
  8
0
100
AcDbLine
 10
330.51175
 20
82.5835
 30
0.0
 11
330.51175
 21
68.5835
 31
0.0
  0
LINE
  5
2A7
330
1E
100
AcDbEntity
  8
0
100
AcDbLine
 10
326.62775
 20
150.5834999999999
 30
0.0
 11
330.9477499999999
 21
150.5834999999999
 31
0.0
  0
LINE
  5
2A8
330
1E
100
AcDbEntity
  8
0
100
AcDbLine
 10
330.9477499999999
 20
150.5834999999999
 30
0.0
 11
333.53975
 21
150.5834999999999
 31
0.0
  0
LINE
  5
2A9
330
1E
100
AcDbEntity
  8
0
100
AcDbLine
 10
316.47175
 20
150.5834999999999
 30
0.0
 11
324.87175
 21
150.5834999999999
 31
0.0
  0
LINE
  5
2AA
330
1E
100
AcDbEntity
  8
0
100
AcDbLine
 10
324.87175
 20
150.5834999999999
 30
0.0
 11
332.2917499999999
 21
150.5834999999999
 31
0.0
  0
LINE
  5
2AB
330
1E
100
AcDbEntity
  8
0
100
AcDbLine
 10
332.51175
 20
84.58350000000001
 30
0.0
 11
332.51175
 21
129.5834999999999
 31
0.0
  0
LINE
  5
2AC
330
1E
100
AcDbEntity
  8
0
100
AcDbLine
 10
332.51175
 20
129.5834999999999
 30
0.0
 11
332.51175
 21
84.58350000000001
 31
0.0
  0
LINE
  5
2AD
330
1E
100
AcDbEntity
  8
0
100
AcDbLine
 10
332.51175
 20
129.5834999999999
 30
0.0
 11
333.55175
 21
129.5834999999999
 31
0.0
  0
LINE
  5
2AE
330
1E
100
AcDbEntity
  8
0
100
AcDbLine
 10
332.57575
 20
84.58350000000001
 30
0.0
 11
333.5117499999999
 21
84.58350000000001
 31
0.0
  0
LINE
  5
2AF
330
1E
100
AcDbEntity
  8
0
100
AcDbLine
 10
333.5117499999999
 20
82.5835
 30
0.0
 11
333.5117499999999
 21
84.58350000000001
 31
0.0
  0
LINE
  5
2B0
330
1E
100
AcDbEntity
  8
0
100
AcDbLine
 10
334.41575
 20
140.5834999999999
 30
0.0
 11
340.49575
 21
140.5834999999999
 31
0.0
  0
LINE
  5
2B1
330
1E
100
AcDbEntity
  8
0
100
AcDbLine
 10
334.41575
 20
136.5834999999999
 30
0.0
 11
340.49575
 21
136.5834999999999
 31
0.0
  0
LINE
  5
2B2
330
1E
100
AcDbEntity
  8
0
100
AcDbLine
 10
333.55175
 20
129.5834999999999
 30
0.0
 11
336.43175
 21
129.5834999999999
 31
0.0
  0
LINE
  5
2B3
330
1E
100
AcDbEntity
  8
0
100
AcDbLine
 10
340.49575
 20
136.5834999999999
 30
0.0
 11
344.14375
 21
136.5834999999999
 31
0.0
  0
LINE
  5
2B4
330
1E
100
AcDbEntity
  8
0
100
AcDbLine
 10
337.5117499999999
 20
129.5834999999999
 30
0.0
 11
337.5117499999999
 21
136.5834999999999
 31
0.0
  0
LINE
  5
2B5
330
1E
100
AcDbEntity
  8
0
100
AcDbLine
 10
340.49575
 20
140.5834999999999
 30
0.0
 11
344.14375
 21
140.5834999999999
 31
0.0
  0
LINE
  5
2B6
330
1E
100
AcDbEntity
  8
0
100
AcDbLine
 10
337.5117499999999
 20
136.5834999999999
 30
0.0
 11
337.5117499999999
 21
129.5834999999999
 31
0.0
  0
LINE
  5
2B7
330
1E
100
AcDbEntity
  8
0
100
AcDbLine
 10
337.5117499999999
 20
136.5834999999999
 30
0.0
 11
340.49575
 21
136.5834999999999
 31
0.0
  0
LINE
  5
2B8
330
1E
100
AcDbEntity
  8
0
100
AcDbLine
 10
336.43175
 20
129.5834999999999
 30
0.0
 11
337.5117499999999
 21
129.5834999999999
 31
0.0
  0
LINE
  5
2B9
330
1E
100
AcDbEntity
  8
0
100
AcDbLine
 10
333.5117499999999
 20
84.58350000000001
 30
0.0
 11
333.5117499999999
 21
82.5835
 31
0.0
  0
LINE
  5
2BA
330
1E
100
AcDbEntity
  8
0
100
AcDbLine
 10
332.57575
 20
82.5835
 30
0.0
 11
333.5117499999999
 21
82.5835
 31
0.0
  0
LINE
  5
2BB
330
1E
100
AcDbEntity
  8
0
100
AcDbLine
 10
334.51175
 20
150.5834999999999
 30
0.0
 11
334.51175
 21
140.5834999999999
 31
0.0
  0
LINE
  5
2BC
330
1E
100
AcDbEntity
  8
0
100
AcDbLine
 10
334.51175
 20
150.5834999999999
 30
0.0
 11
337.89175
 21
150.5834999999999
 31
0.0
  0
LINE
  5
2BD
330
1E
100
AcDbEntity
  8
0
100
AcDbLine
 10
333.53975
 20
150.5834999999999
 30
0.0
 11
334.51175
 21
150.5834999999999
 31
0.0
  0
LINE
  5
2BE
330
1E
100
AcDbEntity
  8
0
100
AcDbLine
 10
334.51175
 20
140.5834999999999
 30
0.0
 11
334.51175
 21
150.5834999999999
 31
0.0
  0
LINE
  5
2BF
330
1E
100
AcDbEntity
  8
0
100
AcDbLine
 10
332.2917499999999
 20
150.5834999999999
 30
0.0
 11
337.89175
 21
150.5834999999999
 31
0.0
  0
LINE
  5
2C0
330
1E
100
AcDbEntity
  8
0
100
AcDbLine
 10
337.89175
 20
150.5834999999999
 30
0.0
 11
341.25175
 21
150.5834999999999
 31
0.0
  0
LINE
  5
2C1
330
1E
100
AcDbEntity
  8
0
100
AcDbLine
 10
380.51175
 20
31.5835
 30
0.0
 11
387.3157499999999
 21
31.5835
 31
0.0
  0
LINE
  5
2C2
330
1E
100
AcDbEntity
  8
0
100
AcDbLine
 10
387.3157499999999
 20
31.5835
 30
0.0
 11
393.5797499999999
 21
31.5835
 31
0.0
  0
LINE
  5
2C3
330
1E
100
AcDbEntity
  8
0
100
AcDbLine
 10
380.51175
 20
31.5835
 30
0.0
 11
387.3157499999999
 21
31.5835
 31
0.0
  0
LINE
  5
2C4
330
1E
100
AcDbEntity
  8
0
100
AcDbLine
 10
387.3157499999999
 20
31.5835
 30
0.0
 11
393.5797499999999
 21
31.5835
 31
0.0
  0
LINE
  5
2C5
330
1E
100
AcDbEntity
  8
0
100
AcDbLine
 10
393.5797499999999
 20
31.5835
 30
0.0
 11
399.08775
 21
31.5835
 31
0.0
  0
LINE
  5
2C6
330
1E
100
AcDbEntity
  8
0
100
AcDbLine
 10
399.08775
 20
31.5835
 30
0.0
 11
403.29975
 21
31.5835
 31
0.0
  0
LINE
  5
2CA
330
1E
100
AcDbEntity
  8
0
100
AcDbLine
 10
403.29975
 20
31.5835
 30
0.0
 11
405.8917499999999
 21
31.5835
 31
0.0
  0
LINE
  5
2CB
330
1E
100
AcDbEntity
  8
0
100
AcDbLine
 10
406.8637499999999
 20
31.5835
 30
0.0
 11
407.51175
 21
32.5455
 31
0.0
  0
LINE
  5
2CD
330
1E
100
AcDbEntity
  8
0
100
AcDbLine
 10
407.51175
 20
32.5455
 30
0.0
 11
407.51175
 21
55.622
 31
0.0
  0
LINE
  5
2CE
330
1E
100
AcDbEntity
  8
0
100
AcDbLine
 10
405.8917499999999
 20
31.5835
 30
0.0
 11
406.8637499999999
 21
31.5835
 31
0.0
  0
LINE
  5
2CF
330
1E
100
AcDbEntity
  8
0
100
AcDbLine
 10
361.51175
 20
78.5835
 30
0.0
 11
362.4477499999999
 21
78.5835
 31
0.0
  0
LINE
  5
2D0
330
1E
100
AcDbEntity
  8
0
100
AcDbLine
 10
361.51175
 20
78.5835
 30
0.0
 11
361.51175
 21
80.5835
 31
0.0
  0
LINE
  5
2D1
330
1E
100
AcDbEntity
  8
0
100
AcDbLine
 10
364.92775
 20
64.5835
 30
0.0
 11
364.92775
 21
78.5835
 31
0.0
  0
LINE
  5
2D2
330
1E
100
AcDbEntity
  8
0
100
AcDbLine
 10
364.92775
 20
64.5835
 30
0.0
 11
367.52575
 21
64.5835
 31
0.0
  0
LINE
  5
2D3
330
1E
100
AcDbEntity
  8
0
100
AcDbLine
 10
364.92775
 20
64.5835
 30
0.0
 11
365.9277499999999
 21
64.5835
 31
0.0
  0
LINE
  5
2D4
330
1E
100
AcDbEntity
  8
0
100
AcDbLine
 10
364.92775
 20
64.5835
 30
0.0
 11
367.51175
 21
64.5835
 31
0.0
  0
LINE
  5
2D5
330
1E
100
AcDbEntity
  8
0
100
AcDbLine
 10
364.92775
 20
78.5835
 30
0.0
 11
364.92775
 21
64.5835
 31
0.0
  0
LINE
  5
2D6
330
1E
100
AcDbEntity
  8
0
100
AcDbLine
 10
364.92775
 20
78.5835
 30
0.0
 11
365.9277499999999
 21
78.5835
 31
0.0
  0
LINE
  5
2D7
330
1E
100
AcDbEntity
  8
0
100
AcDbLine
 10
364.51175
 20
78.5835
 30
0.0
 11
364.51175
 21
64.5835
 31
0.0
  0
LINE
  5
2D8
330
1E
100
AcDbEntity
  8
0
100
AcDbLine
 10
364.51175
 20
78.5835
 30
0.0
 11
364.92775
 21
78.5835
 31
0.0
  0
LINE
  5
2D9
330
1E
100
AcDbEntity
  8
0
100
AcDbLine
 10
364.51175
 20
64.5835
 30
0.0
 11
365.33975
 21
64.5835
 31
0.0
  0
LINE
  5
2DA
330
1E
100
AcDbEntity
  8
0
100
AcDbLine
 10
364.51175
 20
64.5835
 30
0.0
 11
364.51175
 21
78.5835
 31
0.0
  0
LINE
  5
2DB
330
1E
100
AcDbEntity
  8
0
100
AcDbLine
 10
367.51175
 20
56.5835
 30
0.0
 11
367.51175
 21
64.5835
 31
0.0
  0
LINE
  5
2DC
330
1E
100
AcDbEntity
  8
0
100
AcDbLine
 10
367.51175
 20
64.5835
 30
0.0
 11
367.51175
 21
56.5835
 31
0.0
  0
LINE
  5
2DD
330
1E
100
AcDbEntity
  8
0
100
AcDbLine
 10
367.52575
 20
64.5835
 30
0.0
 11
368.52575
 21
64.5835
 31
0.0
  0
LINE
  5
2DE
330
1E
100
AcDbEntity
  8
0
100
AcDbLine
 10
365.9277499999999
 20
64.5835
 30
0.0
 11
365.9277499999999
 21
78.5835
 31
0.0
  0
LINE
  5
2DF
330
1E
100
AcDbEntity
  8
0
100
AcDbLine
 10
365.9277499999999
 20
64.5835
 30
0.0
 11
368.52575
 21
64.5835
 31
0.0
  0
LINE
  5
2E0
330
1E
100
AcDbEntity
  8
0
100
AcDbLine
 10
365.9277499999999
 20
64.5835
 30
0.0
 11
367.51175
 21
64.5835
 31
0.0
  0
LINE
  5
2E1
330
1E
100
AcDbEntity
  8
0
100
AcDbLine
 10
367.5477499999999
 20
64.5835
 30
0.0
 11
371.22775
 21
64.5835
 31
0.0
  0
LINE
  5
2E2
330
1E
100
AcDbEntity
  8
0
100
AcDbLine
 10
371.22775
 20
64.5835
 30
0.0
 11
376.10375
 21
64.5835
 31
0.0
  0
LINE
  5
2E3
330
1E
100
AcDbEntity
  8
0
100
AcDbLine
 10
365.9277499999999
 20
78.5835
 30
0.0
 11
365.9277499999999
 21
64.5835
 31
0.0
  0
LINE
  5
2E4
330
1E
100
AcDbEntity
  8
0
100
AcDbLine
 10
365.9277499999999
 20
78.5835
 30
0.0
 11
368.52575
 21
78.5835
 31
0.0
  0
LINE
  5
2E5
330
1E
100
AcDbEntity
  8
0
100
AcDbLine
 10
368.52575
 20
78.5835
 30
0.0
 11
371.22775
 21
78.5835
 31
0.0
  0
LINE
  5
2E6
330
1E
100
AcDbEntity
  8
0
100
AcDbLine
 10
371.22775
 20
78.5835
 30
0.0
 11
376.10375
 21
78.5835
 31
0.0
  0
LINE
  5
2E7
330
1E
100
AcDbEntity
  8
0
100
AcDbLine
 10
365.33975
 20
64.5835
 30
0.0
 11
367.51175
 21
64.5835
 31
0.0
  0
LINE
  5
2E8
330
1E
100
AcDbEntity
  8
0
100
AcDbLine
 10
365.33975
 20
64.5835
 30
0.0
 11
367.5477499999999
 21
64.5835
 31
0.0
  0
LINE
  5
2E9
330
1E
100
AcDbEntity
  8
0
100
AcDbLine
 10
364.94375
 20
78.5835
 30
0.0
 11
369.10375
 21
78.5835
 31
0.0
  0
LINE
  5
2EA
330
1E
100
AcDbEntity
  8
0
100
AcDbLine
 10
369.10375
 20
78.5835
 30
0.0
 11
374.6157499999999
 21
78.5835
 31
0.0
  0
LINE
  5
2EB
330
1E
100
AcDbEntity
  8
0
100
AcDbLine
 10
380.51175
 20
56.5835
 30
0.0
 11
387.3157499999999
 21
56.5835
 31
0.0
  0
LINE
  5
2EC
330
1E
100
AcDbEntity
  8
0
100
AcDbLine
 10
376.10375
 20
64.5835
 30
0.0
 11
381.6237499999999
 21
64.5835
 31
0.0
  0
LINE
  5
2ED
330
1E
100
AcDbEntity
  8
0
100
AcDbLine
 10
387.3157499999999
 20
56.5835
 30
0.0
 11
393.5797499999999
 21
56.5835
 31
0.0
  0
LINE
  5
2EF
330
1E
100
AcDbEntity
  8
0
100
AcDbLine
 10
386.51175
 20
64.5835
 30
0.0
 11
386.51175
 21
78.5835
 31
0.0
  0
LINE
  5
2F0
330
1E
100
AcDbEntity
  8
0
100
AcDbLine
 10
386.51175
 20
64.5835
 30
0.0
 11
388.51175
 21
64.5835
 31
0.0
  0
LINE
  5
2F1
330
1E
100
AcDbEntity
  8
0
100
AcDbLine
 10
381.6237499999999
 20
64.5835
 30
0.0
 11
387.5117499999999
 21
64.5835
 31
0.0
  0
LINE
  5
2F2
330
1E
100
AcDbEntity
  8
0
100
AcDbLine
 10
376.10375
 20
78.5835
 30
0.0
 11
381.6237499999999
 21
78.5835
 31
0.0
  0
LINE
  5
2F3
330
1E
100
AcDbEntity
  8
0
100
AcDbLine
 10
386.51175
 20
78.5835
 30
0.0
 11
388.51175
 21
78.5835
 31
0.0
  0
LINE
  5
2F4
330
1E
100
AcDbEntity
  8
0
100
AcDbLine
 10
386.51175
 20
78.5835
 30
0.0
 11
386.51175
 21
64.5835
 31
0.0
  0
LINE
  5
2F5
330
1E
100
AcDbEntity
  8
0
100
AcDbLine
 10
381.6237499999999
 20
78.5835
 30
0.0
 11
386.51175
 21
78.5835
 31
0.0
  0
LINE
  5
2F6
330
1E
100
AcDbEntity
  8
0
100
AcDbLine
 10
387.5117499999999
 20
64.5835
 30
0.0
 11
393.3997499999999
 21
64.5835
 31
0.0
  0
LINE
  5
2F7
330
1E
100
AcDbEntity
  8
0
100
AcDbLine
 10
374.6157499999999
 20
78.5835
 30
0.0
 11
380.85575
 21
78.5835
 31
0.0
  0
LINE
  5
2F8
330
1E
100
AcDbEntity
  8
0
100
AcDbLine
 10
380.85575
 20
78.5835
 30
0.0
 11
387.5117499999999
 21
78.5835
 31
0.0
  0
LINE
  5
2F9
330
1E
100
AcDbEntity
  8
0
100
AcDbLine
 10
362.4477499999999
 20
78.5835
 30
0.0
 11
364.51175
 21
78.5835
 31
0.0
  0
LINE
  5
2FA
330
1E
100
AcDbEntity
  8
0
100
AcDbLine
 10
362.4477499999999
 20
78.5835
 30
0.0
 11
364.94375
 21
78.5835
 31
0.0
  0
LINE
  5
2FB
330
1E
100
AcDbEntity
  8
0
100
AcDbLine
 10
362.4477499999999
 20
80.5835
 30
0.0
 11
364.94375
 21
80.5835
 31
0.0
  0
LINE
  5
2FC
330
1E
100
AcDbEntity
  8
0
100
AcDbLine
 10
367.51175
 20
80.5835
 30
0.0
 11
369.2497499999999
 21
93.7833
 31
0.0
  0
LINE
  5
2FD
330
1E
100
AcDbEntity
  8
0
100
AcDbLine
 10
364.94375
 20
80.5835
 30
0.0
 11
369.10375
 21
80.5835
 31
0.0
  0
LINE
  5
2FE
330
1E
100
AcDbEntity
  8
0
100
AcDbLine
 10
369.10375
 20
80.5835
 30
0.0
 11
374.6157499999999
 21
80.5835
 31
0.0
  0
LINE
  5
2FF
330
1E
100
AcDbEntity
  8
0
100
AcDbLine
 10
374.6157499999999
 20
80.5835
 30
0.0
 11
380.85575
 21
80.5835
 31
0.0
  0
LINE
  5
300
330
1E
100
AcDbEntity
  8
0
100
AcDbLine
 10
380.85575
 20
80.5835
 30
0.0
 11
387.5117499999999
 21
80.5835
 31
0.0
  0
LINE
  5
301
330
1E
100
AcDbEntity
  8
0
100
AcDbLine
 10
361.51175
 20
80.5835
 30
0.0
 11
361.51175
 21
78.5835
 31
0.0
  0
LINE
  5
302
330
1E
100
AcDbEntity
  8
0
100
AcDbLine
 10
361.51175
 20
80.5835
 30
0.0
 11
362.4477499999999
 21
80.5835
 31
0.0
  0
LINE
  5
303
330
1E
100
AcDbEntity
  8
0
100
AcDbLine
 10
387.5117499999999
 20
78.5835
 30
0.0
 11
394.16775
 21
78.5835
 31
0.0
  0
LINE
  5
304
330
1E
100
AcDbEntity
  8
0
100
AcDbLine
 10
388.51175
 20
64.5835
 30
0.0
 11
388.51175
 21
78.5835
 31
0.0
  0
LINE
  5
305
330
1E
100
AcDbEntity
  8
0
100
AcDbLine
 10
393.3997499999999
 20
64.5835
 30
0.0
 11
398.91975
 21
64.5835
 31
0.0
  0
LINE
  5
306
330
1E
100
AcDbEntity
  8
0
100
AcDbLine
 10
393.5797499999999
 20
56.5835
 30
0.0
 11
399.08775
 21
56.5835
 31
0.0
  0
LINE
  5
308
330
1E
100
AcDbEntity
  8
0
100
AcDbLine
 10
399.08775
 20
56.5835
 30
0.0
 11
403.29975
 21
56.5835
 31
0.0
  0
LINE
  5
30A
330
1E
100
AcDbEntity
  8
0
100
AcDbLine
 10
398.91975
 20
64.5835
 30
0.0
 11
403.79575
 21
64.5835
 31
0.0
  0
LINE
  5
30B
330
1E
100
AcDbEntity
  8
0
100
AcDbLine
 10
398.91975
 20
78.5835
 30
0.0
 11
403.79575
 21
78.5835
 31
0.0
  0
LINE
  5
30C
330
1E
100
AcDbEntity
  8
0
100
AcDbLine
 10
393.3997499999999
 20
78.5835
 30
0.0
 11
398.91975
 21
78.5835
 31
0.0
  0
LINE
  5
30D
330
1E
100
AcDbEntity
  8
0
100
AcDbLine
 10
388.51175
 20
78.5835
 30
0.0
 11
393.3997499999999
 21
78.5835
 31
0.0
  0
LINE
  5
30E
330
1E
100
AcDbEntity
  8
0
100
AcDbLine
 10
388.51175
 20
78.5835
 30
0.0
 11
388.51175
 21
64.5835
 31
0.0
  0
LINE
  5
30F
330
1E
100
AcDbEntity
  8
0
100
AcDbLine
 10
400.40775
 20
78.5835
 30
0.0
 11
405.91975
 21
78.5835
 31
0.0
  0
LINE
  5
310
330
1E
100
AcDbEntity
  8
0
100
AcDbLine
 10
394.16775
 20
78.5835
 30
0.0
 11
400.40775
 21
78.5835
 31
0.0
  0
LINE
  5
311
330
1E
100
AcDbEntity
  8
0
100
AcDbLine
 10
403.29975
 20
56.5835
 30
0.0
 11
405.8917499999999
 21
56.5835
 31
0.0
  0
LINE
  5
312
330
1E
100
AcDbEntity
  8
0
100
AcDbLine
 10
405.8917499999999
 20
56.5835
 30
0.0
 11
406.8637499999999
 21
56.5835
 31
0.0
  0
LINE
  5
314
330
1E
100
AcDbEntity
  8
0
100
AcDbLine
 10
404.87175
 20
56.5835
 30
0.0
 11
406.79175
 21
56.5835
 31
0.0
  0
LINE
  5
315
330
1E
100
AcDbEntity
  8
0
100
AcDbLine
 10
406.8637499999999
 20
56.5835
 30
0.0
 11
407.51175
 21
55.622
 31
0.0
  0
LINE
  5
316
330
1E
100
AcDbEntity
  8
0
100
AcDbLine
 10
406.8637499999999
 20
56.5835
 30
0.0
 11
407.51175
 21
56.5835
 31
0.0
  0
LINE
  5
317
330
1E
100
AcDbEntity
  8
0
100
AcDbLine
 10
407.51175
 20
55.622
 30
0.0
 11
407.51175
 21
32.5455
 31
0.0
  0
LINE
  5
318
330
1E
100
AcDbEntity
  8
0
100
AcDbLine
 10
406.79175
 20
56.5835
 30
0.0
 11
407.51175
 21
56.5835
 31
0.0
  0
LINE
  5
319
330
1E
100
AcDbEntity
  8
0
100
AcDbLine
 10
407.51175
 20
56.5835
 30
0.0
 11
407.51175
 21
64.5835
 31
0.0
  0
LINE
  5
31A
330
1E
100
AcDbEntity
  8
0
100
AcDbLine
 10
406.49775
 20
64.5835
 30
0.0
 11
409.09575
 21
64.5835
 31
0.0
  0
LINE
  5
31B
330
1E
100
AcDbEntity
  8
0
100
AcDbLine
 10
406.49775
 20
64.5835
 30
0.0
 11
407.49775
 21
64.5835
 31
0.0
  0
LINE
  5
31C
330
1E
100
AcDbEntity
  8
0
100
AcDbLine
 10
407.49775
 20
64.5835
 30
0.0
 11
410.0957499999999
 21
64.5835
 31
0.0
  0
LINE
  5
31D
330
1E
100
AcDbEntity
  8
0
100
AcDbLine
 10
409.09575
 20
64.5835
 30
0.0
 11
410.0957499999999
 21
64.5835
 31
0.0
  0
LINE
  5
31E
330
1E
100
AcDbEntity
  8
0
100
AcDbLine
 10
409.09575
 20
64.5835
 30
0.0
 11
409.09575
 21
78.5835
 31
0.0
  0
LINE
  5
31F
330
1E
100
AcDbEntity
  8
0
100
AcDbLine
 10
407.51175
 20
64.5835
 30
0.0
 11
409.6837499999999
 21
64.5835
 31
0.0
  0
LINE
  5
320
330
1E
100
AcDbEntity
  8
0
100
AcDbLine
 10
407.51175
 20
64.5835
 30
0.0
 11
409.09575
 21
64.5835
 31
0.0
  0
LINE
  5
321
330
1E
100
AcDbEntity
  8
0
100
AcDbLine
 10
407.51175
 20
64.5835
 30
0.0
 11
410.0957499999999
 21
64.5835
 31
0.0
  0
LINE
  5
322
330
1E
100
AcDbEntity
  8
0
100
AcDbLine
 10
407.51175
 20
64.5835
 30
0.0
 11
407.51175
 21
56.5835
 31
0.0
  0
LINE
  5
323
330
1E
100
AcDbEntity
  8
0
100
AcDbLine
 10
409.6837499999999
 20
64.5835
 30
0.0
 11
410.51175
 21
64.5835
 31
0.0
  0
LINE
  5
324
330
1E
100
AcDbEntity
  8
0
100
AcDbLine
 10
406.49775
 20
78.5835
 30
0.0
 11
409.09575
 21
78.5835
 31
0.0
  0
LINE
  5
325
330
1E
100
AcDbEntity
  8
0
100
AcDbLine
 10
409.09575
 20
78.5835
 30
0.0
 11
410.0957499999999
 21
78.5835
 31
0.0
  0
LINE
  5
326
330
1E
100
AcDbEntity
  8
0
100
AcDbLine
 10
409.09575
 20
78.5835
 30
0.0
 11
409.09575
 21
64.5835
 31
0.0
  0
LINE
  5
327
330
1E
100
AcDbEntity
  8
0
100
AcDbLine
 10
407.47575
 20
64.5835
 30
0.0
 11
409.6837499999999
 21
64.5835
 31
0.0
  0
LINE
  5
328
330
1E
100
AcDbEntity
  8
0
100
AcDbLine
 10
403.79575
 20
64.5835
 30
0.0
 11
407.47575
 21
64.5835
 31
0.0
  0
LINE
  5
329
330
1E
100
AcDbEntity
  8
0
100
AcDbLine
 10
403.79575
 20
78.5835
 30
0.0
 11
406.49775
 21
78.5835
 31
0.0
  0
LINE
  5
32A
330
1E
100
AcDbEntity
  8
0
100
AcDbLine
 10
410.0797499999999
 20
78.5835
 30
0.0
 11
412.57575
 21
78.5835
 31
0.0
  0
LINE
  5
32B
330
1E
100
AcDbEntity
  8
0
100
AcDbLine
 10
407.51175
 20
80.5835
 30
0.0
 11
407.88675
 21
83.43049999999999
 31
0.0
  0
LINE
  5
32C
330
1E
100
AcDbEntity
  8
0
100
AcDbLine
 10
405.91975
 20
78.5835
 30
0.0
 11
410.0797499999999
 21
78.5835
 31
0.0
  0
LINE
  5
32D
330
1E
100
AcDbEntity
  8
0
100
AcDbLine
 10
410.0957499999999
 20
64.5835
 30
0.0
 11
410.0957499999999
 21
78.5835
 31
0.0
  0
LINE
  5
32E
330
1E
100
AcDbEntity
  8
0
100
AcDbLine
 10
410.51175
 20
64.5835
 30
0.0
 11
410.51175
 21
78.5835
 31
0.0
  0
LINE
  5
32F
330
1E
100
AcDbEntity
  8
0
100
AcDbLine
 10
410.0957499999999
 20
78.5835
 30
0.0
 11
410.51175
 21
78.5835
 31
0.0
  0
LINE
  5
330
330
1E
100
AcDbEntity
  8
0
100
AcDbLine
 10
410.0957499999999
 20
78.5835
 30
0.0
 11
410.0957499999999
 21
64.5835
 31
0.0
  0
LINE
  5
331
330
1E
100
AcDbEntity
  8
0
100
AcDbLine
 10
410.51175
 20
78.5835
 30
0.0
 11
412.57575
 21
78.5835
 31
0.0
  0
LINE
  5
332
330
1E
100
AcDbEntity
  8
0
100
AcDbLine
 10
410.51175
 20
78.5835
 30
0.0
 11
410.51175
 21
64.5835
 31
0.0
  0
LINE
  5
333
330
1E
100
AcDbEntity
  8
0
100
AcDbLine
 10
413.5117499999999
 20
78.5835
 30
0.0
 11
413.5117499999999
 21
80.5835
 31
0.0
  0
LINE
  5
334
330
1E
100
AcDbEntity
  8
0
100
AcDbLine
 10
413.5117499999999
 20
80.5835
 30
0.0
 11
413.5117499999999
 21
78.5835
 31
0.0
  0
LINE
  5
335
330
1E
100
AcDbEntity
  8
0
100
AcDbLine
 10
412.57575
 20
78.5835
 30
0.0
 11
413.5117499999999
 21
78.5835
 31
0.0
  0
LINE
  5
336
330
1E
100
AcDbEntity
  8
0
100
AcDbLine
 10
412.57575
 20
80.5835
 30
0.0
 11
413.5117499999999
 21
80.5835
 31
0.0
  0
LINE
  5
337
330
1E
100
AcDbEntity
  8
0
100
AcDbLine
 10
410.0797499999999
 20
80.5835
 30
0.0
 11
412.57575
 21
80.5835
 31
0.0
  0
LINE
  5
338
330
1E
100
AcDbEntity
  8
0
100
AcDbLine
 10
405.91975
 20
80.5835
 30
0.0
 11
410.0797499999999
 21
80.5835
 31
0.0
  0
LINE
  5
339
330
1E
100
AcDbEntity
  8
0
100
AcDbLine
 10
400.40775
 20
80.5835
 30
0.0
 11
405.91975
 21
80.5835
 31
0.0
  0
LINE
  5
33A
330
1E
100
AcDbEntity
  8
0
100
AcDbLine
 10
408.9857499999999
 20
86.08349999999999
 30
0.0
 11
410.7337499999999
 21
88.3617
 31
0.0
  0
LINE
  5
33B
330
1E
100
AcDbEntity
  8
0
100
AcDbLine
 10
407.88675
 20
83.43049999999999
 30
0.0
 11
408.9857499999999
 21
86.08349999999999
 31
0.0
  0
LINE
  5
33C
330
1E
100
AcDbEntity
  8
0
100
AcDbLine
 10
394.16775
 20
80.5835
 30
0.0
 11
400.40775
 21
80.5835
 31
0.0
  0
LINE
  5
33D
330
1E
100
AcDbEntity
  8
0
100
AcDbLine
 10
387.5117499999999
 20
80.5835
 30
0.0
 11
394.16775
 21
80.5835
 31
0.0
  0
LINE
  5
33E
330
1E
100
AcDbEntity
  8
0
100
AcDbLine
 10
432.51175
 20
86.51949999999999
 30
0.0
 11
432.51175
 21
85.5835
 31
0.0
  0
LINE
  5
33F
330
1E
100
AcDbEntity
  8
0
100
AcDbLine
 10
432.51175
 20
86.51949999999999
 30
0.0
 11
432.51175
 21
89.0155
 31
0.0
  0
LINE
  5
340
330
1E
100
AcDbEntity
  8
0
100
AcDbLine
 10
432.51175
 20
85.5835
 30
0.0
 11
432.51175
 21
86.51949999999999
 31
0.0
  0
LINE
  5
341
330
1E
100
AcDbEntity
  8
0
100
AcDbLine
 10
432.51175
 20
85.5835
 30
0.0
 11
434.5117499999999
 21
85.5835
 31
0.0
  0
LINE
  5
342
330
1E
100
AcDbEntity
  8
0
100
AcDbLine
 10
432.51175
 20
85.5835
 30
0.0
 11
432.51175
 21
86.51949999999999
 31
0.0
  0
LINE
  5
343
330
1E
100
AcDbEntity
  8
0
100
AcDbLine
 10
410.7337499999999
 20
88.3617
 30
0.0
 11
413.0117499999999
 21
90.10980000000001
 31
0.0
  0
LINE
  5
344
330
1E
100
AcDbEntity
  8
0
100
AcDbLine
 10
415.66475
 20
91.2087
 30
0.0
 11
418.51175
 21
91.5835
 31
0.0
  0
LINE
  5
345
330
1E
100
AcDbEntity
  8
0
100
AcDbLine
 10
413.0117499999999
 20
90.10980000000001
 30
0.0
 11
415.66475
 21
91.2087
 31
0.0
  0
LINE
  5
346
330
1E
100
AcDbEntity
  8
0
100
AcDbLine
 10
418.51175
 20
91.5835
 30
0.0
 11
432.51175
 21
91.5835
 31
0.0
  0
LINE
  5
347
330
1E
100
AcDbEntity
  8
0
100
AcDbLine
 10
432.51175
 20
91.5835
 30
0.0
 11
432.51175
 21
89.0155
 31
0.0
  0
LINE
  5
348
330
1E
100
AcDbEntity
  8
0
100
AcDbLine
 10
432.51175
 20
86.51949999999999
 30
0.0
 11
432.51175
 21
89.0155
 31
0.0
  0
LINE
  5
349
330
1E
100
AcDbEntity
  8
0
100
AcDbLine
 10
432.51175
 20
86.51949999999999
 30
0.0
 11
432.51175
 21
85.5835
 31
0.0
  0
LINE
  5
34A
330
1E
100
AcDbEntity
  8
0
100
AcDbLine
 10
432.51175
 20
89.0155
 30
0.0
 11
432.51175
 21
93.1755
 31
0.0
  0
LINE
  5
34B
330
1E
100
AcDbEntity
  8
0
100
AcDbLine
 10
432.51175
 20
89.0155
 30
0.0
 11
432.51175
 21
86.51949999999999
 31
0.0
  0
LINE
  5
34C
330
1E
100
AcDbEntity
  8
0
100
AcDbLine
 10
432.51175
 20
89.0155
 30
0.0
 11
432.51175
 21
86.51949999999999
 31
0.0
  0
LINE
  5
34D
330
1E
100
AcDbEntity
  8
0
100
AcDbLine
 10
432.51175
 20
89.0155
 30
0.0
 11
432.51175
 21
91.5835
 31
0.0
  0
LINE
  5
34E
330
1E
100
AcDbEntity
  8
0
100
AcDbLine
 10
369.2497499999999
 20
93.7833
 30
0.0
 11
374.3447499999999
 21
106.0834999999999
 31
0.0
  0
LINE
  5
34F
330
1E
100
AcDbEntity
  8
0
100
AcDbLine
 10
432.51175
 20
93.1755
 30
0.0
 11
432.51175
 21
98.6875
 31
0.0
  0
LINE
  5
350
330
1E
100
AcDbEntity
  8
0
100
AcDbLine
 10
432.51175
 20
93.1755
 30
0.0
 11
432.51175
 21
89.0155
 31
0.0
  0
LINE
  5
351
330
1E
100
AcDbEntity
  8
0
100
AcDbLine
 10
434.5117499999999
 20
85.5835
 30
0.0
 11
434.5117499999999
 21
86.51949999999999
 31
0.0
  0
LINE
  5
352
330
1E
100
AcDbEntity
  8
0
100
AcDbLine
 10
434.5117499999999
 20
89.9999
 30
0.0
 11
448.51175
 21
89.9999
 31
0.0
  0
LINE
  5
353
330
1E
100
AcDbEntity
  8
0
100
AcDbLine
 10
434.5117499999999
 20
88.9999
 30
0.0
 11
448.51175
 21
88.9999
 31
0.0
  0
LINE
  5
354
330
1E
100
AcDbEntity
  8
0
100
AcDbLine
 10
434.5117499999999
 20
88.58349999999999
 30
0.0
 11
448.51175
 21
88.58349999999999
 31
0.0
  0
LINE
  5
355
330
1E
100
AcDbEntity
  8
0
100
AcDbLine
 10
434.5117499999999
 20
86.51949999999999
 30
0.0
 11
434.5117499999999
 21
89.0155
 31
0.0
  0
LINE
  5
356
330
1E
100
AcDbEntity
  8
0
100
AcDbLine
 10
434.5117499999999
 20
86.51949999999999
 30
0.0
 11
434.5117499999999
 21
85.5835
 31
0.0
  0
LINE
  5
357
330
1E
100
AcDbEntity
  8
0
100
AcDbLine
 10
434.5117499999999
 20
89.0155
 30
0.0
 11
434.5117499999999
 21
93.1755
 31
0.0
  0
LINE
  5
358
330
1E
100
AcDbEntity
  8
0
100
AcDbLine
 10
434.5117499999999
 20
89.0155
 30
0.0
 11
434.5117499999999
 21
86.51949999999999
 31
0.0
  0
LINE
  5
359
330
1E
100
AcDbEntity
  8
0
100
AcDbLine
 10
434.5117499999999
 20
93.1755
 30
0.0
 11
434.5117499999999
 21
98.6875
 31
0.0
  0
LINE
  5
35A
330
1E
100
AcDbEntity
  8
0
100
AcDbLine
 10
434.5117499999999
 20
93.1755
 30
0.0
 11
434.5117499999999
 21
89.0155
 31
0.0
  0
LINE
  5
35B
330
1E
100
AcDbEntity
  8
0
100
AcDbLine
 10
448.51175
 20
91.5835
 30
0.0
 11
470.51175
 21
91.5835
 31
0.0
  0
LINE
  5
35C
330
1E
100
AcDbEntity
  8
0
100
AcDbLine
 10
448.51175
 20
89.9999
 30
0.0
 11
448.51175
 21
92.5979
 31
0.0
  0
LINE
  5
35D
330
1E
100
AcDbEntity
  8
0
100
AcDbLine
 10
448.51175
 20
89.9999
 30
0.0
 11
448.51175
 21
88.9999
 31
0.0
  0
LINE
  5
35E
330
1E
100
AcDbEntity
  8
0
100
AcDbLine
 10
448.51175
 20
88.9999
 30
0.0
 11
448.51175
 21
88.58349999999999
 31
0.0
  0
LINE
  5
35F
330
1E
100
AcDbEntity
  8
0
100
AcDbLine
 10
448.51175
 20
88.9999
 30
0.0
 11
448.51175
 21
89.9999
 31
0.0
  0
LINE
  5
360
330
1E
100
AcDbEntity
  8
0
100
AcDbLine
 10
448.51175
 20
88.58349999999999
 30
0.0
 11
448.51175
 21
88.9999
 31
0.0
  0
LINE
  5
361
330
1E
100
AcDbEntity
  8
0
100
AcDbLine
 10
448.51175
 20
92.5979
 30
0.0
 11
448.51175
 21
95.29949999999999
 31
0.0
  0
LINE
  5
362
330
1E
100
AcDbEntity
  8
0
100
AcDbLine
 10
448.51175
 20
92.5979
 30
0.0
 11
448.51175
 21
89.9999
 31
0.0
  0
LINE
  5
363
330
1E
100
AcDbEntity
  8
0
100
AcDbLine
 10
478.28975
 20
88.3617
 30
0.0
 11
524.44975
 21
41.63199999999999
 31
0.0
  0
LINE
  5
364
330
1E
100
AcDbEntity
  8
0
100
AcDbLine
 10
476.0117499999999
 20
90.10980000000001
 30
0.0
 11
478.28975
 21
88.3617
 31
0.0
  0
LINE
  5
365
330
1E
100
AcDbEntity
  8
0
100
AcDbLine
 10
470.51175
 20
91.5835
 30
0.0
 11
473.3587499999999
 21
91.2087
 31
0.0
  0
LINE
  5
366
330
1E
100
AcDbEntity
  8
0
100
AcDbLine
 10
473.3587499999999
 20
91.2087
 30
0.0
 11
476.0117499999999
 21
90.10980000000001
 31
0.0
  0
LINE
  5
367
330
1E
100
AcDbEntity
  8
0
100
AcDbLine
 10
448.51175
 20
95.29949999999999
 30
0.0
 11
448.51175
 21
100.1754999999999
 31
0.0
  0
LINE
  5
368
330
1E
100
AcDbEntity
  8
0
100
AcDbLine
 10
448.51175
 20
95.29949999999999
 30
0.0
 11
448.51175
 21
92.5979
 31
0.0
  0
LINE
  5
369
330
1E
100
AcDbEntity
  8
0
100
AcDbLine
 10
448.51175
 20
100.1754999999999
 30
0.0
 11
448.51175
 21
105.6954999999999
 31
0.0
  0
LINE
  5
36A
330
1E
100
AcDbEntity
  8
0
100
AcDbLine
 10
448.51175
 20
100.1754999999999
 30
0.0
 11
448.51175
 21
95.29949999999999
 31
0.0
  0
LINE
  5
36B
330
1E
100
AcDbEntity
  8
0
100
AcDbLine
 10
434.5117499999999
 20
98.6875
 30
0.0
 11
434.5117499999999
 21
104.9274999999999
 31
0.0
  0
LINE
  5
36C
330
1E
100
AcDbEntity
  8
0
100
AcDbLine
 10
434.5117499999999
 20
98.6875
 30
0.0
 11
434.5117499999999
 21
93.1755
 31
0.0
  0
LINE
  5
36D
330
1E
100
AcDbEntity
  8
0
100
AcDbLine
 10
434.5117499999999
 20
104.9274999999999
 30
0.0
 11
434.5117499999999
 21
111.5835
 31
0.0
  0
LINE
  5
36E
330
1E
100
AcDbEntity
  8
0
100
AcDbLine
 10
434.5117499999999
 20
104.9274999999999
 30
0.0
 11
434.5117499999999
 21
98.6875
 31
0.0
  0
LINE
  5
36F
330
1E
100
AcDbEntity
  8
0
100
AcDbLine
 10
432.51175
 20
98.6875
 30
0.0
 11
432.51175
 21
104.9274999999999
 31
0.0
  0
LINE
  5
370
330
1E
100
AcDbEntity
  8
0
100
AcDbLine
 10
432.51175
 20
98.6875
 30
0.0
 11
432.51175
 21
93.1755
 31
0.0
  0
LINE
  5
371
330
1E
100
AcDbEntity
  8
0
100
AcDbLine
 10
374.3447499999999
 20
106.0834999999999
 30
0.0
 11
382.44975
 21
116.6458999999999
 31
0.0
  0
LINE
  5
372
330
1E
100
AcDbEntity
  8
0
100
AcDbLine
 10
382.44975
 20
116.6458999999999
 30
0.0
 11
393.01175
 21
124.7508
 31
0.0
  0
LINE
  5
373
330
1E
100
AcDbEntity
  8
0
100
AcDbLine
 10
405.3117499999999
 20
129.8456999999999
 30
0.0
 11
418.51175
 21
131.5834999999999
 31
0.0
  0
LINE
  5
374
330
1E
100
AcDbEntity
  8
0
100
AcDbLine
 10
393.01175
 20
124.7508
 30
0.0
 11
405.3117499999999
 21
129.8456999999999
 31
0.0
  0
LINE
  5
375
330
1E
100
AcDbEntity
  8
0
100
AcDbLine
 10
418.51175
 20
131.5834999999999
 30
0.0
 11
432.51175
 21
131.5834999999999
 31
0.0
  0
LINE
  5
376
330
1E
100
AcDbEntity
  8
0
100
AcDbLine
 10
432.51175
 20
129.9915
 30
0.0
 11
432.51175
 21
134.1515
 31
0.0
  0
LINE
  5
377
330
1E
100
AcDbEntity
  8
0
100
AcDbLine
 10
432.51175
 20
129.9915
 30
0.0
 11
432.51175
 21
124.4795
 31
0.0
  0
LINE
  5
378
330
1E
100
AcDbEntity
  8
0
100
AcDbLine
 10
432.51175
 20
124.4795
 30
0.0
 11
432.51175
 21
129.9915
 31
0.0
  0
LINE
  5
379
330
1E
100
AcDbEntity
  8
0
100
AcDbLine
 10
432.51175
 20
124.4795
 30
0.0
 11
432.51175
 21
118.2395
 31
0.0
  0
LINE
  5
37A
330
1E
100
AcDbEntity
  8
0
100
AcDbLine
 10
432.51175
 20
118.2395
 30
0.0
 11
432.51175
 21
124.4795
 31
0.0
  0
LINE
  5
37B
330
1E
100
AcDbEntity
  8
0
100
AcDbLine
 10
432.51175
 20
118.2395
 30
0.0
 11
432.51175
 21
111.5835
 31
0.0
  0
LINE
  5
37C
330
1E
100
AcDbEntity
  8
0
100
AcDbLine
 10
432.51175
 20
131.5834999999999
 30
0.0
 11
432.51175
 21
134.1515
 31
0.0
  0
LINE
  5
37D
330
1E
100
AcDbEntity
  8
0
100
AcDbLine
 10
345.51175
 20
136.5834999999999
 30
0.0
 11
345.51175
 21
140.5834999999999
 31
0.0
  0
LINE
  5
37E
330
1E
100
AcDbEntity
  8
0
100
AcDbLine
 10
344.14375
 20
136.5834999999999
 30
0.0
 11
345.51175
 21
136.5834999999999
 31
0.0
  0
LINE
  5
37F
330
1E
100
AcDbEntity
  8
0
100
AcDbLine
 10
432.51175
 20
134.1515
 30
0.0
 11
432.51175
 21
136.6475
 31
0.0
  0
LINE
  5
380
330
1E
100
AcDbEntity
  8
0
100
AcDbLine
 10
432.51175
 20
134.1515
 30
0.0
 11
432.51175
 21
129.9915
 31
0.0
  0
LINE
  5
381
330
1E
100
AcDbEntity
  8
0
100
AcDbLine
 10
345.51175
 20
140.5834999999999
 30
0.0
 11
345.51175
 21
136.5834999999999
 31
0.0
  0
LINE
  5
382
330
1E
100
AcDbEntity
  8
0
100
AcDbLine
 10
344.14375
 20
140.5834999999999
 30
0.0
 11
345.51175
 21
140.5834999999999
 31
0.0
  0
LINE
  5
383
330
1E
100
AcDbEntity
  8
0
100
AcDbLine
 10
432.51175
 20
137.5834999999999
 30
0.0
 11
432.51175
 21
136.6475
 31
0.0
  0
LINE
  5
384
330
1E
100
AcDbEntity
  8
0
100
AcDbLine
 10
432.51175
 20
137.5834999999999
 30
0.0
 11
434.5117499999999
 21
137.5834999999999
 31
0.0
  0
LINE
  5
385
330
1E
100
AcDbEntity
  8
0
100
AcDbLine
 10
432.51175
 20
136.6475
 30
0.0
 11
432.51175
 21
134.1515
 31
0.0
  0
LINE
  5
386
330
1E
100
AcDbEntity
  8
0
100
AcDbLine
 10
432.51175
 20
136.6475
 30
0.0
 11
432.51175
 21
137.5834999999999
 31
0.0
  0
LINE
  5
387
330
1E
100
AcDbEntity
  8
0
100
AcDbLine
 10
432.51175
 20
136.6475
 30
0.0
 11
432.51175
 21
134.1515
 31
0.0
  0
LINE
  5
388
330
1E
100
AcDbEntity
  8
0
100
AcDbLine
 10
432.51175
 20
134.1515
 30
0.0
 11
432.51175
 21
131.5834999999999
 31
0.0
  0
LINE
  5
389
330
1E
100
AcDbEntity
  8
0
100
AcDbLine
 10
432.51175
 20
134.1515
 30
0.0
 11
432.51175
 21
136.6475
 31
0.0
  0
LINE
  5
38A
330
1E
100
AcDbEntity
  8
0
100
AcDbLine
 10
434.5117499999999
 20
110.5835
 30
0.0
 11
448.51175
 21
110.5835
 31
0.0
  0
LINE
  5
38B
330
1E
100
AcDbEntity
  8
0
100
AcDbLine
 10
448.51175
 20
110.5835
 30
0.0
 11
448.51175
 21
105.6954999999999
 31
0.0
  0
LINE
  5
38C
330
1E
100
AcDbEntity
  8
0
100
AcDbLine
 10
448.51175
 20
110.5835
 30
0.0
 11
448.51175
 21
112.5835
 31
0.0
  0
LINE
  5
38D
330
1E
100
AcDbEntity
  8
0
100
AcDbLine
 10
448.51175
 20
105.6954999999999
 30
0.0
 11
448.51175
 21
110.5835
 31
0.0
  0
LINE
  5
38E
330
1E
100
AcDbEntity
  8
0
100
AcDbLine
 10
448.51175
 20
105.6954999999999
 30
0.0
 11
448.51175
 21
100.1754999999999
 31
0.0
  0
LINE
  5
38F
330
1E
100
AcDbEntity
  8
0
100
AcDbLine
 10
434.5117499999999
 20
112.5835
 30
0.0
 11
448.51175
 21
112.5835
 31
0.0
  0
LINE
  5
390
330
1E
100
AcDbEntity
  8
0
100
AcDbLine
 10
434.5117499999999
 20
133.1671
 30
0.0
 11
448.51175
 21
133.1671
 31
0.0
  0
LINE
  5
391
330
1E
100
AcDbEntity
  8
0
100
AcDbLine
 10
434.5117499999999
 20
134.1671
 30
0.0
 11
448.51175
 21
134.1671
 31
0.0
  0
LINE
  5
392
330
1E
100
AcDbEntity
  8
0
100
AcDbLine
 10
434.5117499999999
 20
134.5834999999999
 30
0.0
 11
448.51175
 21
134.5834999999999
 31
0.0
  0
LINE
  5
393
330
1E
100
AcDbEntity
  8
0
100
AcDbLine
 10
434.5117499999999
 20
137.5834999999999
 30
0.0
 11
434.5117499999999
 21
136.6475
 31
0.0
  0
LINE
  5
394
330
1E
100
AcDbEntity
  8
0
100
AcDbLine
 10
434.5117499999999
 20
136.6475
 30
0.0
 11
434.5117499999999
 21
137.5834999999999
 31
0.0
  0
LINE
  5
395
330
1E
100
AcDbEntity
  8
0
100
AcDbLine
 10
434.5117499999999
 20
136.6475
 30
0.0
 11
434.5117499999999
 21
134.1515
 31
0.0
  0
LINE
  5
396
330
1E
100
AcDbEntity
  8
0
100
AcDbLine
 10
434.5117499999999
 20
134.1515
 30
0.0
 11
434.5117499999999
 21
136.6475
 31
0.0
  0
LINE
  5
397
330
1E
100
AcDbEntity
  8
0
100
AcDbLine
 10
434.5117499999999
 20
134.1515
 30
0.0
 11
434.5117499999999
 21
129.9915
 31
0.0
  0
LINE
  5
398
330
1E
100
AcDbEntity
  8
0
100
AcDbLine
 10
434.5117499999999
 20
129.9915
 30
0.0
 11
434.5117499999999
 21
134.1515
 31
0.0
  0
LINE
  5
399
330
1E
100
AcDbEntity
  8
0
100
AcDbLine
 10
434.5117499999999
 20
129.9915
 30
0.0
 11
434.5117499999999
 21
124.4795
 31
0.0
  0
LINE
  5
39A
330
1E
100
AcDbEntity
  8
0
100
AcDbLine
 10
434.5117499999999
 20
124.4795
 30
0.0
 11
434.5117499999999
 21
129.9915
 31
0.0
  0
LINE
  5
39B
330
1E
100
AcDbEntity
  8
0
100
AcDbLine
 10
434.5117499999999
 20
124.4795
 30
0.0
 11
434.5117499999999
 21
118.2395
 31
0.0
  0
LINE
  5
39C
330
1E
100
AcDbEntity
  8
0
100
AcDbLine
 10
448.51175
 20
131.5834999999999
 30
0.0
 11
470.51175
 21
131.5834999999999
 31
0.0
  0
LINE
  5
39D
330
1E
100
AcDbEntity
  8
0
100
AcDbLine
 10
448.51175
 20
133.1671
 30
0.0
 11
448.51175
 21
130.5690999999999
 31
0.0
  0
LINE
  5
39E
330
1E
100
AcDbEntity
  8
0
100
AcDbLine
 10
448.51175
 20
133.1671
 30
0.0
 11
448.51175
 21
134.1671
 31
0.0
  0
LINE
  5
39F
330
1E
100
AcDbEntity
  8
0
100
AcDbLine
 10
448.51175
 20
130.5690999999999
 30
0.0
 11
448.51175
 21
127.8675
 31
0.0
  0
LINE
  5
3A0
330
1E
100
AcDbEntity
  8
0
100
AcDbLine
 10
448.51175
 20
130.5690999999999
 30
0.0
 11
448.51175
 21
133.1671
 31
0.0
  0
LINE
  5
3A1
330
1E
100
AcDbEntity
  8
0
100
AcDbLine
 10
448.51175
 20
134.5834999999999
 30
0.0
 11
448.51175
 21
134.1671
 31
0.0
  0
LINE
  5
3A2
330
1E
100
AcDbEntity
  8
0
100
AcDbLine
 10
448.51175
 20
134.1671
 30
0.0
 11
448.51175
 21
134.5834999999999
 31
0.0
  0
LINE
  5
3A3
330
1E
100
AcDbEntity
  8
0
100
AcDbLine
 10
448.51175
 20
134.1671
 30
0.0
 11
448.51175
 21
133.1671
 31
0.0
  0
LINE
  5
3A4
330
1E
100
AcDbEntity
  8
0
100
AcDbLine
 10
448.51175
 20
127.8675
 30
0.0
 11
448.51175
 21
130.5690999999999
 31
0.0
  0
LINE
  5
3A5
330
1E
100
AcDbEntity
  8
0
100
AcDbLine
 10
448.51175
 20
127.8675
 30
0.0
 11
448.51175
 21
122.9915
 31
0.0
  0
LINE
  5
3A6
330
1E
100
AcDbEntity
  8
0
100
AcDbLine
 10
448.51175
 20
122.9915
 30
0.0
 11
448.51175
 21
127.8675
 31
0.0
  0
LINE
  5
3A7
330
1E
100
AcDbEntity
  8
0
100
AcDbLine
 10
448.51175
 20
122.9915
 30
0.0
 11
448.51175
 21
117.4715
 31
0.0
  0
LINE
  5
3A8
330
1E
100
AcDbEntity
  8
0
100
AcDbLine
 10
506.57375
 20
116.6458999999999
 30
0.0
 11
552.7337499999999
 21
69.91620000000001
 31
0.0
  0
LINE
  5
3A9
330
1E
100
AcDbEntity
  8
0
100
AcDbLine
 10
496.0117499999999
 20
124.7508
 30
0.0
 11
506.57375
 21
116.6458999999999
 31
0.0
  0
LINE
  5
3AA
330
1E
100
AcDbEntity
  8
0
100
AcDbLine
 10
470.51175
 20
131.5834999999999
 30
0.0
 11
483.7117499999999
 21
129.8456999999999
 31
0.0
  0
LINE
  5
3AB
330
1E
100
AcDbEntity
  8
0
100
AcDbLine
 10
483.7117499999999
 20
129.8456999999999
 30
0.0
 11
496.0117499999999
 21
124.7508
 31
0.0
  0
LINE
  5
3AC
330
1E
100
AcDbEntity
  8
0
100
AcDbLine
 10
448.51175
 20
117.4715
 30
0.0
 11
448.51175
 21
122.9915
 31
0.0
  0
LINE
  5
3AD
330
1E
100
AcDbEntity
  8
0
100
AcDbLine
 10
448.51175
 20
117.4715
 30
0.0
 11
448.51175
 21
112.5835
 31
0.0
  0
LINE
  5
3AE
330
1E
100
AcDbEntity
  8
0
100
AcDbLine
 10
448.51175
 20
112.5835
 30
0.0
 11
448.51175
 21
117.4715
 31
0.0
  0
LINE
  5
3AF
330
1E
100
AcDbEntity
  8
0
100
AcDbLine
 10
448.51175
 20
112.5835
 30
0.0
 11
448.51175
 21
110.5835
 31
0.0
  0
LINE
  5
3B0
330
1E
100
AcDbEntity
  8
0
100
AcDbLine
 10
434.5117499999999
 20
118.2395
 30
0.0
 11
434.5117499999999
 21
124.4795
 31
0.0
  0
LINE
  5
3B1
330
1E
100
AcDbEntity
  8
0
100
AcDbLine
 10
434.5117499999999
 20
118.2395
 30
0.0
 11
434.5117499999999
 21
111.5835
 31
0.0
  0
LINE
  5
3B2
330
1E
100
AcDbEntity
  8
0
100
AcDbLine
 10
434.5117499999999
 20
111.5835
 30
0.0
 11
434.5117499999999
 21
104.9274999999999
 31
0.0
  0
LINE
  5
3B3
330
1E
100
AcDbEntity
  8
0
100
AcDbLine
 10
434.5117499999999
 20
111.5835
 30
0.0
 11
434.5117499999999
 21
118.2395
 31
0.0
  0
LINE
  5
3B4
330
1E
100
AcDbEntity
  8
0
100
AcDbLine
 10
432.51175
 20
111.5835
 30
0.0
 11
432.51175
 21
104.9274999999999
 31
0.0
  0
LINE
  5
3B5
330
1E
100
AcDbEntity
  8
0
100
AcDbLine
 10
432.51175
 20
111.5835
 30
0.0
 11
432.51175
 21
118.2395
 31
0.0
  0
LINE
  5
3B6
330
1E
100
AcDbEntity
  8
0
100
AcDbLine
 10
432.51175
 20
104.9274999999999
 30
0.0
 11
432.51175
 21
111.5835
 31
0.0
  0
LINE
  5
3B7
330
1E
100
AcDbEntity
  8
0
100
AcDbLine
 10
432.51175
 20
104.9274999999999
 30
0.0
 11
432.51175
 21
98.6875
 31
0.0
  0
LINE
  5
3B8
330
1E
100
AcDbEntity
  8
0
100
AcDbLine
 10
524.44975
 20
41.63199999999999
 30
0.0
 11
527.649527060522
 21
38.4317703543205
 31
0.0
  0
LINE
  5
3B9
330
1E
100
AcDbEntity
  8
0
100
AcDbLine
 10
524.43375
 20
35.21549999999999
 30
0.0
 11
526.19875
 21
36.9805
 31
0.0
  0
LINE
  5
3BA
330
1E
100
AcDbEntity
  8
0
100
AcDbLine
 10
523.77175
 20
34.55449999999999
 30
0.0
 11
524.43375
 21
35.21549999999999
 31
0.0
  0
LINE
  5
3BB
330
1E
100
AcDbEntity
  8
0
100
AcDbLine
 10
523.77175
 20
34.55449999999999
 30
0.0
 11
524.47875
 21
33.8465
 31
0.0
  0
LINE
  5
3BC
330
1E
100
AcDbEntity
  8
0
100
AcDbLine
 10
559.83375
 20
-0.0944999999999974
 30
0.0
 11
560.4707499999999
 21
0.542500000000003
 31
0.0
  0
LINE
  5
3DB
330
1E
100
AcDbEntity
  8
0
100
AcDbLine
 10
559.83375
 20
-0.0944999999999974
 30
0.0
 11
560.4707499999999
 21
0.542500000000004
 31
0.0
  0
LINE
  5
3DC
330
1E
100
AcDbEntity
  8
0
100
AcDbLine
 10
559.83375
 20
-0.0944999999999974
 30
0.0
 11
560.4707499999999
 21
0.542500000000003
 31
0.0
  0
LINE
  5
3DD
330
1E
100
AcDbEntity
  8
0
100
AcDbLine
 10
525.1862499927851
 20
34.5539999927847
 30
0.0
 11
559.83375
 21
-0.0944999999999974
 31
0.0
  0
LINE
  5
3DE
330
1E
100
AcDbEntity
  8
0
100
AcDbLine
 10
525.1862499927851
 20
34.5539999927847
 30
0.0
 11
559.83375
 21
-0.0944999999999974
 31
0.0
  0
LINE
  5
3E0
330
1E
100
AcDbEntity
  8
0
100
AcDbLine
 10
526.19875
 20
36.9805
 30
0.0
 11
527.649527060522
 21
38.4317703543205
 31
0.0
  0
LINE
  5
3E2
330
1E
100
AcDbEntity
  8
0
100
AcDbLine
 10
560.4707499999999
 20
0.542500000000004
 30
0.0
 11
595.18975
 21
35.26149999999999
 31
0.0
  0
LINE
  5
3E3
330
1E
100
AcDbEntity
  8
0
100
AcDbLine
 10
560.4707499999999
 20
0.542500000000004
 30
0.0
 11
595.18975
 21
35.26149999999999
 31
0.0
  0
LINE
  5
401
330
1E
100
AcDbEntity
  8
0
100
AcDbLine
 10
552.7337499999999
 20
69.91620000000001
 30
0.0
 11
555.9339909487469
 21
66.71641157401109
 31
0.0
  0
LINE
  5
402
330
1E
100
AcDbEntity
  8
0
100
AcDbLine
 10
555.9339909487469
 20
66.71641157401109
 30
0.0
 11
558.1147499999999
 21
68.8968
 31
0.0
  0
LINE
  5
403
330
1E
100
AcDbEntity
  8
0
100
AcDbLine
 10
527.649527060522
 20
38.4317703543205
 30
0.0
 11
558.1147499999999
 21
68.8968
 31
0.0
  0
LINE
  5
404
330
1E
100
AcDbEntity
  8
0
100
AcDbLine
 10
558.1147499999999
 20
68.8968
 30
0.0
 11
559.8797499999999
 21
70.6618
 31
0.0
  0
LINE
  5
406
330
1E
100
AcDbEntity
  8
0
100
AcDbLine
 10
560.541100005556
 20
69.9090500055558
 30
0.0
 11
560.58675
 21
69.9547
 31
0.0
  0
LINE
  5
407
330
1E
100
AcDbEntity
  8
0
100
AcDbLine
 10
560.541100005556
 20
69.9090500055558
 30
0.0
 11
595.18975
 21
35.26149999999999
 31
0.0
  0
LINE
  5
408
330
1E
100
AcDbEntity
  8
0
100
AcDbLine
 10
524.47875
 20
33.8465
 30
0.0
 11
560.58675
 21
69.9547
 31
0.0
  0
LINE
  5
409
330
1E
100
AcDbEntity
  8
0
100
AcDbLine
 10
560.54075
 20
71.3236
 30
0.0
 11
561.2487499999999
 21
70.6165
 31
0.0
  0
LINE
  5
40A
330
1E
100
AcDbEntity
  8
0
100
AcDbLine
 10
559.8797499999999
 20
70.6618
 30
0.0
 11
560.54075
 21
71.3236
 31
0.0
  0
LINE
  5
40B
330
1E
100
AcDbEntity
  8
0
100
AcDbLine
 10
560.58675
 20
69.9547
 30
0.0
 11
561.2487499999999
 21
70.6165
 31
0.0
  0
LINE
  5
413
330
1E
100
AcDbEntity
  8
0
100
AcDbLine
 10
525.14075
 20
34.50849999999999
 30
0.0
 11
525.1862499927851
 21
34.5539999927847
 31
0.0
  0
LINE
  5
414
330
1E
100
AcDbEntity
  8
0
100
AcDbLine
 10
524.47875
 20
33.8465
 30
0.0
 11
525.14075
 21
34.50849999999999
 31
0.0
  0
LINE
  5
415
330
1E
100
AcDbEntity
  8
0
100
AcDbLine
 10
342.51175
 20
150.5834999999999
 30
0.0
 11
342.51175
 21
152.5834999999999
 31
0.0
  0
LINE
  5
416
330
1E
100
AcDbEntity
  8
0
100
AcDbLine
 10
341.25175
 20
150.5834999999999
 30
0.0
 11
342.51175
 21
150.5834999999999
 31
0.0
  0
LINE
  5
417
330
1E
100
AcDbEntity
  8
0
100
AcDbLine
 10
300.5997499999999
 20
150.5834999999999
 30
0.0
 11
307.51175
 21
150.5834999999999
 31
0.0
  0
LINE
  5
418
330
1E
100
AcDbEntity
  8
0
100
AcDbLine
 10
294.11975
 20
150.5834999999999
 30
0.0
 11
300.5997499999999
 21
150.5834999999999
 31
0.0
  0
LINE
  5
419
330
1E
100
AcDbEntity
  8
0
100
AcDbLine
 10
298.55175
 20
150.5834999999999
 30
0.0
 11
307.51175
 21
150.5834999999999
 31
0.0
  0
LINE
  5
41A
330
1E
100
AcDbEntity
  8
0
100
AcDbLine
 10
290.15175
 20
150.5834999999999
 30
0.0
 11
298.55175
 21
150.5834999999999
 31
0.0
  0
LINE
  5
41B
330
1E
100
AcDbEntity
  8
0
100
AcDbLine
 10
282.7317499999999
 20
150.5834999999999
 30
0.0
 11
290.15175
 21
150.5834999999999
 31
0.0
  0
LINE
  5
41C
330
1E
100
AcDbEntity
  8
0
100
AcDbLine
 10
277.13175
 20
150.5834999999999
 30
0.0
 11
282.7317499999999
 21
150.5834999999999
 31
0.0
  0
LINE
  5
41D
330
1E
100
AcDbEntity
  8
0
100
AcDbLine
 10
277.13175
 20
150.5834999999999
 30
0.0
 11
280.51175
 21
150.5834999999999
 31
0.0
  0
LINE
  5
41E
330
1E
100
AcDbEntity
  8
0
100
AcDbLine
 10
307.51175
 20
152.5834999999999
 30
0.0
 11
316.47175
 21
152.5834999999999
 31
0.0
  0
LINE
  5
41F
330
1E
100
AcDbEntity
  8
0
100
AcDbLine
 10
316.47175
 20
152.5834999999999
 30
0.0
 11
324.87175
 21
152.5834999999999
 31
0.0
  0
LINE
  5
420
330
1E
100
AcDbEntity
  8
0
100
AcDbLine
 10
324.87175
 20
152.5834999999999
 30
0.0
 11
332.2917499999999
 21
152.5834999999999
 31
0.0
  0
LINE
  5
421
330
1E
100
AcDbEntity
  8
0
100
AcDbLine
 10
332.2917499999999
 20
152.5834999999999
 30
0.0
 11
337.89175
 21
152.5834999999999
 31
0.0
  0
LINE
  5
422
330
1E
100
AcDbEntity
  8
0
100
AcDbLine
 10
342.51175
 20
152.5834999999999
 30
0.0
 11
342.51175
 21
150.5834999999999
 31
0.0
  0
LINE
  5
423
330
1E
100
AcDbEntity
  8
0
100
AcDbLine
 10
337.89175
 20
152.5834999999999
 30
0.0
 11
341.25175
 21
152.5834999999999
 31
0.0
  0
LINE
  5
424
330
1E
100
AcDbEntity
  8
0
100
AcDbLine
 10
341.25175
 20
152.5834999999999
 30
0.0
 11
342.51175
 21
152.5834999999999
 31
0.0
  0
LINE
  5
425
330
1E
100
AcDbEntity
  8
0
100
AcDbLine
 10
298.55175
 20
152.5834999999999
 30
0.0
 11
307.51175
 21
152.5834999999999
 31
0.0
  0
LINE
  5
426
330
1E
100
AcDbEntity
  8
0
100
AcDbLine
 10
290.15175
 20
152.5834999999999
 30
0.0
 11
298.55175
 21
152.5834999999999
 31
0.0
  0
LINE
  5
427
330
1E
100
AcDbEntity
  8
0
100
AcDbLine
 10
282.7317499999999
 20
152.5834999999999
 30
0.0
 11
290.15175
 21
152.5834999999999
 31
0.0
  0
LINE
  5
428
330
1E
100
AcDbEntity
  8
0
100
AcDbLine
 10
277.13175
 20
152.5834999999999
 30
0.0
 11
282.7317499999999
 21
152.5834999999999
 31
0.0
  0
LINE
  5
429
330
1E
100
AcDbEntity
  8
0
100
AcDbLine
 10
273.77175
 20
152.5834999999999
 30
0.0
 11
277.13175
 21
152.5834999999999
 31
0.0
  0
LINE
  5
42A
330
1E
100
AcDbEntity
  8
0
100
AcDbLine
 10
273.77175
 20
150.5834999999999
 30
0.0
 11
277.13175
 21
150.5834999999999
 31
0.0
  0
LINE
  5
42B
330
1E
100
AcDbEntity
  8
0
100
AcDbLine
 10
272.51175
 20
150.5834999999999
 30
0.0
 11
273.77175
 21
150.5834999999999
 31
0.0
  0
LINE
  5
42C
330
1E
100
AcDbEntity
  8
0
100
AcDbLine
 10
272.51175
 20
150.5834999999999
 30
0.0
 11
272.51175
 21
152.5834999999999
 31
0.0
  0
LINE
  5
431
330
1E
100
AcDbEntity
  8
0
100
AcDbLine
 10
84.05374999999999
 20
395.0235
 30
0.0
 11
124.02575
 21
183.5963
 31
0.0
  0
LINE
  5
432
330
1E
100
AcDbEntity
  8
0
100
AcDbLine
 10
44.3594299999999
 20
390.0874999999999
 30
0.0
 11
91.26814999999991
 21
161.5834999999999
 31
0.0
  0
LINE
  5
433
330
1E
100
AcDbEntity
  8
0
100
AcDbLine
 10
12.4596165801441
 20
591.452283542975
 30
0.0
 11
13.07577078591248
 21
591.5113389712316
 31
0.0
  0
LINE
  5
434
330
1E
100
AcDbEntity
  8
0
100
AcDbLine
 10
13.07577078591248
 20
591.5113389712316
 30
0.0
 11
12.3777499999999
 21
595.9035
 31
0.0
  0
ENDSEC
  0
SECTION
  2
OBJECTS
  0
DICTIONARY
  5
C
330
0
100
AcDbDictionary
281
     1
  3
ACAD_GROUP
350
D
  3
ACAD_LAYOUT
350
19
  3
ACAD_MLINESTYLE
350
16
  3
ACAD_PLOTSETTINGS
350
18
  3
ACAD_PLOTSTYLENAME
350
E
  3
AcDbVariableDictionary
350
435
  0
DICTIONARY
  5
D
102
{ACAD_REACTORS
330
C
102
}
330
C
100
AcDbDictionary
281
     1
  0
DICTIONARY
  5
19
102
{ACAD_REACTORS
330
C
102
}
330
C
100
AcDbDictionary
281
     1
  3
Layout1
350
1D
  3
Model
350
21
  0
DICTIONARY
  5
16
102
{ACAD_REACTORS
330
C
102
}
330
C
100
AcDbDictionary
281
     1
  3
Standard
350
17
  0
DICTIONARY
  5
18
102
{ACAD_REACTORS
330
C
102
}
330
C
100
AcDbDictionary
281
     1
  0
ACDBDICTIONARYWDFLT
  5
E
102
{ACAD_REACTORS
330
C
102
}
330
C
100
AcDbDictionary
281
     1
  3
Normal
350
F
100
AcDbDictionaryWithDefault
340
F
  0
DICTIONARY
  5
435
102
{ACAD_REACTORS
330
C
102
}
330
C
100
AcDbDictionary
281
     1
  3
DIMASSOC
350
436
  0
LAYOUT
  5
1D
102
{ACAD_REACTORS
330
19
102
}
330
19
100
AcDbPlotSettings
  1

  2
hp deskjet 980c series
  4

  6

 40
0.0
 41
0.0
 42
0.0
 43
0.0
 44
0.0
 45
0.0
 46
0.0
 47
0.0
 48
0.0
 49
0.0
140
0.0
141
0.0
142
1.0
143
1.0
 70
   688
 72
     0
 73
     0
 74
     5
  7

 75
    16
147
1.0
148
0.0
149
0.0
100
AcDbLayout
  1
Layout1
 70
     1
 71
     1
 10
0.0
 20
0.0
 11
12.0
 21
9.0
 12
0.0
 22
0.0
 32
0.0
 14
1.000000000000000E+20
 24
1.000000000000000E+20
 34
1.000000000000000E+20
 15
-1.000000000000000E+20
 25
-1.000000000000000E+20
 35
-1.000000000000000E+20
146
0.0
 13
0.0
 23
0.0
 33
0.0
 16
1.0
 26
0.0
 36
0.0
 17
0.0
 27
1.0
 37
0.0
 76
     0
330
1A
  0
LAYOUT
  5
21
102
{ACAD_REACTORS
330
19
102
}
330
19
100
AcDbPlotSettings
  1

  2
hp deskjet 980c series
  4

  6

 40
0.0
 41
0.0
 42
0.0
 43
0.0
 44
0.0
 45
0.0
 46
0.0
 47
0.0
 48
0.0
 49
0.0
140
0.0
141
0.0
142
1.0
143
1.0
 70
  1712
 72
     0
 73
     0
 74
     0
  7

 75
     0
147
1.0
148
0.0
149
0.0
100
AcDbLayout
  1
Model
 70
     1
 71
     0
 10
0.0
 20
0.0
 11
12.0
 21
9.0
 12
0.0
 22
0.0
 32
0.0
 14
0.0
 24
0.0
 34
0.0
 15
0.0
 25
0.0
 35
0.0
146
0.0
 13
0.0
 23
0.0
 33
0.0
 16
1.0
 26
0.0
 36
0.0
 17
0.0
 27
1.0
 37
0.0
 76
     0
330
1E
  0
MLINESTYLE
  5
17
102
{ACAD_REACTORS
330
16
102
}
330
16
100
AcDbMlineStyle
  2
STANDARD
 70
     0
  3

 62
   256
 51
90.0
 52
90.0
 71
     2
 49
0.5
 62
   256
  6
BYLAYER
 49
-0.5
 62
   256
  6
BYLAYER
  0
ACDBPLACEHOLDER
  5
F
102
{ACAD_REACTORS
330
E
102
}
330
E
  0
DICTIONARYVAR
  5
436
102
{ACAD_REACTORS
330
435
102
}
330
435
100
DictionaryVariables
280
     0
  1
1
  0
ENDSEC
  0
EOF
