  0
SECTION
  2
HEADER
  9
$ACADVER
  1
AC1015
  9
$ACADMAINTVER
 70
    13
  9
$DWGCODEPAGE
  3
ANSI_1252
  9
$INSBASE
 10
0.0
 20
0.0
 30
0.0
  9
$EXTMIN
 10
-0.164100000000042
 20
-0.0644999999999844
 30
0.0
  9
$EXTMAX
 10
669.1640999999999
 20
586.0644999999999
 30
0.0
  9
$LIMMIN
 10
0.0
 20
0.0
  9
$LIMMAX
 10
12.0
 20
9.0
  9
$ORTHOMODE
 70
     0
  9
$REGENMODE
 70
     1
  9
$FILLMODE
 70
     1
  9
$QTEXTMODE
 70
     0
  9
$MIRRTEXT
 70
     1
  9
$LTSCALE
 40
1.0
  9
$ATTMODE
 70
     1
  9
$TEXTSIZE
 40
0.2
  9
$TRACEWID
 40
0.05
  9
$TEXTSTYLE
  7
Standard
  9
$CLAYER
  8
0
  9
$CELTYPE
  6
Continuous
  9
$CECOLOR
 62
   256
  9
$CELTSCALE
 40
1.0
  9
$DISPSILH
 70
     0
  9
$DIMSCALE
 40
1.0
  9
$DIMASZ
 40
0.18
  9
$DIMEXO
 40
0.0625
  9
$DIMDLI
 40
0.38
  9
$DIMRND
 40
0.0
  9
$DIMDLE
 40
0.0
  9
$DIMEXE
 40
0.18
  9
$DIMTP
 40
0.0
  9
$DIMTM
 40
0.0
  9
$DIMTXT
 40
0.18
  9
$DIMCEN
 40
0.09
  9
$DIMTSZ
 40
0.0
  9
$DIMTOL
 70
     0
  9
$DIMLIM
 70
     0
  9
$DIMTIH
 70
     1
  9
$DIMTOH
 70
     1
  9
$DIMSE1
 70
     0
  9
$DIMSE2
 70
     0
  9
$DIMTAD
 70
     0
  9
$DIMZIN
 70
     0
  9
$DIMBLK
  1

  9
$DIMASO
 70
     1
  9
$DIMSHO
 70
     1
  9
$DIMPOST
  1

  9
$DIMAPOST
  1

  9
$DIMALT
 70
     0
  9
$DIMALTD
 70
     2
  9
$DIMALTF
 40
25.4
  9
$DIMLFAC
 40
1.0
  9
$DIMTOFL
 70
     0
  9
$DIMTVP
 40
0.0
  9
$DIMTIX
 70
     0
  9
$DIMSOXD
 70
     0
  9
$DIMSAH
 70
     0
  9
$DIMBLK1
  1

  9
$DIMBLK2
  1

  9
$DIMSTYLE
  2
Standard
  9
$DIMCLRD
 70
     0
  9
$DIMCLRE
 70
     0
  9
$DIMCLRT
 70
     0
  9
$DIMTFAC
 40
1.0
  9
$DIMGAP
 40
0.09
  9
$DIMJUST
 70
     0
  9
$DIMSD1
 70
     0
  9
$DIMSD2
 70
     0
  9
$DIMTOLJ
 70
     1
  9
$DIMTZIN
 70
     0
  9
$DIMALTZ
 70
     0
  9
$DIMALTTZ
 70
     0
  9
$DIMUPT
 70
     0
  9
$DIMDEC
 70
     4
  9
$DIMTDEC
 70
     4
  9
$DIMALTU
 70
     2
  9
$DIMALTTD
 70
     2
  9
$DIMTXSTY
  7
Standard
  9
$DIMAUNIT
 70
     0
  9
$DIMADEC
 70
     0
  9
$DIMALTRND
 40
0.0
  9
$DIMAZIN
 70
     0
  9
$DIMDSEP
 70
    46
  9
$DIMATFIT
 70
     3
  9
$DIMFRAC
 70
     0
  9
$DIMLDRBLK
  1

  9
$DIMLUNIT
 70
     2
  9
$DIMLWD
 70
    -2
  9
$DIMLWE
 70
    -2
  9
$DIMTMOVE
 70
     0
  9
$LUNITS
 70
     2
  9
$LUPREC
 70
     4
  9
$SKETCHINC
 40
0.1
  9
$FILLETRAD
 40
0.0
  9
$AUNITS
 70
     0
  9
$AUPREC
 70
     0
  9
$MENU
  1
.
  9
$ELEVATION
 40
0.0
  9
$PELEVATION
 40
0.0
  9
$THICKNESS
 40
0.0
  9
$LIMCHECK
 70
     0
  9
$CHAMFERA
 40
0.0
  9
$CHAMFERB
 40
0.0
  9
$CHAMFERC
 40
0.0
  9
$CHAMFERD
 40
0.0
  9
$SKPOLY
 70
     0
  9
$TDCREATE
 40
2454781.431252893
  9
$TDUCREATE
 40
2454781.389586226
  9
$TDUPDATE
 40
2454781.436701388
  9
$TDUUPDATE
 40
2454781.395034722
  9
$TDINDWG
 40
0.0054484954
  9
$TDUSRTIMER
 40
0.0054484954
  9
$USRTIMER
 70
     1
  9
$ANGBASE
 50
0.0
  9
$ANGDIR
 70
     0
  9
$PDMODE
 70
     0
  9
$PDSIZE
 40
0.0
  9
$PLINEWID
 40
0.0
  9
$SPLFRAME
 70
     0
  9
$SPLINETYPE
 70
     6
  9
$SPLINESEGS
 70
     8
  9
$HANDSEED
  5
560
  9
$SURFTAB1
 70
     6
  9
$SURFTAB2
 70
     6
  9
$SURFTYPE
 70
     6
  9
$SURFU
 70
     6
  9
$SURFV
 70
     6
  9
$UCSBASE
  2

  9
$UCSNAME
  2

  9
$UCSORG
 10
0.0
 20
0.0
 30
0.0
  9
$UCSXDIR
 10
1.0
 20
0.0
 30
0.0
  9
$UCSYDIR
 10
0.0
 20
1.0
 30
0.0
  9
$UCSORTHOREF
  2

  9
$UCSORTHOVIEW
 70
     1
  9
$UCSORGTOP
 10
0.0
 20
0.0
 30
0.0
  9
$UCSORGBOTTOM
 10
0.0
 20
0.0
 30
0.0
  9
$UCSORGLEFT
 10
0.0
 20
0.0
 30
0.0
  9
$UCSORGRIGHT
 10
0.0
 20
0.0
 30
0.0
  9
$UCSORGFRONT
 10
0.0
 20
0.0
 30
0.0
  9
$UCSORGBACK
 10
0.0
 20
0.0
 30
0.0
  9
$PUCSBASE
  2

  9
$PUCSNAME
  2

  9
$PUCSORG
 10
0.0
 20
0.0
 30
0.0
  9
$PUCSXDIR
 10
1.0
 20
0.0
 30
0.0
  9
$PUCSYDIR
 10
0.0
 20
1.0
 30
0.0
  9
$PUCSORTHOREF
  2

  9
$PUCSORTHOVIEW
 70
     0
  9
$PUCSORGTOP
 10
0.0
 20
0.0
 30
0.0
  9
$PUCSORGBOTTOM
 10
0.0
 20
0.0
 30
0.0
  9
$PUCSORGLEFT
 10
0.0
 20
0.0
 30
0.0
  9
$PUCSORGRIGHT
 10
0.0
 20
0.0
 30
0.0
  9
$PUCSORGFRONT
 10
0.0
 20
0.0
 30
0.0
  9
$PUCSORGBACK
 10
0.0
 20
0.0
 30
0.0
  9
$USERI1
 70
     0
  9
$USERI2
 70
     0
  9
$USERI3
 70
     0
  9
$USERI4
 70
     0
  9
$USERI5
 70
     0
  9
$USERR1
 40
0.0
  9
$USERR2
 40
0.0
  9
$USERR3
 40
0.0
  9
$USERR4
 40
0.0
  9
$USERR5
 40
0.0
  9
$WORLDVIEW
 70
     1
  9
$SHADEDGE
 70
     3
  9
$SHADEDIF
 70
    70
  9
$TILEMODE
 70
     1
  9
$MAXACTVP
 70
    64
  9
$PINSBASE
 10
0.0
 20
0.0
 30
0.0
  9
$PLIMCHECK
 70
     0
  9
$PEXTMIN
 10
1.000000000000000E+20
 20
1.000000000000000E+20
 30
1.000000000000000E+20
  9
$PEXTMAX
 10
-1.000000000000000E+20
 20
-1.000000000000000E+20
 30
-1.000000000000000E+20
  9
$PLIMMIN
 10
0.0
 20
0.0
  9
$PLIMMAX
 10
12.0
 20
9.0
  9
$UNITMODE
 70
     0
  9
$VISRETAIN
 70
     1
  9
$PLINEGEN
 70
     0
  9
$PSLTSCALE
 70
     1
  9
$TREEDEPTH
 70
  3020
  9
$CMLSTYLE
  2
Standard
  9
$CMLJUST
 70
     0
  9
$CMLSCALE
 40
1.0
  9
$PROXYGRAPHICS
 70
     1
  9
$MEASUREMENT
 70
     0
  9
$CELWEIGHT
370
    -1
  9
$ENDCAPS
280
     0
  9
$JOINSTYLE
280
     0
  9
$LWDISPLAY
290
     0
  9
$INSUNITS
 70
     0
  9
$HYPERLINKBASE
  1

  9
$STYLESHEET
  1

  9
$XEDIT
290
     1
  9
$CEPSNTYPE
380
     0
  9
$PSTYLEMODE
290
     1
  9
$FINGERPRINTGUID
  2
{CBA976F0-BFAD-47CD-91F2-DAC2CD8D0157}
  9
$VERSIONGUID
  2
{5586B7D0-9ED9-4B24-A04D-A917A3FFFACD}
  9
$EXTNAMES
290
     1
  9
$PSVPSCALE
 40
0.0
  9
$OLESTARTUP
290
     0
  0
ENDSEC
  0
SECTION
  2
CLASSES
  0
CLASS
  1
ACDBDICTIONARYWDFLT
  2
AcDbDictionaryWithDefault
  3
AutoCAD 2000
 90
        0
280
     0
281
     0
  0
CLASS
  1
ACDBPLACEHOLDER
  2
AcDbPlaceHolder
  3
AutoCAD 2000
 90
        0
280
     0
281
     0
  0
CLASS
  1
LAYOUT
  2
AcDbLayout
  3
AutoCAD 2000
 90
        0
280
     0
281
     0
  0
CLASS
  1
DICTIONARYVAR
  2
AcDbDictionaryVar
  3
AutoCAD 2000
 90
        0
280
     0
281
     0
  0
ENDSEC
  0
SECTION
  2
TABLES
  0
TABLE
  2
VPORT
  5
8
330
0
100
AcDbSymbolTable
 70
     2
  0
VPORT
  5
55F
330
8
100
AcDbSymbolTableRecord
100
AcDbViewportTableRecord
  2
*Active
 70
     0
 10
0.0
 20
0.0
 11
1.0
 21
1.0
 12
334.5
 22
292.9999999999999
 13
0.0
 23
0.0
 14
1.0
 24
1.0
 15
0.0
 25
0.0
 16
0.0
 26
0.0
 36
1.0
 17
0.0
 27
0.0
 37
0.0
 40
590.6261534526853
 41
2.078104993597951
 42
50.0
 43
0.0
 44
0.0
 50
0.0
 51
0.0
 71
     0
 72
   100
 73
     1
 74
     3
 75
     0
 76
     0
 77
     0
 78
     0
281
     0
 65
     1
110
0.0
120
0.0
130
0.0
111
1.0
121
0.0
131
0.0
112
0.0
122
1.0
132
0.0
 79
     1
146
0.0
  0
ENDTAB
  0
TABLE
  2
LTYPE
  5
5
330
0
100
AcDbSymbolTable
 70
     1
  0
LTYPE
  5
13
330
5
100
AcDbSymbolTableRecord
100
AcDbLinetypeTableRecord
  2
ByBlock
 70
     0
  3

 72
    65
 73
     0
 40
0.0
  0
LTYPE
  5
14
330
5
100
AcDbSymbolTableRecord
100
AcDbLinetypeTableRecord
  2
ByLayer
 70
     0
  3

 72
    65
 73
     0
 40
0.0
  0
LTYPE
  5
15
330
5
100
AcDbSymbolTableRecord
100
AcDbLinetypeTableRecord
  2
Continuous
 70
     0
  3
Solid line
 72
    65
 73
     0
 40
0.0
  0
ENDTAB
  0
TABLE
  2
LAYER
  5
2
330
0
100
AcDbSymbolTable
 70
     1
  0
LAYER
  5
10
330
2
100
AcDbSymbolTableRecord
100
AcDbLayerTableRecord
  2
0
 70
     0
 62
     7
  6
Continuous
370
    -3
390
F
  0
ENDTAB
  0
TABLE
  2
STYLE
  5
3
330
0
100
AcDbSymbolTable
 70
     1
  0
STYLE
  5
11
330
3
100
AcDbSymbolTableRecord
100
AcDbTextStyleTableRecord
  2
Standard
 70
     0
 40
0.0
 41
1.0
 50
0.0
 71
     0
 42
0.2
  3
txt
  4

  0
ENDTAB
  0
TABLE
  2
VIEW
  5
6
330
0
100
AcDbSymbolTable
 70
     0
  0
ENDTAB
  0
TABLE
  2
UCS
  5
7
330
0
100
AcDbSymbolTable
 70
     0
  0
ENDTAB
  0
TABLE
  2
APPID
  5
9
330
0
100
AcDbSymbolTable
 70
     1
  0
APPID
  5
12
330
9
100
AcDbSymbolTableRecord
100
AcDbRegAppTableRecord
  2
ACAD
 70
     0
  0
ENDTAB
  0
TABLE
  2
DIMSTYLE
  5
A
330
0
100
AcDbSymbolTable
 70
     1
100
AcDbDimStyleTable
 71
     0
  0
DIMSTYLE
105
559
330
A
100
AcDbSymbolTableRecord
100
AcDbDimStyleTableRecord
  2
Standard
 70
     0
340
11
  0
ENDTAB
  0
TABLE
  2
BLOCK_RECORD
  5
1
330
0
100
AcDbSymbolTable
 70
     0
  0
BLOCK_RECORD
  5
1E
330
1
100
AcDbSymbolTableRecord
100
AcDbBlockTableRecord
  2
*Model_Space
340
21
  0
BLOCK_RECORD
  5
1A
330
1
100
AcDbSymbolTableRecord
100
AcDbBlockTableRecord
  2
*Paper_Space
340
1D
  0
ENDTAB
  0
ENDSEC
  0
SECTION
  2
BLOCKS
  0
BLOCK
  5
1F
330
1E
100
AcDbEntity
  8
0
100
AcDbBlockBegin
  2
*Model_Space
 70
     0
 10
0.0
 20
0.0
 30
0.0
  3
*Model_Space
  1

  0
ENDBLK
  5
20
330
1E
100
AcDbEntity
  8
0
100
AcDbBlockEnd
  0
BLOCK
  5
1B
330
1A
100
AcDbEntity
 67
     1
  8
0
100
AcDbBlockBegin
  2
*Paper_Space
 70
     0
 10
0.0
 20
0.0
 30
0.0
  3
*Paper_Space
  1

  0
ENDBLK
  5
1C
330
1A
100
AcDbEntity
 67
     1
  8
0
100
AcDbBlockEnd
  0
ENDSEC
  0
SECTION
  2
ENTITIES
  0
LINE
  5
22
330
1E
100
AcDbEntity
  8
0
100
AcDbLine
 10
310.4861
 20
85.6135
 30
0.0
 11
310.4861
 21
86.54949999999999
 31
0.0
  0
LINE
  5
23
330
1E
100
AcDbEntity
  8
0
100
AcDbLine
 10
310.4861
 20
85.6135
 30
0.0
 11
312.4861
 21
85.6135
 31
0.0
  0
LINE
  5
24
330
1E
100
AcDbEntity
  8
0
100
AcDbLine
 10
296.4861
 20
89.0299
 30
0.0
 11
296.4861
 21
91.6135
 31
0.0
  0
LINE
  5
25
330
1E
100
AcDbEntity
  8
0
100
AcDbLine
 10
296.4861
 20
89.0299
 30
0.0
 11
296.4861
 21
90.0299
 31
0.0
  0
LINE
  5
26
330
1E
100
AcDbEntity
  8
0
100
AcDbLine
 10
296.4861
 20
89.0299
 30
0.0
 11
310.4861
 21
89.0299
 31
0.0
  0
LINE
  5
27
330
1E
100
AcDbEntity
  8
0
100
AcDbLine
 10
296.4861
 20
89.0299
 30
0.0
 11
296.4861
 21
91.62789999999999
 31
0.0
  0
LINE
  5
28
330
1E
100
AcDbEntity
  8
0
100
AcDbLine
 10
296.4861
 20
88.61349999999999
 30
0.0
 11
296.4861
 21
89.4415
 31
0.0
  0
LINE
  5
29
330
1E
100
AcDbEntity
  8
0
100
AcDbLine
 10
296.4861
 20
88.61349999999999
 30
0.0
 11
310.4861
 21
88.61349999999999
 31
0.0
  0
LINE
  5
2A
330
1E
100
AcDbEntity
  8
0
100
AcDbLine
 10
310.4861
 20
89.0299
 30
0.0
 11
310.4861
 21
88.61349999999999
 31
0.0
  0
LINE
  5
2B
330
1E
100
AcDbEntity
  8
0
100
AcDbLine
 10
310.4861
 20
89.0299
 30
0.0
 11
310.4861
 21
90.0299
 31
0.0
  0
LINE
  5
2C
330
1E
100
AcDbEntity
  8
0
100
AcDbLine
 10
310.4861
 20
88.61349999999999
 30
0.0
 11
310.4861
 21
86.54949999999999
 31
0.0
  0
LINE
  5
2D
330
1E
100
AcDbEntity
  8
0
100
AcDbLine
 10
310.4861
 20
88.61349999999999
 30
0.0
 11
310.4861
 21
89.0299
 31
0.0
  0
LINE
  5
2E
330
1E
100
AcDbEntity
  8
0
100
AcDbLine
 10
310.4861
 20
86.54949999999999
 30
0.0
 11
310.4861
 21
89.0455
 31
0.0
  0
LINE
  5
2F
330
1E
100
AcDbEntity
  8
0
100
AcDbLine
 10
310.4861
 20
86.54949999999999
 30
0.0
 11
310.4861
 21
85.6135
 31
0.0
  0
LINE
  5
30
330
1E
100
AcDbEntity
  8
0
100
AcDbLine
 10
310.4861
 20
86.54949999999999
 30
0.0
 11
310.4861
 21
88.61349999999999
 31
0.0
  0
LINE
  5
31
330
1E
100
AcDbEntity
  8
0
100
AcDbLine
 10
310.4861
 20
89.0455
 30
0.0
 11
310.4861
 21
93.2055
 31
0.0
  0
LINE
  5
32
330
1E
100
AcDbEntity
  8
0
100
AcDbLine
 10
310.4861
 20
89.0455
 30
0.0
 11
310.4861
 21
86.54949999999999
 31
0.0
  0
LINE
  5
33
330
1E
100
AcDbEntity
  8
0
100
AcDbLine
 10
312.4861
 20
85.6135
 30
0.0
 11
312.4861
 21
86.54949999999999
 31
0.0
  0
LINE
  5
34
330
1E
100
AcDbEntity
  8
0
100
AcDbLine
 10
312.4861
 20
86.54949999999999
 30
0.0
 11
312.4861
 21
89.0455
 31
0.0
  0
LINE
  5
35
330
1E
100
AcDbEntity
  8
0
100
AcDbLine
 10
312.4861
 20
86.54949999999999
 30
0.0
 11
312.4861
 21
85.6135
 31
0.0
  0
LINE
  5
36
330
1E
100
AcDbEntity
  8
0
100
AcDbLine
 10
142.4860999999999
 20
91.6135
 30
0.0
 11
296.4861
 21
91.6135
 31
0.0
  0
LINE
  5
37
330
1E
100
AcDbEntity
  8
0
100
AcDbLine
 10
296.4861
 20
90.0299
 30
0.0
 11
296.4861
 21
89.0299
 31
0.0
  0
LINE
  5
38
330
1E
100
AcDbEntity
  8
0
100
AcDbLine
 10
296.4861
 20
90.0299
 30
0.0
 11
296.4861
 21
91.6135
 31
0.0
  0
LINE
  5
39
330
1E
100
AcDbEntity
  8
0
100
AcDbLine
 10
296.4861
 20
90.0299
 30
0.0
 11
310.4861
 21
90.0299
 31
0.0
  0
LINE
  5
3A
330
1E
100
AcDbEntity
  8
0
100
AcDbLine
 10
296.4861
 20
90.0299
 30
0.0
 11
296.4861
 21
92.6279
 31
0.0
  0
LINE
  5
3B
330
1E
100
AcDbEntity
  8
0
100
AcDbLine
 10
296.4861
 20
91.62789999999999
 30
0.0
 11
296.4861
 21
89.0299
 31
0.0
  0
LINE
  5
3C
330
1E
100
AcDbEntity
  8
0
100
AcDbLine
 10
296.4861
 20
91.62789999999999
 30
0.0
 11
296.4861
 21
92.6279
 31
0.0
  0
LINE
  5
3D
330
1E
100
AcDbEntity
  8
0
100
AcDbLine
 10
296.4861
 20
91.6135
 30
0.0
 11
296.4861
 21
89.4415
 31
0.0
  0
LINE
  5
3E
330
1E
100
AcDbEntity
  8
0
100
AcDbLine
 10
296.4861
 20
91.6135
 30
0.0
 11
296.4861
 21
90.0299
 31
0.0
  0
LINE
  5
3F
330
1E
100
AcDbEntity
  8
0
100
AcDbLine
 10
296.4861
 20
91.6135
 30
0.0
 11
296.4861
 21
89.0299
 31
0.0
  0
LINE
  5
40
330
1E
100
AcDbEntity
  8
0
100
AcDbLine
 10
310.4861
 20
90.0299
 30
0.0
 11
310.4861
 21
89.0299
 31
0.0
  0
LINE
  5
41
330
1E
100
AcDbEntity
  8
0
100
AcDbLine
 10
310.4861
 20
90.0299
 30
0.0
 11
310.4861
 21
92.6279
 31
0.0
  0
LINE
  5
42
330
1E
100
AcDbEntity
  8
0
100
AcDbLine
 10
296.4861
 20
89.4415
 30
0.0
 11
296.4861
 21
91.64950000000001
 31
0.0
  0
LINE
  5
43
330
1E
100
AcDbEntity
  8
0
100
AcDbLine
 10
296.4861
 20
89.4415
 30
0.0
 11
296.4861
 21
88.61349999999999
 31
0.0
  0
LINE
  5
44
330
1E
100
AcDbEntity
  8
0
100
AcDbLine
 10
296.4861
 20
89.4415
 30
0.0
 11
296.4861
 21
91.6135
 31
0.0
  0
LINE
  5
45
330
1E
100
AcDbEntity
  8
0
100
AcDbLine
 10
296.4861
 20
92.6279
 30
0.0
 11
296.4861
 21
91.62789999999999
 31
0.0
  0
LINE
  5
46
330
1E
100
AcDbEntity
  8
0
100
AcDbLine
 10
296.4861
 20
92.6279
 30
0.0
 11
296.4861
 21
90.0299
 31
0.0
  0
LINE
  5
47
330
1E
100
AcDbEntity
  8
0
100
AcDbLine
 10
296.4861
 20
91.64950000000001
 30
0.0
 11
296.4861
 21
95.32949999999999
 31
0.0
  0
LINE
  5
48
330
1E
100
AcDbEntity
  8
0
100
AcDbLine
 10
296.4861
 20
91.64950000000001
 30
0.0
 11
296.4861
 21
89.4415
 31
0.0
  0
LINE
  5
49
330
1E
100
AcDbEntity
  8
0
100
AcDbLine
 10
310.4861
 20
92.6279
 30
0.0
 11
310.4861
 21
95.32949999999999
 31
0.0
  0
LINE
  5
4A
330
1E
100
AcDbEntity
  8
0
100
AcDbLine
 10
310.4861
 20
92.6279
 30
0.0
 11
310.4861
 21
90.0299
 31
0.0
  0
LINE
  5
4B
330
1E
100
AcDbEntity
  8
0
100
AcDbLine
 10
129.2863
 20
93.35129999999999
 30
0.0
 11
142.4860999999999
 21
91.6135
 31
0.0
  0
LINE
  5
4C
330
1E
100
AcDbEntity
  8
0
100
AcDbLine
 10
116.9861
 20
98.4462
 30
0.0
 11
129.2863
 21
93.35129999999999
 31
0.0
  0
LINE
  5
4D
330
1E
100
AcDbEntity
  8
0
100
AcDbLine
 10
296.4861
 20
95.32949999999999
 30
0.0
 11
296.4861
 21
100.2054999999999
 31
0.0
  0
LINE
  5
4E
330
1E
100
AcDbEntity
  8
0
100
AcDbLine
 10
296.4861
 20
95.32949999999999
 30
0.0
 11
296.4861
 21
91.64950000000001
 31
0.0
  0
LINE
  5
4F
330
1E
100
AcDbEntity
  8
0
100
AcDbLine
 10
310.4861
 20
95.32949999999999
 30
0.0
 11
310.4861
 21
100.2054999999999
 31
0.0
  0
LINE
  5
50
330
1E
100
AcDbEntity
  8
0
100
AcDbLine
 10
310.4861
 20
95.32949999999999
 30
0.0
 11
310.4861
 21
92.6279
 31
0.0
  0
LINE
  5
51
330
1E
100
AcDbEntity
  8
0
100
AcDbLine
 10
310.4861
 20
93.2055
 30
0.0
 11
310.4861
 21
98.7175
 31
0.0
  0
LINE
  5
52
330
1E
100
AcDbEntity
  8
0
100
AcDbLine
 10
310.4861
 20
93.2055
 30
0.0
 11
310.4861
 21
89.0455
 31
0.0
  0
LINE
  5
53
330
1E
100
AcDbEntity
  8
0
100
AcDbLine
 10
312.4861
 20
91.6135
 30
0.0
 11
356.4861
 21
91.6135
 31
0.0
  0
LINE
  5
54
330
1E
100
AcDbEntity
  8
0
100
AcDbLine
 10
310.4861
 20
98.7175
 30
0.0
 11
310.4861
 21
104.9574999999999
 31
0.0
  0
LINE
  5
55
330
1E
100
AcDbEntity
  8
0
100
AcDbLine
 10
310.4861
 20
98.7175
 30
0.0
 11
310.4861
 21
93.2055
 31
0.0
  0
LINE
  5
56
330
1E
100
AcDbEntity
  8
0
100
AcDbLine
 10
312.4861
 20
89.0455
 30
0.0
 11
312.4861
 21
93.2055
 31
0.0
  0
LINE
  5
57
330
1E
100
AcDbEntity
  8
0
100
AcDbLine
 10
312.4861
 20
89.0455
 30
0.0
 11
312.4861
 21
86.54949999999999
 31
0.0
  0
LINE
  5
58
330
1E
100
AcDbEntity
  8
0
100
AcDbLine
 10
312.4861
 20
93.2055
 30
0.0
 11
312.4861
 21
98.7175
 31
0.0
  0
LINE
  5
59
330
1E
100
AcDbEntity
  8
0
100
AcDbLine
 10
312.4861
 20
93.2055
 30
0.0
 11
312.4861
 21
89.0455
 31
0.0
  0
LINE
  5
5A
330
1E
100
AcDbEntity
  8
0
100
AcDbLine
 10
296.4861
 20
100.2054999999999
 30
0.0
 11
296.4861
 21
105.7255
 31
0.0
  0
LINE
  5
5B
330
1E
100
AcDbEntity
  8
0
100
AcDbLine
 10
296.4861
 20
100.2054999999999
 30
0.0
 11
296.4861
 21
95.32949999999999
 31
0.0
  0
LINE
  5
5C
330
1E
100
AcDbEntity
  8
0
100
AcDbLine
 10
106.4236999999999
 20
106.5511
 30
0.0
 11
116.9861
 21
98.4462
 31
0.0
  0
LINE
  5
5D
330
1E
100
AcDbEntity
  8
0
100
AcDbLine
 10
296.4861
 20
110.6135
 30
0.0
 11
310.4861
 21
110.6135
 31
0.0
  0
LINE
  5
5E
330
1E
100
AcDbEntity
  8
0
100
AcDbLine
 10
296.4861
 20
110.6135
 30
0.0
 11
296.4861
 21
112.6135
 31
0.0
  0
LINE
  5
5F
330
1E
100
AcDbEntity
  8
0
100
AcDbLine
 10
296.4861
 20
111.6135
 30
0.0
 11
296.4861
 21
105.7255
 31
0.0
  0
LINE
  5
60
330
1E
100
AcDbEntity
  8
0
100
AcDbLine
 10
296.4861
 20
111.6135
 30
0.0
 11
296.4861
 21
117.5014999999999
 31
0.0
  0
LINE
  5
61
330
1E
100
AcDbEntity
  8
0
100
AcDbLine
 10
310.4861
 20
110.6135
 30
0.0
 11
310.4861
 21
105.7255
 31
0.0
  0
LINE
  5
62
330
1E
100
AcDbEntity
  8
0
100
AcDbLine
 10
310.4861
 20
110.6135
 30
0.0
 11
310.4861
 21
112.6135
 31
0.0
  0
LINE
  5
63
330
1E
100
AcDbEntity
  8
0
100
AcDbLine
 10
296.4861
 20
105.7255
 30
0.0
 11
296.4861
 21
111.6135
 31
0.0
  0
LINE
  5
64
330
1E
100
AcDbEntity
  8
0
100
AcDbLine
 10
296.4861
 20
105.7255
 30
0.0
 11
296.4861
 21
100.2054999999999
 31
0.0
  0
LINE
  5
65
330
1E
100
AcDbEntity
  8
0
100
AcDbLine
 10
310.4861
 20
100.2054999999999
 30
0.0
 11
310.4861
 21
105.7255
 31
0.0
  0
LINE
  5
66
330
1E
100
AcDbEntity
  8
0
100
AcDbLine
 10
310.4861
 20
100.2054999999999
 30
0.0
 11
310.4861
 21
95.32949999999999
 31
0.0
  0
LINE
  5
67
330
1E
100
AcDbEntity
  8
0
100
AcDbLine
 10
310.4861
 20
105.7255
 30
0.0
 11
310.4861
 21
110.6135
 31
0.0
  0
LINE
  5
68
330
1E
100
AcDbEntity
  8
0
100
AcDbLine
 10
310.4861
 20
105.7255
 30
0.0
 11
310.4861
 21
100.2054999999999
 31
0.0
  0
LINE
  5
69
330
1E
100
AcDbEntity
  8
0
100
AcDbLine
 10
98.31879999999999
 20
117.1135
 30
0.0
 11
106.4236999999999
 21
106.5511
 31
0.0
  0
LINE
  5
6A
330
1E
100
AcDbEntity
  8
0
100
AcDbLine
 10
296.4861
 20
112.6135
 30
0.0
 11
310.4861
 21
112.6135
 31
0.0
  0
LINE
  5
6B
330
1E
100
AcDbEntity
  8
0
100
AcDbLine
 10
296.4861
 20
112.6135
 30
0.0
 11
296.4861
 21
110.6135
 31
0.0
  0
LINE
  5
6C
330
1E
100
AcDbEntity
  8
0
100
AcDbLine
 10
296.4861
 20
117.5014999999999
 30
0.0
 11
296.4861
 21
123.0215
 31
0.0
  0
LINE
  5
6D
330
1E
100
AcDbEntity
  8
0
100
AcDbLine
 10
296.4861
 20
117.5014999999999
 30
0.0
 11
296.4861
 21
111.6135
 31
0.0
  0
LINE
  5
6E
330
1E
100
AcDbEntity
  8
0
100
AcDbLine
 10
310.4861
 20
117.5014999999999
 30
0.0
 11
310.4861
 21
123.0215
 31
0.0
  0
LINE
  5
6F
330
1E
100
AcDbEntity
  8
0
100
AcDbLine
 10
310.4861
 20
117.5014999999999
 30
0.0
 11
310.4861
 21
112.6135
 31
0.0
  0
LINE
  5
70
330
1E
100
AcDbEntity
  8
0
100
AcDbLine
 10
310.4861
 20
112.6135
 30
0.0
 11
310.4861
 21
117.5014999999999
 31
0.0
  0
LINE
  5
71
330
1E
100
AcDbEntity
  8
0
100
AcDbLine
 10
310.4861
 20
112.6135
 30
0.0
 11
310.4861
 21
110.6135
 31
0.0
  0
LINE
  5
72
330
1E
100
AcDbEntity
  8
0
100
AcDbLine
 10
296.4861
 20
127.8974999999999
 30
0.0
 11
296.4861
 21
131.5774999999999
 31
0.0
  0
LINE
  5
73
330
1E
100
AcDbEntity
  8
0
100
AcDbLine
 10
296.4861
 20
127.8974999999999
 30
0.0
 11
296.4861
 21
123.0215
 31
0.0
  0
LINE
  5
74
330
1E
100
AcDbEntity
  8
0
100
AcDbLine
 10
296.4861
 20
123.0215
 30
0.0
 11
296.4861
 21
127.8974999999999
 31
0.0
  0
LINE
  5
75
330
1E
100
AcDbEntity
  8
0
100
AcDbLine
 10
296.4861
 20
123.0215
 30
0.0
 11
296.4861
 21
117.5014999999999
 31
0.0
  0
LINE
  5
76
330
1E
100
AcDbEntity
  8
0
100
AcDbLine
 10
93.2239
 20
129.4137
 30
0.0
 11
98.31879999999999
 21
117.1135
 31
0.0
  0
LINE
  5
77
330
1E
100
AcDbEntity
  8
0
100
AcDbLine
 10
310.4861
 20
127.8974999999999
 30
0.0
 11
310.4861
 21
130.5990999999999
 31
0.0
  0
LINE
  5
78
330
1E
100
AcDbEntity
  8
0
100
AcDbLine
 10
310.4861
 20
127.8974999999999
 30
0.0
 11
310.4861
 21
123.0215
 31
0.0
  0
LINE
  5
79
330
1E
100
AcDbEntity
  8
0
100
AcDbLine
 10
310.4861
 20
123.0215
 30
0.0
 11
310.4861
 21
127.8974999999999
 31
0.0
  0
LINE
  5
7A
330
1E
100
AcDbEntity
  8
0
100
AcDbLine
 10
310.4861
 20
123.0215
 30
0.0
 11
310.4861
 21
117.5014999999999
 31
0.0
  0
LINE
  5
7B
330
1E
100
AcDbEntity
  8
0
100
AcDbLine
 10
296.4861
 20
130.5990999999999
 30
0.0
 11
296.4861
 21
131.5990999999999
 31
0.0
  0
LINE
  5
7C
330
1E
100
AcDbEntity
  8
0
100
AcDbLine
 10
296.4861
 20
130.5990999999999
 30
0.0
 11
296.4861
 21
133.1971
 31
0.0
  0
LINE
  5
7D
330
1E
100
AcDbEntity
  8
0
100
AcDbLine
 10
142.4860999999999
 20
131.6134999999999
 30
0.0
 11
296.4861
 21
131.6134999999999
 31
0.0
  0
LINE
  5
7E
330
1E
100
AcDbEntity
  8
0
100
AcDbLine
 10
136.9860999999999
 20
133.0872199999999
 30
0.0
 11
139.6391
 21
131.9883199999999
 31
0.0
  0
LINE
  5
7F
330
1E
100
AcDbEntity
  8
0
100
AcDbLine
 10
139.6391
 20
131.9883199999999
 30
0.0
 11
142.4860999999999
 21
131.6134999999999
 31
0.0
  0
LINE
  5
80
330
1E
100
AcDbEntity
  8
0
100
AcDbLine
 10
296.4861
 20
133.1971
 30
0.0
 11
310.4861
 21
133.1971
 31
0.0
  0
LINE
  5
81
330
1E
100
AcDbEntity
  8
0
100
AcDbLine
 10
296.4861
 20
133.1971
 30
0.0
 11
296.4861
 21
130.5990999999999
 31
0.0
  0
LINE
  5
82
330
1E
100
AcDbEntity
  8
0
100
AcDbLine
 10
296.4861
 20
133.1971
 30
0.0
 11
296.4861
 21
134.1971
 31
0.0
  0
LINE
  5
83
330
1E
100
AcDbEntity
  8
0
100
AcDbLine
 10
296.4861
 20
133.1971
 30
0.0
 11
296.4861
 21
131.6134999999999
 31
0.0
  0
LINE
  5
84
330
1E
100
AcDbEntity
  8
0
100
AcDbLine
 10
296.4861
 20
131.5990999999999
 30
0.0
 11
296.4861
 21
134.1971
 31
0.0
  0
LINE
  5
85
330
1E
100
AcDbEntity
  8
0
100
AcDbLine
 10
296.4861
 20
131.5990999999999
 30
0.0
 11
296.4861
 21
130.5990999999999
 31
0.0
  0
LINE
  5
86
330
1E
100
AcDbEntity
  8
0
100
AcDbLine
 10
296.4861
 20
134.1971
 30
0.0
 11
310.4861
 21
134.1971
 31
0.0
  0
LINE
  5
87
330
1E
100
AcDbEntity
  8
0
100
AcDbLine
 10
296.4861
 20
134.1971
 30
0.0
 11
296.4861
 21
133.1971
 31
0.0
  0
LINE
  5
88
330
1E
100
AcDbEntity
  8
0
100
AcDbLine
 10
296.4861
 20
134.1971
 30
0.0
 11
296.4861
 21
131.5990999999999
 31
0.0
  0
LINE
  5
89
330
1E
100
AcDbEntity
  8
0
100
AcDbLine
 10
296.4861
 20
134.1971
 30
0.0
 11
296.4861
 21
131.6134999999999
 31
0.0
  0
LINE
  5
8A
330
1E
100
AcDbEntity
  8
0
100
AcDbLine
 10
296.4861
 20
131.5774999999999
 30
0.0
 11
296.4861
 21
133.7855
 31
0.0
  0
LINE
  5
8B
330
1E
100
AcDbEntity
  8
0
100
AcDbLine
 10
296.4861
 20
131.5774999999999
 30
0.0
 11
296.4861
 21
127.8974999999999
 31
0.0
  0
LINE
  5
8C
330
1E
100
AcDbEntity
  8
0
100
AcDbLine
 10
296.4861
 20
131.6134999999999
 30
0.0
 11
296.4861
 21
133.7855
 31
0.0
  0
LINE
  5
8D
330
1E
100
AcDbEntity
  8
0
100
AcDbLine
 10
296.4861
 20
131.6134999999999
 30
0.0
 11
296.4861
 21
133.1971
 31
0.0
  0
LINE
  5
8E
330
1E
100
AcDbEntity
  8
0
100
AcDbLine
 10
296.4861
 20
131.6134999999999
 30
0.0
 11
296.4861
 21
134.1971
 31
0.0
  0
LINE
  5
8F
330
1E
100
AcDbEntity
  8
0
100
AcDbLine
 10
134.7078999999999
 20
134.83533
 30
0.0
 11
136.9860999999999
 21
133.0872199999999
 31
0.0
  0
LINE
  5
90
330
1E
100
AcDbEntity
  8
0
100
AcDbLine
 10
296.4861
 20
134.6134999999999
 30
0.0
 11
296.4861
 21
133.7855
 31
0.0
  0
LINE
  5
91
330
1E
100
AcDbEntity
  8
0
100
AcDbLine
 10
296.4861
 20
134.6134999999999
 30
0.0
 11
310.4861
 21
134.6134999999999
 31
0.0
  0
LINE
  5
92
330
1E
100
AcDbEntity
  8
0
100
AcDbLine
 10
310.4861
 20
133.1971
 30
0.0
 11
310.4861
 21
134.1971
 31
0.0
  0
LINE
  5
93
330
1E
100
AcDbEntity
  8
0
100
AcDbLine
 10
310.4861
 20
133.1971
 30
0.0
 11
310.4861
 21
130.5990999999999
 31
0.0
  0
LINE
  5
94
330
1E
100
AcDbEntity
  8
0
100
AcDbLine
 10
310.4861
 20
130.5990999999999
 30
0.0
 11
310.4861
 21
127.8974999999999
 31
0.0
  0
LINE
  5
95
330
1E
100
AcDbEntity
  8
0
100
AcDbLine
 10
310.4861
 20
130.5990999999999
 30
0.0
 11
310.4861
 21
133.1971
 31
0.0
  0
LINE
  5
96
330
1E
100
AcDbEntity
  8
0
100
AcDbLine
 10
310.4861
 20
134.1971
 30
0.0
 11
310.4861
 21
134.6134999999999
 31
0.0
  0
LINE
  5
97
330
1E
100
AcDbEntity
  8
0
100
AcDbLine
 10
310.4861
 20
134.1971
 30
0.0
 11
310.4861
 21
133.1971
 31
0.0
  0
LINE
  5
98
330
1E
100
AcDbEntity
  8
0
100
AcDbLine
 10
296.4861
 20
133.7855
 30
0.0
 11
296.4861
 21
131.6134999999999
 31
0.0
  0
LINE
  5
99
330
1E
100
AcDbEntity
  8
0
100
AcDbLine
 10
296.4861
 20
133.7855
 30
0.0
 11
296.4861
 21
134.6134999999999
 31
0.0
  0
LINE
  5
9A
330
1E
100
AcDbEntity
  8
0
100
AcDbLine
 10
296.4861
 20
133.7855
 30
0.0
 11
296.4861
 21
131.5774999999999
 31
0.0
  0
LINE
  5
9B
330
1E
100
AcDbEntity
  8
0
100
AcDbLine
 10
132.9598
 20
137.1134999999999
 30
0.0
 11
134.7078999999999
 21
134.83533
 31
0.0
  0
LINE
  5
9C
330
1E
100
AcDbEntity
  8
0
100
AcDbLine
 10
310.4861
 20
136.6775
 30
0.0
 11
310.4861
 21
137.6134999999999
 31
0.0
  0
LINE
  5
9D
330
1E
100
AcDbEntity
  8
0
100
AcDbLine
 10
310.4861
 20
136.6775
 30
0.0
 11
310.4861
 21
134.1814999999999
 31
0.0
  0
LINE
  5
9E
330
1E
100
AcDbEntity
  8
0
100
AcDbLine
 10
310.4861
 20
134.1814999999999
 30
0.0
 11
310.4861
 21
136.6775
 31
0.0
  0
LINE
  5
9F
330
1E
100
AcDbEntity
  8
0
100
AcDbLine
 10
310.4861
 20
134.1814999999999
 30
0.0
 11
310.4861
 21
130.0215
 31
0.0
  0
LINE
  5
A0
330
1E
100
AcDbEntity
  8
0
100
AcDbLine
 10
310.4861
 20
130.0215
 30
0.0
 11
310.4861
 21
134.1814999999999
 31
0.0
  0
LINE
  5
A1
330
1E
100
AcDbEntity
  8
0
100
AcDbLine
 10
310.4861
 20
130.0215
 30
0.0
 11
310.4861
 21
124.5095
 31
0.0
  0
LINE
  5
A2
330
1E
100
AcDbEntity
  8
0
100
AcDbLine
 10
310.4861
 20
124.5095
 30
0.0
 11
310.4861
 21
130.0215
 31
0.0
  0
LINE
  5
A3
330
1E
100
AcDbEntity
  8
0
100
AcDbLine
 10
310.4861
 20
124.5095
 30
0.0
 11
310.4861
 21
118.2695
 31
0.0
  0
LINE
  5
A4
330
1E
100
AcDbEntity
  8
0
100
AcDbLine
 10
310.4861
 20
118.2695
 30
0.0
 11
310.4861
 21
124.5095
 31
0.0
  0
LINE
  5
A5
330
1E
100
AcDbEntity
  8
0
100
AcDbLine
 10
310.4861
 20
118.2695
 30
0.0
 11
310.4861
 21
111.6135
 31
0.0
  0
LINE
  5
A6
330
1E
100
AcDbEntity
  8
0
100
AcDbLine
 10
310.4861
 20
134.6134999999999
 30
0.0
 11
310.4861
 21
136.6775
 31
0.0
  0
LINE
  5
A7
330
1E
100
AcDbEntity
  8
0
100
AcDbLine
 10
310.4861
 20
134.6134999999999
 30
0.0
 11
310.4861
 21
134.1971
 31
0.0
  0
LINE
  5
A8
330
1E
100
AcDbEntity
  8
0
100
AcDbLine
 10
85.5464
 20
139.1334
 30
0.0
 11
86.46320000000001
 21
139.3218399999999
 31
0.0
  0
LINE
  5
A9
330
1E
100
AcDbEntity
  8
0
100
AcDbLine
 10
86.46320000000001
 20
139.3218399999999
 30
0.0
 11
88.9081
 21
139.824353
 31
0.0
  0
LINE
  5
AA
330
1E
100
AcDbEntity
  8
0
100
AcDbLine
 10
88.49020000000001
 20
141.7802599999999
 30
0.0
 11
91.035
 21
142.30331
 31
0.0
  0
LINE
  5
AB
330
1E
100
AcDbEntity
  8
0
100
AcDbLine
 10
88.49020000000001
 20
141.7802599999999
 30
0.0
 11
89.46969999999991
 21
141.9815899999999
 31
0.0
  0
LINE
  5
AC
330
1E
100
AcDbEntity
  8
0
100
AcDbLine
 10
88.0823
 20
141.6964299999999
 30
0.0
 11
88.49019737383448
 21
141.7802727770879
 31
0.0
  0
LINE
  5
AD
330
1E
100
AcDbEntity
  8
0
100
AcDbLine
 10
86.06059999999999
 20
141.2808899999999
 30
0.0
 11
88.5055
 21
141.7834
 31
0.0
  0
LINE
  5
AE
330
1E
100
AcDbEntity
  8
0
100
AcDbLine
 10
88.5055
 20
141.7834
 30
0.0
 11
92.58029999999999
 21
142.6209199999999
 31
0.0
  0
LINE
  5
AF
330
1E
100
AcDbEntity
  8
0
100
AcDbLine
 10
85.14369999999999
 20
141.092448
 30
0.0
 11
85.5464
 21
139.1334
 31
0.0
  0
LINE
  5
B0
330
1E
100
AcDbEntity
  8
0
100
AcDbLine
 10
85.14369999999999
 20
141.092448
 30
0.0
 11
86.06059999999999
 21
141.2808899999999
 31
0.0
  0
LINE
  5
B1
330
1E
100
AcDbEntity
  8
0
100
AcDbLine
 10
89.46969999999991
 20
141.9815899999999
 30
0.0
 11
92.01449999999999
 21
142.5046299999999
 31
0.0
  0
LINE
  5
B2
330
1E
100
AcDbEntity
  8
0
100
AcDbLine
 10
88.9081
 20
139.824353
 30
0.0
 11
91.19409018238899
 21
140.2942062260659
 31
0.0
  0
LINE
  5
B3
330
1E
100
AcDbEntity
  8
0
100
AcDbLine
 10
88.9081
 20
139.824353
 30
0.0
 11
92.98289999999999
 21
140.6618709999999
 31
0.0
  0
LINE
  5
B4
330
1E
100
AcDbEntity
  8
0
100
AcDbLine
 10
91.035
 20
142.30331
 30
0.0
 11
92.01449999999999
 21
142.5046299999999
 31
0.0
  0
LINE
  5
B5
330
1E
100
AcDbEntity
  8
0
100
AcDbLine
 10
92.98289999999999
 20
140.6618709999999
 30
0.0
 11
98.3821
 21
141.77158
 31
0.0
  0
LINE
  5
B6
330
1E
100
AcDbEntity
  8
0
100
AcDbLine
 10
92.0144984207736
 20
142.5046338838089
 30
0.0
 11
94.66079999999999
 21
143.04854
 31
0.0
  0
LINE
  5
B7
330
1E
100
AcDbEntity
  8
0
100
AcDbLine
 10
94.66079999999999
 20
143.04854
 30
0.0
 11
99.4369
 21
144.0302
 31
0.0
  0
LINE
  5
B8
330
1E
100
AcDbEntity
  8
0
100
AcDbLine
 10
92.58029999999999
 20
142.6209199999999
 30
0.0
 11
97.9794
 21
143.7306299999999
 31
0.0
  0
LINE
  5
B9
330
1E
100
AcDbEntity
  8
0
100
AcDbLine
 10
99.4369
 20
144.0302
 30
0.0
 11
100.0057137879309
 21
144.147111379127
 31
0.0
  0
LINE
  5
BA
330
1E
100
AcDbEntity
  8
0
100
AcDbLine
 10
99.4369
 20
144.0302
 30
0.0
 11
100.0057137879309
 21
144.147111379127
 31
0.0
  0
LINE
  5
BB
330
1E
100
AcDbEntity
  8
0
100
AcDbLine
 10
97.9794
 20
143.7306299999999
 30
0.0
 11
104.0915999999999
 21
144.98691
 31
0.0
  0
LINE
  5
BC
330
1E
100
AcDbEntity
  8
0
100
AcDbLine
 10
98.3821
 20
141.77158
 30
0.0
 11
104.4942999999999
 21
143.02786
 31
0.0
  0
LINE
  5
BD
330
1E
100
AcDbEntity
  8
0
100
AcDbLine
 10
104.4942999999999
 20
143.02786
 30
0.0
 11
111.0139999999999
 21
144.3678899999999
 31
0.0
  0
LINE
  5
BE
330
1E
100
AcDbEntity
  8
0
100
AcDbLine
 10
109.6317999999999
 20
146.12561
 30
0.0
 11
111.3165956592049
 21
146.471882764116
 31
0.0
  0
LINE
  5
BF
330
1E
100
AcDbEntity
  8
0
100
AcDbLine
 10
104.0915999999999
 20
144.98691
 30
0.0
 11
110.6114
 21
146.3269399999999
 31
0.0
  0
LINE
  5
C0
330
1E
100
AcDbEntity
  8
0
100
AcDbLine
 10
116.3788
 20
147.51235
 30
0.0
 11
119.4270146776629
 21
148.1388604375029
 31
0.0
  0
LINE
  5
C1
330
1E
100
AcDbEntity
  8
0
100
AcDbLine
 10
116.3788
 20
147.51235
 30
0.0
 11
119.4270146776629
 21
148.1388604375029
 31
0.0
  0
LINE
  5
C2
330
1E
100
AcDbEntity
  8
0
100
AcDbLine
 10
111.5908994485659
 20
146.528262682894
 30
0.0
 11
116.3788
 21
147.51235
 31
0.0
  0
LINE
  5
C3
330
1E
100
AcDbEntity
  8
0
100
AcDbLine
 10
117.1310999999999
 20
147.6669699999999
 30
0.0
 11
123.2433
 21
148.9232399999999
 31
0.0
  0
LINE
  5
C4
330
1E
100
AcDbEntity
  8
0
100
AcDbLine
 10
110.6114
 20
146.3269399999999
 30
0.0
 11
117.1310999999999
 21
147.6669699999999
 31
0.0
  0
LINE
  5
C5
330
1E
100
AcDbEntity
  8
0
100
AcDbLine
 10
110.6114
 20
146.3269399999999
 30
0.0
 11
111.2516166394289
 21
146.458527752982
 31
0.0
  0
LINE
  5
C6
330
1E
100
AcDbEntity
  8
0
100
AcDbLine
 10
110.6114
 20
146.3269399999999
 30
0.0
 11
111.2516166394289
 21
146.458527752982
 31
0.0
  0
LINE
  5
C7
330
1E
100
AcDbEntity
  8
0
100
AcDbLine
 10
129.0451
 20
148.07391
 30
0.0
 11
133.1199
 21
148.9114299999999
 31
0.0
  0
LINE
  5
C8
330
1E
100
AcDbEntity
  8
0
100
AcDbLine
 10
123.646
 20
146.9642
 30
0.0
 11
129.0451
 21
148.07391
 31
0.0
  0
LINE
  5
C9
330
1E
100
AcDbEntity
  8
0
100
AcDbLine
 10
117.5337
 20
145.70792
 30
0.0
 11
123.646
 21
146.9642
 31
0.0
  0
LINE
  5
CA
330
1E
100
AcDbEntity
  8
0
100
AcDbLine
 10
111.0139999999999
 20
144.3678899999999
 30
0.0
 11
117.5337
 21
145.70792
 31
0.0
  0
LINE
  5
CB
330
1E
100
AcDbEntity
  8
0
100
AcDbLine
 10
91.19409018238899
 20
140.2942062260659
 30
0.0
 11
93.2239
 21
129.4137
 31
0.0
  0
LINE
  5
CC
330
1E
100
AcDbEntity
  8
0
100
AcDbLine
 10
91.19409018238899
 20
140.2942062260659
 30
0.0
 11
93.2239
 21
129.4137
 31
0.0
  0
LINE
  5
CD
330
1E
100
AcDbEntity
  8
0
100
AcDbLine
 10
122.7298134410219
 20
148.8177006263789
 30
0.0
 11
126.5619
 21
149.6053399999999
 31
0.0
  0
LINE
  5
CE
330
1E
100
AcDbEntity
  8
0
100
AcDbLine
 10
122.7298134410219
 20
148.8177006263789
 30
0.0
 11
126.5619
 21
149.6053399999999
 31
0.0
  0
LINE
  5
CF
330
1E
100
AcDbEntity
  8
0
100
AcDbLine
 10
126.5619
 20
149.6053399999999
 30
0.0
 11
126.836146339602
 21
149.6617063073439
 31
0.0
  0
LINE
  5
D0
330
1E
100
AcDbEntity
  8
0
100
AcDbLine
 10
128.6424
 20
150.03296
 30
0.0
 11
132.7172999999999
 21
150.8704999999999
 31
0.0
  0
LINE
  5
D1
330
1E
100
AcDbEntity
  8
0
100
AcDbLine
 10
123.2433
 20
148.9232399999999
 30
0.0
 11
128.6424
 21
150.03296
 31
0.0
  0
LINE
  5
D2
330
1E
100
AcDbEntity
  8
0
100
AcDbLine
 10
130.2709194071349
 20
148.325860591407
 30
0.0
 11
131.8608999999999
 21
139.766491
 31
0.0
  0
LINE
  5
D3
330
1E
100
AcDbEntity
  8
0
100
AcDbLine
 10
130.2709194071349
 20
148.325860591407
 30
0.0
 11
131.8608999999999
 21
139.766491
 31
0.0
  0
LINE
  5
D4
330
1E
100
AcDbEntity
  8
0
100
AcDbLine
 10
135.1621
 20
151.3729999999999
 30
0.0
 11
136.079
 21
151.5614
 31
0.0
  0
LINE
  5
D5
330
1E
100
AcDbEntity
  8
0
100
AcDbLine
 10
132.7172999999999
 20
150.8704999999999
 30
0.0
 11
135.1621
 21
151.3729999999999
 31
0.0
  0
LINE
  5
D6
330
1E
100
AcDbEntity
  8
0
100
AcDbLine
 10
136.079
 20
151.5614
 30
0.0
 11
136.4815999999999
 21
149.60238
 31
0.0
  0
LINE
  5
D7
330
1E
100
AcDbEntity
  8
0
100
AcDbLine
 10
135.5647999999999
 20
149.4139399999999
 30
0.0
 11
136.4815999999999
 21
149.60238
 31
0.0
  0
LINE
  5
D8
330
1E
100
AcDbEntity
  8
0
100
AcDbLine
 10
133.1199
 20
148.9114299999999
 30
0.0
 11
135.5647999999999
 21
149.4139399999999
 31
0.0
  0
LINE
  5
D9
330
1E
100
AcDbEntity
  8
0
100
AcDbLine
 10
131.8608999999999
 20
139.766491
 30
0.0
 11
132.9598
 21
137.1134999999999
 31
0.0
  0
LINE
  5
DA
330
1E
100
AcDbEntity
  8
0
100
AcDbLine
 10
310.4861
 20
137.6134999999999
 30
0.0
 11
310.4861
 21
136.6775
 31
0.0
  0
LINE
  5
DB
330
1E
100
AcDbEntity
  8
0
100
AcDbLine
 10
310.4861
 20
137.6134999999999
 30
0.0
 11
312.4861
 21
137.6134999999999
 31
0.0
  0
LINE
  5
DC
330
1E
100
AcDbEntity
  8
0
100
AcDbLine
 10
310.4861
 20
137.6134999999999
 30
0.0
 11
310.4861
 21
136.6775
 31
0.0
  0
LINE
  5
DD
330
1E
100
AcDbEntity
  8
0
100
AcDbLine
 10
310.4861
 20
136.6775
 30
0.0
 11
310.4861
 21
134.6134999999999
 31
0.0
  0
LINE
  5
DE
330
1E
100
AcDbEntity
  8
0
100
AcDbLine
 10
310.4861
 20
136.6775
 30
0.0
 11
310.4861
 21
137.6134999999999
 31
0.0
  0
LINE
  5
DF
330
1E
100
AcDbEntity
  8
0
100
AcDbLine
 10
310.4861
 20
111.6135
 30
0.0
 11
310.4861
 21
104.9574999999999
 31
0.0
  0
LINE
  5
E0
330
1E
100
AcDbEntity
  8
0
100
AcDbLine
 10
310.4861
 20
111.6135
 30
0.0
 11
310.4861
 21
118.2695
 31
0.0
  0
LINE
  5
E1
330
1E
100
AcDbEntity
  8
0
100
AcDbLine
 10
312.4861
 20
131.6134999999999
 30
0.0
 11
332.4861
 21
131.6134999999999
 31
0.0
  0
LINE
  5
E2
330
1E
100
AcDbEntity
  8
0
100
AcDbLine
 10
312.4861
 20
137.6134999999999
 30
0.0
 11
312.4861
 21
136.6775
 31
0.0
  0
LINE
  5
E3
330
1E
100
AcDbEntity
  8
0
100
AcDbLine
 10
312.4861
 20
136.6775
 30
0.0
 11
312.4861
 21
137.6134999999999
 31
0.0
  0
LINE
  5
E4
330
1E
100
AcDbEntity
  8
0
100
AcDbLine
 10
312.4861
 20
136.6775
 30
0.0
 11
312.4861
 21
134.1814999999999
 31
0.0
  0
LINE
  5
E5
330
1E
100
AcDbEntity
  8
0
100
AcDbLine
 10
312.4861
 20
134.1814999999999
 30
0.0
 11
312.4861
 21
136.6775
 31
0.0
  0
LINE
  5
E6
330
1E
100
AcDbEntity
  8
0
100
AcDbLine
 10
312.4861
 20
134.1814999999999
 30
0.0
 11
312.4861
 21
130.0215
 31
0.0
  0
LINE
  5
E7
330
1E
100
AcDbEntity
  8
0
100
AcDbLine
 10
312.4861
 20
130.0215
 30
0.0
 11
312.4861
 21
134.1814999999999
 31
0.0
  0
LINE
  5
E8
330
1E
100
AcDbEntity
  8
0
100
AcDbLine
 10
312.4861
 20
130.0215
 30
0.0
 11
312.4861
 21
124.5095
 31
0.0
  0
LINE
  5
E9
330
1E
100
AcDbEntity
  8
0
100
AcDbLine
 10
312.4861
 20
124.5095
 30
0.0
 11
312.4861
 21
130.0215
 31
0.0
  0
LINE
  5
EA
330
1E
100
AcDbEntity
  8
0
100
AcDbLine
 10
312.4861
 20
124.5095
 30
0.0
 11
312.4861
 21
118.2695
 31
0.0
  0
LINE
  5
EB
330
1E
100
AcDbEntity
  8
0
100
AcDbLine
 10
312.4861
 20
118.2695
 30
0.0
 11
312.4861
 21
124.5095
 31
0.0
  0
LINE
  5
EC
330
1E
100
AcDbEntity
  8
0
100
AcDbLine
 10
312.4861
 20
118.2695
 30
0.0
 11
312.4861
 21
111.6135
 31
0.0
  0
LINE
  5
ED
330
1E
100
AcDbEntity
  8
0
100
AcDbLine
 10
312.4861
 20
111.6135
 30
0.0
 11
312.4861
 21
104.9574999999999
 31
0.0
  0
LINE
  5
EE
330
1E
100
AcDbEntity
  8
0
100
AcDbLine
 10
312.4861
 20
111.6135
 30
0.0
 11
312.4861
 21
118.2695
 31
0.0
  0
LINE
  5
EF
330
1E
100
AcDbEntity
  8
0
100
AcDbLine
 10
310.4861
 20
104.9574999999999
 30
0.0
 11
310.4861
 21
111.6135
 31
0.0
  0
LINE
  5
F0
330
1E
100
AcDbEntity
  8
0
100
AcDbLine
 10
310.4861
 20
104.9574999999999
 30
0.0
 11
310.4861
 21
98.7175
 31
0.0
  0
LINE
  5
F1
330
1E
100
AcDbEntity
  8
0
100
AcDbLine
 10
312.4861
 20
98.7175
 30
0.0
 11
312.4861
 21
104.9574999999999
 31
0.0
  0
LINE
  5
F2
330
1E
100
AcDbEntity
  8
0
100
AcDbLine
 10
312.4861
 20
98.7175
 30
0.0
 11
312.4861
 21
93.2055
 31
0.0
  0
LINE
  5
F3
330
1E
100
AcDbEntity
  8
0
100
AcDbLine
 10
344.8541
 20
136.6134999999999
 30
0.0
 11
348.5020999999999
 21
136.6134999999999
 31
0.0
  0
LINE
  5
F4
330
1E
100
AcDbEntity
  8
0
100
AcDbLine
 10
344.8541
 20
136.6134999999999
 30
0.0
 11
348.5020999999999
 21
136.6134999999999
 31
0.0
  0
LINE
  5
F5
330
1E
100
AcDbEntity
  8
0
100
AcDbLine
 10
344.8541
 20
140.6134999999999
 30
0.0
 11
348.5020999999999
 21
140.6134999999999
 31
0.0
  0
LINE
  5
F6
330
1E
100
AcDbEntity
  8
0
100
AcDbLine
 10
343.4861
 20
140.6134999999999
 30
0.0
 11
343.4861
 21
136.6134999999999
 31
0.0
  0
LINE
  5
F7
330
1E
100
AcDbEntity
  8
0
100
AcDbLine
 10
343.4861
 20
140.6134999999999
 30
0.0
 11
344.8541
 21
140.6134999999999
 31
0.0
  0
LINE
  5
F8
330
1E
100
AcDbEntity
  8
0
100
AcDbLine
 10
343.4861
 20
136.6134999999999
 30
0.0
 11
344.8541
 21
136.6134999999999
 31
0.0
  0
LINE
  5
F9
330
1E
100
AcDbEntity
  8
0
100
AcDbLine
 10
343.4861
 20
136.6134999999999
 30
0.0
 11
343.4861
 21
140.6134999999999
 31
0.0
  0
LINE
  5
FA
330
1E
100
AcDbEntity
  8
0
100
AcDbLine
 10
332.4861
 20
131.6134999999999
 30
0.0
 11
362.4861
 21
131.6134999999999
 31
0.0
  0
LINE
  5
FB
330
1E
100
AcDbEntity
  8
0
100
AcDbLine
 10
332.4861
 20
131.6134999999999
 30
0.0
 11
332.4861
 21
96.6135
 31
0.0
  0
LINE
  5
FC
330
1E
100
AcDbEntity
  8
0
100
AcDbLine
 10
332.4861
 20
96.6135
 30
0.0
 11
362.4861
 21
96.6135
 31
0.0
  0
LINE
  5
FD
330
1E
100
AcDbEntity
  8
0
100
AcDbLine
 10
332.4861
 20
96.6135
 30
0.0
 11
332.4861
 21
131.6134999999999
 31
0.0
  0
LINE
  5
FE
330
1E
100
AcDbEntity
  8
0
100
AcDbLine
 10
312.4861
 20
104.9574999999999
 30
0.0
 11
312.4861
 21
111.6135
 31
0.0
  0
LINE
  5
FF
330
1E
100
AcDbEntity
  8
0
100
AcDbLine
 10
312.4861
 20
104.9574999999999
 30
0.0
 11
312.4861
 21
98.7175
 31
0.0
  0
LINE
  5
100
330
1E
100
AcDbEntity
  8
0
100
AcDbLine
 10
9.68829999999996
 20
516.7635
 30
0.0
 11
11.1064
 21
517.0135
 31
0.0
  0
LINE
  5
101
330
1E
100
AcDbEntity
  8
0
100
AcDbLine
 10
8.837399999999949
 20
516.6135
 30
0.0
 11
9.68829999999996
 21
516.7635
 31
0.0
  0
LINE
  5
102
330
1E
100
AcDbEntity
  8
0
100
AcDbLine
 10
8.518299999999959
 20
516.5575
 30
0.0
 11
8.837399999999949
 21
516.6135
 31
0.0
  0
LINE
  5
103
330
1E
100
AcDbEntity
  8
0
100
AcDbLine
 10
11.1064
 20
517.0135
 30
0.0
 11
12.4630308651978
 21
517.2524807431511
 31
0.0
  0
LINE
  5
104
330
1E
100
AcDbEntity
  8
0
100
AcDbLine
 10
11.1064
 20
517.0135
 30
0.0
 11
12.9854
 21
517.3445
 31
0.0
  0
LINE
  5
105
330
1E
100
AcDbEntity
  8
0
100
AcDbLine
 10
12.9854
 20
517.3445
 30
0.0
 11
15.1126
 21
517.7195
 31
0.0
  0
LINE
  5
106
330
1E
100
AcDbEntity
  8
0
100
AcDbLine
 10
6.430199999999959
 20
566.9605
 30
0.0
 11
8.69919999999996
 21
567.3605
 31
0.0
  0
LINE
  5
107
330
1E
100
AcDbEntity
  8
0
100
AcDbLine
 10
4.30299999999995
 20
566.5855
 30
0.0
 11
6.430199999999959
 21
566.9605
 31
0.0
  0
LINE
  5
108
330
1E
100
AcDbEntity
  8
0
100
AcDbLine
 10
2.42399999999995
 20
566.2535
 30
0.0
 11
4.30299999999995
 21
566.5855
 31
0.0
  0
LINE
  5
109
330
1E
100
AcDbEntity
  8
0
100
AcDbLine
 10
1.005899999999959
 20
566.0035
 30
0.0
 11
2.42399999999995
 21
566.2535
 31
0.0
  0
LINE
  5
10A
330
1E
100
AcDbEntity
  8
0
100
AcDbLine
 10
0.154999999999958
 20
565.8535
 30
0.0
 11
1.005899999999959
 21
566.0035
 31
0.0
  0
LINE
  5
10B
330
1E
100
AcDbEntity
  8
0
100
AcDbLine
 10
-0.164100000000041
 20
565.7975
 30
0.0
 11
0.154999999999958
 21
565.8535
 31
0.0
  0
LINE
  5
10C
330
1E
100
AcDbEntity
  8
0
100
AcDbLine
 10
-0.164100000000041
 20
565.7975
 30
0.0
 11
8.518299999999959
 21
516.5575
 31
0.0
  0
LINE
  5
10D
330
1E
100
AcDbEntity
  8
0
100
AcDbLine
 10
-0.164100000000042
 20
565.7975
 30
0.0
 11
8.518299999999959
 21
516.5575
 31
0.0
  0
LINE
  5
10E
330
1E
100
AcDbEntity
  8
0
100
AcDbLine
 10
10.96819999999999
 20
567.7604999999999
 30
0.0
 11
13.0954
 21
568.1354999999999
 31
0.0
  0
LINE
  5
10F
330
1E
100
AcDbEntity
  8
0
100
AcDbLine
 10
8.69919999999996
 20
567.3605
 30
0.0
 11
10.96819999999999
 21
567.7604999999999
 31
0.0
  0
LINE
  5
110
330
1E
100
AcDbEntity
  8
0
100
AcDbLine
 10
13.0954
 20
568.1354999999999
 30
0.0
 11
13.62323960353469
 21
568.228482921112
 31
0.0
  0
LINE
  5
111
330
1E
100
AcDbEntity
  8
0
100
AcDbLine
 10
12.45759999999999
 20
517.2514999999999
 30
0.0
 11
28.8164
 21
424.4765
 31
0.0
  0
LINE
  5
112
330
1E
100
AcDbEntity
  8
0
100
AcDbLine
 10
13.3975
 20
569.5085
 30
0.0
 11
13.62323960353469
 21
568.228482921112
 31
0.0
  0
LINE
  5
113
330
1E
100
AcDbEntity
  8
0
100
AcDbLine
 10
13.3975
 20
569.5085
 30
0.0
 11
13.9532
 21
566.3574999999999
 31
0.0
  0
LINE
  5
114
330
1E
100
AcDbEntity
  8
0
100
AcDbLine
 10
13.1891
 20
570.6905
 30
0.0
 11
13.77299999999999
 21
571.8094999999999
 31
0.0
  0
LINE
  5
115
330
1E
100
AcDbEntity
  8
0
100
AcDbLine
 10
13.1891
 20
570.6905
 30
0.0
 11
13.3975
 21
569.5085
 31
0.0
  0
LINE
  5
116
330
1E
100
AcDbEntity
  8
0
100
AcDbLine
 10
30.1318
 20
425.4234999999999
 30
0.0
 11
31.0868
 21
426.1124999999999
 31
0.0
  0
LINE
  5
117
330
1E
100
AcDbEntity
  8
0
100
AcDbLine
 10
29.411
 20
424.9044999999999
 30
0.0
 11
30.1318
 21
425.4234999999999
 31
0.0
  0
LINE
  5
118
330
1E
100
AcDbEntity
  8
0
100
AcDbLine
 10
28.9786
 20
424.5924999999999
 30
0.0
 11
29.411
 21
424.9044999999999
 31
0.0
  0
LINE
  5
119
330
1E
100
AcDbEntity
  8
0
100
AcDbLine
 10
32.1681
 20
426.8905
 30
0.0
 11
33.3213
 21
427.7214999999999
 31
0.0
  0
LINE
  5
11A
330
1E
100
AcDbEntity
  8
0
100
AcDbLine
 10
31.0868
 20
426.1124999999999
 30
0.0
 11
32.1681
 21
426.8905
 31
0.0
  0
LINE
  5
11B
330
1E
100
AcDbEntity
  8
0
100
AcDbLine
 10
28.8164
 20
424.4765
 30
0.0
 11
28.9786
 21
424.5924999999999
 31
0.0
  0
LINE
  5
11C
330
1E
100
AcDbEntity
  8
0
100
AcDbLine
 10
34.47449999999999
 20
428.5524999999999
 30
0.0
 11
35.55577
 21
429.3314999999999
 31
0.0
  0
LINE
  5
11D
330
1E
100
AcDbEntity
  8
0
100
AcDbLine
 10
33.3213
 20
427.7214999999999
 30
0.0
 11
34.47449999999999
 21
428.5524999999999
 31
0.0
  0
LINE
  5
11E
330
1E
100
AcDbEntity
  8
0
100
AcDbLine
 10
32.1477
 20
480.1345
 30
0.0
 11
33.8494
 21
480.4345
 31
0.0
  0
LINE
  5
11F
330
1E
100
AcDbEntity
  8
0
100
AcDbLine
 10
31.50949999999999
 20
480.0215
 30
0.0
 11
32.1477
 21
480.1345
 31
0.0
  0
LINE
  5
120
330
1E
100
AcDbEntity
  8
0
100
AcDbLine
 10
31.7426
 20
490.2174999999999
 30
0.0
 11
32.3099
 21
490.3175
 31
0.0
  0
LINE
  5
121
330
1E
100
AcDbEntity
  8
0
100
AcDbLine
 10
30.0062475292528
 20
500.0652304376401
 30
0.0
 11
31.7426
 21
490.2174999999999
 31
0.0
  0
LINE
  5
123
330
1E
100
AcDbEntity
  8
0
100
AcDbLine
 10
28.6747
 20
499.8305
 30
0.0
 11
30.3765
 21
500.1305
 31
0.0
  0
LINE
  5
124
330
1E
100
AcDbEntity
  8
0
100
AcDbLine
 10
28.0365
 20
499.7184999999999
 30
0.0
 11
28.6747
 21
499.8305
 31
0.0
  0
LINE
  5
125
330
1E
100
AcDbEntity
  8
0
100
AcDbLine
 10
26.99759072190819
 20
505.610678398207
 30
0.0
 11
28.0365
 21
499.7184999999999
 31
0.0
  0
LINE
  5
126
330
1E
100
AcDbEntity
  8
0
100
AcDbLine
 10
30.4112
 20
489.9824999999999
 30
0.0
 11
32.1129
 21
490.2824999999999
 31
0.0
  0
LINE
  5
127
330
1E
100
AcDbEntity
  8
0
100
AcDbLine
 10
32.3099
 20
490.3175
 30
0.0
 11
33.8226
 21
490.5845
 31
0.0
  0
LINE
  5
12A
330
1E
100
AcDbEntity
  8
0
100
AcDbLine
 10
29.773
 20
489.8695
 30
0.0
 11
30.4112
 21
489.9824999999999
 31
0.0
  0
LINE
  5
12B
330
1E
100
AcDbEntity
  8
0
100
AcDbLine
 10
29.773
 20
489.8695
 30
0.0
 11
31.50949999999999
 21
480.0215
 31
0.0
  0
LINE
  5
12C
330
1E
100
AcDbEntity
  8
0
100
AcDbLine
 10
33.47914818810969
 20
480.369226718242
 30
0.0
 11
35.21561
 21
470.5214999999999
 31
0.0
  0
LINE
  5
132
330
1E
100
AcDbEntity
  8
0
100
AcDbLine
 10
35.21561
 20
470.5214999999999
 30
0.0
 11
35.78286
 21
470.6215
 31
0.0
  0
LINE
  5
135
330
1E
100
AcDbEntity
  8
0
100
AcDbLine
 10
33.88409999999999
 20
470.2865
 30
0.0
 11
35.5859
 21
470.5865
 31
0.0
  0
LINE
  5
136
330
1E
100
AcDbEntity
  8
0
100
AcDbLine
 10
33.246
 20
470.1735
 30
0.0
 11
33.88409999999999
 21
470.2865
 31
0.0
  0
LINE
  5
137
330
1E
100
AcDbEntity
  8
0
100
AcDbLine
 10
33.246
 20
470.1735
 30
0.0
 11
34.6883099669406
 21
461.993809733236
 31
0.0
  0
LINE
  5
138
330
1E
100
AcDbEntity
  8
0
100
AcDbLine
 10
34.62444
 20
461.9825
 30
0.0
 11
35.26259
 21
462.0955
 31
0.0
  0
LINE
  5
139
330
1E
100
AcDbEntity
  8
0
100
AcDbLine
 10
34.62444
 20
461.9825
 30
0.0
 11
61.95678861795689
 21
303.720530531019
 31
0.0
  0
LINE
  5
13A
330
1E
100
AcDbEntity
  8
0
100
AcDbLine
 10
34.62444
 20
461.9825
 30
0.0
 11
34.6883099669406
 21
461.993809733236
 31
0.0
  0
LINE
  5
142
330
1E
100
AcDbEntity
  8
0
100
AcDbLine
 10
35.26259
 20
462.0955
 30
0.0
 11
36.96433999999999
 21
462.3955
 31
0.0
  0
LINE
  5
143
330
1E
100
AcDbEntity
  8
0
100
AcDbLine
 10
35.55577
 20
429.3314999999999
 30
0.0
 11
36.51075999999999
 21
430.0195
 31
0.0
  0
LINE
  5
144
330
1E
100
AcDbEntity
  8
0
100
AcDbLine
 10
37.23157
 20
430.5385
 30
0.0
 11
37.664
 21
430.8505
 31
0.0
  0
LINE
  5
164
330
1E
100
AcDbEntity
  8
0
100
AcDbLine
 10
47.81297999999999
 20
464.3085
 30
0.0
 11
52.35098
 21
465.1085
 31
0.0
  0
LINE
  5
165
330
1E
100
AcDbEntity
  8
0
100
AcDbLine
 10
43.558615
 20
463.5584999999999
 30
0.0
 11
47.81297999999999
 21
464.3085
 31
0.0
  0
LINE
  5
166
330
1E
100
AcDbEntity
  8
0
100
AcDbLine
 10
39.80059
 20
462.8955
 30
0.0
 11
43.558615
 21
463.5584999999999
 31
0.0
  0
LINE
  5
167
330
1E
100
AcDbEntity
  8
0
100
AcDbLine
 10
36.96433999999999
 20
462.3955
 30
0.0
 11
39.80059
 21
462.8955
 31
0.0
  0
LINE
  5
16B
330
1E
100
AcDbEntity
  8
0
100
AcDbLine
 10
52.35098
 20
465.1085
 30
0.0
 11
56.889
 21
465.9085
 31
0.0
  0
LINE
  5
16C
330
1E
100
AcDbEntity
  8
0
100
AcDbLine
 10
37.664
 20
430.8505
 30
0.0
 11
37.82614999999999
 21
430.9674999999999
 31
0.0
  0
LINE
  5
16D
330
1E
100
AcDbEntity
  8
0
100
AcDbLine
 10
36.51075999999999
 20
430.0195
 30
0.0
 11
37.23157
 21
430.5385
 31
0.0
  0
LINE
  5
16E
330
1E
100
AcDbEntity
  8
0
100
AcDbLine
 10
15.1126
 20
517.7195
 30
0.0
 11
17.38159999999999
 21
518.1205
 31
0.0
  0
LINE
  5
16F
330
1E
100
AcDbEntity
  8
0
100
AcDbLine
 10
16.12109999999999
 20
517.8975
 30
0.0
 11
17.38159999999999
 21
518.1205
 31
0.0
  0
LINE
  5
170
330
1E
100
AcDbEntity
  8
0
100
AcDbLine
 10
15.8019812698872
 20
517.841334239412
 30
0.0
 11
16.12109999999999
 21
517.8975
 31
0.0
  0
LINE
  5
171
330
1E
100
AcDbEntity
  8
0
100
AcDbLine
 10
15.8019812698872
 20
517.841334239412
 30
0.0
 11
17.38159999999999
 21
518.1205
 31
0.0
  0
LINE
  5
172
330
1E
100
AcDbEntity
  8
0
100
AcDbLine
 10
17.38159999999999
 20
518.1205
 30
0.0
 11
18.64219999999999
 21
518.3424999999999
 31
0.0
  0
LINE
  5
173
330
1E
100
AcDbEntity
  8
0
100
AcDbLine
 10
17.38159999999999
 20
518.1205
 30
0.0
 11
19.6506
 21
518.5204999999999
 31
0.0
  0
LINE
  5
174
330
1E
100
AcDbEntity
  8
0
100
AcDbLine
 10
18.64219999999999
 20
518.3424999999999
 30
0.0
 11
19.82389999999999
 21
518.5505
 31
0.0
  0
LINE
  5
175
330
1E
100
AcDbEntity
  8
0
100
AcDbLine
 10
16.0196
 20
554.6384999999999
 30
0.0
 11
17.374
 21
546.9565
 31
0.0
  0
LINE
  5
176
330
1E
100
AcDbEntity
  8
0
100
AcDbLine
 10
17.374
 20
546.9565
 30
0.0
 11
18.83269999999999
 21
538.6845
 31
0.0
  0
LINE
  5
177
330
1E
100
AcDbEntity
  8
0
100
AcDbLine
 10
13.9532
 20
566.3574999999999
 30
0.0
 11
14.8388
 21
561.3355
 31
0.0
  0
LINE
  5
178
330
1E
100
AcDbEntity
  8
0
100
AcDbLine
 10
14.5544
 20
567.3775
 30
0.0
 11
15.4748
 21
562.1574999999999
 31
0.0
  0
LINE
  5
179
330
1E
100
AcDbEntity
  8
0
100
AcDbLine
 10
13.9814
 20
570.6275
 30
0.0
 11
14.5544
 21
567.3775
 31
0.0
  0
LINE
  5
17A
330
1E
100
AcDbEntity
  8
0
100
AcDbLine
 10
15.20129999999999
 20
572.5684999999999
 30
0.0
 11
52.32096
 21
579.1135
 31
0.0
  0
LINE
  5
17B
330
1E
100
AcDbEntity
  8
0
100
AcDbLine
 10
14.8388
 20
561.3355
 30
0.0
 11
16.0196
 21
554.6384999999999
 31
0.0
  0
LINE
  5
17C
330
1E
100
AcDbEntity
  8
0
100
AcDbLine
 10
15.4748
 20
562.1574999999999
 30
0.0
 11
16.6903
 21
555.2645
 31
0.0
  0
LINE
  5
17D
330
1E
100
AcDbEntity
  8
0
100
AcDbLine
 10
16.6903
 20
555.2645
 30
0.0
 11
18.0969
 21
547.2875
 31
0.0
  0
LINE
  5
17E
330
1E
100
AcDbEntity
  8
0
100
AcDbLine
 10
18.0969
 20
547.2875
 30
0.0
 11
19.59019999999999
 21
538.8185
 31
0.0
  0
LINE
  5
17F
330
1E
100
AcDbEntity
  8
0
100
AcDbLine
 10
18.83269999999999
 20
538.6845
 30
0.0
 11
20.29129999999999
 21
530.4124999999999
 31
0.0
  0
LINE
  5
180
330
1E
100
AcDbEntity
  8
0
100
AcDbLine
 10
19.6506
 20
518.5204999999999
 30
0.0
 11
21.77779999999999
 21
518.8954999999999
 31
0.0
  0
LINE
  5
181
330
1E
100
AcDbEntity
  8
0
100
AcDbLine
 10
19.82389999999999
 20
518.5505
 30
0.0
 11
20.8678
 21
518.7345
 31
0.0
  0
LINE
  5
182
330
1E
100
AcDbEntity
  8
0
100
AcDbLine
 10
21.77779999999999
 20
518.8954999999999
 30
0.0
 11
22.3055857211662
 21
518.9884734293269
 31
0.0
  0
LINE
  5
183
330
1E
100
AcDbEntity
  8
0
100
AcDbLine
 10
21.6557
 20
518.8735
 30
0.0
 11
21.97360048088849
 21
518.929991729204
 31
0.0
  0
LINE
  5
184
330
1E
100
AcDbEntity
  8
0
100
AcDbLine
 10
20.8678
 20
518.7345
 30
0.0
 11
21.6557
 21
518.8735
 31
0.0
  0
LINE
  5
185
330
1E
100
AcDbEntity
  8
0
100
AcDbLine
 10
21.6458
 20
522.7305
 30
0.0
 11
22.82659999999999
 21
516.0334999999999
 31
0.0
  0
LINE
  5
186
330
1E
100
AcDbEntity
  8
0
100
AcDbLine
 10
23.7122
 20
511.0115
 30
0.0
 11
24.2679
 21
507.8594999999999
 31
0.0
  0
LINE
  5
187
330
1E
100
AcDbEntity
  8
0
100
AcDbLine
 10
24.2679
 20
507.8594999999999
 30
0.0
 11
24.4763
 21
506.6785
 31
0.0
  0
LINE
  5
188
330
1E
100
AcDbEntity
  8
0
100
AcDbLine
 10
22.82659999999999
 20
516.0334999999999
 30
0.0
 11
23.7122
 21
511.0115
 31
0.0
  0
LINE
  5
189
330
1E
100
AcDbEntity
  8
0
100
AcDbLine
 10
23.7057
 20
515.4785
 30
0.0
 11
24.626
 21
510.2585
 31
0.0
  0
LINE
  5
18A
330
1E
100
AcDbEntity
  8
0
100
AcDbLine
 10
22.4902
 20
522.3714999999999
 30
0.0
 11
23.7057
 21
515.4785
 31
0.0
  0
LINE
  5
18B
330
1E
100
AcDbEntity
  8
0
100
AcDbLine
 10
19.6735
 20
542.9915
 30
0.0
 11
19.81749999999999
 21
538.8585
 31
0.0
  0
LINE
  5
18C
330
1E
100
AcDbEntity
  8
0
100
AcDbLine
 10
19.6735
 20
542.9915
 30
0.0
 11
20.5193
 21
547.0404999999999
 31
0.0
  0
LINE
  5
18D
330
1E
100
AcDbEntity
  8
0
100
AcDbLine
 10
19.81749999999999
 20
538.8585
 30
0.0
 11
21.09599999999999
 21
534.9244999999999
 31
0.0
  0
LINE
  5
18E
330
1E
100
AcDbEntity
  8
0
100
AcDbLine
 10
23.2755
 20
531.4095
 30
0.0
 11
26.3856
 21
528.5135
 31
0.0
  0
LINE
  5
18F
330
1E
100
AcDbEntity
  8
0
100
AcDbLine
 10
22.4514
 20
550.8255
 30
0.0
 11
25.3474
 21
553.9355
 31
0.0
  0
LINE
  5
190
330
1E
100
AcDbEntity
  8
0
100
AcDbLine
 10
20.5193
 20
547.0404999999999
 30
0.0
 11
22.4514
 21
550.8255
 31
0.0
  0
LINE
  5
191
330
1E
100
AcDbEntity
  8
0
100
AcDbLine
 10
21.09599999999999
 20
534.9244999999999
 30
0.0
 11
23.2755
 21
531.4095
 31
0.0
  0
LINE
  5
192
330
1E
100
AcDbEntity
  8
0
100
AcDbLine
 10
20.29129999999999
 20
530.4124999999999
 30
0.0
 11
21.6458
 21
522.7305
 31
0.0
  0
LINE
  5
193
330
1E
100
AcDbEntity
  8
0
100
AcDbLine
 10
21.0836
 20
530.3484999999999
 30
0.0
 11
22.4902
 21
522.3714999999999
 31
0.0
  0
LINE
  5
194
330
1E
100
AcDbEntity
  8
0
100
AcDbLine
 10
19.59019999999999
 20
538.8185
 30
0.0
 11
21.0836
 21
530.3484999999999
 31
0.0
  0
LINE
  5
195
330
1E
100
AcDbEntity
  8
0
100
AcDbLine
 10
24.45170945999569
 20
506.8178542598129
 30
0.0
 11
24.4763
 21
506.6785
 31
0.0
  0
LINE
  5
196
330
1E
100
AcDbEntity
  8
0
100
AcDbLine
 10
24.45170945999569
 20
506.8178542598129
 30
0.0
 11
37.82614999999999
 21
430.9674999999999
 31
0.0
  0
LINE
  5
198
330
1E
100
AcDbEntity
  8
0
100
AcDbLine
 10
34.219
 20
525.7355
 30
0.0
 11
38.35278999999999
 21
525.8795
 31
0.0
  0
LINE
  5
199
330
1E
100
AcDbEntity
  8
0
100
AcDbLine
 10
30.1706
 20
526.5814999999999
 30
0.0
 11
34.219
 21
525.7355
 31
0.0
  0
LINE
  5
19C
330
1E
100
AcDbEntity
  8
0
100
AcDbLine
 10
38.35278999999999
 20
525.8795
 30
0.0
 11
42.28654
 21
527.1584999999999
 31
0.0
  0
LINE
  5
19D
330
1E
100
AcDbEntity
  8
0
100
AcDbLine
 10
26.3856
 20
528.5135
 30
0.0
 11
30.1706
 21
526.5814999999999
 31
0.0
  0
LINE
  5
19E
330
1E
100
AcDbEntity
  8
0
100
AcDbLine
 10
42.28654
 20
527.1584999999999
 30
0.0
 11
45.80148
 21
529.3375
 31
0.0
  0
LINE
  5
1A0
330
1E
100
AcDbEntity
  8
0
100
AcDbLine
 10
45.80148
 20
529.3375
 30
0.0
 11
48.69741
 21
532.4474999999999
 31
0.0
  0
LINE
  5
1A1
330
1E
100
AcDbEntity
  8
0
100
AcDbLine
 10
48.69741
 20
532.4474999999999
 30
0.0
 11
50.6295
 21
536.2324999999999
 31
0.0
  0
LINE
  5
1A2
330
1E
100
AcDbEntity
  8
0
100
AcDbLine
 10
50.6295
 20
536.2324999999999
 30
0.0
 11
51.47535999999999
 21
540.2815
 31
0.0
  0
LINE
  5
1A3
330
1E
100
AcDbEntity
  8
0
100
AcDbLine
 10
44.763237
 20
554.7595
 30
0.0
 11
47.87335999999999
 21
551.8635
 31
0.0
  0
LINE
  5
1A4
330
1E
100
AcDbEntity
  8
0
100
AcDbLine
 10
47.87335999999999
 20
551.8635
 30
0.0
 11
50.05283
 21
548.3484999999999
 31
0.0
  0
LINE
  5
1A5
330
1E
100
AcDbEntity
  8
0
100
AcDbLine
 10
50.05283
 20
548.3484999999999
 30
0.0
 11
51.33134
 21
544.4144999999999
 31
0.0
  0
LINE
  5
1A6
330
1E
100
AcDbEntity
  8
0
100
AcDbLine
 10
32.796
 20
557.3935
 30
0.0
 11
36.92984
 21
557.5375
 31
0.0
  0
LINE
  5
1A7
330
1E
100
AcDbEntity
  8
0
100
AcDbLine
 10
36.92984
 20
557.5375
 30
0.0
 11
40.97822999999999
 21
556.6915
 31
0.0
  0
LINE
  5
1A8
330
1E
100
AcDbEntity
  8
0
100
AcDbLine
 10
40.97822999999999
 20
556.6915
 30
0.0
 11
44.763237
 21
554.7595
 31
0.0
  0
LINE
  5
1A9
330
1E
100
AcDbEntity
  8
0
100
AcDbLine
 10
28.8623
 20
556.1145
 30
0.0
 11
32.796
 21
557.3935
 31
0.0
  0
LINE
  5
1AA
330
1E
100
AcDbEntity
  8
0
100
AcDbLine
 10
25.3474
 20
553.9355
 30
0.0
 11
28.8623
 21
556.1145
 31
0.0
  0
LINE
  5
1AB
330
1E
100
AcDbEntity
  8
0
100
AcDbLine
 10
51.33134
 20
544.4144999999999
 30
0.0
 11
51.47535999999999
 21
540.2815
 31
0.0
  0
LINE
  5
1AC
330
1E
100
AcDbEntity
  8
0
100
AcDbLine
 10
24.626
 20
510.2585
 30
0.0
 11
25.1991
 21
507.0085
 31
0.0
  0
LINE
  5
1AD
330
1E
100
AcDbEntity
  8
0
100
AcDbLine
 10
25.1991
 20
507.0085
 30
0.0
 11
25.40739999999999
 21
505.8265
 31
0.0
  0
LINE
  5
1AE
330
1E
100
AcDbEntity
  8
0
100
AcDbLine
 10
24.4763
 20
506.6785
 30
0.0
 11
25.40739999999999
 21
505.8265
 31
0.0
  0
LINE
  5
1AF
330
1E
100
AcDbEntity
  8
0
100
AcDbLine
 10
25.40739999999999
 20
505.8265
 30
0.0
 11
27.0094
 21
505.6015
 31
0.0
  0
LINE
  5
1B0
330
1E
100
AcDbEntity
  8
0
100
AcDbLine
 10
13.77299999999999
 20
571.8094999999999
 30
0.0
 11
15.20129999999999
 21
572.5684999999999
 31
0.0
  0
LINE
  5
1B1
330
1E
100
AcDbEntity
  8
0
100
AcDbLine
 10
13.77299999999999
 20
571.8094999999999
 30
0.0
 11
13.9814
 21
570.6275
 31
0.0
  0
LINE
  5
1B2
330
1E
100
AcDbEntity
  8
0
100
AcDbLine
 10
52.19594
 20
579.8225
 30
0.0
 11
64.25409999999999
 21
511.4374999999999
 31
0.0
  0
LINE
  5
1B4
330
1E
100
AcDbEntity
  8
0
100
AcDbLine
 10
51.52913
 20
583.6045
 30
0.0
 11
52.19594
 21
579.8225
 31
0.0
  0
LINE
  5
1B5
330
1E
100
AcDbEntity
  8
0
100
AcDbLine
 10
51.27907
 20
585.0225
 30
0.0
 11
57.1879
 21
586.0644999999999
 31
0.0
  0
LINE
  5
1B6
330
1E
100
AcDbEntity
  8
0
100
AcDbLine
 10
51.27907
 20
585.0225
 30
0.0
 11
51.52913
 21
583.6045
 31
0.0
  0
LINE
  5
1B7
330
1E
100
AcDbEntity
  8
0
100
AcDbLine
 10
52.32096
 20
579.1135
 30
0.0
 11
64.25409999999999
 21
511.4374999999999
 31
0.0
  0
LINE
  5
1B8
330
1E
100
AcDbEntity
  8
0
100
AcDbLine
 10
15.20129999999999
 20
572.5684999999999
 30
0.0
 11
52.32096
 21
579.1135
 31
0.0
  0
LINE
  5
1C7
330
1E
100
AcDbEntity
  8
0
100
AcDbLine
 10
56.9528364298914
 20
465.919753866069
 30
0.0
 11
61.1433
 21
466.6585
 31
0.0
  0
LINE
  5
1CD
330
1E
100
AcDbEntity
  8
0
100
AcDbLine
 10
60.781
 20
303.5124999999999
 30
0.0
 11
64.2538500524205
 21
283.8167832697529
 31
0.0
  0
LINE
  5
1CE
330
1E
100
AcDbEntity
  8
0
100
AcDbLine
 10
60.781
 20
303.5124999999999
 30
0.0
 11
61.5255
 21
303.6445
 31
0.0
  0
LINE
  5
1D0
330
1E
100
AcDbEntity
  8
0
100
AcDbLine
 10
30.3765
 20
500.1305
 30
0.0
 11
62.8515
 21
505.8564999999999
 31
0.0
  0
LINE
  5
1D3
330
1E
100
AcDbEntity
  8
0
100
AcDbLine
 10
61.5255
 20
303.6445
 30
0.0
 11
61.9567868995082
 21
303.720540481319
 31
0.0
  0
LINE
  5
1D4
330
1E
100
AcDbEntity
  8
0
100
AcDbLine
 10
61.5255
 20
303.6445
 30
0.0
 11
62.59491181408811
 21
303.833048711228
 31
0.0
  0
LINE
  5
1D5
330
1E
100
AcDbEntity
  8
0
100
AcDbLine
 10
61.5255
 20
303.6445
 30
0.0
 11
63.5109
 21
303.9945
 31
0.0
  0
LINE
  5
1D7
330
1E
100
AcDbEntity
  8
0
100
AcDbLine
 10
62.2843
 20
283.4694999999999
 30
0.0
 11
63.09969999999999
 21
283.6135
 31
0.0
  0
LINE
  5
1D8
330
1E
100
AcDbEntity
  8
0
100
AcDbLine
 10
62.2843
 20
283.4694999999999
 30
0.0
 11
67.49379999999999
 21
253.9255
 31
0.0
  0
LINE
  5
1D9
330
1E
100
AcDbEntity
  8
0
100
AcDbLine
 10
63.5109
 20
303.9945
 30
0.0
 11
64.2966197258405
 21
304.133032835624
 31
0.0
  0
LINE
  5
1DA
330
1E
100
AcDbEntity
  8
0
100
AcDbLine
 10
63.5109
 20
303.9945
 30
0.0
 11
66.8198
 21
304.5774999999999
 31
0.0
  0
LINE
  5
1DC
330
1E
100
AcDbEntity
  8
0
100
AcDbLine
 10
63.09969999999999
 20
283.6135
 30
0.0
 11
64.25381287612601
 21
283.8169941091949
 31
0.0
  0
LINE
  5
1DD
330
1E
100
AcDbEntity
  8
0
100
AcDbLine
 10
63.09969999999999
 20
283.6135
 30
0.0
 11
64.99826656710479
 21
283.948256781864
 31
0.0
  0
LINE
  5
1E2
330
1E
100
AcDbEntity
  8
0
100
AcDbLine
 10
33.8226
 20
490.5845
 30
0.0
 11
63.2565
 21
495.7745
 31
0.0
  0
LINE
  5
1E3
330
1E
100
AcDbEntity
  8
0
100
AcDbLine
 10
64.4257
 20
485.8254999999999
 30
0.0
 11
64.99299999999999
 21
485.9255
 31
0.0
  0
LINE
  5
1E4
330
1E
100
AcDbEntity
  8
0
100
AcDbLine
 10
33.8494
 20
480.4345
 30
0.0
 11
64.4257
 21
485.8254999999999
 31
0.0
  0
LINE
  5
1E6
330
1E
100
AcDbEntity
  8
0
100
AcDbLine
 10
61.5201234824693
 20
505.621799708979
 30
0.0
 11
63.2565
 21
495.7745
 31
0.0
  0
LINE
  5
1E7
330
1E
100
AcDbEntity
  8
0
100
AcDbLine
 10
62.8515
 20
505.8564999999999
 30
0.0
 11
63.4896
 21
505.9694999999999
 31
0.0
  0
LINE
  5
1E8
330
1E
100
AcDbEntity
  8
0
100
AcDbLine
 10
62.8862
 20
495.7085
 30
0.0
 11
64.588
 21
496.0085
 31
0.0
  0
LINE
  5
1EA
330
1E
100
AcDbEntity
  8
0
100
AcDbLine
 10
64.6227
 20
485.8604999999999
 30
0.0
 11
66.32439999999999
 21
486.1604999999999
 31
0.0
  0
LINE
  5
1EB
330
1E
100
AcDbEntity
  8
0
100
AcDbLine
 10
64.588
 20
496.0085
 30
0.0
 11
65.2261
 21
496.1215
 31
0.0
  0
LINE
  5
1ED
330
1E
100
AcDbEntity
  8
0
100
AcDbLine
 10
61.2072320296552
 20
466.6697788205909
 30
0.0
 11
64.9014
 21
467.3214999999999
 31
0.0
  0
LINE
  5
1EE
330
1E
100
AcDbEntity
  8
0
100
AcDbLine
 10
64.25409999999999
 20
511.4374999999999
 30
0.0
 11
64.92090000000001
 21
507.6565
 31
0.0
  0
LINE
  5
1F5
330
1E
100
AcDbEntity
  8
0
100
AcDbLine
 10
67.49379999999999
 20
253.9255
 30
0.0
 11
68.3092
 21
254.0684999999999
 31
0.0
  0
LINE
  5
1F6
330
1E
100
AcDbEntity
  8
0
100
AcDbLine
 10
68.3092
 20
254.0684999999999
 30
0.0
 11
69.9160882850248
 21
254.3519027224799
 31
0.0
  0
LINE
  5
1F7
330
1E
100
AcDbEntity
  8
0
100
AcDbLine
 10
68.3092
 20
254.0684999999999
 30
0.0
 11
69.9160882850248
 21
254.3519027224799
 31
0.0
  0
LINE
  5
1F8
330
1E
100
AcDbEntity
  8
0
100
AcDbLine
 10
68.3092
 20
254.0684999999999
 30
0.0
 11
70.48359999999999
 21
254.4524999999999
 31
0.0
  0
LINE
  5
1F9
330
1E
100
AcDbEntity
  8
0
100
AcDbLine
 10
68.3092
 20
254.0684999999999
 30
0.0
 11
106.1809999999999
 21
260.7465
 31
0.0
  0
LINE
  5
1FC
330
1E
100
AcDbEntity
  8
0
100
AcDbLine
 10
66.8198
 20
304.5774999999999
 30
0.0
 11
67.132967844821
 21
304.6327242762529
 31
0.0
  0
LINE
  5
1FD
330
1E
100
AcDbEntity
  8
0
100
AcDbLine
 10
66.8198
 20
304.5774999999999
 30
0.0
 11
71.2042
 21
305.3505
 31
0.0
  0
LINE
  5
205
330
1E
100
AcDbEntity
  8
0
100
AcDbLine
 10
64.96523642989139
 20
467.332753866069
 30
0.0
 11
67.7376
 21
467.8215
 31
0.0
  0
LINE
  5
206
330
1E
100
AcDbEntity
  8
0
100
AcDbLine
 10
67.801533505655
 20
467.832770449933
 30
0.0
 11
69.43940000000001
 21
468.1215
 31
0.0
  0
LINE
  5
208
330
1E
100
AcDbEntity
  8
0
100
AcDbLine
 10
69.91602065617449
 20
254.3522652372939
 30
0.0
 11
77.82740094612929
 21
211.9444387725749
 31
0.0
  0
LINE
  5
209
330
1E
100
AcDbEntity
  8
0
100
AcDbLine
 10
69.91602065617449
 20
254.3522652372939
 30
0.0
 11
77.82740094612929
 21
211.9444387725749
 31
0.0
  0
LINE
  5
20E
330
1E
100
AcDbEntity
  8
0
100
AcDbLine
 10
69.5032277411015
 20
468.13280314174
 30
0.0
 11
70.0775
 21
468.2345
 31
0.0
  0
LINE
  5
20F
330
1E
100
AcDbEntity
  8
0
100
AcDbLine
 10
35.78286
 20
470.6215
 30
0.0
 11
68.06090000000001
 21
476.3125
 31
0.0
  0
LINE
  5
210
330
1E
100
AcDbEntity
  8
0
100
AcDbLine
 10
64.99299999999999
 20
485.9255
 30
0.0
 11
66.72945181215929
 21
476.0777732818049
 31
0.0
  0
LINE
  5
211
330
1E
100
AcDbEntity
  8
0
100
AcDbLine
 10
65.2261
 20
496.1215
 30
0.0
 11
66.96259999999999
 21
486.2734999999999
 31
0.0
  0
LINE
  5
212
330
1E
100
AcDbEntity
  8
0
100
AcDbLine
 10
66.32439999999999
 20
486.1604999999999
 30
0.0
 11
66.96259999999999
 21
486.2734999999999
 31
0.0
  0
LINE
  5
213
330
1E
100
AcDbEntity
  8
0
100
AcDbLine
 10
66.72945181215929
 20
476.0777732818049
 30
0.0
 11
68.06090000000001
 21
476.3125
 31
0.0
  0
LINE
  5
214
330
1E
100
AcDbEntity
  8
0
100
AcDbLine
 10
68.6991
 20
476.4255
 30
0.0
 11
70.43559999999999
 21
466.5775
 31
0.0
  0
LINE
  5
215
330
1E
100
AcDbEntity
  8
0
100
AcDbLine
 10
68.06090000000001
 20
476.3125
 30
0.0
 11
68.6991
 21
476.4255
 31
0.0
  0
LINE
  5
216
330
1E
100
AcDbEntity
  8
0
100
AcDbLine
 10
70.0775
 20
468.2345
 30
0.0
 11
70.1892677834948
 21
467.5873303481189
 31
0.0
  0
LINE
  5
217
330
1E
100
AcDbEntity
  8
0
100
AcDbLine
 10
80.65519999999999
 20
196.1961999999999
 30
0.0
 11
81.63999999999999
 21
196.3699
 31
0.0
  0
LINE
  5
218
330
1E
100
AcDbEntity
  8
0
100
AcDbLine
 10
80.65519999999999
 20
196.1961999999999
 30
0.0
 11
80.7618015640304
 21
196.215002489513
 31
0.0
  0
LINE
  5
219
330
1E
100
AcDbEntity
  8
0
100
AcDbLine
 10
79.0814
 20
195.9188
 30
0.0
 11
81.63999999999999
 21
196.3699
 31
0.0
  0
LINE
  5
21A
330
1E
100
AcDbEntity
  8
0
100
AcDbLine
 10
78.0966
 20
195.7451
 30
0.0
 11
80.65519999999999
 21
196.1961999999999
 31
0.0
  0
LINE
  5
21B
330
1E
100
AcDbEntity
  8
0
100
AcDbLine
 10
78.0966
 20
195.7451
 30
0.0
 11
79.0814
 21
195.9188
 31
0.0
  0
LINE
  5
21C
330
1E
100
AcDbEntity
  8
0
100
AcDbLine
 10
77.6866
 20
195.6728
 30
0.0
 11
78.0965990394903
 21
195.7451054474839
 31
0.0
  0
LINE
  5
21D
330
1E
100
AcDbEntity
  8
0
100
AcDbLine
 10
85.67159999999999
 20
155.4935999999999
 30
0.0
 11
88.49020000000001
 21
141.7802599999999
 31
0.0
  0
LINE
  5
21E
330
1E
100
AcDbEntity
  8
0
100
AcDbLine
 10
85.67159999999999
 20
155.4935999999999
 30
0.0
 11
86.75370000021541
 21
155.715990089639
 31
0.0
  0
LINE
  5
21F
330
1E
100
AcDbEntity
  8
0
100
AcDbLine
 10
85.67159999999999
 20
155.4935999999999
 30
0.0
 11
86.6511
 21
155.6948999999999
 31
0.0
  0
LINE
  5
220
330
1E
100
AcDbEntity
  8
0
100
AcDbLine
 10
87.81103192685879
 20
155.9333314645319
 30
0.0
 11
88.25934579036909
 21
156.025485261294
 31
0.0
  0
LINE
  5
221
330
1E
100
AcDbEntity
  8
0
100
AcDbLine
 10
86.6511
 20
155.6948999999999
 30
0.0
 11
89.46969999999991
 21
141.9815899999999
 31
0.0
  0
LINE
  5
222
330
1E
100
AcDbEntity
  8
0
100
AcDbLine
 10
86.6511
 20
155.6948999999999
 30
0.0
 11
89.19589999999999
 21
156.2179999999999
 31
0.0
  0
LINE
  5
223
330
1E
100
AcDbEntity
  8
0
100
AcDbLine
 10
86.0748
 20
155.5765
 30
0.0
 11
87.81103192685879
 21
155.9333314645319
 31
0.0
  0
LINE
  5
224
330
1E
100
AcDbEntity
  8
0
100
AcDbLine
 10
89.19590556558391
 20
156.217972921695
 30
0.0
 11
91.84220000000001
 21
156.7619
 31
0.0
  0
LINE
  5
225
330
1E
100
AcDbEntity
  8
0
100
AcDbLine
 10
91.84220000000001
 20
156.7619
 30
0.0
 11
96.61839999999999
 21
157.7435
 31
0.0
  0
LINE
  5
226
330
1E
100
AcDbEntity
  8
0
100
AcDbLine
 10
96.61839999999999
 20
157.7435
 30
0.0
 11
102.0253
 21
158.8548999999999
 31
0.0
  0
LINE
  5
227
330
1E
100
AcDbEntity
  8
0
100
AcDbLine
 10
106.8132999999999
 20
159.839
 30
0.0
 11
109.6317999999999
 21
146.12561
 31
0.0
  0
LINE
  5
228
330
1E
100
AcDbEntity
  8
0
100
AcDbLine
 10
106.8132999999999
 20
159.839
 30
0.0
 11
108.7722999999999
 21
160.2416
 31
0.0
  0
LINE
  5
229
330
1E
100
AcDbEntity
  8
0
100
AcDbLine
 10
106.8132999999999
 20
159.839
 30
0.0
 11
107.792799999788
 21
160.040299999956
 31
0.0
  0
LINE
  5
22A
330
1E
100
AcDbEntity
  8
0
100
AcDbLine
 10
102.0253
 20
158.8548999999999
 30
0.0
 11
106.813303472136
 21
159.8389831063489
 31
0.0
  0
LINE
  5
22B
330
1E
100
AcDbEntity
  8
0
100
AcDbLine
 10
102.0253
 20
158.8548999999999
 30
0.0
 11
106.813303472136
 21
159.8389831063489
 31
0.0
  0
LINE
  5
22C
330
1E
100
AcDbEntity
  8
0
100
AcDbLine
 10
85.2637
 20
155.4097999999999
 30
0.0
 11
88.0823
 21
141.6964299999999
 31
0.0
  0
LINE
  5
22D
330
1E
100
AcDbEntity
  8
0
100
AcDbLine
 10
85.2637
 20
155.4097999999999
 30
0.0
 11
86.0748
 21
155.5765
 31
0.0
  0
LINE
  5
22E
330
1E
100
AcDbEntity
  8
0
100
AcDbLine
 10
108.7722999999999
 20
160.2416
 30
0.0
 11
111.5908995952549
 21
146.528261969206
 31
0.0
  0
LINE
  5
22F
330
1E
100
AcDbEntity
  8
0
100
AcDbLine
 10
118.9672
 20
162.337
 30
0.0
 11
123.7433999999999
 21
163.3187
 31
0.0
  0
LINE
  5
230
330
1E
100
AcDbEntity
  8
0
100
AcDbLine
 10
113.5602
 20
161.2256999999999
 30
0.0
 11
118.9672
 21
162.337
 31
0.0
  0
LINE
  5
231
330
1E
100
AcDbEntity
  8
0
100
AcDbLine
 10
107.7927999999999
 20
160.0403
 30
0.0
 11
113.5602
 21
161.2256999999999
 31
0.0
  0
LINE
  5
232
330
1E
100
AcDbEntity
  8
0
100
AcDbLine
 10
80.6764
 20
196.1999999999999
 30
0.0
 11
84.30049999999999
 21
196.839
 31
0.0
  0
LINE
  5
233
330
1E
100
AcDbEntity
  8
0
100
AcDbLine
 10
72.3011
 20
208.9392
 30
0.0
 11
73.22280000000001
 21
209.1016999999999
 31
0.0
  0
LINE
  5
234
330
1E
100
AcDbEntity
  8
0
100
AcDbLine
 10
71.9538
 20
210.9088
 30
0.0
 11
72.8755
 21
211.0713
 31
0.0
  0
LINE
  5
235
330
1E
100
AcDbEntity
  8
0
100
AcDbLine
 10
71.9538
 20
210.9088
 30
0.0
 11
72.3011
 21
208.9392
 31
0.0
  0
LINE
  5
236
330
1E
100
AcDbEntity
  8
0
100
AcDbLine
 10
75.66559999999999
 20
209.5324
 30
0.0
 11
78.0966
 21
195.7451
 31
0.0
  0
LINE
  5
237
330
1E
100
AcDbEntity
  8
0
100
AcDbLine
 10
75.2555007555401
 20
209.460095715167
 30
0.0
 11
77.6866
 21
195.6728
 31
0.0
  0
LINE
  5
238
330
1E
100
AcDbEntity
  8
0
100
AcDbLine
 10
73.22280000000001
 20
209.1016999999999
 30
0.0
 11
75.68089999999999
 21
209.5350999999999
 31
0.0
  0
LINE
  5
239
330
1E
100
AcDbEntity
  8
0
100
AcDbLine
 10
79.10440680614491
 20
210.138776361248
 30
0.0
 11
79.20889999999999
 21
210.1571999999999
 31
0.0
  0
LINE
  5
23A
330
1E
100
AcDbEntity
  8
0
100
AcDbLine
 10
76.6504077638439
 20
209.706055967731
 30
0.0
 11
79.0814
 21
195.9188
 31
0.0
  0
LINE
  5
23B
330
1E
100
AcDbEntity
  8
0
100
AcDbLine
 10
79.20890274112041
 20
210.1571844545059
 30
0.0
 11
81.86950000000001
 21
210.6262999999999
 31
0.0
  0
LINE
  5
23C
330
1E
100
AcDbEntity
  8
0
100
AcDbLine
 10
75.68089999999999
 20
209.5350999999999
 30
0.0
 11
79.77769999999999
 21
210.2574999999999
 31
0.0
  0
LINE
  5
23D
330
1E
100
AcDbEntity
  8
0
100
AcDbLine
 10
84.30049999999999
 20
196.839
 30
0.0
 11
89.1024999999999
 21
197.6857
 31
0.0
  0
LINE
  5
23E
330
1E
100
AcDbEntity
  8
0
100
AcDbLine
 10
89.1024999999999
 20
197.6857
 30
0.0
 11
94.5386
 21
198.6442999999999
 31
0.0
  0
LINE
  5
23F
330
1E
100
AcDbEntity
  8
0
100
AcDbLine
 10
94.5386
 20
198.6442999999999
 30
0.0
 11
100.3371
 21
199.6667
 31
0.0
  0
LINE
  5
240
330
1E
100
AcDbEntity
  8
0
100
AcDbLine
 10
81.86950000000001
 20
210.6262999999999
 30
0.0
 11
86.67140000000001
 21
211.4729999999999
 31
0.0
  0
LINE
  5
241
330
1E
100
AcDbEntity
  8
0
100
AcDbLine
 10
79.77769999999999
 20
210.2574999999999
 30
0.0
 11
85.20599999999999
 21
211.2146999999999
 31
0.0
  0
LINE
  5
242
330
1E
100
AcDbEntity
  8
0
100
AcDbLine
 10
86.67140000000001
 20
211.4729999999999
 30
0.0
 11
89.87070810048781
 21
212.037164887535
 31
0.0
  0
LINE
  5
243
330
1E
100
AcDbEntity
  8
0
100
AcDbLine
 10
85.20599999999999
 20
211.2146999999999
 30
0.0
 11
91.3512
 21
212.2981999999999
 31
0.0
  0
LINE
  5
244
330
1E
100
AcDbEntity
  8
0
100
AcDbLine
 10
72.8755
 20
211.0713
 30
0.0
 11
75.3336
 21
211.5047
 31
0.0
  0
LINE
  5
245
330
1E
100
AcDbEntity
  8
0
100
AcDbLine
 10
79.4304
 20
212.2271
 30
0.0
 11
84.8587
 21
213.1842999999999
 31
0.0
  0
LINE
  5
24D
330
1E
100
AcDbEntity
  8
0
100
AcDbLine
 10
84.8587
 20
213.1842999999999
 30
0.0
 11
91.0038999999999
 21
214.2678
 31
0.0
  0
LINE
  5
250
330
1E
100
AcDbEntity
  8
0
100
AcDbLine
 10
96.92130785774629
 20
213.280355435168
 30
0.0
 11
99.3523
 21
199.4931
 31
0.0
  0
LINE
  5
251
330
1E
100
AcDbEntity
  8
0
100
AcDbLine
 10
91.3512
 20
212.2981999999999
 30
0.0
 11
97.9061
 21
213.454
 31
0.0
  0
LINE
  5
252
330
1E
100
AcDbEntity
  8
0
100
AcDbLine
 10
91.0038999999999
 20
214.2678
 30
0.0
 11
97.55880000000001
 21
215.4236
 31
0.0
  0
LINE
  5
253
330
1E
100
AcDbEntity
  8
0
100
AcDbLine
 10
75.3336
 20
211.5047
 30
0.0
 11
77.82740094612929
 21
211.9444387725749
 31
0.0
  0
LINE
  5
254
330
1E
100
AcDbEntity
  8
0
100
AcDbLine
 10
75.3336
 20
211.5047
 30
0.0
 11
79.4304
 21
212.2271
 31
0.0
  0
LINE
  5
255
330
1E
100
AcDbEntity
  8
0
100
AcDbLine
 10
99.3523
 20
199.4931
 30
0.0
 11
101.3219
 21
199.8403999999999
 31
0.0
  0
LINE
  5
256
330
1E
100
AcDbEntity
  8
0
100
AcDbLine
 10
98.89090878974458
 20
213.627650149385
 30
0.0
 11
101.3219
 21
199.8403999999999
 31
0.0
  0
LINE
  5
257
330
1E
100
AcDbEntity
  8
0
100
AcDbLine
 10
119.0343
 20
202.9635
 30
0.0
 11
121.5927999999999
 21
203.4146999999999
 31
0.0
  0
LINE
  5
258
330
1E
100
AcDbEntity
  8
0
100
AcDbLine
 10
119.9977999999999
 20
203.1334
 30
0.0
 11
122.1723
 21
203.5168
 31
0.0
  0
LINE
  5
259
330
1E
100
AcDbEntity
  8
0
100
AcDbLine
 10
116.3737
 20
202.4944
 30
0.0
 11
119.9977999999999
 21
203.1334
 31
0.0
  0
LINE
  5
25A
330
1E
100
AcDbEntity
  8
0
100
AcDbLine
 10
111.5717999999999
 20
201.6477
 30
0.0
 11
116.3737
 21
202.4944
 31
0.0
  0
LINE
  5
25B
330
1E
100
AcDbEntity
  8
0
100
AcDbLine
 10
106.1357
 20
200.6890999999999
 30
0.0
 11
111.5717999999999
 21
201.6477
 31
0.0
  0
LINE
  5
25C
330
1E
100
AcDbEntity
  8
0
100
AcDbLine
 10
100.3371
 20
199.6667
 30
0.0
 11
106.1357
 21
200.6890999999999
 31
0.0
  0
LINE
  5
25D
330
1E
100
AcDbEntity
  8
0
100
AcDbLine
 10
109.1407999999999
 20
215.4349999999999
 30
0.0
 11
113.764347099662
 21
216.2502517397869
 31
0.0
  0
LINE
  5
25E
330
1E
100
AcDbEntity
  8
0
100
AcDbLine
 10
107.808592976079
 20
215.200107900293
 30
0.0
 11
109.1407999999999
 21
215.4349999999999
 31
0.0
  0
LINE
  5
25F
330
1E
100
AcDbEntity
  8
0
100
AcDbLine
 10
110.6060999999999
 20
215.6934
 30
0.0
 11
116.0344
 21
216.6504999999999
 31
0.0
  0
LINE
  5
260
330
1E
100
AcDbEntity
  8
0
100
AcDbLine
 10
104.4608999999999
 20
214.6098
 30
0.0
 11
110.6060999999999
 21
215.6934
 31
0.0
  0
LINE
  5
261
330
1E
100
AcDbEntity
  8
0
100
AcDbLine
 10
97.9061
 20
213.454
 30
0.0
 11
104.4608999999999
 21
214.6098
 31
0.0
  0
LINE
  5
264
330
1E
100
AcDbEntity
  8
0
100
AcDbLine
 10
106.1809999999999
 20
260.7465
 30
0.0
 11
109.805
 21
261.3855
 31
0.0
  0
LINE
  5
265
330
1E
100
AcDbEntity
  8
0
100
AcDbLine
 10
109.286073194367
 20
261.2939404282939
 30
0.0
 11
112.7949
 21
261.9125
 31
0.0
  0
LINE
  5
266
330
1E
100
AcDbEntity
  8
0
100
AcDbLine
 10
119.161806321272
 20
217.2019641492109
 30
0.0
 11
121.5927999999999
 21
203.4146999999999
 31
0.0
  0
LINE
  5
267
330
1E
100
AcDbEntity
  8
0
100
AcDbLine
 10
119.855336607223
 20
217.3242562500139
 30
0.0
 11
120.1466
 21
217.3756
 31
0.0
  0
LINE
  5
268
330
1E
100
AcDbEntity
  8
0
100
AcDbLine
 10
116.0344
 20
216.6504999999999
 30
0.0
 11
120.1312
 21
217.3728999999999
 31
0.0
  0
LINE
  5
269
330
1E
100
AcDbEntity
  8
0
100
AcDbLine
 10
117.164726145882
 20
218.880653878096
 30
0.0
 11
119.7839
 21
219.3424999999999
 31
0.0
  0
LINE
  5
26A
330
1E
100
AcDbEntity
  8
0
100
AcDbLine
 10
119.7839
 20
219.3424999999999
 30
0.0
 11
122.242
 21
219.7759999999999
 31
0.0
  0
LINE
  5
26B
330
1E
100
AcDbEntity
  8
0
100
AcDbLine
 10
115.6870999999999
 20
218.6201
 30
0.0
 11
119.7839
 21
219.3424999999999
 31
0.0
  0
LINE
  5
26C
330
1E
100
AcDbEntity
  8
0
100
AcDbLine
 10
110.2589
 20
217.6629999999999
 30
0.0
 11
115.6870999999999
 21
218.6201
 31
0.0
  0
LINE
  5
26D
330
1E
100
AcDbEntity
  8
0
100
AcDbLine
 10
104.1136
 20
216.5793999999999
 30
0.0
 11
110.2589
 21
217.6629999999999
 31
0.0
  0
LINE
  5
26E
330
1E
100
AcDbEntity
  8
0
100
AcDbLine
 10
97.55880000000001
 20
215.4236
 30
0.0
 11
104.1136
 21
216.5793999999999
 31
0.0
  0
LINE
  5
26F
330
1E
100
AcDbEntity
  8
0
100
AcDbLine
 10
80.7618015640304
 20
196.215002489513
 30
0.0
 11
88.25934579036909
 21
156.025485261294
 31
0.0
  0
LINE
  5
270
330
1E
100
AcDbEntity
  8
0
100
AcDbLine
 10
120.086999976924
 20
203.1491274183269
 30
0.0
 11
127.34822587737
 21
164.059646422457
 31
0.0
  0
LINE
  5
271
330
1E
100
AcDbEntity
  8
0
100
AcDbLine
 10
120.1466
 20
217.3756
 30
0.0
 11
122.5775999999999
 21
203.5883
 31
0.0
  0
LINE
  5
272
330
1E
100
AcDbEntity
  8
0
100
AcDbLine
 10
126.3896
 20
163.8625999999999
 30
0.0
 11
128.9344
 21
164.3856
 31
0.0
  0
LINE
  5
273
330
1E
100
AcDbEntity
  8
0
100
AcDbLine
 10
128.9344
 20
164.3856
 30
0.0
 11
131.7529997406969
 21
150.672301261583
 31
0.0
  0
LINE
  5
274
330
1E
100
AcDbEntity
  8
0
100
AcDbLine
 10
128.9344
 20
164.3856
 30
0.0
 11
129.9139999999999
 21
164.587
 31
0.0
  0
LINE
  5
275
330
1E
100
AcDbEntity
  8
0
100
AcDbLine
 10
127.99479999978
 20
164.19249610181
 30
0.0
 11
129.9139999999999
 21
164.587
 31
0.0
  0
LINE
  5
276
330
1E
100
AcDbEntity
  8
0
100
AcDbLine
 10
129.9139999999999
 20
164.587
 30
0.0
 11
132.73249523136
 21
150.873623201799
 31
0.0
  0
LINE
  5
277
330
1E
100
AcDbEntity
  8
0
100
AcDbLine
 10
130.3217999999999
 20
164.6708
 30
0.0
 11
133.140387527065
 21
150.957460684862
 31
0.0
  0
LINE
  5
278
330
1E
100
AcDbEntity
  8
0
100
AcDbLine
 10
129.914004488626
 20
164.5869781606089
 30
0.0
 11
130.3217999999999
 21
164.6708
 31
0.0
  0
LINE
  5
279
330
1E
100
AcDbEntity
  8
0
100
AcDbLine
 10
127.3479999999999
 20
164.0595999999999
 30
0.0
 11
128.962088816852
 21
164.391328536661
 31
0.0
  0
LINE
  5
27A
330
1E
100
AcDbEntity
  8
0
100
AcDbLine
 10
123.7433999999999
 20
163.3187
 30
0.0
 11
127.3479999999999
 21
164.0595999999999
 31
0.0
  0
LINE
  5
27B
330
1E
100
AcDbEntity
  8
0
100
AcDbLine
 10
121.5927999999999
 20
203.4146999999999
 30
0.0
 11
122.5775999999999
 21
203.5883
 31
0.0
  0
LINE
  5
27C
330
1E
100
AcDbEntity
  8
0
100
AcDbLine
 10
120.7160000003409
 20
203.260073398536
 30
0.0
 11
122.5775999999999
 21
203.5883
 31
0.0
  0
LINE
  5
27D
330
1E
100
AcDbEntity
  8
0
100
AcDbLine
 10
120.5566
 20
217.4479
 30
0.0
 11
122.9877
 21
203.6605999999999
 31
0.0
  0
LINE
  5
27E
330
1E
100
AcDbEntity
  8
0
100
AcDbLine
 10
122.1723
 20
203.5168
 30
0.0
 11
122.9877
 21
203.6605999999999
 31
0.0
  0
LINE
  5
27F
330
1E
100
AcDbEntity
  8
0
100
AcDbLine
 10
120.1466009605099
 20
217.3755945525159
 30
0.0
 11
120.5566
 21
217.4479
 31
0.0
  0
LINE
  5
280
330
1E
100
AcDbEntity
  8
0
100
AcDbLine
 10
122.5892999999999
 20
217.8062999999999
 30
0.0
 11
123.5111
 21
217.9688999999999
 31
0.0
  0
LINE
  5
281
330
1E
100
AcDbEntity
  8
0
100
AcDbLine
 10
120.1312
 20
217.3728999999999
 30
0.0
 11
122.5892999999999
 21
217.8062999999999
 31
0.0
  0
LINE
  5
282
330
1E
100
AcDbEntity
  8
0
100
AcDbLine
 10
123.1638
 20
219.9384999999999
 30
0.0
 11
123.5111
 21
217.9688999999999
 31
0.0
  0
LINE
  5
283
330
1E
100
AcDbEntity
  8
0
100
AcDbLine
 10
122.242
 20
219.7759999999999
 30
0.0
 11
123.1638
 21
219.9384999999999
 31
0.0
  0
LINE
  5
284
330
1E
100
AcDbEntity
  8
0
100
AcDbLine
 10
120.086999976924
 20
203.1491274183269
 30
0.0
 11
127.34822587737
 21
164.059646422457
 31
0.0
  0
LINE
  5
291
330
1E
100
AcDbEntity
  8
0
100
AcDbLine
 10
76.16759999999999
 20
306.2255
 30
0.0
 11
81.4619
 21
307.1594999999999
 31
0.0
  0
LINE
  5
293
330
1E
100
AcDbEntity
  8
0
100
AcDbLine
 10
71.2042
 20
305.3505
 30
0.0
 11
76.16759999999999
 21
306.2255
 31
0.0
  0
LINE
  5
295
330
1E
100
AcDbEntity
  8
0
100
AcDbLine
 10
81.4619
 20
307.1594999999999
 30
0.0
 11
86.75629999999999
 21
308.0935
 31
0.0
  0
LINE
  5
297
330
1E
100
AcDbEntity
  8
0
100
AcDbLine
 10
86.75629999999999
 20
308.0935
 30
0.0
 11
91.71969999999999
 21
308.9685
 31
0.0
  0
LINE
  5
299
330
1E
100
AcDbEntity
  8
0
100
AcDbLine
 10
91.71969999999999
 20
308.9685
 30
0.0
 11
96.10410000000001
 21
309.7414999999999
 31
0.0
  0
LINE
  5
2A2
330
1E
100
AcDbEntity
  8
0
100
AcDbLine
 10
109.805
 20
261.3855
 30
0.0
 11
111.9795
 21
261.7694999999999
 31
0.0
  0
LINE
  5
2A3
330
1E
100
AcDbEntity
  8
0
100
AcDbLine
 10
111.9795
 20
261.7694999999999
 30
0.0
 11
112.7949
 21
261.9125
 31
0.0
  0
LINE
  5
2A8
330
1E
100
AcDbEntity
  8
0
100
AcDbLine
 10
64.99826656710479
 20
283.948256781864
 30
0.0
 11
106.7701
 21
291.3135
 31
0.0
  0
LINE
  5
2B2
330
1E
100
AcDbEntity
  8
0
100
AcDbLine
 10
96.10410000000001
 20
309.7414999999999
 30
0.0
 11
99.413
 21
310.3245
 31
0.0
  0
LINE
  5
2B4
330
1E
100
AcDbEntity
  8
0
100
AcDbLine
 10
99.413
 20
310.3245
 30
0.0
 11
101.3983999999999
 21
310.6745
 31
0.0
  0
LINE
  5
2B6
330
1E
100
AcDbEntity
  8
0
100
AcDbLine
 10
101.3983999999999
 20
310.6745
 30
0.0
 11
102.1428999999999
 21
310.8065
 31
0.0
  0
LINE
  5
2B8
330
1E
100
AcDbEntity
  8
0
100
AcDbLine
 10
102.1428999999999
 20
310.8065
 30
0.0
 11
105.615778936128
 21
291.110186609583
 31
0.0
  0
LINE
  5
2B9
330
1E
100
AcDbEntity
  8
0
100
AcDbLine
 10
97.34386034377951
 20
309.960211250605
 30
0.0
 11
102.1428999999999
 21
310.8065
 31
0.0
  0
LINE
  5
2BA
330
1E
100
AcDbEntity
  8
0
100
AcDbLine
 10
106.7701
 20
291.3135
 30
0.0
 11
107.5855
 21
291.4574999999999
 31
0.0
  0
LINE
  5
2BC
330
1E
100
AcDbEntity
  8
0
100
AcDbLine
 10
107.5855
 20
291.4574999999999
 30
0.0
 11
112.7949
 21
261.9125
 31
0.0
  0
LINE
  5
2BD
330
1E
100
AcDbEntity
  8
0
100
AcDbLine
 10
105.662335849011
 20
291.1183867924449
 30
0.0
 11
107.5855
 21
291.4574999999999
 31
0.0
  0
LINE
  5
2BF
330
1E
100
AcDbEntity
  8
0
100
AcDbLine
 10
109.2860623914319
 20
261.29399858392
 30
0.0
 11
117.164726145882
 21
218.880653878097
 31
0.0
  0
LINE
  5
2C0
330
1E
100
AcDbEntity
  8
0
100
AcDbLine
 10
109.2860623914319
 20
261.29399858392
 30
0.0
 11
117.164726145882
 21
218.880653878096
 31
0.0
  0
LINE
  5
2C1
330
1E
100
AcDbEntity
  8
0
100
AcDbLine
 10
109.2860623914319
 20
261.29399858392
 30
0.0
 11
109.805
 21
261.3855
 31
0.0
  0
LINE
  5
2C2
330
1E
100
AcDbEntity
  8
0
100
AcDbLine
 10
70.3658022860765
 20
466.565141583088
 30
0.0
 11
97.40989551424428
 21
309.9715700488999
 31
0.0
  0
LINE
  5
2C3
330
1E
100
AcDbEntity
  8
0
100
AcDbLine
 10
70.8297
 20
508.6985
 30
0.0
 11
71.0797999999999
 21
507.2795
 31
0.0
  0
LINE
  5
2C4
330
1E
100
AcDbEntity
  8
0
100
AcDbLine
 10
65.1709
 20
506.2384999999999
 30
0.0
 11
71.0797999999999
 21
507.2795
 31
0.0
  0
LINE
  5
2C5
330
1E
100
AcDbEntity
  8
0
100
AcDbLine
 10
64.92090000000001
 20
507.6565
 30
0.0
 11
65.1709
 21
506.2384999999999
 31
0.0
  0
LINE
  5
2CF
330
1E
100
AcDbEntity
  8
0
100
AcDbLine
 10
60.66089999999999
 20
566.3685
 30
0.0
 11
64.6000586956461
 21
567.0634927126
 31
0.0
  0
LINE
  5
2D5
330
1E
100
AcDbEntity
  8
0
100
AcDbLine
 10
60.6887
 20
566.2105
 30
0.0
 11
67.6068
 21
526.9764999999999
 31
0.0
  0
LINE
  5
2DD
330
1E
100
AcDbEntity
  8
0
100
AcDbLine
 10
64.62810575953859
 20
566.904427285821
 30
0.0
 11
71.42100000000001
 21
528.3795
 31
0.0
  0
LINE
  5
2E2
330
1E
100
AcDbEntity
  8
0
100
AcDbLine
 10
74.1508
 20
512.8985
 30
0.0
 11
78.09000000000001
 21
513.5934999999999
 31
0.0
  0
LINE
  5
2E3
330
1E
100
AcDbEntity
  8
0
100
AcDbLine
 10
73.3485
 20
517.4484999999999
 30
0.0
 11
73.932
 21
514.1395
 31
0.0
  0
LINE
  5
2E4
330
1E
100
AcDbEntity
  8
0
100
AcDbLine
 10
77.2876999999999
 20
518.1435
 30
0.0
 11
77.8712
 21
514.8345
 31
0.0
  0
LINE
  5
2E5
330
1E
100
AcDbEntity
  8
0
100
AcDbLine
 10
73.932
 20
514.1395
 30
0.0
 11
74.1508
 21
512.8985
 31
0.0
  0
LINE
  5
2E6
330
1E
100
AcDbEntity
  8
0
100
AcDbLine
 10
77.8712
 20
514.8345
 30
0.0
 11
78.09000000000001
 21
513.5934999999999
 31
0.0
  0
LINE
  5
2EF
330
1E
100
AcDbEntity
  8
0
100
AcDbLine
 10
67.6068
 20
526.9764999999999
 30
0.0
 11
71.54600000000001
 21
527.6704999999999
 31
0.0
  0
LINE
  5
2F0
330
1E
100
AcDbEntity
  8
0
100
AcDbLine
 10
76.35349999999999
 20
523.4415
 30
0.0
 11
87.1864
 21
525.3515
 31
0.0
  0
LINE
  5
2F1
330
1E
100
AcDbEntity
  8
0
100
AcDbLine
 10
67.70929999999999
 20
572.4655
 30
0.0
 11
76.35349999999999
 21
523.4415
 31
0.0
  0
LINE
  5
2F3
330
1E
100
AcDbEntity
  8
0
100
AcDbLine
 10
87.0300999999999
 20
526.2374999999999
 30
0.0
 11
87.1864
 21
525.3515
 31
0.0
  0
LINE
  5
2F4
330
1E
100
AcDbEntity
  8
0
100
AcDbLine
 10
76.31529999999999
 20
523.6575
 30
0.0
 11
77.2876999999999
 21
518.1435
 31
0.0
  0
LINE
  5
2F5
330
1E
100
AcDbEntity
  8
0
100
AcDbLine
 10
71.54600000000001
 20
527.6704999999999
 30
0.0
 11
73.3485
 21
517.4484999999999
 31
0.0
  0
LINE
  5
2FA
330
1E
100
AcDbEntity
  8
0
100
AcDbLine
 10
86.6134
 20
528.6014999999999
 30
0.0
 11
87.0300999999999
 21
526.2374999999999
 31
0.0
  0
LINE
  5
2FF
330
1E
100
AcDbEntity
  8
0
100
AcDbLine
 10
83.95650000000001
 20
543.6684999999999
 30
0.0
 11
84.9984
 21
537.7595
 31
0.0
  0
LINE
  5
300
330
1E
100
AcDbEntity
  8
0
100
AcDbLine
 10
81.73379999999999
 20
556.2744999999999
 30
0.0
 11
82.8452
 21
549.9715
 31
0.0
  0
LINE
  5
301
330
1E
100
AcDbEntity
  8
0
100
AcDbLine
 10
80.692
 20
562.1834999999999
 30
0.0
 11
81.73379999999999
 21
556.2744999999999
 31
0.0
  0
LINE
  5
302
330
1E
100
AcDbEntity
  8
0
100
AcDbLine
 10
79.77160000000001
 20
567.4025
 30
0.0
 11
80.692
 21
562.1834999999999
 31
0.0
  0
LINE
  5
303
330
1E
100
AcDbEntity
  8
0
100
AcDbLine
 10
82.8452
 20
549.9715
 30
0.0
 11
83.95650000000001
 21
543.6684999999999
 31
0.0
  0
LINE
  5
304
330
1E
100
AcDbEntity
  8
0
100
AcDbLine
 10
84.9984
 20
537.7595
 30
0.0
 11
85.91880000000001
 21
532.5404999999999
 31
0.0
  0
LINE
  5
305
330
1E
100
AcDbEntity
  8
0
100
AcDbLine
 10
85.91880000000001
 20
532.5404999999999
 30
0.0
 11
86.6134
 21
528.6014999999999
 31
0.0
  0
LINE
  5
30A
330
1E
100
AcDbEntity
  8
0
100
AcDbLine
 10
71.42100000000001
 20
528.3795
 30
0.0
 11
71.54600000000001
 21
527.6704999999999
 31
0.0
  0
LINE
  5
30C
330
1E
100
AcDbEntity
  8
0
100
AcDbLine
 10
67.6068
 20
526.9764999999999
 30
0.0
 11
70.16289999999999
 21
512.4795
 31
0.0
  0
LINE
  5
30E
330
1E
100
AcDbEntity
  8
0
100
AcDbLine
 10
70.16289999999999
 20
512.4795
 30
0.0
 11
70.8297
 21
508.6985
 31
0.0
  0
LINE
  5
30F
330
1E
100
AcDbEntity
  8
0
100
AcDbLine
 10
63.9857200815803
 20
512.959543032031
 30
0.0
 11
64.12899999999999
 21
512.1464999999999
 31
0.0
  0
LINE
  5
310
330
1E
100
AcDbEntity
  8
0
100
AcDbLine
 10
62.452531138933
 20
511.8509017528289
 30
0.0
 11
64.12899999999999
 21
512.1464999999999
 31
0.0
  0
LINE
  5
311
330
1E
100
AcDbEntity
  8
0
100
AcDbLine
 10
62.452531138933
 20
511.8509017528289
 30
0.0
 11
63.4896
 21
505.9694999999999
 31
0.0
  0
LINE
  5
314
330
1E
100
AcDbEntity
  8
0
100
AcDbLine
 10
62.7976
 20
577.2854999999999
 30
0.0
 11
63.7701
 21
571.7704999999999
 31
0.0
  0
LINE
  5
315
330
1E
100
AcDbEntity
  8
0
100
AcDbLine
 10
67.67120489937671
 20
572.681518495307
 30
0.0
 11
78.50399999999999
 21
574.5915
 31
0.0
  0
LINE
  5
316
330
1E
100
AcDbEntity
  8
0
100
AcDbLine
 10
79.077
 20
571.3415
 30
0.0
 11
79.77160000000001
 21
567.4025
 31
0.0
  0
LINE
  5
317
330
1E
100
AcDbEntity
  8
0
100
AcDbLine
 10
78.50399999999999
 20
574.5915
 30
0.0
 11
78.66030000000001
 21
573.7055
 31
0.0
  0
LINE
  5
318
330
1E
100
AcDbEntity
  8
0
100
AcDbLine
 10
78.66030000000001
 20
573.7055
 30
0.0
 11
79.077
 21
571.3415
 31
0.0
  0
LINE
  5
31A
330
1E
100
AcDbEntity
  8
0
100
AcDbLine
 10
66.7369
 20
577.9795
 30
0.0
 11
67.70929999999999
 21
572.4655
 31
0.0
  0
LINE
  5
31B
330
1E
100
AcDbEntity
  8
0
100
AcDbLine
 10
63.7701
 20
571.7704999999999
 30
0.0
 11
64.6000586956461
 21
567.0634927126
 31
0.0
  0
LINE
  5
31D
330
1E
100
AcDbEntity
  8
0
100
AcDbLine
 10
62.2142
 20
580.5945
 30
0.0
 11
62.7976
 21
577.2854999999999
 31
0.0
  0
LINE
  5
31E
330
1E
100
AcDbEntity
  8
0
100
AcDbLine
 10
59.2161
 20
574.5625
 30
0.0
 11
60.6887
 21
566.2105
 31
0.0
  0
LINE
  5
31F
330
1E
100
AcDbEntity
  8
0
100
AcDbLine
 10
66.1534
 20
581.2885
 30
0.0
 11
66.7369
 21
577.9795
 31
0.0
  0
LINE
  5
320
330
1E
100
AcDbEntity
  8
0
100
AcDbLine
 10
65.93459999999989
 20
582.5294999999999
 30
0.0
 11
66.1534
 21
581.2885
 31
0.0
  0
LINE
  5
321
330
1E
100
AcDbEntity
  8
0
100
AcDbLine
 10
61.99539999999999
 20
581.8355
 30
0.0
 11
65.93459999999989
 21
582.5294999999999
 31
0.0
  0
LINE
  5
322
330
1E
100
AcDbEntity
  8
0
100
AcDbLine
 10
61.99539999999999
 20
581.8355
 30
0.0
 11
62.2142
 21
580.5945
 31
0.0
  0
LINE
  5
323
330
1E
100
AcDbEntity
  8
0
100
AcDbLine
 10
58.1048
 20
580.8645
 30
0.0
 11
59.2161
 21
574.5625
 31
0.0
  0
LINE
  5
324
330
1E
100
AcDbEntity
  8
0
100
AcDbLine
 10
57.438
 20
584.6464999999999
 30
0.0
 11
58.1048
 21
580.8645
 31
0.0
  0
LINE
  5
325
330
1E
100
AcDbEntity
  8
0
100
AcDbLine
 10
57.1879
 20
586.0644999999999
 30
0.0
 11
57.438
 21
584.6464999999999
 31
0.0
  0
LINE
  5
32A
330
1E
100
AcDbEntity
  8
0
100
AcDbLine
 10
346.4861
 20
152.6135
 30
0.0
 11
346.4861
 21
150.6135
 31
0.0
  0
LINE
  5
32B
330
1E
100
AcDbEntity
  8
0
100
AcDbLine
 10
346.4861
 20
152.6135
 30
0.0
 11
347.7461
 21
152.6135
 31
0.0
  0
LINE
  5
32C
330
1E
100
AcDbEntity
  8
0
100
AcDbLine
 10
348.5020999999999
 20
136.6134999999999
 30
0.0
 11
351.4861
 21
136.6134999999999
 31
0.0
  0
LINE
  5
32D
330
1E
100
AcDbEntity
  8
0
100
AcDbLine
 10
348.5020999999999
 20
140.6134999999999
 30
0.0
 11
354.5821
 21
140.6134999999999
 31
0.0
  0
LINE
  5
32E
330
1E
100
AcDbEntity
  8
0
100
AcDbLine
 10
348.5020999999999
 20
136.6134999999999
 30
0.0
 11
354.5821
 21
136.6134999999999
 31
0.0
  0
LINE
  5
32F
330
1E
100
AcDbEntity
  8
0
100
AcDbLine
 10
351.4861
 20
136.6134999999999
 30
0.0
 11
351.4861
 21
131.6134999999999
 31
0.0
  0
LINE
  5
330
330
1E
100
AcDbEntity
  8
0
100
AcDbLine
 10
354.5821
 20
140.6134999999999
 30
0.0
 11
362.6381
 21
140.6134999999999
 31
0.0
  0
LINE
  5
331
330
1E
100
AcDbEntity
  8
0
100
AcDbLine
 10
354.5821
 20
136.6134999999999
 30
0.0
 11
362.6381
 21
136.6134999999999
 31
0.0
  0
LINE
  5
332
330
1E
100
AcDbEntity
  8
0
100
AcDbLine
 10
351.4861
 20
131.6134999999999
 30
0.0
 11
351.4861
 21
136.6134999999999
 31
0.0
  0
LINE
  5
333
330
1E
100
AcDbEntity
  8
0
100
AcDbLine
 10
354.4861
 20
140.6134999999999
 30
0.0
 11
354.4861
 21
150.6135
 31
0.0
  0
LINE
  5
334
330
1E
100
AcDbEntity
  8
0
100
AcDbLine
 10
355.4861
 20
82.6135
 30
0.0
 11
356.4220999999999
 21
82.6135
 31
0.0
  0
LINE
  5
335
330
1E
100
AcDbEntity
  8
0
100
AcDbLine
 10
355.4861
 20
82.6135
 30
0.0
 11
355.4861
 21
84.61350000000001
 31
0.0
  0
LINE
  5
336
330
1E
100
AcDbEntity
  8
0
100
AcDbLine
 10
356.4220999999999
 20
82.6135
 30
0.0
 11
358.9180999999999
 21
82.6135
 31
0.0
  0
LINE
  5
337
330
1E
100
AcDbEntity
  8
0
100
AcDbLine
 10
356.4220999999999
 20
82.6135
 30
0.0
 11
358.4861
 21
82.6135
 31
0.0
  0
LINE
  5
338
330
1E
100
AcDbEntity
  8
0
100
AcDbLine
 10
355.4861
 20
84.61350000000001
 30
0.0
 11
356.4220999999999
 21
84.61350000000001
 31
0.0
  0
LINE
  5
339
330
1E
100
AcDbEntity
  8
0
100
AcDbLine
 10
355.4861
 20
84.61350000000001
 30
0.0
 11
355.4861
 21
82.6135
 31
0.0
  0
LINE
  5
33A
330
1E
100
AcDbEntity
  8
0
100
AcDbLine
 10
358.4861
 20
68.6135
 30
0.0
 11
359.3141
 21
68.6135
 31
0.0
  0
LINE
  5
33B
330
1E
100
AcDbEntity
  8
0
100
AcDbLine
 10
358.4861
 20
68.6135
 30
0.0
 11
358.4861
 21
82.6135
 31
0.0
  0
LINE
  5
33C
330
1E
100
AcDbEntity
  8
0
100
AcDbLine
 10
358.9021
 20
68.6135
 30
0.0
 11
359.9021
 21
68.6135
 31
0.0
  0
LINE
  5
33D
330
1E
100
AcDbEntity
  8
0
100
AcDbLine
 10
358.9021
 20
68.6135
 30
0.0
 11
361.4861
 21
68.6135
 31
0.0
  0
LINE
  5
33E
330
1E
100
AcDbEntity
  8
0
100
AcDbLine
 10
358.9021
 20
68.6135
 30
0.0
 11
358.9021
 21
82.6135
 31
0.0
  0
LINE
  5
33F
330
1E
100
AcDbEntity
  8
0
100
AcDbLine
 10
358.9021
 20
68.6135
 30
0.0
 11
361.5000999999999
 21
68.6135
 31
0.0
  0
LINE
  5
340
330
1E
100
AcDbEntity
  8
0
100
AcDbLine
 10
361.4861
 20
38.57549999999999
 30
0.0
 11
362.1341
 21
37.6135
 31
0.0
  0
LINE
  5
341
330
1E
100
AcDbEntity
  8
0
100
AcDbLine
 10
361.4861
 20
38.57549999999999
 30
0.0
 11
361.4861
 21
61.652
 31
0.0
  0
LINE
  5
342
330
1E
100
AcDbEntity
  8
0
100
AcDbLine
 10
361.4861
 20
61.652
 30
0.0
 11
361.4861
 21
38.57549999999999
 31
0.0
  0
LINE
  5
343
330
1E
100
AcDbEntity
  8
0
100
AcDbLine
 10
361.4861
 20
68.6135
 30
0.0
 11
362.2060999999999
 21
68.6135
 31
0.0
  0
LINE
  5
344
330
1E
100
AcDbEntity
  8
0
100
AcDbLine
 10
361.4861
 20
68.6135
 30
0.0
 11
361.4861
 21
46.6135
 31
0.0
  0
LINE
  5
345
330
1E
100
AcDbEntity
  8
0
100
AcDbLine
 10
361.4861
 20
46.6135
 30
0.0
 11
361.4861
 21
68.6135
 31
0.0
  0
LINE
  5
347
330
1E
100
AcDbEntity
  8
0
100
AcDbLine
 10
362.1341
 20
37.6135
 30
0.0
 11
363.1061
 21
37.6135
 31
0.0
  0
LINE
  5
348
330
1E
100
AcDbEntity
  8
0
100
AcDbLine
 10
362.2060999999999
 20
68.6135
 30
0.0
 11
364.1261
 21
68.6135
 31
0.0
  0
LINE
  5
349
330
1E
100
AcDbEntity
  8
0
100
AcDbLine
 10
361.5000999999999
 20
68.6135
 30
0.0
 11
362.5000999999999
 21
68.6135
 31
0.0
  0
LINE
  5
34A
330
1E
100
AcDbEntity
  8
0
100
AcDbLine
 10
359.9021
 20
68.6135
 30
0.0
 11
361.4861
 21
68.6135
 31
0.0
  0
LINE
  5
34B
330
1E
100
AcDbEntity
  8
0
100
AcDbLine
 10
359.9021
 20
68.6135
 30
0.0
 11
359.9021
 21
82.6135
 31
0.0
  0
LINE
  5
34C
330
1E
100
AcDbEntity
  8
0
100
AcDbLine
 10
359.9021
 20
68.6135
 30
0.0
 11
362.5000999999999
 21
68.6135
 31
0.0
  0
LINE
  5
34D
330
1E
100
AcDbEntity
  8
0
100
AcDbLine
 10
359.3141
 20
68.6135
 30
0.0
 11
361.5221
 21
68.6135
 31
0.0
  0
LINE
  5
34E
330
1E
100
AcDbEntity
  8
0
100
AcDbLine
 10
359.3141
 20
68.6135
 30
0.0
 11
361.4861
 21
68.6135
 31
0.0
  0
LINE
  5
34F
330
1E
100
AcDbEntity
  8
0
100
AcDbLine
 10
359.9021
 20
82.6135
 30
0.0
 11
359.9021
 21
68.6135
 31
0.0
  0
LINE
  5
350
330
1E
100
AcDbEntity
  8
0
100
AcDbLine
 10
359.9021
 20
82.6135
 30
0.0
 11
362.5000999999999
 21
82.6135
 31
0.0
  0
LINE
  5
351
330
1E
100
AcDbEntity
  8
0
100
AcDbLine
 10
358.9021
 20
82.6135
 30
0.0
 11
358.9021
 21
68.6135
 31
0.0
  0
LINE
  5
352
330
1E
100
AcDbEntity
  8
0
100
AcDbLine
 10
358.9021
 20
82.6135
 30
0.0
 11
359.9021
 21
82.6135
 31
0.0
  0
LINE
  5
353
330
1E
100
AcDbEntity
  8
0
100
AcDbLine
 10
361.5221
 20
68.6135
 30
0.0
 11
365.2020999999999
 21
68.6135
 31
0.0
  0
LINE
  5
354
330
1E
100
AcDbEntity
  8
0
100
AcDbLine
 10
358.4861
 20
82.6135
 30
0.0
 11
358.9021
 21
82.6135
 31
0.0
  0
LINE
  5
355
330
1E
100
AcDbEntity
  8
0
100
AcDbLine
 10
358.4861
 20
82.6135
 30
0.0
 11
358.4861
 21
68.6135
 31
0.0
  0
LINE
  5
356
330
1E
100
AcDbEntity
  8
0
100
AcDbLine
 10
356.4861
 20
84.61350000000001
 30
0.0
 11
356.4861
 21
91.6135
 31
0.0
  0
LINE
  5
357
330
1E
100
AcDbEntity
  8
0
100
AcDbLine
 10
358.9180999999999
 20
82.6135
 30
0.0
 11
363.0781
 21
82.6135
 31
0.0
  0
LINE
  5
358
330
1E
100
AcDbEntity
  8
0
100
AcDbLine
 10
356.4220999999999
 20
84.61350000000001
 30
0.0
 11
358.9180999999999
 21
84.61350000000001
 31
0.0
  0
LINE
  5
359
330
1E
100
AcDbEntity
  8
0
100
AcDbLine
 10
356.4861
 20
91.6135
 30
0.0
 11
356.4861
 21
84.61350000000001
 31
0.0
  0
LINE
  5
35A
330
1E
100
AcDbEntity
  8
0
100
AcDbLine
 10
358.9180999999999
 20
84.61350000000001
 30
0.0
 11
363.0781
 21
84.61350000000001
 31
0.0
  0
LINE
  5
35D
330
1E
100
AcDbEntity
  8
0
100
AcDbLine
 10
362.5000999999999
 20
82.6135
 30
0.0
 11
365.2020999999999
 21
82.6135
 31
0.0
  0
LINE
  5
35E
330
1E
100
AcDbEntity
  8
0
100
AcDbLine
 10
363.1061
 20
37.6135
 30
0.0
 11
365.6981
 21
37.6135
 31
0.0
  0
LINE
  5
35F
330
1E
100
AcDbEntity
  8
0
100
AcDbLine
 10
364.1261
 20
68.6135
 30
0.0
 11
367.3261
 21
68.6135
 31
0.0
  0
LINE
  5
360
330
1E
100
AcDbEntity
  8
0
100
AcDbLine
 10
363.0781
 20
82.6135
 30
0.0
 11
368.5901
 21
82.6135
 31
0.0
  0
LINE
  5
361
330
1E
100
AcDbEntity
  8
0
100
AcDbLine
 10
362.4861
 20
129.6134999999999
 30
0.0
 11
363.7861
 21
129.6134999999999
 31
0.0
  0
LINE
  5
362
330
1E
100
AcDbEntity
  8
0
100
AcDbLine
 10
362.4861
 20
129.6134999999999
 30
0.0
 11
366.6061
 21
129.6134999999999
 31
0.0
  0
LINE
  5
363
330
1E
100
AcDbEntity
  8
0
100
AcDbLine
 10
362.4861
 20
131.6134999999999
 30
0.0
 11
362.4861
 21
96.6135
 31
0.0
  0
LINE
  5
364
330
1E
100
AcDbEntity
  8
0
100
AcDbLine
 10
362.6381
 20
140.6134999999999
 30
0.0
 11
371.7581
 21
140.6134999999999
 31
0.0
  0
LINE
  5
365
330
1E
100
AcDbEntity
  8
0
100
AcDbLine
 10
362.6381
 20
136.6134999999999
 30
0.0
 11
371.7581
 21
136.6134999999999
 31
0.0
  0
LINE
  5
366
330
1E
100
AcDbEntity
  8
0
100
AcDbLine
 10
363.7861
 20
129.6134999999999
 30
0.0
 11
369.0860999999999
 21
129.6134999999999
 31
0.0
  0
LINE
  5
367
330
1E
100
AcDbEntity
  8
0
100
AcDbLine
 10
362.4861
 20
96.6135
 30
0.0
 11
362.4861
 21
131.6134999999999
 31
0.0
  0
LINE
  5
368
330
1E
100
AcDbEntity
  8
0
100
AcDbLine
 10
363.0781
 20
84.61350000000001
 30
0.0
 11
368.5901
 21
84.61350000000001
 31
0.0
  0
LINE
  5
369
330
1E
100
AcDbEntity
  8
0
100
AcDbLine
 10
362.3701
 20
150.6135
 30
0.0
 11
368.0941
 21
150.6135
 31
0.0
  0
LINE
  5
36A
330
1E
100
AcDbEntity
  8
0
100
AcDbLine
 10
358.0500999999999
 20
150.6135
 30
0.0
 11
362.3701
 21
150.6135
 31
0.0
  0
LINE
  5
36B
330
1E
100
AcDbEntity
  8
0
100
AcDbLine
 10
355.4581
 20
150.6135
 30
0.0
 11
358.0500999999999
 21
150.6135
 31
0.0
  0
LINE
  5
36C
330
1E
100
AcDbEntity
  8
0
100
AcDbLine
 10
354.4861
 20
150.6135
 30
0.0
 11
354.4861
 21
140.6134999999999
 31
0.0
  0
LINE
  5
36D
330
1E
100
AcDbEntity
  8
0
100
AcDbLine
 10
354.4861
 20
150.6135
 30
0.0
 11
355.4581
 21
150.6135
 31
0.0
  0
LINE
  5
36E
330
1E
100
AcDbEntity
  8
0
100
AcDbLine
 10
361.4861
 20
62.6135
 30
0.0
 11
365.6981
 21
62.6135
 31
0.0
  0
LINE
  5
371
330
1E
100
AcDbEntity
  8
0
100
AcDbLine
 10
365.6981
 20
62.6135
 30
0.0
 11
369.9101
 21
62.6135
 31
0.0
  0
LINE
  5
372
330
1E
100
AcDbEntity
  8
0
100
AcDbLine
 10
365.6981
 20
37.6135
 30
0.0
 11
369.9101
 21
37.6135
 31
0.0
  0
LINE
  5
373
330
1E
100
AcDbEntity
  8
0
100
AcDbLine
 10
367.3261
 20
68.6135
 30
0.0
 11
371.5661
 21
68.6135
 31
0.0
  0
LINE
  5
374
330
1E
100
AcDbEntity
  8
0
100
AcDbLine
 10
365.2020999999999
 20
68.6135
 30
0.0
 11
370.0781
 21
68.6135
 31
0.0
  0
LINE
  5
375
330
1E
100
AcDbEntity
  8
0
100
AcDbLine
 10
366.6061
 20
129.6134999999999
 30
0.0
 11
373.8061
 21
129.6134999999999
 31
0.0
  0
LINE
  5
376
330
1E
100
AcDbEntity
  8
0
100
AcDbLine
 10
365.2020999999999
 20
82.6135
 30
0.0
 11
370.0781
 21
82.6135
 31
0.0
  0
LINE
  5
377
330
1E
100
AcDbEntity
  8
0
100
AcDbLine
 10
368.5901
 20
82.6135
 30
0.0
 11
374.8301
 21
82.6135
 31
0.0
  0
LINE
  5
379
330
1E
100
AcDbEntity
  8
0
100
AcDbLine
 10
369.9101
 20
62.6135
 30
0.0
 11
375.4180999999999
 21
62.6135
 31
0.0
  0
LINE
  5
37A
330
1E
100
AcDbEntity
  8
0
100
AcDbLine
 10
369.9101
 20
37.6135
 30
0.0
 11
375.4180999999999
 21
37.6135
 31
0.0
  0
LINE
  5
37C
330
1E
100
AcDbEntity
  8
0
100
AcDbLine
 10
370.0781
 20
68.6135
 30
0.0
 11
375.5980999999999
 21
68.6135
 31
0.0
  0
LINE
  5
37E
330
1E
100
AcDbEntity
  8
0
100
AcDbLine
 10
375.4180999999999
 20
62.6135
 30
0.0
 11
381.6821
 21
62.6135
 31
0.0
  0
LINE
  5
37F
330
1E
100
AcDbEntity
  8
0
100
AcDbLine
 10
375.4180999999999
 20
37.6135
 30
0.0
 11
381.6821
 21
37.6135
 31
0.0
  0
LINE
  5
381
330
1E
100
AcDbEntity
  8
0
100
AcDbLine
 10
371.5661
 20
68.6135
 30
0.0
 11
376.3661
 21
68.6135
 31
0.0
  0
LINE
  5
382
330
1E
100
AcDbEntity
  8
0
100
AcDbLine
 10
376.3661
 20
68.6135
 30
0.0
 11
381.4861
 21
68.6135
 31
0.0
  0
LINE
  5
383
330
1E
100
AcDbEntity
  8
0
100
AcDbLine
 10
380.4861
 20
68.6135
 30
0.0
 11
380.4861
 21
82.6135
 31
0.0
  0
LINE
  5
384
330
1E
100
AcDbEntity
  8
0
100
AcDbLine
 10
380.4861
 20
68.6135
 30
0.0
 11
382.4861
 21
68.6135
 31
0.0
  0
LINE
  5
385
330
1E
100
AcDbEntity
  8
0
100
AcDbLine
 10
381.4861
 20
68.6135
 30
0.0
 11
387.3740999999999
 21
68.6135
 31
0.0
  0
LINE
  5
386
330
1E
100
AcDbEntity
  8
0
100
AcDbLine
 10
381.4861
 20
68.6135
 30
0.0
 11
386.6061
 21
68.6135
 31
0.0
  0
LINE
  5
387
330
1E
100
AcDbEntity
  8
0
100
AcDbLine
 10
380.4861
 20
82.6135
 30
0.0
 11
380.4861
 21
68.6135
 31
0.0
  0
LINE
  5
388
330
1E
100
AcDbEntity
  8
0
100
AcDbLine
 10
380.4861
 20
82.6135
 30
0.0
 11
382.4861
 21
82.6135
 31
0.0
  0
LINE
  5
389
330
1E
100
AcDbEntity
  8
0
100
AcDbLine
 10
375.5980999999999
 20
68.6135
 30
0.0
 11
381.4861
 21
68.6135
 31
0.0
  0
LINE
  5
38A
330
1E
100
AcDbEntity
  8
0
100
AcDbLine
 10
370.0781
 20
82.6135
 30
0.0
 11
375.5980999999999
 21
82.6135
 31
0.0
  0
LINE
  5
38B
330
1E
100
AcDbEntity
  8
0
100
AcDbLine
 10
375.5980999999999
 20
82.6135
 30
0.0
 11
380.4861
 21
82.6135
 31
0.0
  0
LINE
  5
38C
330
1E
100
AcDbEntity
  8
0
100
AcDbLine
 10
381.6821
 20
62.6135
 30
0.0
 11
388.4861
 21
62.6135
 31
0.0
  0
LINE
  5
38D
330
1E
100
AcDbEntity
  8
0
100
AcDbLine
 10
381.6821
 20
37.6135
 30
0.0
 11
388.4861
 21
37.6135
 31
0.0
  0
LINE
  5
38E
330
1E
100
AcDbEntity
  8
0
100
AcDbLine
 10
382.4861
 20
68.6135
 30
0.0
 11
382.4861
 21
82.6135
 31
0.0
  0
LINE
  5
38F
330
1E
100
AcDbEntity
  8
0
100
AcDbLine
 10
386.6061
 20
68.6135
 30
0.0
 11
391.4060999999999
 21
68.6135
 31
0.0
  0
LINE
  5
390
330
1E
100
AcDbEntity
  8
0
100
AcDbLine
 10
387.3740999999999
 20
68.6135
 30
0.0
 11
392.8941
 21
68.6135
 31
0.0
  0
LINE
  5
391
330
1E
100
AcDbEntity
  8
0
100
AcDbLine
 10
387.3740999999999
 20
82.6135
 30
0.0
 11
392.8941
 21
82.6135
 31
0.0
  0
LINE
  5
392
330
1E
100
AcDbEntity
  8
0
100
AcDbLine
 10
382.4861
 20
82.6135
 30
0.0
 11
387.3740999999999
 21
82.6135
 31
0.0
  0
LINE
  5
393
330
1E
100
AcDbEntity
  8
0
100
AcDbLine
 10
382.4861
 20
82.6135
 30
0.0
 11
382.4861
 21
68.6135
 31
0.0
  0
LINE
  5
394
330
1E
100
AcDbEntity
  8
0
100
AcDbLine
 10
388.1421
 20
82.6135
 30
0.0
 11
394.3820999999999
 21
82.6135
 31
0.0
  0
LINE
  5
395
330
1E
100
AcDbEntity
  8
0
100
AcDbLine
 10
381.4861
 20
82.6135
 30
0.0
 11
388.1421
 21
82.6135
 31
0.0
  0
LINE
  5
396
330
1E
100
AcDbEntity
  8
0
100
AcDbLine
 10
388.1421
 20
84.61350000000001
 30
0.0
 11
394.3820999999999
 21
84.61350000000001
 31
0.0
  0
LINE
  5
397
330
1E
100
AcDbEntity
  8
0
100
AcDbLine
 10
381.4861
 20
84.61350000000001
 30
0.0
 11
388.1421
 21
84.61350000000001
 31
0.0
  0
LINE
  5
398
330
1E
100
AcDbEntity
  8
0
100
AcDbLine
 10
374.8301
 20
82.6135
 30
0.0
 11
381.4861
 21
82.6135
 31
0.0
  0
LINE
  5
399
330
1E
100
AcDbEntity
  8
0
100
AcDbLine
 10
368.5901
 20
84.61350000000001
 30
0.0
 11
374.8301
 21
84.61350000000001
 31
0.0
  0
LINE
  5
39A
330
1E
100
AcDbEntity
  8
0
100
AcDbLine
 10
373.8061
 20
129.6134999999999
 30
0.0
 11
381.4861
 21
129.6134999999999
 31
0.0
  0
LINE
  5
39B
330
1E
100
AcDbEntity
  8
0
100
AcDbLine
 10
375.0861
 20
129.6134999999999
 30
0.0
 11
381.4861
 21
129.6134999999999
 31
0.0
  0
LINE
  5
39C
330
1E
100
AcDbEntity
  8
0
100
AcDbLine
 10
369.0860999999999
 20
129.6134999999999
 30
0.0
 11
375.0861
 21
129.6134999999999
 31
0.0
  0
LINE
  5
39D
330
1E
100
AcDbEntity
  8
0
100
AcDbLine
 10
371.7581
 20
140.6134999999999
 30
0.0
 11
381.4861
 21
140.6134999999999
 31
0.0
  0
LINE
  5
39E
330
1E
100
AcDbEntity
  8
0
100
AcDbLine
 10
381.4861
 20
140.6134999999999
 30
0.0
 11
391.2140999999999
 21
140.6134999999999
 31
0.0
  0
LINE
  5
39F
330
1E
100
AcDbEntity
  8
0
100
AcDbLine
 10
381.4861
 20
136.6134999999999
 30
0.0
 11
391.2140999999999
 21
136.6134999999999
 31
0.0
  0
LINE
  5
3A0
330
1E
100
AcDbEntity
  8
0
100
AcDbLine
 10
371.7581
 20
136.6134999999999
 30
0.0
 11
381.4861
 21
136.6134999999999
 31
0.0
  0
LINE
  5
3A1
330
1E
100
AcDbEntity
  8
0
100
AcDbLine
 10
381.4861
 20
129.6134999999999
 30
0.0
 11
387.8861
 21
129.6134999999999
 31
0.0
  0
LINE
  5
3A2
330
1E
100
AcDbEntity
  8
0
100
AcDbLine
 10
381.4861
 20
129.6134999999999
 30
0.0
 11
389.1660999999999
 21
129.6134999999999
 31
0.0
  0
LINE
  5
3A3
330
1E
100
AcDbEntity
  8
0
100
AcDbLine
 10
387.8861
 20
129.6134999999999
 30
0.0
 11
393.8861
 21
129.6134999999999
 31
0.0
  0
LINE
  5
3A4
330
1E
100
AcDbEntity
  8
0
100
AcDbLine
 10
374.8301
 20
84.61350000000001
 30
0.0
 11
381.4861
 21
84.61350000000001
 31
0.0
  0
LINE
  5
3A5
330
1E
100
AcDbEntity
  8
0
100
AcDbLine
 10
389.1660999999999
 20
129.6134999999999
 30
0.0
 11
396.3661
 21
129.6134999999999
 31
0.0
  0
LINE
  5
3A6
330
1E
100
AcDbEntity
  8
0
100
AcDbLine
 10
388.4861
 20
62.6135
 30
0.0
 11
454.4861
 21
62.6135
 31
0.0
  0
LINE
  5
3A7
330
1E
100
AcDbEntity
  8
0
100
AcDbLine
 10
388.4861
 20
37.6135
 30
0.0
 11
454.4861
 21
37.6135
 31
0.0
  0
LINE
  5
3A8
330
1E
100
AcDbEntity
  8
0
100
AcDbLine
 10
388.3980999999999
 20
150.6135
 30
0.0
 11
394.8781
 21
150.6135
 31
0.0
  0
LINE
  5
3A9
330
1E
100
AcDbEntity
  8
0
100
AcDbLine
 10
381.4861
 20
150.6135
 30
0.0
 11
390.4460999999999
 21
150.6135
 31
0.0
  0
LINE
  5
3AA
330
1E
100
AcDbEntity
  8
0
100
AcDbLine
 10
381.4861
 20
150.6135
 30
0.0
 11
388.3980999999999
 21
150.6135
 31
0.0
  0
LINE
  5
3AB
330
1E
100
AcDbEntity
  8
0
100
AcDbLine
 10
391.4060999999999
 20
68.6135
 30
0.0
 11
395.6461
 21
68.6135
 31
0.0
  0
LINE
  5
3AC
330
1E
100
AcDbEntity
  8
0
100
AcDbLine
 10
392.8941
 20
68.6135
 30
0.0
 11
397.7701
 21
68.6135
 31
0.0
  0
LINE
  5
3AD
330
1E
100
AcDbEntity
  8
0
100
AcDbLine
 10
392.8941
 20
82.6135
 30
0.0
 11
397.7701
 21
82.6135
 31
0.0
  0
LINE
  5
3AE
330
1E
100
AcDbEntity
  8
0
100
AcDbLine
 10
391.2140999999999
 20
140.6134999999999
 30
0.0
 11
400.3340999999999
 21
140.6134999999999
 31
0.0
  0
LINE
  5
3AF
330
1E
100
AcDbEntity
  8
0
100
AcDbLine
 10
391.2140999999999
 20
136.6134999999999
 30
0.0
 11
400.3340999999999
 21
136.6134999999999
 31
0.0
  0
LINE
  5
3B0
330
1E
100
AcDbEntity
  8
0
100
AcDbLine
 10
393.8861
 20
129.6134999999999
 30
0.0
 11
399.1861
 21
129.6134999999999
 31
0.0
  0
LINE
  5
3B1
330
1E
100
AcDbEntity
  8
0
100
AcDbLine
 10
394.3820999999999
 20
82.6135
 30
0.0
 11
399.8940999999999
 21
82.6135
 31
0.0
  0
LINE
  5
3B2
330
1E
100
AcDbEntity
  8
0
100
AcDbLine
 10
395.6461
 20
68.6135
 30
0.0
 11
398.8461
 21
68.6135
 31
0.0
  0
LINE
  5
3B3
330
1E
100
AcDbEntity
  8
0
100
AcDbLine
 10
398.8461
 20
68.6135
 30
0.0
 11
400.7660999999999
 21
68.6135
 31
0.0
  0
LINE
  5
3B4
330
1E
100
AcDbEntity
  8
0
100
AcDbLine
 10
397.7701
 20
68.6135
 30
0.0
 11
401.4501
 21
68.6135
 31
0.0
  0
LINE
  5
3B5
330
1E
100
AcDbEntity
  8
0
100
AcDbLine
 10
397.7701
 20
82.6135
 30
0.0
 11
400.4720999999999
 21
82.6135
 31
0.0
  0
LINE
  5
3B6
330
1E
100
AcDbEntity
  8
0
100
AcDbLine
 10
400.4720999999999
 20
82.6135
 30
0.0
 11
403.0701
 21
82.6135
 31
0.0
  0
LINE
  5
3B7
330
1E
100
AcDbEntity
  8
0
100
AcDbLine
 10
400.4720999999999
 20
68.6135
 30
0.0
 11
403.0701
 21
68.6135
 31
0.0
  0
LINE
  5
3B8
330
1E
100
AcDbEntity
  8
0
100
AcDbLine
 10
400.4720999999999
 20
68.6135
 30
0.0
 11
401.4720999999999
 21
68.6135
 31
0.0
  0
LINE
  5
3B9
330
1E
100
AcDbEntity
  8
0
100
AcDbLine
 10
399.8940999999999
 20
82.6135
 30
0.0
 11
404.0541
 21
82.6135
 31
0.0
  0
LINE
  5
3BA
330
1E
100
AcDbEntity
  8
0
100
AcDbLine
 10
396.3661
 20
129.6134999999999
 30
0.0
 11
402.7261
 21
129.6134999999999
 31
0.0
  0
LINE
  5
3BB
330
1E
100
AcDbEntity
  8
0
100
AcDbLine
 10
400.3340999999999
 20
140.6134999999999
 30
0.0
 11
408.3901
 21
140.6134999999999
 31
0.0
  0
LINE
  5
3BC
330
1E
100
AcDbEntity
  8
0
100
AcDbLine
 10
400.3340999999999
 20
136.6134999999999
 30
0.0
 11
408.3901
 21
136.6134999999999
 31
0.0
  0
LINE
  5
3BD
330
1E
100
AcDbEntity
  8
0
100
AcDbLine
 10
399.1861
 20
129.6134999999999
 30
0.0
 11
403.1861
 21
129.6134999999999
 31
0.0
  0
LINE
  5
3BE
330
1E
100
AcDbEntity
  8
0
100
AcDbLine
 10
399.8940999999999
 20
84.61350000000001
 30
0.0
 11
404.0541
 21
84.61350000000001
 31
0.0
  0
LINE
  5
3BF
330
1E
100
AcDbEntity
  8
0
100
AcDbLine
 10
394.3820999999999
 20
84.61350000000001
 30
0.0
 11
399.8940999999999
 21
84.61350000000001
 31
0.0
  0
LINE
  5
3C0
330
1E
100
AcDbEntity
  8
0
100
AcDbLine
 10
394.8781
 20
150.6135
 30
0.0
 11
400.6021
 21
150.6135
 31
0.0
  0
LINE
  5
3C1
330
1E
100
AcDbEntity
  8
0
100
AcDbLine
 10
400.7660999999999
 20
68.6135
 30
0.0
 11
401.4861
 21
68.6135
 31
0.0
  0
LINE
  5
3C2
330
1E
100
AcDbEntity
  8
0
100
AcDbLine
 10
401.4861
 20
62.6135
 30
0.0
 11
401.4861
 21
68.6135
 31
0.0
  0
LINE
  5
3C3
330
1E
100
AcDbEntity
  8
0
100
AcDbLine
 10
403.0701
 20
68.6135
 30
0.0
 11
403.0701
 21
82.6135
 31
0.0
  0
LINE
  5
3C4
330
1E
100
AcDbEntity
  8
0
100
AcDbLine
 10
403.0701
 20
68.6135
 30
0.0
 11
404.0701
 21
68.6135
 31
0.0
  0
LINE
  5
3C5
330
1E
100
AcDbEntity
  8
0
100
AcDbLine
 10
401.4720999999999
 20
68.6135
 30
0.0
 11
404.0701
 21
68.6135
 31
0.0
  0
LINE
  5
3C6
330
1E
100
AcDbEntity
  8
0
100
AcDbLine
 10
401.4501
 20
68.6135
 30
0.0
 11
403.6580999999999
 21
68.6135
 31
0.0
  0
LINE
  5
3C7
330
1E
100
AcDbEntity
  8
0
100
AcDbLine
 10
403.6580999999999
 20
68.6135
 30
0.0
 11
404.4861
 21
68.6135
 31
0.0
  0
LINE
  5
3C8
330
1E
100
AcDbEntity
  8
0
100
AcDbLine
 10
403.0701
 20
82.6135
 30
0.0
 11
404.0701
 21
82.6135
 31
0.0
  0
LINE
  5
3C9
330
1E
100
AcDbEntity
  8
0
100
AcDbLine
 10
403.0701
 20
82.6135
 30
0.0
 11
403.0701
 21
68.6135
 31
0.0
  0
LINE
  5
3CA
330
1E
100
AcDbEntity
  8
0
100
AcDbLine
 10
401.4861
 20
68.6135
 30
0.0
 11
403.6580999999999
 21
68.6135
 31
0.0
  0
LINE
  5
3CB
330
1E
100
AcDbEntity
  8
0
100
AcDbLine
 10
401.4861
 20
68.6135
 30
0.0
 11
403.0701
 21
68.6135
 31
0.0
  0
LINE
  5
3CC
330
1E
100
AcDbEntity
  8
0
100
AcDbLine
 10
401.4861
 20
68.6135
 30
0.0
 11
404.0701
 21
68.6135
 31
0.0
  0
LINE
  5
3CD
330
1E
100
AcDbEntity
  8
0
100
AcDbLine
 10
401.4861
 20
68.6135
 30
0.0
 11
401.4861
 21
62.6135
 31
0.0
  0
LINE
  5
3CE
330
1E
100
AcDbEntity
  8
0
100
AcDbLine
 10
404.0701
 20
68.6135
 30
0.0
 11
404.0701
 21
82.6135
 31
0.0
  0
LINE
  5
3CF
330
1E
100
AcDbEntity
  8
0
100
AcDbLine
 10
404.4861
 20
68.6135
 30
0.0
 11
404.4861
 21
82.6135
 31
0.0
  0
LINE
  5
3D0
330
1E
100
AcDbEntity
  8
0
100
AcDbLine
 10
404.0701
 20
82.6135
 30
0.0
 11
404.4861
 21
82.6135
 31
0.0
  0
LINE
  5
3D1
330
1E
100
AcDbEntity
  8
0
100
AcDbLine
 10
404.0701
 20
82.6135
 30
0.0
 11
404.0701
 21
68.6135
 31
0.0
  0
LINE
  5
3D2
330
1E
100
AcDbEntity
  8
0
100
AcDbLine
 10
404.0541
 20
82.6135
 30
0.0
 11
406.5501
 21
82.6135
 31
0.0
  0
LINE
  5
3D3
330
1E
100
AcDbEntity
  8
0
100
AcDbLine
 10
402.7261
 20
129.6134999999999
 30
0.0
 11
407.5261
 21
129.6134999999999
 31
0.0
  0
LINE
  5
3D4
330
1E
100
AcDbEntity
  8
0
100
AcDbLine
 10
403.1861
 20
129.6134999999999
 30
0.0
 11
405.5861
 21
129.6134999999999
 31
0.0
  0
LINE
  5
3D5
330
1E
100
AcDbEntity
  8
0
100
AcDbLine
 10
405.5861
 20
129.6134999999999
 30
0.0
 11
406.4861
 21
129.6134999999999
 31
0.0
  0
LINE
  5
3D6
330
1E
100
AcDbEntity
  8
0
100
AcDbLine
 10
404.0541
 20
84.61350000000001
 30
0.0
 11
406.5501
 21
84.61350000000001
 31
0.0
  0
LINE
  5
3D7
330
1E
100
AcDbEntity
  8
0
100
AcDbLine
 10
404.4861
 20
82.6135
 30
0.0
 11
406.5501
 21
82.6135
 31
0.0
  0
LINE
  5
3D8
330
1E
100
AcDbEntity
  8
0
100
AcDbLine
 10
404.4861
 20
82.6135
 30
0.0
 11
404.4861
 21
68.6135
 31
0.0
  0
LINE
  5
3D9
330
1E
100
AcDbEntity
  8
0
100
AcDbLine
 10
400.6021
 20
150.6135
 30
0.0
 11
404.9221
 21
150.6135
 31
0.0
  0
LINE
  5
3DA
330
1E
100
AcDbEntity
  8
0
100
AcDbLine
 10
404.9221
 20
150.6135
 30
0.0
 11
407.5141
 21
150.6135
 31
0.0
  0
LINE
  5
3DB
330
1E
100
AcDbEntity
  8
0
100
AcDbLine
 10
390.4460999999999
 20
150.6135
 30
0.0
 11
398.8461
 21
150.6135
 31
0.0
  0
LINE
  5
3DC
330
1E
100
AcDbEntity
  8
0
100
AcDbLine
 10
398.8461
 20
150.6135
 30
0.0
 11
406.2661
 21
150.6135
 31
0.0
  0
LINE
  5
3DD
330
1E
100
AcDbEntity
  8
0
100
AcDbLine
 10
406.4861
 20
84.61350000000001
 30
0.0
 11
406.4861
 21
129.6134999999999
 31
0.0
  0
LINE
  5
3DE
330
1E
100
AcDbEntity
  8
0
100
AcDbLine
 10
406.4861
 20
129.6134999999999
 30
0.0
 11
406.4861
 21
84.61350000000001
 31
0.0
  0
LINE
  5
3DF
330
1E
100
AcDbEntity
  8
0
100
AcDbLine
 10
406.4861
 20
129.6134999999999
 30
0.0
 11
407.5261
 21
129.6134999999999
 31
0.0
  0
LINE
  5
3E0
330
1E
100
AcDbEntity
  8
0
100
AcDbLine
 10
406.5501
 20
84.61350000000001
 30
0.0
 11
407.4861
 21
84.61350000000001
 31
0.0
  0
LINE
  5
3E1
330
1E
100
AcDbEntity
  8
0
100
AcDbLine
 10
407.4861
 20
82.6135
 30
0.0
 11
407.4861
 21
84.61350000000001
 31
0.0
  0
LINE
  5
3E2
330
1E
100
AcDbEntity
  8
0
100
AcDbLine
 10
408.3901
 20
140.6134999999999
 30
0.0
 11
414.4701
 21
140.6134999999999
 31
0.0
  0
LINE
  5
3E3
330
1E
100
AcDbEntity
  8
0
100
AcDbLine
 10
408.3901
 20
136.6134999999999
 30
0.0
 11
414.4701
 21
136.6134999999999
 31
0.0
  0
LINE
  5
3E4
330
1E
100
AcDbEntity
  8
0
100
AcDbLine
 10
407.5261
 20
129.6134999999999
 30
0.0
 11
410.4060999999999
 21
129.6134999999999
 31
0.0
  0
LINE
  5
3E5
330
1E
100
AcDbEntity
  8
0
100
AcDbLine
 10
411.4861
 20
136.6134999999999
 30
0.0
 11
414.4701
 21
136.6134999999999
 31
0.0
  0
LINE
  5
3E6
330
1E
100
AcDbEntity
  8
0
100
AcDbLine
 10
414.4701
 20
136.6134999999999
 30
0.0
 11
418.1181
 21
136.6134999999999
 31
0.0
  0
LINE
  5
3E7
330
1E
100
AcDbEntity
  8
0
100
AcDbLine
 10
414.4701
 20
136.6134999999999
 30
0.0
 11
418.1181
 21
136.6134999999999
 31
0.0
  0
LINE
  5
3E8
330
1E
100
AcDbEntity
  8
0
100
AcDbLine
 10
411.4861
 20
129.6134999999999
 30
0.0
 11
411.4861
 21
136.6134999999999
 31
0.0
  0
LINE
  5
3E9
330
1E
100
AcDbEntity
  8
0
100
AcDbLine
 10
414.4701
 20
140.6134999999999
 30
0.0
 11
418.1181
 21
140.6134999999999
 31
0.0
  0
LINE
  5
3EA
330
1E
100
AcDbEntity
  8
0
100
AcDbLine
 10
411.4861
 20
136.6134999999999
 30
0.0
 11
411.4861
 21
129.6134999999999
 31
0.0
  0
LINE
  5
3EB
330
1E
100
AcDbEntity
  8
0
100
AcDbLine
 10
410.4060999999999
 20
129.6134999999999
 30
0.0
 11
411.4861
 21
129.6134999999999
 31
0.0
  0
LINE
  5
3EC
330
1E
100
AcDbEntity
  8
0
100
AcDbLine
 10
407.4861
 20
84.61350000000001
 30
0.0
 11
407.4861
 21
82.6135
 31
0.0
  0
LINE
  5
3ED
330
1E
100
AcDbEntity
  8
0
100
AcDbLine
 10
406.5501
 20
82.6135
 30
0.0
 11
407.4861
 21
82.6135
 31
0.0
  0
LINE
  5
3EE
330
1E
100
AcDbEntity
  8
0
100
AcDbLine
 10
408.4861
 20
150.6135
 30
0.0
 11
408.4861
 21
140.6134999999999
 31
0.0
  0
LINE
  5
3EF
330
1E
100
AcDbEntity
  8
0
100
AcDbLine
 10
408.4861
 20
150.6135
 30
0.0
 11
411.8661
 21
150.6135
 31
0.0
  0
LINE
  5
3F0
330
1E
100
AcDbEntity
  8
0
100
AcDbLine
 10
407.5141
 20
150.6135
 30
0.0
 11
408.4861
 21
150.6135
 31
0.0
  0
LINE
  5
3F1
330
1E
100
AcDbEntity
  8
0
100
AcDbLine
 10
408.4861
 20
140.6134999999999
 30
0.0
 11
408.4861
 21
150.6135
 31
0.0
  0
LINE
  5
3F2
330
1E
100
AcDbEntity
  8
0
100
AcDbLine
 10
406.2661
 20
150.6135
 30
0.0
 11
411.8661
 21
150.6135
 31
0.0
  0
LINE
  5
3F3
330
1E
100
AcDbEntity
  8
0
100
AcDbLine
 10
411.8661
 20
150.6135
 30
0.0
 11
415.2261
 21
150.6135
 31
0.0
  0
LINE
  5
3F4
330
1E
100
AcDbEntity
  8
0
100
AcDbLine
 10
438.9021
 20
70.6135
 30
0.0
 11
439.9021
 21
70.6135
 31
0.0
  0
LINE
  5
3F5
330
1E
100
AcDbEntity
  8
0
100
AcDbLine
 10
438.9021
 20
70.6135
 30
0.0
 11
441.4861
 21
70.6135
 31
0.0
  0
LINE
  5
3F6
330
1E
100
AcDbEntity
  8
0
100
AcDbLine
 10
438.9021
 20
70.6135
 30
0.0
 11
438.9021
 21
84.61350000000001
 31
0.0
  0
LINE
  5
3F7
330
1E
100
AcDbEntity
  8
0
100
AcDbLine
 10
438.9021
 20
70.6135
 30
0.0
 11
441.5001
 21
70.6135
 31
0.0
  0
LINE
  5
3F8
330
1E
100
AcDbEntity
  8
0
100
AcDbLine
 10
438.9021
 20
70.6135
 30
0.0
 11
439.9021
 21
70.6135
 31
0.0
  0
LINE
  5
3F9
330
1E
100
AcDbEntity
  8
0
100
AcDbLine
 10
438.9021
 20
84.61350000000001
 30
0.0
 11
438.9021
 21
70.6135
 31
0.0
  0
LINE
  5
3FA
330
1E
100
AcDbEntity
  8
0
100
AcDbLine
 10
438.9021
 20
84.61350000000001
 30
0.0
 11
439.9021
 21
84.61350000000001
 31
0.0
  0
LINE
  5
3FB
330
1E
100
AcDbEntity
  8
0
100
AcDbLine
 10
438.4860999999999
 20
84.61350000000001
 30
0.0
 11
438.4860999999999
 21
70.6135
 31
0.0
  0
LINE
  5
3FC
330
1E
100
AcDbEntity
  8
0
100
AcDbLine
 10
438.4860999999999
 20
84.61350000000001
 30
0.0
 11
438.9021
 21
84.61350000000001
 31
0.0
  0
LINE
  5
3FD
330
1E
100
AcDbEntity
  8
0
100
AcDbLine
 10
438.4860999999999
 20
70.6135
 30
0.0
 11
439.3140999999999
 21
70.6135
 31
0.0
  0
LINE
  5
3FE
330
1E
100
AcDbEntity
  8
0
100
AcDbLine
 10
438.4860999999999
 20
70.6135
 30
0.0
 11
438.4860999999999
 21
84.61350000000001
 31
0.0
  0
LINE
  5
3FF
330
1E
100
AcDbEntity
  8
0
100
AcDbLine
 10
438.4860999999999
 20
70.6135
 30
0.0
 11
439.3140999999999
 21
70.6135
 31
0.0
  0
LINE
  5
400
330
1E
100
AcDbEntity
  8
0
100
AcDbLine
 10
441.4861
 20
62.6135
 30
0.0
 11
441.4861
 21
70.6135
 31
0.0
  0
LINE
  5
401
330
1E
100
AcDbEntity
  8
0
100
AcDbLine
 10
439.9021
 20
70.6135
 30
0.0
 11
441.4861
 21
70.6135
 31
0.0
  0
LINE
  5
402
330
1E
100
AcDbEntity
  8
0
100
AcDbLine
 10
441.4861
 20
70.6135
 30
0.0
 11
441.4861
 21
62.6135
 31
0.0
  0
LINE
  5
403
330
1E
100
AcDbEntity
  8
0
100
AcDbLine
 10
441.5001
 20
70.6135
 30
0.0
 11
442.5000999999999
 21
70.6135
 31
0.0
  0
LINE
  5
404
330
1E
100
AcDbEntity
  8
0
100
AcDbLine
 10
439.9021
 20
70.6135
 30
0.0
 11
439.9021
 21
84.61350000000001
 31
0.0
  0
LINE
  5
405
330
1E
100
AcDbEntity
  8
0
100
AcDbLine
 10
439.9021
 20
70.6135
 30
0.0
 11
442.5000999999999
 21
70.6135
 31
0.0
  0
LINE
  5
406
330
1E
100
AcDbEntity
  8
0
100
AcDbLine
 10
439.3140999999999
 20
70.6135
 30
0.0
 11
441.5221
 21
70.6135
 31
0.0
  0
LINE
  5
407
330
1E
100
AcDbEntity
  8
0
100
AcDbLine
 10
439.9021
 20
84.61350000000001
 30
0.0
 11
439.9021
 21
70.6135
 31
0.0
  0
LINE
  5
408
330
1E
100
AcDbEntity
  8
0
100
AcDbLine
 10
439.9021
 20
84.61350000000001
 30
0.0
 11
442.5000999999999
 21
84.61350000000001
 31
0.0
  0
LINE
  5
409
330
1E
100
AcDbEntity
  8
0
100
AcDbLine
 10
441.5221
 20
70.6135
 30
0.0
 11
445.2021
 21
70.6135
 31
0.0
  0
LINE
  5
40A
330
1E
100
AcDbEntity
  8
0
100
AcDbLine
 10
445.2021
 20
70.6135
 30
0.0
 11
450.0780999999999
 21
70.6135
 31
0.0
  0
LINE
  5
40B
330
1E
100
AcDbEntity
  8
0
100
AcDbLine
 10
442.5000999999999
 20
84.61350000000001
 30
0.0
 11
445.2021
 21
84.61350000000001
 31
0.0
  0
LINE
  5
40C
330
1E
100
AcDbEntity
  8
0
100
AcDbLine
 10
445.2021
 20
84.61350000000001
 30
0.0
 11
450.0780999999999
 21
84.61350000000001
 31
0.0
  0
LINE
  5
40D
330
1E
100
AcDbEntity
  8
0
100
AcDbLine
 10
439.3140999999999
 20
70.6135
 30
0.0
 11
441.4861
 21
70.6135
 31
0.0
  0
LINE
  5
40E
330
1E
100
AcDbEntity
  8
0
100
AcDbLine
 10
438.9180999999999
 20
84.61350000000001
 30
0.0
 11
443.0781
 21
84.61350000000001
 31
0.0
  0
LINE
  5
40F
330
1E
100
AcDbEntity
  8
0
100
AcDbLine
 10
443.0781
 20
84.61350000000001
 30
0.0
 11
448.5901
 21
84.61350000000001
 31
0.0
  0
LINE
  5
410
330
1E
100
AcDbEntity
  8
0
100
AcDbLine
 10
454.4861
 20
62.6135
 30
0.0
 11
461.2900999999999
 21
62.6135
 31
0.0
  0
LINE
  5
411
330
1E
100
AcDbEntity
  8
0
100
AcDbLine
 10
454.4861
 20
37.6135
 30
0.0
 11
461.2900999999999
 21
37.6135
 31
0.0
  0
LINE
  5
412
330
1E
100
AcDbEntity
  8
0
100
AcDbLine
 10
461.2900999999999
 20
62.6135
 30
0.0
 11
467.5540999999999
 21
62.6135
 31
0.0
  0
LINE
  5
415
330
1E
100
AcDbEntity
  8
0
100
AcDbLine
 10
461.2900999999999
 20
37.6135
 30
0.0
 11
467.5540999999999
 21
37.6135
 31
0.0
  0
LINE
  5
416
330
1E
100
AcDbEntity
  8
0
100
AcDbLine
 10
460.4861
 20
70.6135
 30
0.0
 11
460.4861
 21
84.61350000000001
 31
0.0
  0
LINE
  5
417
330
1E
100
AcDbEntity
  8
0
100
AcDbLine
 10
460.4861
 20
70.6135
 30
0.0
 11
462.4861
 21
70.6135
 31
0.0
  0
LINE
  5
418
330
1E
100
AcDbEntity
  8
0
100
AcDbLine
 10
462.4861
 20
70.6135
 30
0.0
 11
462.4861
 21
84.61350000000001
 31
0.0
  0
LINE
  5
419
330
1E
100
AcDbEntity
  8
0
100
AcDbLine
 10
450.0780999999999
 20
70.6135
 30
0.0
 11
455.5981
 21
70.6135
 31
0.0
  0
LINE
  5
41A
330
1E
100
AcDbEntity
  8
0
100
AcDbLine
 10
455.5981
 20
70.6135
 30
0.0
 11
461.4861
 21
70.6135
 31
0.0
  0
LINE
  5
41B
330
1E
100
AcDbEntity
  8
0
100
AcDbLine
 10
467.3740999999999
 20
70.6135
 30
0.0
 11
472.8940999999999
 21
70.6135
 31
0.0
  0
LINE
  5
41C
330
1E
100
AcDbEntity
  8
0
100
AcDbLine
 10
450.0780999999999
 20
84.61350000000001
 30
0.0
 11
455.5981
 21
84.61350000000001
 31
0.0
  0
LINE
  5
41D
330
1E
100
AcDbEntity
  8
0
100
AcDbLine
 10
460.4861
 20
84.61350000000001
 30
0.0
 11
462.4861
 21
84.61350000000001
 31
0.0
  0
LINE
  5
41E
330
1E
100
AcDbEntity
  8
0
100
AcDbLine
 10
460.4861
 20
84.61350000000001
 30
0.0
 11
460.4861
 21
70.6135
 31
0.0
  0
LINE
  5
41F
330
1E
100
AcDbEntity
  8
0
100
AcDbLine
 10
455.5981
 20
84.61350000000001
 30
0.0
 11
460.4861
 21
84.61350000000001
 31
0.0
  0
LINE
  5
420
330
1E
100
AcDbEntity
  8
0
100
AcDbLine
 10
461.4861
 20
70.6135
 30
0.0
 11
467.3740999999999
 21
70.6135
 31
0.0
  0
LINE
  5
421
330
1E
100
AcDbEntity
  8
0
100
AcDbLine
 10
467.5540999999999
 20
37.6135
 30
0.0
 11
473.0621
 21
37.6135
 31
0.0
  0
LINE
  5
422
330
1E
100
AcDbEntity
  8
0
100
AcDbLine
 10
467.5540999999999
 20
62.6135
 30
0.0
 11
473.0621
 21
62.6135
 31
0.0
  0
LINE
  5
425
330
1E
100
AcDbEntity
  8
0
100
AcDbLine
 10
467.3740999999999
 20
84.61350000000001
 30
0.0
 11
472.8940999999999
 21
84.61350000000001
 31
0.0
  0
LINE
  5
426
330
1E
100
AcDbEntity
  8
0
100
AcDbLine
 10
462.4861
 20
84.61350000000001
 30
0.0
 11
467.3740999999999
 21
84.61350000000001
 31
0.0
  0
LINE
  5
427
330
1E
100
AcDbEntity
  8
0
100
AcDbLine
 10
462.4861
 20
84.61350000000001
 30
0.0
 11
462.4861
 21
70.6135
 31
0.0
  0
LINE
  5
428
330
1E
100
AcDbEntity
  8
0
100
AcDbLine
 10
448.5901
 20
84.61350000000001
 30
0.0
 11
454.8301
 21
84.61350000000001
 31
0.0
  0
LINE
  5
429
330
1E
100
AcDbEntity
  8
0
100
AcDbLine
 10
454.8301
 20
84.61350000000001
 30
0.0
 11
461.4861
 21
84.61350000000001
 31
0.0
  0
LINE
  5
42A
330
1E
100
AcDbEntity
  8
0
100
AcDbLine
 10
435.4861
 20
84.61350000000001
 30
0.0
 11
436.4220999999999
 21
84.61350000000001
 31
0.0
  0
LINE
  5
42B
330
1E
100
AcDbEntity
  8
0
100
AcDbLine
 10
435.4861
 20
84.61350000000001
 30
0.0
 11
435.4861
 21
86.6135
 31
0.0
  0
LINE
  5
42C
330
1E
100
AcDbEntity
  8
0
100
AcDbLine
 10
436.4220999999999
 20
84.61350000000001
 30
0.0
 11
438.4860999999999
 21
84.61350000000001
 31
0.0
  0
LINE
  5
42D
330
1E
100
AcDbEntity
  8
0
100
AcDbLine
 10
436.4220999999999
 20
84.61350000000001
 30
0.0
 11
438.9180999999999
 21
84.61350000000001
 31
0.0
  0
LINE
  5
42E
330
1E
100
AcDbEntity
  8
0
100
AcDbLine
 10
473.0621
 20
37.6135
 30
0.0
 11
477.2740999999999
 21
37.6135
 31
0.0
  0
LINE
  5
42F
330
1E
100
AcDbEntity
  8
0
100
AcDbLine
 10
477.2740999999999
 20
37.6135
 30
0.0
 11
479.8661
 21
37.6135
 31
0.0
  0
LINE
  5
430
330
1E
100
AcDbEntity
  8
0
100
AcDbLine
 10
473.0621
 20
62.6135
 30
0.0
 11
477.2740999999999
 21
62.6135
 31
0.0
  0
LINE
  5
432
330
1E
100
AcDbEntity
  8
0
100
AcDbLine
 10
477.2740999999999
 20
62.6135
 30
0.0
 11
479.8661
 21
62.6135
 31
0.0
  0
LINE
  5
434
330
1E
100
AcDbEntity
  8
0
100
AcDbLine
 10
477.7701
 20
70.6135
 30
0.0
 11
481.4500999999999
 21
70.6135
 31
0.0
  0
LINE
  5
435
330
1E
100
AcDbEntity
  8
0
100
AcDbLine
 10
472.8940999999999
 20
70.6135
 30
0.0
 11
477.7701
 21
70.6135
 31
0.0
  0
LINE
  5
436
330
1E
100
AcDbEntity
  8
0
100
AcDbLine
 10
479.8661
 20
62.6135
 30
0.0
 11
480.8380999999999
 21
62.6135
 31
0.0
  0
LINE
  5
439
330
1E
100
AcDbEntity
  8
0
100
AcDbLine
 10
479.8661
 20
37.6135
 30
0.0
 11
480.8380999999999
 21
37.6135
 31
0.0
  0
LINE
  5
43A
330
1E
100
AcDbEntity
  8
0
100
AcDbLine
 10
478.8460999999999
 20
62.6135
 30
0.0
 11
480.7661
 21
62.6135
 31
0.0
  0
LINE
  5
43B
330
1E
100
AcDbEntity
  8
0
100
AcDbLine
 10
477.7701
 20
84.61350000000001
 30
0.0
 11
480.4720999999999
 21
84.61350000000001
 31
0.0
  0
LINE
  5
43C
330
1E
100
AcDbEntity
  8
0
100
AcDbLine
 10
472.8940999999999
 20
84.61350000000001
 30
0.0
 11
477.7701
 21
84.61350000000001
 31
0.0
  0
LINE
  5
43D
330
1E
100
AcDbEntity
  8
0
100
AcDbLine
 10
481.4861
 20
38.57549999999999
 30
0.0
 11
481.4861
 21
61.652
 31
0.0
  0
LINE
  5
43E
330
1E
100
AcDbEntity
  8
0
100
AcDbLine
 10
480.8380999999999
 20
62.6135
 30
0.0
 11
481.4861
 21
61.652
 31
0.0
  0
LINE
  5
43F
330
1E
100
AcDbEntity
  8
0
100
AcDbLine
 10
480.8380999999999
 20
62.6135
 30
0.0
 11
481.4861
 21
62.6135
 31
0.0
  0
LINE
  5
440
330
1E
100
AcDbEntity
  8
0
100
AcDbLine
 10
480.8380999999999
 20
37.6135
 30
0.0
 11
481.4861
 21
38.57549999999999
 31
0.0
  0
LINE
  5
441
330
1E
100
AcDbEntity
  8
0
100
AcDbLine
 10
481.4861
 20
61.652
 30
0.0
 11
481.4861
 21
38.57549999999999
 31
0.0
  0
LINE
  5
442
330
1E
100
AcDbEntity
  8
0
100
AcDbLine
 10
480.7661
 20
62.6135
 30
0.0
 11
481.4861
 21
62.6135
 31
0.0
  0
LINE
  5
443
330
1E
100
AcDbEntity
  8
0
100
AcDbLine
 10
481.4861
 20
62.6135
 30
0.0
 11
481.4861
 21
70.6135
 31
0.0
  0
LINE
  5
444
330
1E
100
AcDbEntity
  8
0
100
AcDbLine
 10
483.0701
 20
70.6135
 30
0.0
 11
484.0701
 21
70.6135
 31
0.0
  0
LINE
  5
445
330
1E
100
AcDbEntity
  8
0
100
AcDbLine
 10
483.6580999999999
 20
70.6135
 30
0.0
 11
484.4861
 21
70.6135
 31
0.0
  0
LINE
  5
446
330
1E
100
AcDbEntity
  8
0
100
AcDbLine
 10
480.4720999999999
 20
70.6135
 30
0.0
 11
483.0701
 21
70.6135
 31
0.0
  0
LINE
  5
447
330
1E
100
AcDbEntity
  8
0
100
AcDbLine
 10
480.4720999999999
 20
70.6135
 30
0.0
 11
481.4721
 21
70.6135
 31
0.0
  0
LINE
  5
448
330
1E
100
AcDbEntity
  8
0
100
AcDbLine
 10
481.4861
 20
70.6135
 30
0.0
 11
481.4861
 21
62.6135
 31
0.0
  0
LINE
  5
449
330
1E
100
AcDbEntity
  8
0
100
AcDbLine
 10
483.0701
 20
70.6135
 30
0.0
 11
483.0701
 21
84.61350000000001
 31
0.0
  0
LINE
  5
44A
330
1E
100
AcDbEntity
  8
0
100
AcDbLine
 10
483.0701
 20
70.6135
 30
0.0
 11
484.0701
 21
70.6135
 31
0.0
  0
LINE
  5
44B
330
1E
100
AcDbEntity
  8
0
100
AcDbLine
 10
481.4721
 20
70.6135
 30
0.0
 11
484.0701
 21
70.6135
 31
0.0
  0
LINE
  5
44C
330
1E
100
AcDbEntity
  8
0
100
AcDbLine
 10
481.4861
 20
70.6135
 30
0.0
 11
483.6580999999999
 21
70.6135
 31
0.0
  0
LINE
  5
44D
330
1E
100
AcDbEntity
  8
0
100
AcDbLine
 10
481.4861
 20
70.6135
 30
0.0
 11
483.0701
 21
70.6135
 31
0.0
  0
LINE
  5
44E
330
1E
100
AcDbEntity
  8
0
100
AcDbLine
 10
481.4861
 20
70.6135
 30
0.0
 11
484.0701
 21
70.6135
 31
0.0
  0
LINE
  5
44F
330
1E
100
AcDbEntity
  8
0
100
AcDbLine
 10
484.0701
 20
70.6135
 30
0.0
 11
484.0701
 21
84.61350000000001
 31
0.0
  0
LINE
  5
450
330
1E
100
AcDbEntity
  8
0
100
AcDbLine
 10
483.6580999999999
 20
70.6135
 30
0.0
 11
484.4861
 21
70.6135
 31
0.0
  0
LINE
  5
451
330
1E
100
AcDbEntity
  8
0
100
AcDbLine
 10
480.4720999999999
 20
84.61350000000001
 30
0.0
 11
483.0701
 21
84.61350000000001
 31
0.0
  0
LINE
  5
452
330
1E
100
AcDbEntity
  8
0
100
AcDbLine
 10
483.0701
 20
84.61350000000001
 30
0.0
 11
484.0701
 21
84.61350000000001
 31
0.0
  0
LINE
  5
453
330
1E
100
AcDbEntity
  8
0
100
AcDbLine
 10
483.0701
 20
84.61350000000001
 30
0.0
 11
483.0701
 21
70.6135
 31
0.0
  0
LINE
  5
454
330
1E
100
AcDbEntity
  8
0
100
AcDbLine
 10
481.4500999999999
 20
70.6135
 30
0.0
 11
483.6580999999999
 21
70.6135
 31
0.0
  0
LINE
  5
455
330
1E
100
AcDbEntity
  8
0
100
AcDbLine
 10
484.4861
 20
70.6135
 30
0.0
 11
484.4861
 21
84.61350000000001
 31
0.0
  0
LINE
  5
456
330
1E
100
AcDbEntity
  8
0
100
AcDbLine
 10
484.0701
 20
84.61350000000001
 30
0.0
 11
484.4861
 21
84.61350000000001
 31
0.0
  0
LINE
  5
457
330
1E
100
AcDbEntity
  8
0
100
AcDbLine
 10
484.0701
 20
84.61350000000001
 30
0.0
 11
484.0701
 21
70.6135
 31
0.0
  0
LINE
  5
458
330
1E
100
AcDbEntity
  8
0
100
AcDbLine
 10
484.4861
 20
84.61350000000001
 30
0.0
 11
486.5501
 21
84.61350000000001
 31
0.0
  0
LINE
  5
459
330
1E
100
AcDbEntity
  8
0
100
AcDbLine
 10
484.4861
 20
84.61350000000001
 30
0.0
 11
484.4861
 21
70.6135
 31
0.0
  0
LINE
  5
45A
330
1E
100
AcDbEntity
  8
0
100
AcDbLine
 10
487.4861
 20
84.61350000000001
 30
0.0
 11
487.4861
 21
86.6135
 31
0.0
  0
LINE
  5
45B
330
1E
100
AcDbEntity
  8
0
100
AcDbLine
 10
486.5501
 20
84.61350000000001
 30
0.0
 11
487.4861
 21
84.61350000000001
 31
0.0
  0
LINE
  5
45C
330
1E
100
AcDbEntity
  8
0
100
AcDbLine
 10
484.0540999999999
 20
84.61350000000001
 30
0.0
 11
486.5501
 21
84.61350000000001
 31
0.0
  0
LINE
  5
45D
330
1E
100
AcDbEntity
  8
0
100
AcDbLine
 10
479.8941
 20
84.61350000000001
 30
0.0
 11
484.0540999999999
 21
84.61350000000001
 31
0.0
  0
LINE
  5
45E
330
1E
100
AcDbEntity
  8
0
100
AcDbLine
 10
474.3820999999999
 20
84.61350000000001
 30
0.0
 11
479.8941
 21
84.61350000000001
 31
0.0
  0
LINE
  5
45F
330
1E
100
AcDbEntity
  8
0
100
AcDbLine
 10
468.1421
 20
84.61350000000001
 30
0.0
 11
474.3820999999999
 21
84.61350000000001
 31
0.0
  0
LINE
  5
460
330
1E
100
AcDbEntity
  8
0
100
AcDbLine
 10
461.4861
 20
84.61350000000001
 30
0.0
 11
468.1421
 21
84.61350000000001
 31
0.0
  0
LINE
  5
461
330
1E
100
AcDbEntity
  8
0
100
AcDbLine
 10
506.4861
 20
85.6135
 30
0.0
 11
506.4861
 21
86.54949999999999
 31
0.0
  0
LINE
  5
462
330
1E
100
AcDbEntity
  8
0
100
AcDbLine
 10
506.4861
 20
85.6135
 30
0.0
 11
508.4861
 21
85.6135
 31
0.0
  0
LINE
  5
463
330
1E
100
AcDbEntity
  8
0
100
AcDbLine
 10
442.276111969878
 20
86.6135
 30
0.0
 11
443.2241
 21
93.8133
 31
0.0
  0
LINE
  5
464
330
1E
100
AcDbEntity
  8
0
100
AcDbLine
 10
436.4220999999999
 20
86.6135
 30
0.0
 11
438.9180999999999
 21
86.6135
 31
0.0
  0
LINE
  5
465
330
1E
100
AcDbEntity
  8
0
100
AcDbLine
 10
438.9180999999999
 20
86.6135
 30
0.0
 11
443.0781
 21
86.6135
 31
0.0
  0
LINE
  5
466
330
1E
100
AcDbEntity
  8
0
100
AcDbLine
 10
443.0781
 20
86.6135
 30
0.0
 11
448.5901
 21
86.6135
 31
0.0
  0
LINE
  5
467
330
1E
100
AcDbEntity
  8
0
100
AcDbLine
 10
448.5901
 20
86.6135
 30
0.0
 11
454.8301
 21
86.6135
 31
0.0
  0
LINE
  5
468
330
1E
100
AcDbEntity
  8
0
100
AcDbLine
 10
454.8301
 20
86.6135
 30
0.0
 11
461.4861
 21
86.6135
 31
0.0
  0
LINE
  5
469
330
1E
100
AcDbEntity
  8
0
100
AcDbLine
 10
435.4861
 20
86.6135
 30
0.0
 11
435.4861
 21
84.61350000000001
 31
0.0
  0
LINE
  5
46A
330
1E
100
AcDbEntity
  8
0
100
AcDbLine
 10
435.4861
 20
86.6135
 30
0.0
 11
436.4220999999999
 21
86.6135
 31
0.0
  0
LINE
  5
46B
330
1E
100
AcDbEntity
  8
0
100
AcDbLine
 10
483.343736204021
 20
86.6135
 30
0.0
 11
484.7081
 21
88.39170000000001
 31
0.0
  0
LINE
  5
46C
330
1E
100
AcDbEntity
  8
0
100
AcDbLine
 10
487.4861
 20
86.6135
 30
0.0
 11
487.4861
 21
84.61350000000001
 31
0.0
  0
LINE
  5
46D
330
1E
100
AcDbEntity
  8
0
100
AcDbLine
 10
486.5501
 20
86.6135
 30
0.0
 11
487.4861
 21
86.6135
 31
0.0
  0
LINE
  5
46E
330
1E
100
AcDbEntity
  8
0
100
AcDbLine
 10
484.0540999999999
 20
86.6135
 30
0.0
 11
486.5501
 21
86.6135
 31
0.0
  0
LINE
  5
46F
330
1E
100
AcDbEntity
  8
0
100
AcDbLine
 10
479.8941
 20
86.6135
 30
0.0
 11
484.0540999999999
 21
86.6135
 31
0.0
  0
LINE
  5
470
330
1E
100
AcDbEntity
  8
0
100
AcDbLine
 10
474.3820999999999
 20
86.6135
 30
0.0
 11
479.8941
 21
86.6135
 31
0.0
  0
LINE
  5
471
330
1E
100
AcDbEntity
  8
0
100
AcDbLine
 10
468.1421
 20
86.6135
 30
0.0
 11
474.3820999999999
 21
86.6135
 31
0.0
  0
LINE
  5
472
330
1E
100
AcDbEntity
  8
0
100
AcDbLine
 10
484.7081
 20
88.39170000000001
 30
0.0
 11
486.9861
 21
90.1398
 31
0.0
  0
LINE
  5
473
330
1E
100
AcDbEntity
  8
0
100
AcDbLine
 10
489.6391
 20
91.2387
 30
0.0
 11
492.4860999999999
 21
91.6135
 31
0.0
  0
LINE
  5
474
330
1E
100
AcDbEntity
  8
0
100
AcDbLine
 10
486.9861
 20
90.1398
 30
0.0
 11
489.6391
 21
91.2387
 31
0.0
  0
LINE
  5
475
330
1E
100
AcDbEntity
  8
0
100
AcDbLine
 10
492.4860999999999
 20
91.6135
 30
0.0
 11
506.4861
 21
91.6135
 31
0.0
  0
LINE
  5
476
330
1E
100
AcDbEntity
  8
0
100
AcDbLine
 10
461.4861
 20
86.6135
 30
0.0
 11
468.1421
 21
86.6135
 31
0.0
  0
LINE
  5
477
330
1E
100
AcDbEntity
  8
0
100
AcDbLine
 10
506.4861
 20
91.6135
 30
0.0
 11
506.4861
 21
89.0455
 31
0.0
  0
LINE
  5
478
330
1E
100
AcDbEntity
  8
0
100
AcDbLine
 10
506.4861
 20
86.54949999999999
 30
0.0
 11
506.4861
 21
89.0455
 31
0.0
  0
LINE
  5
479
330
1E
100
AcDbEntity
  8
0
100
AcDbLine
 10
506.4861
 20
86.54949999999999
 30
0.0
 11
506.4861
 21
85.6135
 31
0.0
  0
LINE
  5
47A
330
1E
100
AcDbEntity
  8
0
100
AcDbLine
 10
506.4861
 20
89.0455
 30
0.0
 11
506.4861
 21
93.2055
 31
0.0
  0
LINE
  5
47B
330
1E
100
AcDbEntity
  8
0
100
AcDbLine
 10
506.4861
 20
89.0455
 30
0.0
 11
506.4861
 21
86.54949999999999
 31
0.0
  0
LINE
  5
47C
330
1E
100
AcDbEntity
  8
0
100
AcDbLine
 10
506.4861
 20
89.0455
 30
0.0
 11
506.4861
 21
91.6135
 31
0.0
  0
LINE
  5
47D
330
1E
100
AcDbEntity
  8
0
100
AcDbLine
 10
443.2241
 20
93.8133
 30
0.0
 11
448.3190999999999
 21
106.1134999999999
 31
0.0
  0
LINE
  5
47E
330
1E
100
AcDbEntity
  8
0
100
AcDbLine
 10
506.4861
 20
93.2055
 30
0.0
 11
506.4861
 21
98.7175
 31
0.0
  0
LINE
  5
47F
330
1E
100
AcDbEntity
  8
0
100
AcDbLine
 10
506.4861
 20
93.2055
 30
0.0
 11
506.4861
 21
89.0455
 31
0.0
  0
LINE
  5
480
330
1E
100
AcDbEntity
  8
0
100
AcDbLine
 10
508.4861
 20
85.6135
 30
0.0
 11
508.4861
 21
86.54949999999999
 31
0.0
  0
LINE
  5
481
330
1E
100
AcDbEntity
  8
0
100
AcDbLine
 10
508.4861
 20
90.0299
 30
0.0
 11
522.4860999999999
 21
90.0299
 31
0.0
  0
LINE
  5
482
330
1E
100
AcDbEntity
  8
0
100
AcDbLine
 10
508.4861
 20
89.0299
 30
0.0
 11
522.4860999999999
 21
89.0299
 31
0.0
  0
LINE
  5
483
330
1E
100
AcDbEntity
  8
0
100
AcDbLine
 10
508.4861
 20
88.61349999999999
 30
0.0
 11
522.4860999999999
 21
88.61349999999999
 31
0.0
  0
LINE
  5
484
330
1E
100
AcDbEntity
  8
0
100
AcDbLine
 10
508.4861
 20
86.54949999999999
 30
0.0
 11
508.4861
 21
89.0455
 31
0.0
  0
LINE
  5
485
330
1E
100
AcDbEntity
  8
0
100
AcDbLine
 10
508.4861
 20
86.54949999999999
 30
0.0
 11
508.4861
 21
85.6135
 31
0.0
  0
LINE
  5
486
330
1E
100
AcDbEntity
  8
0
100
AcDbLine
 10
508.4861
 20
89.0455
 30
0.0
 11
508.4861
 21
93.2055
 31
0.0
  0
LINE
  5
487
330
1E
100
AcDbEntity
  8
0
100
AcDbLine
 10
508.4861
 20
89.0455
 30
0.0
 11
508.4861
 21
86.54949999999999
 31
0.0
  0
LINE
  5
488
330
1E
100
AcDbEntity
  8
0
100
AcDbLine
 10
508.4861
 20
93.2055
 30
0.0
 11
508.4861
 21
98.7175
 31
0.0
  0
LINE
  5
489
330
1E
100
AcDbEntity
  8
0
100
AcDbLine
 10
508.4861
 20
93.2055
 30
0.0
 11
508.4861
 21
89.0455
 31
0.0
  0
LINE
  5
48A
330
1E
100
AcDbEntity
  8
0
100
AcDbLine
 10
522.4860999999999
 20
91.6135
 30
0.0
 11
544.4860999999999
 21
91.6135
 31
0.0
  0
LINE
  5
48B
330
1E
100
AcDbEntity
  8
0
100
AcDbLine
 10
522.4860999999999
 20
90.0299
 30
0.0
 11
522.4860999999999
 21
92.6279
 31
0.0
  0
LINE
  5
48C
330
1E
100
AcDbEntity
  8
0
100
AcDbLine
 10
522.4860999999999
 20
90.0299
 30
0.0
 11
522.4860999999999
 21
89.0299
 31
0.0
  0
LINE
  5
48D
330
1E
100
AcDbEntity
  8
0
100
AcDbLine
 10
522.4860999999999
 20
89.0299
 30
0.0
 11
522.4860999999999
 21
88.61349999999999
 31
0.0
  0
LINE
  5
48E
330
1E
100
AcDbEntity
  8
0
100
AcDbLine
 10
522.4860999999999
 20
89.0299
 30
0.0
 11
522.4860999999999
 21
90.0299
 31
0.0
  0
LINE
  5
48F
330
1E
100
AcDbEntity
  8
0
100
AcDbLine
 10
522.4860999999999
 20
88.61349999999999
 30
0.0
 11
522.4860999999999
 21
89.0299
 31
0.0
  0
LINE
  5
490
330
1E
100
AcDbEntity
  8
0
100
AcDbLine
 10
522.4860999999999
 20
92.6279
 30
0.0
 11
522.4860999999999
 21
95.32949999999999
 31
0.0
  0
LINE
  5
491
330
1E
100
AcDbEntity
  8
0
100
AcDbLine
 10
522.4860999999999
 20
92.6279
 30
0.0
 11
522.4860999999999
 21
90.0299
 31
0.0
  0
LINE
  5
492
330
1E
100
AcDbEntity
  8
0
100
AcDbLine
 10
552.2641
 20
88.39170000000001
 30
0.0
 11
598.4240999999999
 21
41.66199999999999
 31
0.0
  0
LINE
  5
493
330
1E
100
AcDbEntity
  8
0
100
AcDbLine
 10
549.9861
 20
90.1398
 30
0.0
 11
552.2641
 21
88.39170000000001
 31
0.0
  0
LINE
  5
494
330
1E
100
AcDbEntity
  8
0
100
AcDbLine
 10
544.4860999999999
 20
91.6135
 30
0.0
 11
547.3330999999999
 21
91.2387
 31
0.0
  0
LINE
  5
495
330
1E
100
AcDbEntity
  8
0
100
AcDbLine
 10
547.3330999999999
 20
91.2387
 30
0.0
 11
549.9861
 21
90.1398
 31
0.0
  0
LINE
  5
496
330
1E
100
AcDbEntity
  8
0
100
AcDbLine
 10
522.4860999999999
 20
95.32949999999999
 30
0.0
 11
522.4860999999999
 21
100.2054999999999
 31
0.0
  0
LINE
  5
497
330
1E
100
AcDbEntity
  8
0
100
AcDbLine
 10
522.4860999999999
 20
95.32949999999999
 30
0.0
 11
522.4860999999999
 21
92.6279
 31
0.0
  0
LINE
  5
498
330
1E
100
AcDbEntity
  8
0
100
AcDbLine
 10
522.4860999999999
 20
100.2054999999999
 30
0.0
 11
522.4860999999999
 21
105.7255
 31
0.0
  0
LINE
  5
499
330
1E
100
AcDbEntity
  8
0
100
AcDbLine
 10
522.4860999999999
 20
100.2054999999999
 30
0.0
 11
522.4860999999999
 21
95.32949999999999
 31
0.0
  0
LINE
  5
49A
330
1E
100
AcDbEntity
  8
0
100
AcDbLine
 10
508.4861
 20
98.7175
 30
0.0
 11
508.4861
 21
104.9574999999999
 31
0.0
  0
LINE
  5
49B
330
1E
100
AcDbEntity
  8
0
100
AcDbLine
 10
508.4861
 20
98.7175
 30
0.0
 11
508.4861
 21
93.2055
 31
0.0
  0
LINE
  5
49C
330
1E
100
AcDbEntity
  8
0
100
AcDbLine
 10
508.4861
 20
104.9574999999999
 30
0.0
 11
508.4861
 21
111.6135
 31
0.0
  0
LINE
  5
49D
330
1E
100
AcDbEntity
  8
0
100
AcDbLine
 10
508.4861
 20
104.9574999999999
 30
0.0
 11
508.4861
 21
98.7175
 31
0.0
  0
LINE
  5
49E
330
1E
100
AcDbEntity
  8
0
100
AcDbLine
 10
506.4861
 20
98.7175
 30
0.0
 11
506.4861
 21
104.9574999999999
 31
0.0
  0
LINE
  5
49F
330
1E
100
AcDbEntity
  8
0
100
AcDbLine
 10
506.4861
 20
98.7175
 30
0.0
 11
506.4861
 21
93.2055
 31
0.0
  0
LINE
  5
4A0
330
1E
100
AcDbEntity
  8
0
100
AcDbLine
 10
448.3190999999999
 20
106.1134999999999
 30
0.0
 11
456.4240999999999
 21
116.6759
 31
0.0
  0
LINE
  5
4A1
330
1E
100
AcDbEntity
  8
0
100
AcDbLine
 10
456.4240999999999
 20
116.6759
 30
0.0
 11
466.9861
 21
124.7808
 31
0.0
  0
LINE
  5
4A2
330
1E
100
AcDbEntity
  8
0
100
AcDbLine
 10
479.2861
 20
129.8756999999999
 30
0.0
 11
492.4860999999999
 21
131.6134999999999
 31
0.0
  0
LINE
  5
4A3
330
1E
100
AcDbEntity
  8
0
100
AcDbLine
 10
466.9861
 20
124.7808
 30
0.0
 11
479.2861
 21
129.8756999999999
 31
0.0
  0
LINE
  5
4A4
330
1E
100
AcDbEntity
  8
0
100
AcDbLine
 10
492.4860999999999
 20
131.6134999999999
 30
0.0
 11
506.4861
 21
131.6134999999999
 31
0.0
  0
LINE
  5
4A5
330
1E
100
AcDbEntity
  8
0
100
AcDbLine
 10
506.4861
 20
130.0215
 30
0.0
 11
506.4861
 21
134.1814999999999
 31
0.0
  0
LINE
  5
4A6
330
1E
100
AcDbEntity
  8
0
100
AcDbLine
 10
506.4861
 20
130.0215
 30
0.0
 11
506.4861
 21
124.5095
 31
0.0
  0
LINE
  5
4A7
330
1E
100
AcDbEntity
  8
0
100
AcDbLine
 10
506.4861
 20
124.5095
 30
0.0
 11
506.4861
 21
130.0215
 31
0.0
  0
LINE
  5
4A8
330
1E
100
AcDbEntity
  8
0
100
AcDbLine
 10
506.4861
 20
124.5095
 30
0.0
 11
506.4861
 21
118.2695
 31
0.0
  0
LINE
  5
4A9
330
1E
100
AcDbEntity
  8
0
100
AcDbLine
 10
506.4861
 20
118.2695
 30
0.0
 11
506.4861
 21
124.5095
 31
0.0
  0
LINE
  5
4AA
330
1E
100
AcDbEntity
  8
0
100
AcDbLine
 10
506.4861
 20
118.2695
 30
0.0
 11
506.4861
 21
111.6135
 31
0.0
  0
LINE
  5
4AB
330
1E
100
AcDbEntity
  8
0
100
AcDbLine
 10
506.4861
 20
131.6134999999999
 30
0.0
 11
506.4861
 21
134.1814999999999
 31
0.0
  0
LINE
  5
4AC
330
1E
100
AcDbEntity
  8
0
100
AcDbLine
 10
419.4861
 20
136.6134999999999
 30
0.0
 11
419.4861
 21
140.6134999999999
 31
0.0
  0
LINE
  5
4AD
330
1E
100
AcDbEntity
  8
0
100
AcDbLine
 10
418.1181
 20
136.6134999999999
 30
0.0
 11
419.4861
 21
136.6134999999999
 31
0.0
  0
LINE
  5
4AE
330
1E
100
AcDbEntity
  8
0
100
AcDbLine
 10
506.4861
 20
136.6775
 30
0.0
 11
506.4861
 21
137.6134999999999
 31
0.0
  0
LINE
  5
4AF
330
1E
100
AcDbEntity
  8
0
100
AcDbLine
 10
506.4861
 20
136.6775
 30
0.0
 11
506.4861
 21
134.1814999999999
 31
0.0
  0
LINE
  5
4B0
330
1E
100
AcDbEntity
  8
0
100
AcDbLine
 10
419.4861
 20
140.6134999999999
 30
0.0
 11
419.4861
 21
136.6134999999999
 31
0.0
  0
LINE
  5
4B1
330
1E
100
AcDbEntity
  8
0
100
AcDbLine
 10
418.1181
 20
140.6134999999999
 30
0.0
 11
419.4861
 21
140.6134999999999
 31
0.0
  0
LINE
  5
4B2
330
1E
100
AcDbEntity
  8
0
100
AcDbLine
 10
506.4861
 20
137.6134999999999
 30
0.0
 11
506.4861
 21
136.6775
 31
0.0
  0
LINE
  5
4B3
330
1E
100
AcDbEntity
  8
0
100
AcDbLine
 10
506.4861
 20
137.6134999999999
 30
0.0
 11
508.4861
 21
137.6134999999999
 31
0.0
  0
LINE
  5
4B4
330
1E
100
AcDbEntity
  8
0
100
AcDbLine
 10
506.4861
 20
137.6134999999999
 30
0.0
 11
506.4861
 21
136.6775
 31
0.0
  0
LINE
  5
4B5
330
1E
100
AcDbEntity
  8
0
100
AcDbLine
 10
506.4861
 20
136.6775
 30
0.0
 11
506.4861
 21
134.1814999999999
 31
0.0
  0
LINE
  5
4B6
330
1E
100
AcDbEntity
  8
0
100
AcDbLine
 10
506.4861
 20
136.6775
 30
0.0
 11
506.4861
 21
137.6134999999999
 31
0.0
  0
LINE
  5
4B7
330
1E
100
AcDbEntity
  8
0
100
AcDbLine
 10
506.4861
 20
134.1814999999999
 30
0.0
 11
506.4861
 21
131.6134999999999
 31
0.0
  0
LINE
  5
4B8
330
1E
100
AcDbEntity
  8
0
100
AcDbLine
 10
506.4861
 20
134.1814999999999
 30
0.0
 11
506.4861
 21
136.6775
 31
0.0
  0
LINE
  5
4B9
330
1E
100
AcDbEntity
  8
0
100
AcDbLine
 10
506.4861
 20
134.1814999999999
 30
0.0
 11
506.4861
 21
136.6775
 31
0.0
  0
LINE
  5
4BA
330
1E
100
AcDbEntity
  8
0
100
AcDbLine
 10
506.4861
 20
134.1814999999999
 30
0.0
 11
506.4861
 21
130.0215
 31
0.0
  0
LINE
  5
4BB
330
1E
100
AcDbEntity
  8
0
100
AcDbLine
 10
508.4861
 20
110.6135
 30
0.0
 11
522.4860999999999
 21
110.6135
 31
0.0
  0
LINE
  5
4BC
330
1E
100
AcDbEntity
  8
0
100
AcDbLine
 10
522.4860999999999
 20
110.6135
 30
0.0
 11
522.4860999999999
 21
105.7255
 31
0.0
  0
LINE
  5
4BD
330
1E
100
AcDbEntity
  8
0
100
AcDbLine
 10
522.4860999999999
 20
110.6135
 30
0.0
 11
522.4860999999999
 21
112.6135
 31
0.0
  0
LINE
  5
4BE
330
1E
100
AcDbEntity
  8
0
100
AcDbLine
 10
522.4860999999999
 20
105.7255
 30
0.0
 11
522.4860999999999
 21
110.6135
 31
0.0
  0
LINE
  5
4BF
330
1E
100
AcDbEntity
  8
0
100
AcDbLine
 10
522.4860999999999
 20
105.7255
 30
0.0
 11
522.4860999999999
 21
100.2054999999999
 31
0.0
  0
LINE
  5
4C0
330
1E
100
AcDbEntity
  8
0
100
AcDbLine
 10
508.4861
 20
112.6135
 30
0.0
 11
522.4860999999999
 21
112.6135
 31
0.0
  0
LINE
  5
4C1
330
1E
100
AcDbEntity
  8
0
100
AcDbLine
 10
508.4861
 20
133.1971
 30
0.0
 11
522.4860999999999
 21
133.1971
 31
0.0
  0
LINE
  5
4C2
330
1E
100
AcDbEntity
  8
0
100
AcDbLine
 10
508.4861
 20
134.1971
 30
0.0
 11
522.4860999999999
 21
134.1971
 31
0.0
  0
LINE
  5
4C3
330
1E
100
AcDbEntity
  8
0
100
AcDbLine
 10
508.4861
 20
134.6134999999999
 30
0.0
 11
522.4860999999999
 21
134.6134999999999
 31
0.0
  0
LINE
  5
4C4
330
1E
100
AcDbEntity
  8
0
100
AcDbLine
 10
508.4861
 20
137.6134999999999
 30
0.0
 11
508.4861
 21
136.6775
 31
0.0
  0
LINE
  5
4C5
330
1E
100
AcDbEntity
  8
0
100
AcDbLine
 10
508.4861
 20
136.6775
 30
0.0
 11
508.4861
 21
137.6134999999999
 31
0.0
  0
LINE
  5
4C6
330
1E
100
AcDbEntity
  8
0
100
AcDbLine
 10
508.4861
 20
136.6775
 30
0.0
 11
508.4861
 21
134.1814999999999
 31
0.0
  0
LINE
  5
4C7
330
1E
100
AcDbEntity
  8
0
100
AcDbLine
 10
508.4861
 20
134.1814999999999
 30
0.0
 11
508.4861
 21
136.6775
 31
0.0
  0
LINE
  5
4C8
330
1E
100
AcDbEntity
  8
0
100
AcDbLine
 10
508.4861
 20
134.1814999999999
 30
0.0
 11
508.4861
 21
130.0215
 31
0.0
  0
LINE
  5
4C9
330
1E
100
AcDbEntity
  8
0
100
AcDbLine
 10
508.4861
 20
130.0215
 30
0.0
 11
508.4861
 21
134.1814999999999
 31
0.0
  0
LINE
  5
4CA
330
1E
100
AcDbEntity
  8
0
100
AcDbLine
 10
508.4861
 20
130.0215
 30
0.0
 11
508.4861
 21
124.5095
 31
0.0
  0
LINE
  5
4CB
330
1E
100
AcDbEntity
  8
0
100
AcDbLine
 10
508.4861
 20
124.5095
 30
0.0
 11
508.4861
 21
130.0215
 31
0.0
  0
LINE
  5
4CC
330
1E
100
AcDbEntity
  8
0
100
AcDbLine
 10
508.4861
 20
124.5095
 30
0.0
 11
508.4861
 21
118.2695
 31
0.0
  0
LINE
  5
4CD
330
1E
100
AcDbEntity
  8
0
100
AcDbLine
 10
522.4860999999999
 20
131.6134999999999
 30
0.0
 11
544.4860999999999
 21
131.6134999999999
 31
0.0
  0
LINE
  5
4CE
330
1E
100
AcDbEntity
  8
0
100
AcDbLine
 10
522.4860999999999
 20
133.1971
 30
0.0
 11
522.4860999999999
 21
130.5990999999999
 31
0.0
  0
LINE
  5
4CF
330
1E
100
AcDbEntity
  8
0
100
AcDbLine
 10
522.4860999999999
 20
133.1971
 30
0.0
 11
522.4860999999999
 21
134.1971
 31
0.0
  0
LINE
  5
4D0
330
1E
100
AcDbEntity
  8
0
100
AcDbLine
 10
522.4860999999999
 20
130.5990999999999
 30
0.0
 11
522.4860999999999
 21
127.8974999999999
 31
0.0
  0
LINE
  5
4D1
330
1E
100
AcDbEntity
  8
0
100
AcDbLine
 10
522.4860999999999
 20
130.5990999999999
 30
0.0
 11
522.4860999999999
 21
133.1971
 31
0.0
  0
LINE
  5
4D2
330
1E
100
AcDbEntity
  8
0
100
AcDbLine
 10
522.4860999999999
 20
134.6134999999999
 30
0.0
 11
522.4860999999999
 21
134.1971
 31
0.0
  0
LINE
  5
4D3
330
1E
100
AcDbEntity
  8
0
100
AcDbLine
 10
522.4860999999999
 20
134.1971
 30
0.0
 11
522.4860999999999
 21
134.6134999999999
 31
0.0
  0
LINE
  5
4D4
330
1E
100
AcDbEntity
  8
0
100
AcDbLine
 10
522.4860999999999
 20
134.1971
 30
0.0
 11
522.4860999999999
 21
133.1971
 31
0.0
  0
LINE
  5
4D5
330
1E
100
AcDbEntity
  8
0
100
AcDbLine
 10
522.4860999999999
 20
127.8974999999999
 30
0.0
 11
522.4860999999999
 21
130.5990999999999
 31
0.0
  0
LINE
  5
4D6
330
1E
100
AcDbEntity
  8
0
100
AcDbLine
 10
522.4860999999999
 20
127.8974999999999
 30
0.0
 11
522.4860999999999
 21
123.0215
 31
0.0
  0
LINE
  5
4D7
330
1E
100
AcDbEntity
  8
0
100
AcDbLine
 10
522.4860999999999
 20
123.0215
 30
0.0
 11
522.4860999999999
 21
127.8974999999999
 31
0.0
  0
LINE
  5
4D8
330
1E
100
AcDbEntity
  8
0
100
AcDbLine
 10
522.4860999999999
 20
123.0215
 30
0.0
 11
522.4860999999999
 21
117.5014999999999
 31
0.0
  0
LINE
  5
4D9
330
1E
100
AcDbEntity
  8
0
100
AcDbLine
 10
580.5480999999999
 20
116.6759
 30
0.0
 11
626.7080999999999
 21
69.94620000000001
 31
0.0
  0
LINE
  5
4DA
330
1E
100
AcDbEntity
  8
0
100
AcDbLine
 10
569.9860999999999
 20
124.7808
 30
0.0
 11
580.5480999999999
 21
116.6759
 31
0.0
  0
LINE
  5
4DB
330
1E
100
AcDbEntity
  8
0
100
AcDbLine
 10
544.4860999999999
 20
131.6134999999999
 30
0.0
 11
557.6861
 21
129.8756999999999
 31
0.0
  0
LINE
  5
4DC
330
1E
100
AcDbEntity
  8
0
100
AcDbLine
 10
557.6861
 20
129.8756999999999
 30
0.0
 11
569.9860999999999
 21
124.7808
 31
0.0
  0
LINE
  5
4DD
330
1E
100
AcDbEntity
  8
0
100
AcDbLine
 10
522.4860999999999
 20
117.5014999999999
 30
0.0
 11
522.4860999999999
 21
123.0215
 31
0.0
  0
LINE
  5
4DE
330
1E
100
AcDbEntity
  8
0
100
AcDbLine
 10
522.4860999999999
 20
117.5014999999999
 30
0.0
 11
522.4860999999999
 21
112.6135
 31
0.0
  0
LINE
  5
4DF
330
1E
100
AcDbEntity
  8
0
100
AcDbLine
 10
522.4860999999999
 20
112.6135
 30
0.0
 11
522.4860999999999
 21
117.5014999999999
 31
0.0
  0
LINE
  5
4E0
330
1E
100
AcDbEntity
  8
0
100
AcDbLine
 10
522.4860999999999
 20
112.6135
 30
0.0
 11
522.4860999999999
 21
110.6135
 31
0.0
  0
LINE
  5
4E1
330
1E
100
AcDbEntity
  8
0
100
AcDbLine
 10
508.4861
 20
118.2695
 30
0.0
 11
508.4861
 21
124.5095
 31
0.0
  0
LINE
  5
4E2
330
1E
100
AcDbEntity
  8
0
100
AcDbLine
 10
508.4861
 20
118.2695
 30
0.0
 11
508.4861
 21
111.6135
 31
0.0
  0
LINE
  5
4E3
330
1E
100
AcDbEntity
  8
0
100
AcDbLine
 10
508.4861
 20
111.6135
 30
0.0
 11
508.4861
 21
104.9574999999999
 31
0.0
  0
LINE
  5
4E4
330
1E
100
AcDbEntity
  8
0
100
AcDbLine
 10
508.4861
 20
111.6135
 30
0.0
 11
508.4861
 21
118.2695
 31
0.0
  0
LINE
  5
4E5
330
1E
100
AcDbEntity
  8
0
100
AcDbLine
 10
506.4861
 20
111.6135
 30
0.0
 11
506.4861
 21
104.9574999999999
 31
0.0
  0
LINE
  5
4E6
330
1E
100
AcDbEntity
  8
0
100
AcDbLine
 10
506.4861
 20
111.6135
 30
0.0
 11
506.4861
 21
118.2695
 31
0.0
  0
LINE
  5
4E7
330
1E
100
AcDbEntity
  8
0
100
AcDbLine
 10
506.4861
 20
104.9574999999999
 30
0.0
 11
506.4861
 21
111.6135
 31
0.0
  0
LINE
  5
4E8
330
1E
100
AcDbEntity
  8
0
100
AcDbLine
 10
506.4861
 20
104.9574999999999
 30
0.0
 11
506.4861
 21
98.7175
 31
0.0
  0
LINE
  5
4E9
330
1E
100
AcDbEntity
  8
0
100
AcDbLine
 10
598.4240999999999
 20
41.66199999999999
 30
0.0
 11
601.623877060522
 21
38.46177035432059
 31
0.0
  0
LINE
  5
4EA
330
1E
100
AcDbEntity
  8
0
100
AcDbLine
 10
598.4080999999999
 20
35.2455
 30
0.0
 11
632.0891
 21
68.9268
 31
0.0
  0
LINE
  5
4EB
330
1E
100
AcDbEntity
  8
0
100
AcDbLine
 10
598.4080999999999
 20
35.2455
 30
0.0
 11
632.0891
 21
68.9268
 31
0.0
  0
LINE
  5
4EC
330
1E
100
AcDbEntity
  8
0
100
AcDbLine
 10
597.7460999999999
 20
34.5845
 30
0.0
 11
598.4530999999999
 21
33.8765
 31
0.0
  0
LINE
  5
4ED
330
1E
100
AcDbEntity
  8
0
100
AcDbLine
 10
597.7460999999999
 20
34.5845
 30
0.0
 11
598.4080999999999
 21
35.2455
 31
0.0
  0
LINE
  5
4EF
330
1E
100
AcDbEntity
  8
0
100
AcDbLine
 10
633.8080999999999
 20
-0.0644999999999844
 30
0.0
 11
634.4451
 21
0.572500000000016
 31
0.0
  0
LINE
  5
4F0
330
1E
100
AcDbEntity
  8
0
100
AcDbLine
 10
633.8080999999999
 20
-0.0644999999999844
 30
0.0
 11
634.4451
 21
0.572500000000016
 31
0.0
  0
LINE
  5
50C
330
1E
100
AcDbEntity
  8
0
100
AcDbLine
 10
633.8080999999999
 20
-0.0644999999999844
 30
0.0
 11
634.4451
 21
0.572500000000016
 31
0.0
  0
LINE
  5
50D
330
1E
100
AcDbEntity
  8
0
100
AcDbLine
 10
633.8080999999999
 20
-0.0644999999999844
 30
0.0
 11
634.4451
 21
0.572500000000016
 31
0.0
  0
LINE
  5
50E
330
1E
100
AcDbEntity
  8
0
100
AcDbLine
 10
599.1151
 20
34.5385
 30
0.0
 11
599.160599992785
 21
34.5839999927848
 31
0.0
  0
LINE
  5
50F
330
1E
100
AcDbEntity
  8
0
100
AcDbLine
 10
599.160599992785
 20
34.5839999927848
 30
0.0
 11
633.8080999999999
 21
-0.0644999999999826
 31
0.0
  0
LINE
  5
510
330
1E
100
AcDbEntity
  8
0
100
AcDbLine
 10
599.160599992785
 20
34.5839999927848
 30
0.0
 11
633.8080999999999
 21
-0.0644999999999844
 31
0.0
  0
LINE
  5
513
330
1E
100
AcDbEntity
  8
0
100
AcDbLine
 10
634.4451
 20
0.5725000000000194
 30
0.0
 11
669.1640999999999
 21
35.2915
 31
0.0
  0
LINE
  5
52D
330
1E
100
AcDbEntity
  8
0
100
AcDbLine
 10
626.7080999999999
 20
69.94620000000001
 30
0.0
 11
629.908340948747
 21
66.7464115740112
 31
0.0
  0
LINE
  5
530
330
1E
100
AcDbEntity
  8
0
100
AcDbLine
 10
632.0891
 20
68.9268
 30
0.0
 11
633.8541
 21
70.6918
 31
0.0
  0
LINE
  5
533
330
1E
100
AcDbEntity
  8
0
100
AcDbLine
 10
634.5154500055559
 20
69.9390500055558
 30
0.0
 11
669.1640999999999
 21
35.2915
 31
0.0
  0
LINE
  5
535
330
1E
100
AcDbEntity
  8
0
100
AcDbLine
 10
634.5150999999999
 20
71.3536
 30
0.0
 11
635.2231
 21
70.6465
 31
0.0
  0
LINE
  5
536
330
1E
100
AcDbEntity
  8
0
100
AcDbLine
 10
633.8541
 20
70.6918
 30
0.0
 11
634.5150999999999
 21
71.3536
 31
0.0
  0
LINE
  5
537
330
1E
100
AcDbEntity
  8
0
100
AcDbLine
 10
599.160599992785
 20
34.5839999927848
 30
0.0
 11
635.2231
 21
70.6465
 31
0.0
  0
LINE
  5
53F
330
1E
100
AcDbEntity
  8
0
100
AcDbLine
 10
598.4530999999999
 20
33.8765
 30
0.0
 11
599.1151
 21
34.5385
 31
0.0
  0
LINE
  5
540
330
1E
100
AcDbEntity
  8
0
100
AcDbLine
 10
598.4530999999999
 20
33.8765
 30
0.0
 11
599.1151
 21
34.5385
 31
0.0
  0
LINE
  5
541
330
1E
100
AcDbEntity
  8
0
100
AcDbLine
 10
416.4861
 20
150.6135
 30
0.0
 11
416.4861
 21
152.6135
 31
0.0
  0
LINE
  5
542
330
1E
100
AcDbEntity
  8
0
100
AcDbLine
 10
415.2261
 20
150.6135
 30
0.0
 11
416.4861
 21
150.6135
 31
0.0
  0
LINE
  5
543
330
1E
100
AcDbEntity
  8
0
100
AcDbLine
 10
374.5740999999999
 20
150.6135
 30
0.0
 11
381.4861
 21
150.6135
 31
0.0
  0
LINE
  5
544
330
1E
100
AcDbEntity
  8
0
100
AcDbLine
 10
368.0941
 20
150.6135
 30
0.0
 11
374.5740999999999
 21
150.6135
 31
0.0
  0
LINE
  5
545
330
1E
100
AcDbEntity
  8
0
100
AcDbLine
 10
372.5260999999999
 20
150.6135
 30
0.0
 11
381.4861
 21
150.6135
 31
0.0
  0
LINE
  5
546
330
1E
100
AcDbEntity
  8
0
100
AcDbLine
 10
364.1261
 20
150.6135
 30
0.0
 11
372.5260999999999
 21
150.6135
 31
0.0
  0
LINE
  5
547
330
1E
100
AcDbEntity
  8
0
100
AcDbLine
 10
356.7060999999999
 20
150.6135
 30
0.0
 11
364.1261
 21
150.6135
 31
0.0
  0
LINE
  5
548
330
1E
100
AcDbEntity
  8
0
100
AcDbLine
 10
351.1061
 20
150.6135
 30
0.0
 11
356.7060999999999
 21
150.6135
 31
0.0
  0
LINE
  5
549
330
1E
100
AcDbEntity
  8
0
100
AcDbLine
 10
351.1061
 20
150.6135
 30
0.0
 11
354.4861
 21
150.6135
 31
0.0
  0
LINE
  5
54A
330
1E
100
AcDbEntity
  8
0
100
AcDbLine
 10
381.4861
 20
152.6135
 30
0.0
 11
390.4460999999999
 21
152.6135
 31
0.0
  0
LINE
  5
54B
330
1E
100
AcDbEntity
  8
0
100
AcDbLine
 10
390.4460999999999
 20
152.6135
 30
0.0
 11
398.8461
 21
152.6135
 31
0.0
  0
LINE
  5
54C
330
1E
100
AcDbEntity
  8
0
100
AcDbLine
 10
398.8461
 20
152.6135
 30
0.0
 11
406.2661
 21
152.6135
 31
0.0
  0
LINE
  5
54D
330
1E
100
AcDbEntity
  8
0
100
AcDbLine
 10
406.2661
 20
152.6135
 30
0.0
 11
411.8661
 21
152.6135
 31
0.0
  0
LINE
  5
54E
330
1E
100
AcDbEntity
  8
0
100
AcDbLine
 10
416.4861
 20
152.6135
 30
0.0
 11
416.4861
 21
150.6135
 31
0.0
  0
LINE
  5
54F
330
1E
100
AcDbEntity
  8
0
100
AcDbLine
 10
411.8661
 20
152.6135
 30
0.0
 11
415.2261
 21
152.6135
 31
0.0
  0
LINE
  5
550
330
1E
100
AcDbEntity
  8
0
100
AcDbLine
 10
415.2261
 20
152.6135
 30
0.0
 11
416.4861
 21
152.6135
 31
0.0
  0
LINE
  5
551
330
1E
100
AcDbEntity
  8
0
100
AcDbLine
 10
372.5260999999999
 20
152.6135
 30
0.0
 11
381.4861
 21
152.6135
 31
0.0
  0
LINE
  5
552
330
1E
100
AcDbEntity
  8
0
100
AcDbLine
 10
364.1261
 20
152.6135
 30
0.0
 11
372.5260999999999
 21
152.6135
 31
0.0
  0
LINE
  5
553
330
1E
100
AcDbEntity
  8
0
100
AcDbLine
 10
356.7060999999999
 20
152.6135
 30
0.0
 11
364.1261
 21
152.6135
 31
0.0
  0
LINE
  5
554
330
1E
100
AcDbEntity
  8
0
100
AcDbLine
 10
351.1061
 20
152.6135
 30
0.0
 11
356.7060999999999
 21
152.6135
 31
0.0
  0
LINE
  5
555
330
1E
100
AcDbEntity
  8
0
100
AcDbLine
 10
347.7461
 20
152.6135
 30
0.0
 11
351.1061
 21
152.6135
 31
0.0
  0
LINE
  5
556
330
1E
100
AcDbEntity
  8
0
100
AcDbLine
 10
347.7461
 20
150.6135
 30
0.0
 11
351.1061
 21
150.6135
 31
0.0
  0
LINE
  5
557
330
1E
100
AcDbEntity
  8
0
100
AcDbLine
 10
346.4861
 20
150.6135
 30
0.0
 11
347.7461
 21
150.6135
 31
0.0
  0
LINE
  5
558
330
1E
100
AcDbEntity
  8
0
100
AcDbLine
 10
346.4861
 20
150.6135
 30
0.0
 11
346.4861
 21
152.6135
 31
0.0
  0
ENDSEC
  0
SECTION
  2
OBJECTS
  0
DICTIONARY
  5
C
330
0
100
AcDbDictionary
281
     1
  3
ACAD_GROUP
350
D
  3
ACAD_LAYOUT
350
19
  3
ACAD_MLINESTYLE
350
16
  3
ACAD_PLOTSETTINGS
350
18
  3
ACAD_PLOTSTYLENAME
350
E
  3
AcDbVariableDictionary
350
55D
  0
DICTIONARY
  5
D
102
{ACAD_REACTORS
330
C
102
}
330
C
100
AcDbDictionary
281
     1
  0
DICTIONARY
  5
19
102
{ACAD_REACTORS
330
C
102
}
330
C
100
AcDbDictionary
281
     1
  3
Layout1
350
1D
  3
Model
350
21
  0
DICTIONARY
  5
16
102
{ACAD_REACTORS
330
C
102
}
330
C
100
AcDbDictionary
281
     1
  3
Standard
350
17
  0
DICTIONARY
  5
18
102
{ACAD_REACTORS
330
C
102
}
330
C
100
AcDbDictionary
281
     1
  0
ACDBDICTIONARYWDFLT
  5
E
102
{ACAD_REACTORS
330
C
102
}
330
C
100
AcDbDictionary
281
     1
  3
Normal
350
F
100
AcDbDictionaryWithDefault
340
F
  0
DICTIONARY
  5
55D
102
{ACAD_REACTORS
330
C
102
}
330
C
100
AcDbDictionary
281
     1
  3
DIMASSOC
350
55E
  0
LAYOUT
  5
1D
102
{ACAD_REACTORS
330
19
102
}
330
19
100
AcDbPlotSettings
  1

  2
hp deskjet 980c series
  4

  6

 40
0.0
 41
0.0
 42
0.0
 43
0.0
 44
0.0
 45
0.0
 46
0.0
 47
0.0
 48
0.0
 49
0.0
140
0.0
141
0.0
142
1.0
143
1.0
 70
   688
 72
     0
 73
     0
 74
     5
  7

 75
    16
147
1.0
148
0.0
149
0.0
100
AcDbLayout
  1
Layout1
 70
     1
 71
     1
 10
0.0
 20
0.0
 11
12.0
 21
9.0
 12
0.0
 22
0.0
 32
0.0
 14
1.000000000000000E+20
 24
1.000000000000000E+20
 34
1.000000000000000E+20
 15
-1.000000000000000E+20
 25
-1.000000000000000E+20
 35
-1.000000000000000E+20
146
0.0
 13
0.0
 23
0.0
 33
0.0
 16
1.0
 26
0.0
 36
0.0
 17
0.0
 27
1.0
 37
0.0
 76
     0
330
1A
  0
LAYOUT
  5
21
102
{ACAD_REACTORS
330
19
102
}
330
19
100
AcDbPlotSettings
  1

  2
hp deskjet 980c series
  4

  6

 40
0.0
 41
0.0
 42
0.0
 43
0.0
 44
0.0
 45
0.0
 46
0.0
 47
0.0
 48
0.0
 49
0.0
140
0.0
141
0.0
142
1.0
143
1.0
 70
  1712
 72
     0
 73
     0
 74
     0
  7

 75
     0
147
1.0
148
0.0
149
0.0
100
AcDbLayout
  1
Model
 70
     1
 71
     0
 10
0.0
 20
0.0
 11
12.0
 21
9.0
 12
0.0
 22
0.0
 32
0.0
 14
0.0
 24
0.0
 34
0.0
 15
0.0
 25
0.0
 35
0.0
146
0.0
 13
0.0
 23
0.0
 33
0.0
 16
1.0
 26
0.0
 36
0.0
 17
0.0
 27
1.0
 37
0.0
 76
     0
330
1E
  0
MLINESTYLE
  5
17
102
{ACAD_REACTORS
330
16
102
}
330
16
100
AcDbMlineStyle
  2
STANDARD
 70
     0
  3

 62
   256
 51
90.0
 52
90.0
 71
     2
 49
0.5
 62
   256
  6
BYLAYER
 49
-0.5
 62
   256
  6
BYLAYER
  0
ACDBPLACEHOLDER
  5
F
102
{ACAD_REACTORS
330
E
102
}
330
E
  0
DICTIONARYVAR
  5
55E
102
{ACAD_REACTORS
330
55D
102
}
330
55D
100
DictionaryVariables
280
     0
  1
1
  0
ENDSEC
  0
EOF
