  0
SECTION
  2
HEADER
  9
$ACADVER
  1
AC1015
  9
$ACADMAINTVER
 70
    13
  9
$DWGCODEPAGE
  3
ANSI_1252
  9
$INSBASE
 10
0.0
 20
0.0
 30
0.0
  9
$EXTMIN
 10
-0.249992000000003
 20
-0.176500000000029
 30
0.0
  9
$EXTMAX
 10
102.249992
 20
570.1765
 30
0.0
  9
$LIMMIN
 10
0.0
 20
0.0
  9
$LIMMAX
 10
12.0
 20
9.0
  9
$ORTHOMODE
 70
     0
  9
$REGENMODE
 70
     1
  9
$FILLMODE
 70
     1
  9
$QTEXTMODE
 70
     0
  9
$MIRRTEXT
 70
     1
  9
$LTSCALE
 40
1.0
  9
$ATTMODE
 70
     1
  9
$TEXTSIZE
 40
0.2
  9
$TRACEWID
 40
0.05
  9
$TEXTSTYLE
  7
Standard
  9
$CLAYER
  8
0
  9
$CELTYPE
  6
Continuous
  9
$CECOLOR
 62
   256
  9
$CELTSCALE
 40
1.0
  9
$DISPSILH
 70
     0
  9
$DIMSCALE
 40
1.0
  9
$DIMASZ
 40
0.18
  9
$DIMEXO
 40
0.0625
  9
$DIMDLI
 40
0.38
  9
$DIMRND
 40
0.0
  9
$DIMDLE
 40
0.0
  9
$DIMEXE
 40
0.18
  9
$DIMTP
 40
0.0
  9
$DIMTM
 40
0.0
  9
$DIMTXT
 40
0.18
  9
$DIMCEN
 40
0.09
  9
$DIMTSZ
 40
0.0
  9
$DIMTOL
 70
     0
  9
$DIMLIM
 70
     0
  9
$DIMTIH
 70
     1
  9
$DIMTOH
 70
     1
  9
$DIMSE1
 70
     0
  9
$DIMSE2
 70
     0
  9
$DIMTAD
 70
     0
  9
$DIMZIN
 70
     0
  9
$DIMBLK
  1

  9
$DIMASO
 70
     1
  9
$DIMSHO
 70
     1
  9
$DIMPOST
  1

  9
$DIMAPOST
  1

  9
$DIMALT
 70
     0
  9
$DIMALTD
 70
     2
  9
$DIMALTF
 40
25.4
  9
$DIMLFAC
 40
1.0
  9
$DIMTOFL
 70
     0
  9
$DIMTVP
 40
0.0
  9
$DIMTIX
 70
     0
  9
$DIMSOXD
 70
     0
  9
$DIMSAH
 70
     0
  9
$DIMBLK1
  1

  9
$DIMBLK2
  1

  9
$DIMSTYLE
  2
Standard
  9
$DIMCLRD
 70
     0
  9
$DIMCLRE
 70
     0
  9
$DIMCLRT
 70
     0
  9
$DIMTFAC
 40
1.0
  9
$DIMGAP
 40
0.09
  9
$DIMJUST
 70
     0
  9
$DIMSD1
 70
     0
  9
$DIMSD2
 70
     0
  9
$DIMTOLJ
 70
     1
  9
$DIMTZIN
 70
     0
  9
$DIMALTZ
 70
     0
  9
$DIMALTTZ
 70
     0
  9
$DIMUPT
 70
     0
  9
$DIMDEC
 70
     4
  9
$DIMTDEC
 70
     4
  9
$DIMALTU
 70
     2
  9
$DIMALTTD
 70
     2
  9
$DIMTXSTY
  7
Standard
  9
$DIMAUNIT
 70
     0
  9
$DIMADEC
 70
     0
  9
$DIMALTRND
 40
0.0
  9
$DIMAZIN
 70
     0
  9
$DIMDSEP
 70
    46
  9
$DIMATFIT
 70
     3
  9
$DIMFRAC
 70
     0
  9
$DIMLDRBLK
  1

  9
$DIMLUNIT
 70
     2
  9
$DIMLWD
 70
    -2
  9
$DIMLWE
 70
    -2
  9
$DIMTMOVE
 70
     0
  9
$LUNITS
 70
     2
  9
$LUPREC
 70
     4
  9
$SKETCHINC
 40
0.1
  9
$FILLETRAD
 40
0.0
  9
$AUNITS
 70
     0
  9
$AUPREC
 70
     0
  9
$MENU
  1
.
  9
$ELEVATION
 40
0.0
  9
$PELEVATION
 40
0.0
  9
$THICKNESS
 40
0.0
  9
$LIMCHECK
 70
     0
  9
$CHAMFERA
 40
0.0
  9
$CHAMFERB
 40
0.0
  9
$CHAMFERC
 40
0.0
  9
$CHAMFERD
 40
0.0
  9
$SKPOLY
 70
     0
  9
$TDCREATE
 40
2454781.444637395
  9
$TDUCREATE
 40
2454781.402970729
  9
$TDUPDATE
 40
2454781.447322407
  9
$TDUUPDATE
 40
2454781.405655740
  9
$TDINDWG
 40
0.0026853704
  9
$TDUSRTIMER
 40
0.0026853704
  9
$USRTIMER
 70
     1
  9
$ANGBASE
 50
0.0
  9
$ANGDIR
 70
     0
  9
$PDMODE
 70
     0
  9
$PDSIZE
 40
0.0
  9
$PLINEWID
 40
0.0
  9
$SPLFRAME
 70
     0
  9
$SPLINETYPE
 70
     6
  9
$SPLINESEGS
 70
     8
  9
$HANDSEED
  5
3E6
  9
$SURFTAB1
 70
     6
  9
$SURFTAB2
 70
     6
  9
$SURFTYPE
 70
     6
  9
$SURFU
 70
     6
  9
$SURFV
 70
     6
  9
$UCSBASE
  2

  9
$UCSNAME
  2

  9
$UCSORG
 10
0.0
 20
0.0
 30
0.0
  9
$UCSXDIR
 10
1.0
 20
0.0
 30
0.0
  9
$UCSYDIR
 10
0.0
 20
1.0
 30
0.0
  9
$UCSORTHOREF
  2

  9
$UCSORTHOVIEW
 70
     1
  9
$UCSORGTOP
 10
0.0
 20
0.0
 30
0.0
  9
$UCSORGBOTTOM
 10
0.0
 20
0.0
 30
0.0
  9
$UCSORGLEFT
 10
0.0
 20
0.0
 30
0.0
  9
$UCSORGRIGHT
 10
0.0
 20
0.0
 30
0.0
  9
$UCSORGFRONT
 10
0.0
 20
0.0
 30
0.0
  9
$UCSORGBACK
 10
0.0
 20
0.0
 30
0.0
  9
$PUCSBASE
  2

  9
$PUCSNAME
  2

  9
$PUCSORG
 10
0.0
 20
0.0
 30
0.0
  9
$PUCSXDIR
 10
1.0
 20
0.0
 30
0.0
  9
$PUCSYDIR
 10
0.0
 20
1.0
 30
0.0
  9
$PUCSORTHOREF
  2

  9
$PUCSORTHOVIEW
 70
     0
  9
$PUCSORGTOP
 10
0.0
 20
0.0
 30
0.0
  9
$PUCSORGBOTTOM
 10
0.0
 20
0.0
 30
0.0
  9
$PUCSORGLEFT
 10
0.0
 20
0.0
 30
0.0
  9
$PUCSORGRIGHT
 10
0.0
 20
0.0
 30
0.0
  9
$PUCSORGFRONT
 10
0.0
 20
0.0
 30
0.0
  9
$PUCSORGBACK
 10
0.0
 20
0.0
 30
0.0
  9
$USERI1
 70
     0
  9
$USERI2
 70
     0
  9
$USERI3
 70
     0
  9
$USERI4
 70
     0
  9
$USERI5
 70
     0
  9
$USERR1
 40
0.0
  9
$USERR2
 40
0.0
  9
$USERR3
 40
0.0
  9
$USERR4
 40
0.0
  9
$USERR5
 40
0.0
  9
$WORLDVIEW
 70
     1
  9
$SHADEDGE
 70
     3
  9
$SHADEDIF
 70
    70
  9
$TILEMODE
 70
     1
  9
$MAXACTVP
 70
    64
  9
$PINSBASE
 10
0.0
 20
0.0
 30
0.0
  9
$PLIMCHECK
 70
     0
  9
$PEXTMIN
 10
1.000000000000000E+20
 20
1.000000000000000E+20
 30
1.000000000000000E+20
  9
$PEXTMAX
 10
-1.000000000000000E+20
 20
-1.000000000000000E+20
 30
-1.000000000000000E+20
  9
$PLIMMIN
 10
0.0
 20
0.0
  9
$PLIMMAX
 10
12.0
 20
9.0
  9
$UNITMODE
 70
     0
  9
$VISRETAIN
 70
     1
  9
$PLINEGEN
 70
     0
  9
$PSLTSCALE
 70
     1
  9
$TREEDEPTH
 70
  3020
  9
$CMLSTYLE
  2
Standard
  9
$CMLJUST
 70
     0
  9
$CMLSCALE
 40
1.0
  9
$PROXYGRAPHICS
 70
     1
  9
$MEASUREMENT
 70
     0
  9
$CELWEIGHT
370
    -1
  9
$ENDCAPS
280
     0
  9
$JOINSTYLE
280
     0
  9
$LWDISPLAY
290
     0
  9
$INSUNITS
 70
     0
  9
$HYPERLINKBASE
  1

  9
$STYLESHEET
  1

  9
$XEDIT
290
     1
  9
$CEPSNTYPE
380
     0
  9
$PSTYLEMODE
290
     1
  9
$FINGERPRINTGUID
  2
{61EA93A2-EF7C-44B9-A9EF-8F8BDFF84DD8}
  9
$VERSIONGUID
  2
{4E4A8E42-54D7-4293-AE8E-F8BF6F7B04F1}
  9
$EXTNAMES
290
     1
  9
$PSVPSCALE
 40
0.0
  9
$OLESTARTUP
290
     0
  0
ENDSEC
  0
SECTION
  2
CLASSES
  0
CLASS
  1
ACDBDICTIONARYWDFLT
  2
AcDbDictionaryWithDefault
  3
AutoCAD 2000
 90
        0
280
     0
281
     0
  0
CLASS
  1
ACDBPLACEHOLDER
  2
AcDbPlaceHolder
  3
AutoCAD 2000
 90
        0
280
     0
281
     0
  0
CLASS
  1
LAYOUT
  2
AcDbLayout
  3
AutoCAD 2000
 90
        0
280
     0
281
     0
  0
CLASS
  1
DICTIONARYVAR
  2
AcDbDictionaryVar
  3
AutoCAD 2000
 90
        0
280
     0
281
     0
  0
ENDSEC
  0
SECTION
  2
TABLES
  0
TABLE
  2
VPORT
  5
8
330
0
100
AcDbSymbolTable
 70
     2
  0
VPORT
  5
3E5
330
8
100
AcDbSymbolTableRecord
100
AcDbViewportTableRecord
  2
*Active
 70
     0
 10
0.0
 20
0.0
 11
1.0
 21
1.0
 12
51.0
 22
285.0
 13
0.0
 23
0.0
 14
1.0
 24
1.0
 15
0.0
 25
0.0
 16
0.0
 26
0.0
 36
1.0
 17
0.0
 27
0.0
 37
0.0
 40
574.7291099744246
 41
2.078104993597951
 42
50.0
 43
0.0
 44
0.0
 50
0.0
 51
0.0
 71
     0
 72
   100
 73
     1
 74
     3
 75
     0
 76
     0
 77
     0
 78
     0
281
     0
 65
     1
110
0.0
120
0.0
130
0.0
111
1.0
121
0.0
131
0.0
112
0.0
122
1.0
132
0.0
 79
     1
146
0.0
  0
ENDTAB
  0
TABLE
  2
LTYPE
  5
5
330
0
100
AcDbSymbolTable
 70
     1
  0
LTYPE
  5
13
330
5
100
AcDbSymbolTableRecord
100
AcDbLinetypeTableRecord
  2
ByBlock
 70
     0
  3

 72
    65
 73
     0
 40
0.0
  0
LTYPE
  5
14
330
5
100
AcDbSymbolTableRecord
100
AcDbLinetypeTableRecord
  2
ByLayer
 70
     0
  3

 72
    65
 73
     0
 40
0.0
  0
LTYPE
  5
15
330
5
100
AcDbSymbolTableRecord
100
AcDbLinetypeTableRecord
  2
Continuous
 70
     0
  3
Solid line
 72
    65
 73
     0
 40
0.0
  0
ENDTAB
  0
TABLE
  2
LAYER
  5
2
330
0
100
AcDbSymbolTable
 70
     1
  0
LAYER
  5
10
330
2
100
AcDbSymbolTableRecord
100
AcDbLayerTableRecord
  2
0
 70
     0
 62
     7
  6
Continuous
370
    -3
390
F
  0
ENDTAB
  0
TABLE
  2
STYLE
  5
3
330
0
100
AcDbSymbolTable
 70
     1
  0
STYLE
  5
11
330
3
100
AcDbSymbolTableRecord
100
AcDbTextStyleTableRecord
  2
Standard
 70
     0
 40
0.0
 41
1.0
 50
0.0
 71
     0
 42
0.2
  3
txt
  4

  0
ENDTAB
  0
TABLE
  2
VIEW
  5
6
330
0
100
AcDbSymbolTable
 70
     0
  0
ENDTAB
  0
TABLE
  2
UCS
  5
7
330
0
100
AcDbSymbolTable
 70
     0
  0
ENDTAB
  0
TABLE
  2
APPID
  5
9
330
0
100
AcDbSymbolTable
 70
     1
  0
APPID
  5
12
330
9
100
AcDbSymbolTableRecord
100
AcDbRegAppTableRecord
  2
ACAD
 70
     0
  0
ENDTAB
  0
TABLE
  2
DIMSTYLE
  5
A
330
0
100
AcDbSymbolTable
 70
     1
100
AcDbDimStyleTable
 71
     0
  0
DIMSTYLE
105
3DC
330
A
100
AcDbSymbolTableRecord
100
AcDbDimStyleTableRecord
  2
Standard
 70
     0
340
11
  0
ENDTAB
  0
TABLE
  2
BLOCK_RECORD
  5
1
330
0
100
AcDbSymbolTable
 70
     0
  0
BLOCK_RECORD
  5
1E
330
1
100
AcDbSymbolTableRecord
100
AcDbBlockTableRecord
  2
*Model_Space
340
21
  0
BLOCK_RECORD
  5
1A
330
1
100
AcDbSymbolTableRecord
100
AcDbBlockTableRecord
  2
*Paper_Space
340
1D
  0
ENDTAB
  0
ENDSEC
  0
SECTION
  2
BLOCKS
  0
BLOCK
  5
1F
330
1E
100
AcDbEntity
  8
0
100
AcDbBlockBegin
  2
*Model_Space
 70
     0
 10
0.0
 20
0.0
 30
0.0
  3
*Model_Space
  1

  0
ENDBLK
  5
20
330
1E
100
AcDbEntity
  8
0
100
AcDbBlockEnd
  0
BLOCK
  5
1B
330
1A
100
AcDbEntity
 67
     1
  8
0
100
AcDbBlockBegin
  2
*Paper_Space
 70
     0
 10
0.0
 20
0.0
 30
0.0
  3
*Paper_Space
  1

  0
ENDBLK
  5
1C
330
1A
100
AcDbEntity
 67
     1
  8
0
100
AcDbBlockEnd
  0
ENDSEC
  0
SECTION
  2
ENTITIES
  0
LINE
  5
22
330
1E
100
AcDbEntity
  8
0
100
AcDbLine
 10
25.249992
 20
96.5015
 30
0.0
 11
37.249992
 21
96.5015
 31
0.0
  0
LINE
  5
23
330
1E
100
AcDbEntity
  8
0
100
AcDbLine
 10
25.249992
 20
96.5015
 30
0.0
 11
37.249992
 21
96.5015
 31
0.0
  0
LINE
  5
24
330
1E
100
AcDbEntity
  8
0
100
AcDbLine
 10
25.249992
 20
96.5015
 30
0.0
 11
25.249992
 21
131.5015
 31
0.0
  0
LINE
  5
25
330
1E
100
AcDbEntity
  8
0
100
AcDbLine
 10
24.249992
 20
140.5014999999999
 30
0.0
 11
24.249992
 21
136.5014999999999
 31
0.0
  0
LINE
  5
26
330
1E
100
AcDbEntity
  8
0
100
AcDbLine
 10
24.249992
 20
140.5014999999999
 30
0.0
 11
25.617992
 21
140.5014999999999
 31
0.0
  0
LINE
  5
27
330
1E
100
AcDbEntity
  8
0
100
AcDbLine
 10
24.249992
 20
136.5014999999999
 30
0.0
 11
25.617992
 21
136.5014999999999
 31
0.0
  0
LINE
  5
28
330
1E
100
AcDbEntity
  8
0
100
AcDbLine
 10
24.249992
 20
136.5014999999999
 30
0.0
 11
24.249992
 21
140.5014999999999
 31
0.0
  0
LINE
  5
29
330
1E
100
AcDbEntity
  8
0
100
AcDbLine
 10
25.249992
 20
131.5015
 30
0.0
 11
32.249992
 21
131.5015
 31
0.0
  0
LINE
  5
2A
330
1E
100
AcDbEntity
  8
0
100
AcDbLine
 10
25.573992
 20
123.8054999999999
 30
0.0
 11
26.437992
 21
125.9655
 31
0.0
  0
LINE
  5
2B
330
1E
100
AcDbEntity
  8
0
100
AcDbLine
 10
25.249992
 20
121.5014999999999
 30
0.0
 11
25.573992
 21
119.1975
 31
0.0
  0
LINE
  5
2C
330
1E
100
AcDbEntity
  8
0
100
AcDbLine
 10
25.249992
 20
121.5014999999999
 30
0.0
 11
25.573992
 21
123.8054999999999
 31
0.0
  0
LINE
  5
2D
330
1E
100
AcDbEntity
  8
0
100
AcDbLine
 10
25.617992
 20
140.5014999999999
 30
0.0
 11
29.265992
 21
140.5014999999999
 31
0.0
  0
LINE
  5
2E
330
1E
100
AcDbEntity
  8
0
100
AcDbLine
 10
25.617992
 20
136.5014999999999
 30
0.0
 11
29.265992
 21
136.5014999999999
 31
0.0
  0
LINE
  5
2F
330
1E
100
AcDbEntity
  8
0
100
AcDbLine
 10
26.437992
 20
125.9655
 30
0.0
 11
27.877992
 21
127.8735
 31
0.0
  0
LINE
  5
30
330
1E
100
AcDbEntity
  8
0
100
AcDbLine
 10
25.573992
 20
119.1975
 30
0.0
 11
26.437992
 21
117.0374999999999
 31
0.0
  0
LINE
  5
31
330
1E
100
AcDbEntity
  8
0
100
AcDbLine
 10
26.437992
 20
117.0374999999999
 30
0.0
 11
27.877992
 21
115.1294999999999
 31
0.0
  0
LINE
  5
32
330
1E
100
AcDbEntity
  8
0
100
AcDbLine
 10
27.877992
 20
127.8735
 30
0.0
 11
29.78599199999999
 21
129.3135
 31
0.0
  0
LINE
  5
33
330
1E
100
AcDbEntity
  8
0
100
AcDbLine
 10
29.265992
 20
140.5014999999999
 30
0.0
 11
35.34599199999999
 21
140.5014999999999
 31
0.0
  0
LINE
  5
34
330
1E
100
AcDbEntity
  8
0
100
AcDbLine
 10
29.265992
 20
136.5014999999999
 30
0.0
 11
32.249992
 21
136.5014999999999
 31
0.0
  0
LINE
  5
35
330
1E
100
AcDbEntity
  8
0
100
AcDbLine
 10
29.265992
 20
136.5014999999999
 30
0.0
 11
35.34599199999999
 21
136.5014999999999
 31
0.0
  0
LINE
  5
36
330
1E
100
AcDbEntity
  8
0
100
AcDbLine
 10
29.78599199999999
 20
129.3135
 30
0.0
 11
31.94599199999999
 21
130.1775
 31
0.0
  0
LINE
  5
37
330
1E
100
AcDbEntity
  8
0
100
AcDbLine
 10
27.877992
 20
115.1294999999999
 30
0.0
 11
29.78599199999999
 21
113.6894999999999
 31
0.0
  0
LINE
  5
38
330
1E
100
AcDbEntity
  8
0
100
AcDbLine
 10
29.78599199999999
 20
113.6894999999999
 30
0.0
 11
31.94599199999999
 21
112.8255
 31
0.0
  0
LINE
  5
39
330
1E
100
AcDbEntity
  8
0
100
AcDbLine
 10
27.249992
 20
150.5015
 30
0.0
 11
27.249992
 21
152.5014999999999
 31
0.0
  0
LINE
  5
3A
330
1E
100
AcDbEntity
  8
0
100
AcDbLine
 10
27.249992
 20
150.5015
 30
0.0
 11
28.509992
 21
150.5015
 31
0.0
  0
LINE
  5
3B
330
1E
100
AcDbEntity
  8
0
100
AcDbLine
 10
27.249992
 20
152.5014999999999
 30
0.0
 11
27.249992
 21
150.5015
 31
0.0
  0
LINE
  5
3C
330
1E
100
AcDbEntity
  8
0
100
AcDbLine
 10
27.249992
 20
152.5014999999999
 30
0.0
 11
28.509992
 21
152.5014999999999
 31
0.0
  0
LINE
  5
3D
330
1E
100
AcDbEntity
  8
0
100
AcDbLine
 10
-0.249992000000003
 20
509.2894999999999
 30
0.0
 11
27.8526359947312
 21
509.2894999999999
 31
0.0
  0
LINE
  5
3E
330
1E
100
AcDbEntity
  8
0
100
AcDbLine
 10
-0.249991999999999
 20
509.2894999999999
 30
0.0
 11
27.8526359947312
 21
509.2894999999999
 31
0.0
  0
LINE
  5
3F
330
1E
100
AcDbEntity
  8
0
100
AcDbLine
 10
-0.249991999999999
 20
509.2894999999999
 30
0.0
 11
-0.249991999999999
 21
509.4545
 31
0.0
  0
LINE
  5
40
330
1E
100
AcDbEntity
  8
0
100
AcDbLine
 10
-0.249991999999999
 20
510.2524999999999
 30
0.0
 11
-0.249991999999999
 21
510.8005
 31
0.0
  0
LINE
  5
41
330
1E
100
AcDbEntity
  8
0
100
AcDbLine
 10
-0.249991999999999
 20
515.3215
 30
0.0
 11
-0.249991999999999
 21
519.0644999999999
 31
0.0
  0
LINE
  5
42
330
1E
100
AcDbEntity
  8
0
100
AcDbLine
 10
-0.249991999999999
 20
513.1865
 30
0.0
 11
-0.249991999999999
 21
516.4625
 31
0.0
  0
LINE
  5
43
330
1E
100
AcDbEntity
  8
0
100
AcDbLine
 10
-0.249991999999999
 20
510.8005
 30
0.0
 11
-0.249991999999999
 21
513.1865
 31
0.0
  0
LINE
  5
44
330
1E
100
AcDbEntity
  8
0
100
AcDbLine
 10
-0.249991999999999
 20
509.4545
 30
0.0
 11
-0.249991999999999
 21
510.8005
 31
0.0
  0
LINE
  5
45
330
1E
100
AcDbEntity
  8
0
100
AcDbLine
 10
-0.249991999999999
 20
509.4545
 30
0.0
 11
-0.249991999999999
 21
509.2894999999999
 31
0.0
  0
LINE
  5
46
330
1E
100
AcDbEntity
  8
0
100
AcDbLine
 10
-0.249991999999999
 20
519.0644999999999
 30
0.0
 11
-0.249991999999998
 21
520.4274999999999
 31
0.0
  0
LINE
  5
47
330
1E
100
AcDbEntity
  8
0
100
AcDbLine
 10
-0.249991999999999
 20
516.4625
 30
0.0
 11
-0.249991999999998
 21
520.4274999999999
 31
0.0
  0
LINE
  5
48
330
1E
100
AcDbEntity
  8
0
100
AcDbLine
 10
27.529992
 20
509.7104999999999
 30
0.0
 11
33.929992
 21
501.3595
 31
0.0
  0
LINE
  5
49
330
1E
100
AcDbEntity
  8
0
100
AcDbLine
 10
23.689992
 20
519.1645
 30
0.0
 11
27.529992
 21
509.7104999999999
 31
0.0
  0
LINE
  5
4A
330
1E
100
AcDbEntity
  8
0
100
AcDbLine
 10
23.689992
 20
520.6994999999999
 30
0.0
 11
27.529992
 21
511.2454999999999
 31
0.0
  0
LINE
  5
4B
330
1E
100
AcDbEntity
  8
0
100
AcDbLine
 10
27.529992
 20
511.2454999999999
 30
0.0
 11
33.929992
 21
502.8945
 31
0.0
  0
LINE
  5
4C
330
1E
100
AcDbEntity
  8
0
100
AcDbLine
 10
-0.249991999999998
 20
520.4274999999999
 30
0.0
 11
-0.249991999999998
 21
524.7605
 31
0.0
  0
LINE
  5
4D
330
1E
100
AcDbEntity
  8
0
100
AcDbLine
 10
25.617992
 20
521.3045
 30
0.0
 11
29.265992
 21
512.3235
 31
0.0
  0
LINE
  5
4E
330
1E
100
AcDbEntity
  8
0
100
AcDbLine
 10
29.265992
 20
512.3235
 30
0.0
 11
35.34599199999999
 21
504.3895
 31
0.0
  0
LINE
  5
4F
330
1E
100
AcDbEntity
  8
0
100
AcDbLine
 10
22.249992
 20
529.2485
 30
0.0
 11
23.689992
 21
519.1645
 31
0.0
  0
LINE
  5
50
330
1E
100
AcDbEntity
  8
0
100
AcDbLine
 10
22.249992
 20
529.2485
 30
0.0
 11
22.249992
 21
530.7844999999999
 31
0.0
  0
LINE
  5
51
330
1E
100
AcDbEntity
  8
0
100
AcDbLine
 10
22.249992
 20
530.7844999999999
 30
0.0
 11
23.689992
 21
520.6994999999999
 31
0.0
  0
LINE
  5
52
330
1E
100
AcDbEntity
  8
0
100
AcDbLine
 10
22.249992
 20
530.7844999999999
 30
0.0
 11
22.249992
 21
529.2485
 31
0.0
  0
LINE
  5
53
330
1E
100
AcDbEntity
  8
0
100
AcDbLine
 10
22.249992
 20
530.7844999999999
 30
0.0
 11
23.689992
 21
540.8685
 31
0.0
  0
LINE
  5
54
330
1E
100
AcDbEntity
  8
0
100
AcDbLine
 10
-0.249991999999998
 20
529.1485
 30
0.0
 11
-0.249991999999998
 21
533.3274999999999
 31
0.0
  0
LINE
  5
55
330
1E
100
AcDbEntity
  8
0
100
AcDbLine
 10
-0.249991999999998
 20
529.1485
 30
0.0
 11
-0.249991999999998
 21
531.9655
 31
0.0
  0
LINE
  5
56
330
1E
100
AcDbEntity
  8
0
100
AcDbLine
 10
-0.249991999999998
 20
524.7605
 30
0.0
 11
-0.249991999999998
 21
529.1485
 31
0.0
  0
LINE
  5
57
330
1E
100
AcDbEntity
  8
0
100
AcDbLine
 10
-0.249991999999998
 20
531.9655
 30
0.0
 11
-0.249991999999998
 21
533.3274999999999
 31
0.0
  0
LINE
  5
58
330
1E
100
AcDbEntity
  8
0
100
AcDbLine
 10
-0.249991999999997
 20
537.0705
 30
0.0
 11
-0.249991999999997
 21
540.0974999999999
 31
0.0
  0
LINE
  5
59
330
1E
100
AcDbEntity
  8
0
100
AcDbLine
 10
-0.249991999999998
 20
533.3274999999999
 30
0.0
 11
-0.249991999999997
 21
537.0705
 31
0.0
  0
LINE
  5
5A
330
1E
100
AcDbEntity
  8
0
100
AcDbLine
 10
-0.249991999999997
 20
540.0974999999999
 30
0.0
 11
-0.249991999999997
 21
541.5915
 31
0.0
  0
LINE
  5
5B
330
1E
100
AcDbEntity
  8
0
100
AcDbLine
 10
-0.249991999999997
 20
540.0974999999999
 30
0.0
 11
-0.249991999999997
 21
542.1405
 31
0.0
  0
LINE
  5
5C
330
1E
100
AcDbEntity
  8
0
100
AcDbLine
 10
23.689992
 20
540.8685
 30
0.0
 11
27.529992
 21
550.3224999999999
 31
0.0
  0
LINE
  5
5D
330
1E
100
AcDbEntity
  8
0
100
AcDbLine
 10
-0.249991999999992
 20
543.1024999999999
 30
0.0
 11
24.5973920423101
 21
543.1024999999999
 31
0.0
  0
LINE
  5
5E
330
1E
100
AcDbEntity
  8
0
100
AcDbLine
 10
-0.249991999999997
 20
542.1405
 30
0.0
 11
-0.249991999999997
 21
543.1024999999999
 31
0.0
  0
LINE
  5
5F
330
1E
100
AcDbEntity
  8
0
100
AcDbLine
 10
-0.249991999999997
 20
543.1024999999999
 30
0.0
 11
24.5973920423101
 21
543.1024999999999
 31
0.0
  0
LINE
  5
60
330
1E
100
AcDbEntity
  8
0
100
AcDbLine
 10
-0.249991999999997
 20
541.5915
 30
0.0
 11
-0.249991999999997
 21
542.9375
 31
0.0
  0
LINE
  5
61
330
1E
100
AcDbEntity
  8
0
100
AcDbLine
 10
24.249992
 20
530.8844999999999
 30
0.0
 11
25.617992
 21
521.3045
 31
0.0
  0
LINE
  5
62
330
1E
100
AcDbEntity
  8
0
100
AcDbLine
 10
24.249992
 20
530.8844999999999
 30
0.0
 11
24.249992
 21
531.3044999999999
 31
0.0
  0
LINE
  5
63
330
1E
100
AcDbEntity
  8
0
100
AcDbLine
 10
27.529992
 20
550.3224999999999
 30
0.0
 11
33.929992
 21
558.6735
 31
0.0
  0
LINE
  5
64
330
1E
100
AcDbEntity
  8
0
100
AcDbLine
 10
25.617992
 20
540.8854999999999
 30
0.0
 11
29.265992
 21
549.8664999999999
 31
0.0
  0
LINE
  5
65
330
1E
100
AcDbEntity
  8
0
100
AcDbLine
 10
24.249992
 20
531.3044999999999
 30
0.0
 11
25.617992
 21
521.7245
 31
0.0
  0
LINE
  5
66
330
1E
100
AcDbEntity
  8
0
100
AcDbLine
 10
24.249992
 20
531.3044999999999
 30
0.0
 11
24.249992
 21
530.8844999999999
 31
0.0
  0
LINE
  5
67
330
1E
100
AcDbEntity
  8
0
100
AcDbLine
 10
24.249992
 20
531.3044999999999
 30
0.0
 11
25.617992
 21
540.8854999999999
 31
0.0
  0
LINE
  5
68
330
1E
100
AcDbEntity
  8
0
100
AcDbLine
 10
25.617992
 20
521.7245
 30
0.0
 11
29.265992
 21
512.7435
 31
0.0
  0
LINE
  5
69
330
1E
100
AcDbEntity
  8
0
100
AcDbLine
 10
29.265992
 20
549.8664999999999
 30
0.0
 11
35.34599199999999
 21
557.8005
 31
0.0
  0
LINE
  5
6A
330
1E
100
AcDbEntity
  8
0
100
AcDbLine
 10
29.265992
 20
512.7435
 30
0.0
 11
35.34599199999999
 21
504.8094999999999
 31
0.0
  0
LINE
  5
6B
330
1E
100
AcDbEntity
  8
0
100
AcDbLine
 10
28.509992
 20
152.5014999999999
 30
0.0
 11
31.869992
 21
152.5014999999999
 31
0.0
  0
LINE
  5
6C
330
1E
100
AcDbEntity
  8
0
100
AcDbLine
 10
31.869992
 20
152.5014999999999
 30
0.0
 11
37.46999199999999
 21
152.5014999999999
 31
0.0
  0
LINE
  5
6D
330
1E
100
AcDbEntity
  8
0
100
AcDbLine
 10
28.509992
 20
150.5015
 30
0.0
 11
31.869992
 21
150.5015
 31
0.0
  0
LINE
  5
6E
330
1E
100
AcDbEntity
  8
0
100
AcDbLine
 10
68.64999199999999
 20
0.4604999999999711
 30
0.0
 11
74.649992
 21
2.157499999999969
 31
0.0
  0
LINE
  5
6F
330
1E
100
AcDbEntity
  8
0
100
AcDbLine
 10
62.249992
 20
-0.176500000000029
 30
0.0
 11
68.64999199999999
 21
0.4604999999999711
 31
0.0
  0
LINE
  5
70
330
1E
100
AcDbEntity
  8
0
100
AcDbLine
 10
35.89799199999999
 20
37.5015
 30
0.0
 11
36.86999199999999
 21
37.5015
 31
0.0
  0
LINE
  5
71
330
1E
100
AcDbEntity
  8
0
100
AcDbLine
 10
35.24999199999999
 20
38.4635
 30
0.0
 11
35.24999199999999
 21
61.53999999999999
 31
0.0
  0
LINE
  5
72
330
1E
100
AcDbEntity
  8
0
100
AcDbLine
 10
35.24999199999999
 20
38.4635
 30
0.0
 11
35.89799199999999
 21
37.5015
 31
0.0
  0
LINE
  5
74
330
1E
100
AcDbEntity
  8
0
100
AcDbLine
 10
36.86999199999999
 20
37.5015
 30
0.0
 11
37.249992
 21
37.5015
 31
0.0
  0
LINE
  5
75
330
1E
100
AcDbEntity
  8
0
100
AcDbLine
 10
38.14999199999999
 20
22.02649999999999
 30
0.0
 11
40.549992
 21
26.2695
 31
0.0
  0
LINE
  5
76
330
1E
100
AcDbEntity
  8
0
100
AcDbLine
 10
40.549992
 20
26.2695
 30
0.0
 11
44.54999199999999
 21
30.01749999999999
 31
0.0
  0
LINE
  5
77
330
1E
100
AcDbEntity
  8
0
100
AcDbLine
 10
37.249992
 20
17.5015
 30
0.0
 11
38.14999199999999
 21
12.97649999999999
 31
0.0
  0
LINE
  5
78
330
1E
100
AcDbEntity
  8
0
100
AcDbLine
 10
37.249992
 20
17.5015
 30
0.0
 11
37.249992
 21
52.1497
 31
0.0
  0
LINE
  5
79
330
1E
100
AcDbEntity
  8
0
100
AcDbLine
 10
37.249992
 20
17.5015
 30
0.0
 11
38.14999199999999
 21
22.02649999999999
 31
0.0
  0
LINE
  5
7A
330
1E
100
AcDbEntity
  8
0
100
AcDbLine
 10
38.14999199999999
 20
12.97649999999999
 30
0.0
 11
40.549992
 21
8.73349999999997
 31
0.0
  0
LINE
  5
7B
330
1E
100
AcDbEntity
  8
0
100
AcDbLine
 10
41.59289199999999
 20
21.3805
 30
0.0
 11
43.64999199999999
 21
25.01749999999999
 31
0.0
  0
LINE
  5
7C
330
1E
100
AcDbEntity
  8
0
100
AcDbLine
 10
40.82139199999999
 20
17.5015
 30
0.0
 11
41.59289199999999
 21
13.6225
 31
0.0
  0
LINE
  5
7D
330
1E
100
AcDbEntity
  8
0
100
AcDbLine
 10
40.82139199999999
 20
17.5015
 30
0.0
 11
41.59289199999999
 21
21.3805
 31
0.0
  0
LINE
  5
7E
330
1E
100
AcDbEntity
  8
0
100
AcDbLine
 10
41.59289199999999
 20
13.6225
 30
0.0
 11
43.64999199999999
 21
9.98549999999998
 31
0.0
  0
LINE
  5
7F
330
1E
100
AcDbEntity
  8
0
100
AcDbLine
 10
43.64999199999999
 20
25.01749999999999
 30
0.0
 11
47.078592
 21
28.2295
 31
0.0
  0
LINE
  5
80
330
1E
100
AcDbEntity
  8
0
100
AcDbLine
 10
47.078592
 20
28.2295
 30
0.0
 11
51.621392
 21
30.6535
 31
0.0
  0
LINE
  5
81
330
1E
100
AcDbEntity
  8
0
100
AcDbLine
 10
44.54999199999999
 20
30.01749999999999
 30
0.0
 11
49.849992
 21
32.8455
 31
0.0
  0
LINE
  5
82
330
1E
100
AcDbEntity
  8
0
100
AcDbLine
 10
49.849992
 20
32.8455
 30
0.0
 11
55.84999200000001
 21
34.5425
 31
0.0
  0
LINE
  5
83
330
1E
100
AcDbEntity
  8
0
100
AcDbLine
 10
43.64999199999999
 20
9.98549999999998
 30
0.0
 11
47.078592
 21
6.773499999999959
 31
0.0
  0
LINE
  5
84
330
1E
100
AcDbEntity
  8
0
100
AcDbLine
 10
47.078592
 20
6.773499999999959
 30
0.0
 11
51.621392
 21
4.34949999999995
 31
0.0
  0
LINE
  5
85
330
1E
100
AcDbEntity
  8
0
100
AcDbLine
 10
40.549992
 20
8.73349999999997
 30
0.0
 11
44.54999199999999
 21
4.98549999999998
 31
0.0
  0
LINE
  5
86
330
1E
100
AcDbEntity
  8
0
100
AcDbLine
 10
44.54999199999999
 20
4.98549999999998
 30
0.0
 11
49.849992
 21
2.15749999999998
 31
0.0
  0
LINE
  5
87
330
1E
100
AcDbEntity
  8
0
100
AcDbLine
 10
74.649992
 20
2.157499999999969
 30
0.0
 11
79.94999200000001
 21
4.98549999999998
 31
0.0
  0
LINE
  5
88
330
1E
100
AcDbEntity
  8
0
100
AcDbLine
 10
74.649992
 20
2.157499999999969
 30
0.0
 11
79.94999200000001
 21
4.98549999999998
 31
0.0
  0
LINE
  5
89
330
1E
100
AcDbEntity
  8
0
100
AcDbLine
 10
67.735692
 20
2.89449999999997
 30
0.0
 11
72.87859199999999
 21
4.34949999999995
 31
0.0
  0
LINE
  5
8A
330
1E
100
AcDbEntity
  8
0
100
AcDbLine
 10
62.249992
 20
2.34949999999995
 30
0.0
 11
67.735692
 21
2.89449999999997
 31
0.0
  0
LINE
  5
8B
330
1E
100
AcDbEntity
  8
0
100
AcDbLine
 10
51.621392
 20
30.6535
 30
0.0
 11
56.76429200000001
 21
32.1085
 31
0.0
  0
LINE
  5
8C
330
1E
100
AcDbEntity
  8
0
100
AcDbLine
 10
72.87859199999999
 20
4.34949999999995
 30
0.0
 11
77.421392
 21
6.773499999999959
 31
0.0
  0
LINE
  5
8D
330
1E
100
AcDbEntity
  8
0
100
AcDbLine
 10
72.87859199999999
 20
30.6535
 30
0.0
 11
77.421392
 21
28.2295
 31
0.0
  0
LINE
  5
8E
330
1E
100
AcDbEntity
  8
0
100
AcDbLine
 10
67.735692
 20
32.1085
 30
0.0
 11
72.87859199999999
 21
30.6535
 31
0.0
  0
LINE
  5
8F
330
1E
100
AcDbEntity
  8
0
100
AcDbLine
 10
62.249992
 20
32.6535
 30
0.0
 11
67.735692
 21
32.1085
 31
0.0
  0
LINE
  5
90
330
1E
100
AcDbEntity
  8
0
100
AcDbLine
 10
79.94999200000001
 20
4.98549999999998
 30
0.0
 11
83.949992
 21
8.73349999999997
 31
0.0
  0
LINE
  5
91
330
1E
100
AcDbEntity
  8
0
100
AcDbLine
 10
80.849992
 20
9.98549999999998
 30
0.0
 11
82.907092
 21
13.6225
 31
0.0
  0
LINE
  5
92
330
1E
100
AcDbEntity
  8
0
100
AcDbLine
 10
77.421392
 20
6.773499999999959
 30
0.0
 11
80.849992
 21
9.98549999999998
 31
0.0
  0
LINE
  5
93
330
1E
100
AcDbEntity
  8
0
100
AcDbLine
 10
82.907092
 20
13.6225
 30
0.0
 11
83.67859200000001
 21
17.5015
 31
0.0
  0
LINE
  5
94
330
1E
100
AcDbEntity
  8
0
100
AcDbLine
 10
83.949992
 20
8.73349999999997
 30
0.0
 11
86.34999200000001
 21
12.97649999999999
 31
0.0
  0
LINE
  5
95
330
1E
100
AcDbEntity
  8
0
100
AcDbLine
 10
82.907092
 20
21.3805
 30
0.0
 11
83.67859200000001
 21
17.5015
 31
0.0
  0
LINE
  5
96
330
1E
100
AcDbEntity
  8
0
100
AcDbLine
 10
80.849992
 20
25.01749999999999
 30
0.0
 11
82.907092
 21
21.3805
 31
0.0
  0
LINE
  5
97
330
1E
100
AcDbEntity
  8
0
100
AcDbLine
 10
77.421392
 20
28.2295
 30
0.0
 11
80.849992
 21
25.01749999999999
 31
0.0
  0
LINE
  5
98
330
1E
100
AcDbEntity
  8
0
100
AcDbLine
 10
86.34999200000001
 20
12.97649999999999
 30
0.0
 11
87.249992
 21
17.5015
 31
0.0
  0
LINE
  5
99
330
1E
100
AcDbEntity
  8
0
100
AcDbLine
 10
86.34999200000001
 20
22.02649999999999
 30
0.0
 11
87.249992
 21
17.5015
 31
0.0
  0
LINE
  5
9A
330
1E
100
AcDbEntity
  8
0
100
AcDbLine
 10
87.249992
 20
17.5015
 30
0.0
 11
87.249992
 21
52.1497
 31
0.0
  0
LINE
  5
9B
330
1E
100
AcDbEntity
  8
0
100
AcDbLine
 10
83.949992
 20
26.2695
 30
0.0
 11
86.34999200000001
 21
22.02649999999999
 31
0.0
  0
LINE
  5
9C
330
1E
100
AcDbEntity
  8
0
100
AcDbLine
 10
79.94999200000001
 20
30.01749999999999
 30
0.0
 11
83.949992
 21
26.2695
 31
0.0
  0
LINE
  5
9D
330
1E
100
AcDbEntity
  8
0
100
AcDbLine
 10
74.649992
 20
32.8455
 30
0.0
 11
79.94999200000001
 21
30.01749999999999
 31
0.0
  0
LINE
  5
9E
330
1E
100
AcDbEntity
  8
0
100
AcDbLine
 10
68.64999199999999
 20
34.5425
 30
0.0
 11
74.649992
 21
32.8455
 31
0.0
  0
LINE
  5
9F
330
1E
100
AcDbEntity
  8
0
100
AcDbLine
 10
56.76429200000001
 20
32.1085
 30
0.0
 11
62.249992
 21
32.6535
 31
0.0
  0
LINE
  5
A1
330
1E
100
AcDbEntity
  8
0
100
AcDbLine
 10
87.249992
 20
37.5015
 30
0.0
 11
87.62999200000001
 21
37.5015
 31
0.0
  0
LINE
  5
A2
330
1E
100
AcDbEntity
  8
0
100
AcDbLine
 10
62.249992
 20
35.17949999999999
 30
0.0
 11
68.64999199999999
 21
34.5425
 31
0.0
  0
LINE
  5
A3
330
1E
100
AcDbEntity
  8
0
100
AcDbLine
 10
55.84999200000001
 20
34.5425
 30
0.0
 11
62.249992
 21
35.17949999999999
 31
0.0
  0
LINE
  5
A4
330
1E
100
AcDbEntity
  8
0
100
AcDbLine
 10
51.621392
 20
4.34949999999995
 30
0.0
 11
56.76429200000001
 21
2.89449999999997
 31
0.0
  0
LINE
  5
A5
330
1E
100
AcDbEntity
  8
0
100
AcDbLine
 10
56.76429200000001
 20
2.89449999999997
 30
0.0
 11
62.249992
 21
2.34949999999995
 31
0.0
  0
LINE
  5
A6
330
1E
100
AcDbEntity
  8
0
100
AcDbLine
 10
49.849992
 20
2.15749999999998
 30
0.0
 11
55.84999200000001
 21
0.4604999999999721
 31
0.0
  0
LINE
  5
A7
330
1E
100
AcDbEntity
  8
0
100
AcDbLine
 10
55.84999200000001
 20
0.4604999999999721
 30
0.0
 11
62.249992
 21
-0.176500000000029
 31
0.0
  0
LINE
  5
A8
330
1E
100
AcDbEntity
  8
0
100
AcDbLine
 10
87.62999200000001
 20
37.5015
 30
0.0
 11
88.60199200000002
 21
37.5015
 31
0.0
  0
LINE
  5
A9
330
1E
100
AcDbEntity
  8
0
100
AcDbLine
 10
87.313992
 20
47.4432
 30
0.0
 11
88.249992
 21
52.1497
 31
0.0
  0
LINE
  5
AA
330
1E
100
AcDbEntity
  8
0
100
AcDbLine
 10
87.249992
 20
47.3300641025641
 30
0.0
 11
87.313992
 21
47.4432
 31
0.0
  0
LINE
  5
AB
330
1E
100
AcDbEntity
  8
0
100
AcDbLine
 10
31.94599199999999
 20
130.1775
 30
0.0
 11
32.249992
 21
130.2202499999999
 31
0.0
  0
LINE
  5
AC
330
1E
100
AcDbEntity
  8
0
100
AcDbLine
 10
32.249992
 20
129.5015
 30
0.0
 11
33.32999199999999
 21
129.5015
 31
0.0
  0
LINE
  5
AD
330
1E
100
AcDbEntity
  8
0
100
AcDbLine
 10
32.249992
 20
129.5015
 30
0.0
 11
32.249992
 21
136.5014999999999
 31
0.0
  0
LINE
  5
AE
330
1E
100
AcDbEntity
  8
0
100
AcDbLine
 10
35.34599199999999
 20
140.5014999999999
 30
0.0
 11
43.40199199999999
 21
140.5014999999999
 31
0.0
  0
LINE
  5
AF
330
1E
100
AcDbEntity
  8
0
100
AcDbLine
 10
35.34599199999999
 20
136.5014999999999
 30
0.0
 11
43.40199199999999
 21
136.5014999999999
 31
0.0
  0
LINE
  5
B0
330
1E
100
AcDbEntity
  8
0
100
AcDbLine
 10
33.32999199999999
 20
129.5015
 30
0.0
 11
36.20999199999999
 21
129.5015
 31
0.0
  0
LINE
  5
B1
330
1E
100
AcDbEntity
  8
0
100
AcDbLine
 10
31.94599199999999
 20
112.8255
 30
0.0
 11
34.249992
 21
112.5014999999999
 31
0.0
  0
LINE
  5
B2
330
1E
100
AcDbEntity
  8
0
100
AcDbLine
 10
34.249992
 20
112.5014999999999
 30
0.0
 11
36.4338027098381
 21
112.808598381071
 31
0.0
  0
LINE
  5
B3
330
1E
100
AcDbEntity
  8
0
100
AcDbLine
 10
36.20999199999999
 20
129.5015
 30
0.0
 11
41.00999199999999
 21
129.5015
 31
0.0
  0
LINE
  5
B4
330
1E
100
AcDbEntity
  8
0
100
AcDbLine
 10
36.20999199999999
 20
129.5015
 30
0.0
 11
37.249992
 21
129.5015
 31
0.0
  0
LINE
  5
B5
330
1E
100
AcDbEntity
  8
0
100
AcDbLine
 10
35.89799199999999
 20
62.5015
 30
0.0
 11
36.86999199999999
 21
62.5015
 31
0.0
  0
LINE
  5
B6
330
1E
100
AcDbEntity
  8
0
100
AcDbLine
 10
35.24999199999999
 20
61.53999999999999
 30
0.0
 11
35.89799199999999
 21
62.5015
 31
0.0
  0
LINE
  5
B8
330
1E
100
AcDbEntity
  8
0
100
AcDbLine
 10
36.24999199999999
 20
52.8568
 30
0.0
 11
36.24999199999999
 21
52.1497
 31
0.0
  0
LINE
  5
B9
330
1E
100
AcDbEntity
  8
0
100
AcDbLine
 10
36.24999199999999
 20
52.8568
 30
0.0
 11
37.18599199999999
 21
57.5633
 31
0.0
  0
LINE
  5
BA
330
1E
100
AcDbEntity
  8
0
100
AcDbLine
 10
37.249992
 20
52.1497
 30
0.0
 11
38.14999199999999
 21
56.67519999999999
 31
0.0
  0
LINE
  5
BB
330
1E
100
AcDbEntity
  8
0
100
AcDbLine
 10
37.249992
 20
52.1497
 30
0.0
 11
37.249992
 21
17.5015
 31
0.0
  0
LINE
  5
BC
330
1E
100
AcDbEntity
  8
0
100
AcDbLine
 10
38.14999199999999
 20
56.67519999999999
 30
0.0
 11
40.549992
 21
60.9179
 31
0.0
  0
LINE
  5
BD
330
1E
100
AcDbEntity
  8
0
100
AcDbLine
 10
36.86999199999999
 20
62.5015
 30
0.0
 11
39.46199199999999
 21
62.5015
 31
0.0
  0
LINE
  5
BF
330
1E
100
AcDbEntity
  8
0
100
AcDbLine
 10
36.749992
 20
64.50149999999999
 30
0.0
 11
36.749992
 21
78.50149999999999
 31
0.0
  0
LINE
  5
C0
330
1E
100
AcDbEntity
  8
0
100
AcDbLine
 10
36.749992
 20
64.50149999999999
 30
0.0
 11
39.749992
 21
64.50149999999999
 31
0.0
  0
LINE
  5
C1
330
1E
100
AcDbEntity
  8
0
100
AcDbLine
 10
39.46199199999999
 20
62.5015
 30
0.0
 11
40.2431906863711
 21
62.5015
 31
0.0
  0
LINE
  5
C2
330
1E
100
AcDbEntity
  8
0
100
AcDbLine
 10
39.249992
 20
64.50149999999999
 30
0.0
 11
40.077992
 21
64.50149999999999
 31
0.0
  0
LINE
  5
C3
330
1E
100
AcDbEntity
  8
0
100
AcDbLine
 10
37.18599199999999
 20
57.5633
 30
0.0
 11
39.681992
 21
61.9757
 31
0.0
  0
LINE
  5
C4
330
1E
100
AcDbEntity
  8
0
100
AcDbLine
 10
39.681992
 20
61.9757
 30
0.0
 11
43.841992
 21
65.8733
 31
0.0
  0
LINE
  5
C5
330
1E
100
AcDbEntity
  8
0
100
AcDbLine
 10
37.18599199999999
 20
56.8562
 30
0.0
 11
39.681992
 21
61.2686
 31
0.0
  0
LINE
  5
C6
330
1E
100
AcDbEntity
  8
0
100
AcDbLine
 10
40.077992
 20
64.50149999999999
 30
0.0
 11
42.249992
 21
64.50149999999999
 31
0.0
  0
LINE
  5
C7
330
1E
100
AcDbEntity
  8
0
100
AcDbLine
 10
42.249992
 20
64.38171846153839
 30
0.0
 11
42.249992
 21
64.50149999999999
 31
0.0
  0
LINE
  5
C8
330
1E
100
AcDbEntity
  8
0
100
AcDbLine
 10
42.249992
 20
64.50149999999999
 30
0.0
 11
42.249992
 21
64.38171846153839
 31
0.0
  0
LINE
  5
C9
330
1E
100
AcDbEntity
  8
0
100
AcDbLine
 10
42.249992
 20
64.38171846153839
 30
0.0
 11
42.249992
 21
102.4218
 31
0.0
  0
LINE
  5
CA
330
1E
100
AcDbEntity
  8
0
100
AcDbLine
 10
42.249992
 20
64.38171846153839
 30
0.0
 11
42.249992
 21
64.50149999999999
 31
0.0
  0
LINE
  5
CB
330
1E
100
AcDbEntity
  8
0
100
AcDbLine
 10
40.549992
 20
60.9179
 30
0.0
 11
44.54999199999999
 21
64.66549999999999
 31
0.0
  0
LINE
  5
CC
330
1E
100
AcDbEntity
  8
0
100
AcDbLine
 10
44.54999199999999
 20
64.66549999999999
 30
0.0
 11
49.849992
 21
67.4939
 31
0.0
  0
LINE
  5
CD
330
1E
100
AcDbEntity
  8
0
100
AcDbLine
 10
39.681992
 20
61.2686
 30
0.0
 11
43.841992
 21
65.1662
 31
0.0
  0
LINE
  5
CE
330
1E
100
AcDbEntity
  8
0
100
AcDbLine
 10
36.749992
 20
68.50149999999999
 30
0.0
 11
36.749992
 21
78.50149999999999
 31
0.0
  0
LINE
  5
CF
330
1E
100
AcDbEntity
  8
0
100
AcDbLine
 10
43.841992
 20
65.8733
 30
0.0
 11
49.35399199999999
 21
68.8148
 31
0.0
  0
LINE
  5
D0
330
1E
100
AcDbEntity
  8
0
100
AcDbLine
 10
49.35399199999999
 20
68.8148
 30
0.0
 11
55.59399200000001
 21
70.5798
 31
0.0
  0
LINE
  5
D1
330
1E
100
AcDbEntity
  8
0
100
AcDbLine
 10
43.841992
 20
65.1662
 30
0.0
 11
49.35399199999999
 21
68.10769999999999
 31
0.0
  0
LINE
  5
D2
330
1E
100
AcDbEntity
  8
0
100
AcDbLine
 10
74.649992
 20
67.4939
 30
0.0
 11
79.94999200000001
 21
64.66549999999999
 31
0.0
  0
LINE
  5
D3
330
1E
100
AcDbEntity
  8
0
100
AcDbLine
 10
49.849992
 20
67.4939
 30
0.0
 11
55.84999200000001
 21
69.191
 31
0.0
  0
LINE
  5
D4
330
1E
100
AcDbEntity
  8
0
100
AcDbLine
 10
68.64999199999999
 20
69.191
 30
0.0
 11
74.649992
 21
67.4939
 31
0.0
  0
LINE
  5
D5
330
1E
100
AcDbEntity
  8
0
100
AcDbLine
 10
62.249992
 20
69.82739999999999
 30
0.0
 11
68.64999199999999
 21
69.191
 31
0.0
  0
LINE
  5
D6
330
1E
100
AcDbEntity
  8
0
100
AcDbLine
 10
55.84999200000001
 20
69.191
 30
0.0
 11
62.249992
 21
69.82739999999999
 31
0.0
  0
LINE
  5
D7
330
1E
100
AcDbEntity
  8
0
100
AcDbLine
 10
75.14599200000001
 20
68.8148
 30
0.0
 11
80.657992
 21
65.8733
 31
0.0
  0
LINE
  5
D8
330
1E
100
AcDbEntity
  8
0
100
AcDbLine
 10
83.949992
 20
60.9179
 30
0.0
 11
86.34999200000001
 21
56.67519999999999
 31
0.0
  0
LINE
  5
D9
330
1E
100
AcDbEntity
  8
0
100
AcDbLine
 10
82.249992
 20
64.38171846153849
 30
0.0
 11
82.249992
 21
102.4218
 31
0.0
  0
LINE
  5
DA
330
1E
100
AcDbEntity
  8
0
100
AcDbLine
 10
84.25679331362891
 20
62.5015
 30
0.0
 11
85.03799200000001
 21
62.5015
 31
0.0
  0
LINE
  5
DB
330
1E
100
AcDbEntity
  8
0
100
AcDbLine
 10
84.749992
 20
64.50149999999999
 30
0.0
 11
87.74999200000001
 21
64.50149999999999
 31
0.0
  0
LINE
  5
DC
330
1E
100
AcDbEntity
  8
0
100
AcDbLine
 10
82.249992
 20
64.50149999999999
 30
0.0
 11
84.42199200000001
 21
64.50149999999999
 31
0.0
  0
LINE
  5
DD
330
1E
100
AcDbEntity
  8
0
100
AcDbLine
 10
84.42199200000001
 20
64.50149999999999
 30
0.0
 11
85.24999200000001
 21
64.50149999999999
 31
0.0
  0
LINE
  5
DE
330
1E
100
AcDbEntity
  8
0
100
AcDbLine
 10
79.94999200000001
 20
64.66549999999999
 30
0.0
 11
83.949992
 21
60.9179
 31
0.0
  0
LINE
  5
DF
330
1E
100
AcDbEntity
  8
0
100
AcDbLine
 10
84.81799200000001
 20
61.9757
 30
0.0
 11
87.313992
 21
57.5633
 31
0.0
  0
LINE
  5
E0
330
1E
100
AcDbEntity
  8
0
100
AcDbLine
 10
87.249992
 20
52.1497
 30
0.0
 11
87.249992
 21
17.5015
 31
0.0
  0
LINE
  5
E1
330
1E
100
AcDbEntity
  8
0
100
AcDbLine
 10
86.34999200000001
 20
56.67519999999999
 30
0.0
 11
87.249992
 21
52.1497
 31
0.0
  0
LINE
  5
E2
330
1E
100
AcDbEntity
  8
0
100
AcDbLine
 10
88.249992
 20
52.8568
 30
0.0
 11
88.249992
 21
52.1497
 31
0.0
  0
LINE
  5
E3
330
1E
100
AcDbEntity
  8
0
100
AcDbLine
 10
88.249992
 20
52.1497
 30
0.0
 11
88.249992
 21
52.8568
 31
0.0
  0
LINE
  5
E5
330
1E
100
AcDbEntity
  8
0
100
AcDbLine
 10
85.03799200000001
 20
62.5015
 30
0.0
 11
87.62999200000001
 21
62.5015
 31
0.0
  0
LINE
  5
E7
330
1E
100
AcDbEntity
  8
0
100
AcDbLine
 10
88.60199200000002
 20
62.5015
 30
0.0
 11
89.249992
 21
61.53999999999999
 31
0.0
  0
LINE
  5
E8
330
1E
100
AcDbEntity
  8
0
100
AcDbLine
 10
87.62999200000001
 20
62.5015
 30
0.0
 11
88.60199200000002
 21
62.5015
 31
0.0
  0
LINE
  5
E9
330
1E
100
AcDbEntity
  8
0
100
AcDbLine
 10
87.74999200000001
 20
64.50149999999999
 30
0.0
 11
87.74999200000001
 21
78.50149999999999
 31
0.0
  0
LINE
  5
EA
330
1E
100
AcDbEntity
  8
0
100
AcDbLine
 10
87.313992
 20
57.5633
 30
0.0
 11
88.249992
 21
52.8568
 31
0.0
  0
LINE
  5
EB
330
1E
100
AcDbEntity
  8
0
100
AcDbLine
 10
87.313992
 20
56.8562
 30
0.0
 11
88.249992
 21
52.1497
 31
0.0
  0
LINE
  5
EC
330
1E
100
AcDbEntity
  8
0
100
AcDbLine
 10
84.81799200000001
 20
61.2686
 30
0.0
 11
87.313992
 21
56.8562
 31
0.0
  0
LINE
  5
ED
330
1E
100
AcDbEntity
  8
0
100
AcDbLine
 10
80.657992
 20
65.8733
 30
0.0
 11
84.81799200000001
 21
61.9757
 31
0.0
  0
LINE
  5
EE
330
1E
100
AcDbEntity
  8
0
100
AcDbLine
 10
80.657992
 20
65.1662
 30
0.0
 11
84.81799200000001
 21
61.2686
 31
0.0
  0
LINE
  5
EF
330
1E
100
AcDbEntity
  8
0
100
AcDbLine
 10
75.14599200000001
 20
68.10769999999999
 30
0.0
 11
80.657992
 21
65.1662
 31
0.0
  0
LINE
  5
F0
330
1E
100
AcDbEntity
  8
0
100
AcDbLine
 10
68.905992
 20
69.87269999999999
 30
0.0
 11
75.14599200000001
 21
68.10769999999999
 31
0.0
  0
LINE
  5
F1
330
1E
100
AcDbEntity
  8
0
100
AcDbLine
 10
49.35399199999999
 20
68.10769999999999
 30
0.0
 11
55.59399200000001
 21
69.87269999999999
 31
0.0
  0
LINE
  5
F2
330
1E
100
AcDbEntity
  8
0
100
AcDbLine
 10
36.24999199999999
 20
78.50149999999999
 30
0.0
 11
36.24999199999999
 21
80.5015
 31
0.0
  0
LINE
  5
F3
330
1E
100
AcDbEntity
  8
0
100
AcDbLine
 10
36.24999199999999
 20
78.50149999999999
 30
0.0
 11
37.18599199999999
 21
78.50149999999999
 31
0.0
  0
LINE
  5
F4
330
1E
100
AcDbEntity
  8
0
100
AcDbLine
 10
36.24999199999999
 20
78.50149999999999
 30
0.0
 11
36.749992
 21
78.50149999999999
 31
0.0
  0
LINE
  5
F5
330
1E
100
AcDbEntity
  8
0
100
AcDbLine
 10
36.24999199999999
 20
80.5015
 30
0.0
 11
37.18599199999999
 21
80.5015
 31
0.0
  0
LINE
  5
F6
330
1E
100
AcDbEntity
  8
0
100
AcDbLine
 10
36.24999199999999
 20
80.5015
 30
0.0
 11
36.24999199999999
 21
78.50149999999999
 31
0.0
  0
LINE
  5
F7
330
1E
100
AcDbEntity
  8
0
100
AcDbLine
 10
36.24999199999999
 20
84.50149999999998
 30
0.0
 11
37.18599199999999
 21
84.50149999999998
 31
0.0
  0
LINE
  5
F8
330
1E
100
AcDbEntity
  8
0
100
AcDbLine
 10
36.24999199999999
 20
84.50149999999998
 30
0.0
 11
36.24999199999999
 21
82.50149999999999
 31
0.0
  0
LINE
  5
F9
330
1E
100
AcDbEntity
  8
0
100
AcDbLine
 10
37.18599199999999
 20
78.50149999999999
 30
0.0
 11
39.681992
 21
78.50149999999999
 31
0.0
  0
LINE
  5
FA
330
1E
100
AcDbEntity
  8
0
100
AcDbLine
 10
37.18599199999999
 20
80.5015
 30
0.0
 11
39.681992
 21
80.5015
 31
0.0
  0
LINE
  5
FB
330
1E
100
AcDbEntity
  8
0
100
AcDbLine
 10
36.749992
 20
78.50149999999999
 30
0.0
 11
36.749992
 21
68.50149999999999
 31
0.0
  0
LINE
  5
FC
330
1E
100
AcDbEntity
  8
0
100
AcDbLine
 10
36.749992
 20
78.50149999999999
 30
0.0
 11
39.249992
 21
78.50149999999999
 31
0.0
  0
LINE
  5
FD
330
1E
100
AcDbEntity
  8
0
100
AcDbLine
 10
36.749992
 20
78.50149999999999
 30
0.0
 11
36.749992
 21
64.50149999999999
 31
0.0
  0
LINE
  5
FE
330
1E
100
AcDbEntity
  8
0
100
AcDbLine
 10
36.749992
 20
82.50149999999999
 30
0.0
 11
36.749992
 21
80.5015
 31
0.0
  0
LINE
  5
FF
330
1E
100
AcDbEntity
  8
0
100
AcDbLine
 10
36.749992
 20
82.50149999999999
 30
0.0
 11
39.249992
 21
82.50149999999999
 31
0.0
  0
LINE
  5
100
330
1E
100
AcDbEntity
  8
0
100
AcDbLine
 10
36.749992
 20
80.5015
 30
0.0
 11
36.749992
 21
82.50149999999999
 31
0.0
  0
LINE
  5
101
330
1E
100
AcDbEntity
  8
0
100
AcDbLine
 10
37.18599199999999
 20
82.50149999999999
 30
0.0
 11
39.681992
 21
82.50149999999999
 31
0.0
  0
LINE
  5
102
330
1E
100
AcDbEntity
  8
0
100
AcDbLine
 10
37.18599199999999
 20
84.50149999999998
 30
0.0
 11
39.681992
 21
84.50149999999998
 31
0.0
  0
LINE
  5
103
330
1E
100
AcDbEntity
  8
0
100
AcDbLine
 10
36.24999199999999
 20
82.50149999999999
 30
0.0
 11
36.24999199999999
 21
84.50149999999998
 31
0.0
  0
LINE
  5
104
330
1E
100
AcDbEntity
  8
0
100
AcDbLine
 10
36.24999199999999
 20
82.50149999999999
 30
0.0
 11
36.749992
 21
82.50149999999999
 31
0.0
  0
LINE
  5
105
330
1E
100
AcDbEntity
  8
0
100
AcDbLine
 10
36.24999199999999
 20
82.50149999999999
 30
0.0
 11
37.18599199999999
 21
82.50149999999999
 31
0.0
  0
LINE
  5
106
330
1E
100
AcDbEntity
  8
0
100
AcDbLine
 10
36.749992
 20
110.5014999999999
 30
0.0
 11
39.749992
 21
110.5014999999999
 31
0.0
  0
LINE
  5
107
330
1E
100
AcDbEntity
  8
0
100
AcDbLine
 10
36.749992
 20
110.5014999999999
 30
0.0
 11
39.39061699999999
 21
110.5014999999999
 31
0.0
  0
LINE
  5
108
330
1E
100
AcDbEntity
  8
0
100
AcDbLine
 10
36.749992
 20
110.5014999999999
 30
0.0
 11
36.749992
 21
112.5014999999999
 31
0.0
  0
LINE
  5
109
330
1E
100
AcDbEntity
  8
0
100
AcDbLine
 10
39.249992
 20
78.50149999999999
 30
0.0
 11
40.077992
 21
78.50149999999999
 31
0.0
  0
LINE
  5
10A
330
1E
100
AcDbEntity
  8
0
100
AcDbLine
 10
39.681992
 20
78.50149999999999
 30
0.0
 11
42.249992
 21
78.50149999999999
 31
0.0
  0
LINE
  5
10B
330
1E
100
AcDbEntity
  8
0
100
AcDbLine
 10
39.681992
 20
80.5015
 30
0.0
 11
42.249992
 21
80.5015
 31
0.0
  0
LINE
  5
10C
330
1E
100
AcDbEntity
  8
0
100
AcDbLine
 10
39.249992
 20
82.50149999999999
 30
0.0
 11
40.077992
 21
82.50149999999999
 31
0.0
  0
LINE
  5
10D
330
1E
100
AcDbEntity
  8
0
100
AcDbLine
 10
37.249992
 20
84.50149999999998
 30
0.0
 11
37.249992
 21
104.6855
 31
0.0
  0
LINE
  5
10E
330
1E
100
AcDbEntity
  8
0
100
AcDbLine
 10
39.681992
 20
82.50149999999999
 30
0.0
 11
42.249992
 21
82.50149999999999
 31
0.0
  0
LINE
  5
10F
330
1E
100
AcDbEntity
  8
0
100
AcDbLine
 10
40.077992
 20
78.50149999999999
 30
0.0
 11
42.249992
 21
78.50149999999999
 31
0.0
  0
LINE
  5
110
330
1E
100
AcDbEntity
  8
0
100
AcDbLine
 10
40.077992
 20
82.50149999999999
 30
0.0
 11
42.249992
 21
82.50149999999999
 31
0.0
  0
LINE
  5
111
330
1E
100
AcDbEntity
  8
0
100
AcDbLine
 10
39.681992
 20
84.50149999999998
 30
0.0
 11
42.249992
 21
84.50149999999998
 31
0.0
  0
LINE
  5
112
330
1E
100
AcDbEntity
  8
0
100
AcDbLine
 10
42.249992
 20
102.4218
 30
0.0
 11
42.249992
 21
107.3482999999999
 31
0.0
  0
LINE
  5
113
330
1E
100
AcDbEntity
  8
0
100
AcDbLine
 10
42.249992
 20
107.3482999999999
 30
0.0
 11
42.249992
 21
110.4451999999999
 31
0.0
  0
LINE
  5
114
330
1E
100
AcDbEntity
  8
0
100
AcDbLine
 10
42.249992
 20
107.3482999999999
 30
0.0
 11
42.249992
 21
102.4218
 31
0.0
  0
LINE
  5
115
330
1E
100
AcDbEntity
  8
0
100
AcDbLine
 10
42.249992
 20
111.5014999999999
 30
0.0
 11
42.249992
 21
110.4451999999999
 31
0.0
  0
LINE
  5
116
330
1E
100
AcDbEntity
  8
0
100
AcDbLine
 10
42.249992
 20
110.4451999999999
 30
0.0
 11
42.249992
 21
107.3482999999999
 31
0.0
  0
LINE
  5
117
330
1E
100
AcDbEntity
  8
0
100
AcDbLine
 10
42.249992
 20
110.4451999999999
 30
0.0
 11
42.249992
 21
111.5014999999999
 31
0.0
  0
LINE
  5
118
330
1E
100
AcDbEntity
  8
0
100
AcDbLine
 10
39.749992
 20
110.5014999999999
 30
0.0
 11
39.749992
 21
112.5014999999999
 31
0.0
  0
LINE
  5
119
330
1E
100
AcDbEntity
  8
0
100
AcDbLine
 10
40.077992
 20
105.6135
 30
0.0
 11
42.249992
 21
100.1835
 31
0.0
  0
LINE
  5
11A
330
1E
100
AcDbEntity
  8
0
100
AcDbLine
 10
39.39061699999999
 20
110.5014999999999
 30
0.0
 11
40.077992
 21
105.6135
 31
0.0
  0
LINE
  5
11B
330
1E
100
AcDbEntity
  8
0
100
AcDbLine
 10
39.39061699999999
 20
112.5014999999999
 30
0.0
 11
40.077992
 21
117.3894999999999
 31
0.0
  0
LINE
  5
11C
330
1E
100
AcDbEntity
  8
0
100
AcDbLine
 10
39.681992
 20
98.60550000000001
 30
0.0
 11
42.249992
 21
95.20290000000001
 31
0.0
  0
LINE
  5
11D
330
1E
100
AcDbEntity
  8
0
100
AcDbLine
 10
37.18599199999999
 20
104.8455
 30
0.0
 11
39.681992
 21
98.60550000000001
 31
0.0
  0
LINE
  5
11E
330
1E
100
AcDbEntity
  8
0
100
AcDbLine
 10
36.749992
 20
112.5014999999999
 30
0.0
 11
36.749992
 21
110.5014999999999
 31
0.0
  0
LINE
  5
11F
330
1E
100
AcDbEntity
  8
0
100
AcDbLine
 10
36.749992
 20
112.5014999999999
 30
0.0
 11
39.749992
 21
112.5014999999999
 31
0.0
  0
LINE
  5
120
330
1E
100
AcDbEntity
  8
0
100
AcDbLine
 10
39.39061699999999
 20
112.5014999999999
 30
0.0
 11
40.077992
 21
117.3894999999999
 31
0.0
  0
LINE
  5
121
330
1E
100
AcDbEntity
  8
0
100
AcDbLine
 10
37.249992
 20
118.3175
 30
0.0
 11
37.249992
 21
129.5015
 31
0.0
  0
LINE
  5
122
330
1E
100
AcDbEntity
  8
0
100
AcDbLine
 10
37.249992
 20
129.5015
 30
0.0
 11
38.14999199999999
 21
129.5015
 31
0.0
  0
LINE
  5
123
330
1E
100
AcDbEntity
  8
0
100
AcDbLine
 10
38.14999199999999
 20
129.5015
 30
0.0
 11
40.549992
 21
129.5015
 31
0.0
  0
LINE
  5
124
330
1E
100
AcDbEntity
  8
0
100
AcDbLine
 10
37.18599199999999
 20
118.1575
 30
0.0
 11
39.681992
 21
124.3975
 31
0.0
  0
LINE
  5
125
330
1E
100
AcDbEntity
  8
0
100
AcDbLine
 10
42.969992
 20
116.6215
 30
0.0
 11
44.889992
 21
121.4215
 31
0.0
  0
LINE
  5
126
330
1E
100
AcDbEntity
  8
0
100
AcDbLine
 10
39.749992
 20
112.5014999999999
 30
0.0
 11
39.749992
 21
110.5014999999999
 31
0.0
  0
LINE
  5
127
330
1E
100
AcDbEntity
  8
0
100
AcDbLine
 10
41.00999199999999
 20
129.5015
 30
0.0
 11
43.5340674716981
 21
129.5015
 31
0.0
  0
LINE
  5
128
330
1E
100
AcDbEntity
  8
0
100
AcDbLine
 10
40.549992
 20
129.5015
 30
0.0
 11
43.5340674716981
 21
129.5015
 31
0.0
  0
LINE
  5
129
330
1E
100
AcDbEntity
  8
0
100
AcDbLine
 10
42.285992
 20
122.9095
 30
0.0
 11
45.96599199999999
 21
127.7854999999999
 31
0.0
  0
LINE
  5
12A
330
1E
100
AcDbEntity
  8
0
100
AcDbLine
 10
40.077992
 20
117.3894999999999
 30
0.0
 11
42.285992
 21
122.9095
 31
0.0
  0
LINE
  5
12B
330
1E
100
AcDbEntity
  8
0
100
AcDbLine
 10
44.889992
 20
121.4215
 30
0.0
 11
48.08999199999999
 21
125.6615
 31
0.0
  0
LINE
  5
12C
330
1E
100
AcDbEntity
  8
0
100
AcDbLine
 10
48.08999199999999
 20
125.6615
 30
0.0
 11
52.329992
 21
128.8615
 31
0.0
  0
LINE
  5
12D
330
1E
100
AcDbEntity
  8
0
100
AcDbLine
 10
52.329992
 20
128.8615
 30
0.0
 11
57.129992
 21
130.7814999999999
 31
0.0
  0
LINE
  5
12E
330
1E
100
AcDbEntity
  8
0
100
AcDbLine
 10
50.133992
 20
130.4871
 30
0.0
 11
51.86599199999999
 21
131.4870999999999
 31
0.0
  0
LINE
  5
12F
330
1E
100
AcDbEntity
  8
0
100
AcDbLine
 10
51.68400325703565
 20
131.8023045028142
 30
0.0
 11
56.361992
 21
133.6735
 31
0.0
  0
LINE
  5
130
330
1E
100
AcDbEntity
  8
0
100
AcDbLine
 10
45.96599199999999
 20
127.7854999999999
 30
0.0
 11
49.95541905393183
 21
130.79638834259
 31
0.0
  0
LINE
  5
131
330
1E
100
AcDbEntity
  8
0
100
AcDbLine
 10
48.63399199999999
 20
133.0851
 30
0.0
 11
50.365992
 21
134.0851
 31
0.0
  0
LINE
  5
132
330
1E
100
AcDbEntity
  8
0
100
AcDbLine
 10
48.63399199999999
 20
133.0851
 30
0.0
 11
50.133992
 21
130.4871
 31
0.0
  0
LINE
  5
133
330
1E
100
AcDbEntity
  8
0
100
AcDbLine
 10
48.63399199999999
 20
133.0851
 30
0.0
 11
49.9554190539318
 21
130.7963883425899
 31
0.0
  0
LINE
  5
134
330
1E
100
AcDbEntity
  8
0
100
AcDbLine
 10
51.6840032570356
 20
131.802304502814
 30
0.0
 11
56.361992
 21
133.6735
 31
0.0
  0
LINE
  5
135
330
1E
100
AcDbEntity
  8
0
100
AcDbLine
 10
43.841992
 20
129.9095
 30
0.0
 11
49.35399199999999
 21
134.0694999999999
 31
0.0
  0
LINE
  5
136
330
1E
100
AcDbEntity
  8
0
100
AcDbLine
 10
43.40199199999999
 20
140.5014999999999
 30
0.0
 11
52.521992
 21
140.5014999999999
 31
0.0
  0
LINE
  5
137
330
1E
100
AcDbEntity
  8
0
100
AcDbLine
 10
43.40199199999999
 20
136.5014999999999
 30
0.0
 11
52.521992
 21
136.5014999999999
 31
0.0
  0
LINE
  5
138
330
1E
100
AcDbEntity
  8
0
100
AcDbLine
 10
52.521992
 20
140.5014999999999
 30
0.0
 11
62.249992
 21
140.5014999999999
 31
0.0
  0
LINE
  5
139
330
1E
100
AcDbEntity
  8
0
100
AcDbLine
 10
52.521992
 20
136.5014999999999
 30
0.0
 11
55.433992
 21
136.5014999999999
 31
0.0
  0
LINE
  5
13A
330
1E
100
AcDbEntity
  8
0
100
AcDbLine
 10
50.365992
 20
134.0851
 30
0.0
 11
51.86599199999999
 21
131.4870999999999
 31
0.0
  0
LINE
  5
13B
330
1E
100
AcDbEntity
  8
0
100
AcDbLine
 10
49.35399199999999
 20
134.0694999999999
 30
0.0
 11
55.59399200000001
 21
136.5654999999999
 31
0.0
  0
LINE
  5
13C
330
1E
100
AcDbEntity
  8
0
100
AcDbLine
 10
39.681992
 20
124.3975
 30
0.0
 11
43.841992
 21
129.9095
 31
0.0
  0
LINE
  5
13D
330
1E
100
AcDbEntity
  8
0
100
AcDbLine
 10
36.24999199999999
 20
111.5014999999999
 30
0.0
 11
37.18599199999999
 21
104.8455
 31
0.0
  0
LINE
  5
13E
330
1E
100
AcDbEntity
  8
0
100
AcDbLine
 10
36.24999199999999
 20
111.5014999999999
 30
0.0
 11
37.18599199999999
 21
118.1575
 31
0.0
  0
LINE
  5
13F
330
1E
100
AcDbEntity
  8
0
100
AcDbLine
 10
62.249992
 20
131.5015
 30
0.0
 11
67.36999200000001
 21
130.7814999999999
 31
0.0
  0
LINE
  5
140
330
1E
100
AcDbEntity
  8
0
100
AcDbLine
 10
57.129992
 20
130.7814999999999
 30
0.0
 11
62.249992
 21
131.5015
 31
0.0
  0
LINE
  5
141
330
1E
100
AcDbEntity
  8
0
100
AcDbLine
 10
56.361992
 20
133.6735
 30
0.0
 11
62.249992
 21
134.5014999999999
 31
0.0
  0
LINE
  5
142
330
1E
100
AcDbEntity
  8
0
100
AcDbLine
 10
62.249992
 20
134.5014999999999
 30
0.0
 11
68.13799200000001
 21
133.6735
 31
0.0
  0
LINE
  5
143
330
1E
100
AcDbEntity
  8
0
100
AcDbLine
 10
55.59399200000001
 20
136.5654999999999
 30
0.0
 11
62.249992
 21
137.5014999999999
 31
0.0
  0
LINE
  5
144
330
1E
100
AcDbEntity
  8
0
100
AcDbLine
 10
62.249992
 20
140.5014999999999
 30
0.0
 11
71.977992
 21
140.5014999999999
 31
0.0
  0
LINE
  5
145
330
1E
100
AcDbEntity
  8
0
100
AcDbLine
 10
62.249992
 20
137.5014999999999
 30
0.0
 11
68.905992
 21
136.5654999999999
 31
0.0
  0
LINE
  5
146
330
1E
100
AcDbEntity
  8
0
100
AcDbLine
 10
82.249992
 20
78.50149999999999
 30
0.0
 11
84.81799200000001
 21
78.50149999999999
 31
0.0
  0
LINE
  5
147
330
1E
100
AcDbEntity
  8
0
100
AcDbLine
 10
82.249992
 20
78.50149999999999
 30
0.0
 11
84.42199200000001
 21
78.50149999999999
 31
0.0
  0
LINE
  5
148
330
1E
100
AcDbEntity
  8
0
100
AcDbLine
 10
82.249992
 20
80.5015
 30
0.0
 11
84.81799200000001
 21
80.5015
 31
0.0
  0
LINE
  5
149
330
1E
100
AcDbEntity
  8
0
100
AcDbLine
 10
82.249992
 20
82.50149999999999
 30
0.0
 11
84.81799200000001
 21
82.50149999999999
 31
0.0
  0
LINE
  5
14A
330
1E
100
AcDbEntity
  8
0
100
AcDbLine
 10
82.249992
 20
82.50149999999999
 30
0.0
 11
84.42199200000001
 21
82.50149999999999
 31
0.0
  0
LINE
  5
14B
330
1E
100
AcDbEntity
  8
0
100
AcDbLine
 10
82.249992
 20
84.50149999999998
 30
0.0
 11
84.81799200000001
 21
84.50149999999998
 31
0.0
  0
LINE
  5
14C
330
1E
100
AcDbEntity
  8
0
100
AcDbLine
 10
84.42199200000001
 20
78.50149999999999
 30
0.0
 11
85.24999200000001
 21
78.50149999999999
 31
0.0
  0
LINE
  5
14D
330
1E
100
AcDbEntity
  8
0
100
AcDbLine
 10
84.81799200000001
 20
78.50149999999999
 30
0.0
 11
87.313992
 21
78.50149999999999
 31
0.0
  0
LINE
  5
14E
330
1E
100
AcDbEntity
  8
0
100
AcDbLine
 10
84.81799200000001
 20
80.5015
 30
0.0
 11
87.313992
 21
80.5015
 31
0.0
  0
LINE
  5
14F
330
1E
100
AcDbEntity
  8
0
100
AcDbLine
 10
84.42199200000001
 20
82.50149999999999
 30
0.0
 11
85.24999200000001
 21
82.50149999999999
 31
0.0
  0
LINE
  5
150
330
1E
100
AcDbEntity
  8
0
100
AcDbLine
 10
84.81799200000001
 20
82.50149999999999
 30
0.0
 11
87.313992
 21
82.50149999999999
 31
0.0
  0
LINE
  5
151
330
1E
100
AcDbEntity
  8
0
100
AcDbLine
 10
85.24999200000001
 20
78.50149999999999
 30
0.0
 11
87.74999200000001
 21
78.50149999999999
 31
0.0
  0
LINE
  5
152
330
1E
100
AcDbEntity
  8
0
100
AcDbLine
 10
87.313992
 20
78.50149999999999
 30
0.0
 11
88.249992
 21
78.50149999999999
 31
0.0
  0
LINE
  5
153
330
1E
100
AcDbEntity
  8
0
100
AcDbLine
 10
87.313992
 20
80.5015
 30
0.0
 11
88.249992
 21
80.5015
 31
0.0
  0
LINE
  5
154
330
1E
100
AcDbEntity
  8
0
100
AcDbLine
 10
85.24999200000001
 20
82.50149999999999
 30
0.0
 11
87.74999200000001
 21
82.50149999999999
 31
0.0
  0
LINE
  5
155
330
1E
100
AcDbEntity
  8
0
100
AcDbLine
 10
87.249992
 20
84.50149999999998
 30
0.0
 11
87.249992
 21
104.6855
 31
0.0
  0
LINE
  5
156
330
1E
100
AcDbEntity
  8
0
100
AcDbLine
 10
87.313992
 20
82.50149999999999
 30
0.0
 11
88.249992
 21
82.50149999999999
 31
0.0
  0
LINE
  5
157
330
1E
100
AcDbEntity
  8
0
100
AcDbLine
 10
84.81799200000001
 20
84.50149999999998
 30
0.0
 11
87.313992
 21
84.50149999999998
 31
0.0
  0
LINE
  5
158
330
1E
100
AcDbEntity
  8
0
100
AcDbLine
 10
87.313992
 20
84.50149999999998
 30
0.0
 11
88.249992
 21
84.50149999999998
 31
0.0
  0
LINE
  5
159
330
1E
100
AcDbEntity
  8
0
100
AcDbLine
 10
82.249992
 20
95.20290000000001
 30
0.0
 11
84.81799200000001
 21
98.60550000000001
 31
0.0
  0
LINE
  5
15A
330
1E
100
AcDbEntity
  8
0
100
AcDbLine
 10
67.36999200000001
 20
130.7814999999999
 30
0.0
 11
72.169992
 21
128.8615
 31
0.0
  0
LINE
  5
15B
330
1E
100
AcDbEntity
  8
0
100
AcDbLine
 10
68.13799200000001
 20
133.6735
 30
0.0
 11
72.8159807429643
 21
131.802304502814
 31
0.0
  0
LINE
  5
15C
330
1E
100
AcDbEntity
  8
0
100
AcDbLine
 10
68.13799200000001
 20
133.6735
 30
0.0
 11
72.81598074296443
 21
131.8023045028142
 31
0.0
  0
LINE
  5
15D
330
1E
100
AcDbEntity
  8
0
100
AcDbLine
 10
82.249992
 20
102.4218
 30
0.0
 11
82.249992
 21
107.3482999999999
 31
0.0
  0
LINE
  5
15E
330
1E
100
AcDbEntity
  8
0
100
AcDbLine
 10
82.249992
 20
111.5014999999999
 30
0.0
 11
82.249992
 21
110.4451999999999
 31
0.0
  0
LINE
  5
15F
330
1E
100
AcDbEntity
  8
0
100
AcDbLine
 10
81.52999200000001
 20
116.6215
 30
0.0
 11
82.249992
 21
111.5014999999999
 31
0.0
  0
LINE
  5
160
330
1E
100
AcDbEntity
  8
0
100
AcDbLine
 10
82.249992
 20
110.4451999999999
 30
0.0
 11
82.249992
 21
107.3482999999999
 31
0.0
  0
LINE
  5
161
330
1E
100
AcDbEntity
  8
0
100
AcDbLine
 10
82.249992
 20
110.4451999999999
 30
0.0
 11
82.249992
 21
111.5014999999999
 31
0.0
  0
LINE
  5
162
330
1E
100
AcDbEntity
  8
0
100
AcDbLine
 10
82.249992
 20
107.3482999999999
 30
0.0
 11
82.249992
 21
110.4451999999999
 31
0.0
  0
LINE
  5
163
330
1E
100
AcDbEntity
  8
0
100
AcDbLine
 10
82.249992
 20
107.3482999999999
 30
0.0
 11
82.249992
 21
102.4218
 31
0.0
  0
LINE
  5
164
330
1E
100
AcDbEntity
  8
0
100
AcDbLine
 10
84.42199200000001
 20
117.3894999999999
 30
0.0
 11
85.109367
 21
112.5014999999999
 31
0.0
  0
LINE
  5
165
330
1E
100
AcDbEntity
  8
0
100
AcDbLine
 10
82.249992
 20
100.1835
 30
0.0
 11
84.42199200000001
 21
105.6135
 31
0.0
  0
LINE
  5
166
330
1E
100
AcDbEntity
  8
0
100
AcDbLine
 10
87.249992
 20
104.6855
 30
0.0
 11
87.249992
 21
84.50149999999998
 31
0.0
  0
LINE
  5
167
330
1E
100
AcDbEntity
  8
0
100
AcDbLine
 10
85.109367
 20
110.5014999999999
 30
0.0
 11
87.74999200000001
 21
110.5014999999999
 31
0.0
  0
LINE
  5
168
330
1E
100
AcDbEntity
  8
0
100
AcDbLine
 10
84.749992
 20
112.5014999999999
 30
0.0
 11
87.74999200000001
 21
112.5014999999999
 31
0.0
  0
LINE
  5
169
330
1E
100
AcDbEntity
  8
0
100
AcDbLine
 10
84.749992
 20
112.5014999999999
 30
0.0
 11
84.749992
 21
110.5014999999999
 31
0.0
  0
LINE
  5
16A
330
1E
100
AcDbEntity
  8
0
100
AcDbLine
 10
84.749992
 20
110.5014999999999
 30
0.0
 11
87.74999200000001
 21
110.5014999999999
 31
0.0
  0
LINE
  5
16B
330
1E
100
AcDbEntity
  8
0
100
AcDbLine
 10
84.749992
 20
110.5014999999999
 30
0.0
 11
84.749992
 21
112.5014999999999
 31
0.0
  0
LINE
  5
16C
330
1E
100
AcDbEntity
  8
0
100
AcDbLine
 10
84.42199200000001
 20
105.6135
 30
0.0
 11
85.109367
 21
110.5014999999999
 31
0.0
  0
LINE
  5
16D
330
1E
100
AcDbEntity
  8
0
100
AcDbLine
 10
79.609992
 20
121.4215
 30
0.0
 11
81.52999200000001
 21
116.6215
 31
0.0
  0
LINE
  5
16E
330
1E
100
AcDbEntity
  8
0
100
AcDbLine
 10
76.409992
 20
125.6615
 30
0.0
 11
79.609992
 21
121.4215
 31
0.0
  0
LINE
  5
16F
330
1E
100
AcDbEntity
  8
0
100
AcDbLine
 10
80.9659165283019
 20
129.5015
 30
0.0
 11
83.949992
 21
129.5015
 31
0.0
  0
LINE
  5
170
330
1E
100
AcDbEntity
  8
0
100
AcDbLine
 10
80.9659165283019
 20
129.5015
 30
0.0
 11
83.48999199999999
 21
129.5015
 31
0.0
  0
LINE
  5
171
330
1E
100
AcDbEntity
  8
0
100
AcDbLine
 10
72.169992
 20
128.8615
 30
0.0
 11
76.409992
 21
125.6615
 31
0.0
  0
LINE
  5
172
330
1E
100
AcDbEntity
  8
0
100
AcDbLine
 10
78.533992
 20
127.7854999999999
 30
0.0
 11
82.213992
 21
122.9095
 31
0.0
  0
LINE
  5
173
330
1E
100
AcDbEntity
  8
0
100
AcDbLine
 10
83.48999199999999
 20
129.5015
 30
0.0
 11
88.289992
 21
129.5015
 31
0.0
  0
LINE
  5
174
330
1E
100
AcDbEntity
  8
0
100
AcDbLine
 10
83.949992
 20
129.5015
 30
0.0
 11
86.34999200000001
 21
129.5015
 31
0.0
  0
LINE
  5
175
330
1E
100
AcDbEntity
  8
0
100
AcDbLine
 10
82.213992
 20
122.9095
 30
0.0
 11
84.42199200000001
 21
117.3894999999999
 31
0.0
  0
LINE
  5
176
330
1E
100
AcDbEntity
  8
0
100
AcDbLine
 10
74.365992
 20
130.4871
 30
0.0
 11
75.86599200000001
 21
133.0851
 31
0.0
  0
LINE
  5
177
330
1E
100
AcDbEntity
  8
0
100
AcDbLine
 10
71.977992
 20
136.5014999999999
 30
0.0
 11
81.09799200000001
 21
136.5014999999999
 31
0.0
  0
LINE
  5
178
330
1E
100
AcDbEntity
  8
0
100
AcDbLine
 10
71.977992
 20
140.5014999999999
 30
0.0
 11
81.09799200000001
 21
140.5014999999999
 31
0.0
  0
LINE
  5
179
330
1E
100
AcDbEntity
  8
0
100
AcDbLine
 10
69.06599200000001
 20
136.5014999999999
 30
0.0
 11
71.977992
 21
136.5014999999999
 31
0.0
  0
LINE
  5
17A
330
1E
100
AcDbEntity
  8
0
100
AcDbLine
 10
72.8159807429643
 20
131.802304502814
 30
0.0
 11
74.133992
 21
134.0851
 31
0.0
  0
LINE
  5
17B
330
1E
100
AcDbEntity
  8
0
100
AcDbLine
 10
72.63399200000001
 20
131.4870999999999
 30
0.0
 11
74.133992
 21
134.0851
 31
0.0
  0
LINE
  5
17C
330
1E
100
AcDbEntity
  8
0
100
AcDbLine
 10
72.63399200000001
 20
131.4870999999999
 30
0.0
 11
74.365992
 21
130.4871
 31
0.0
  0
LINE
  5
17D
330
1E
100
AcDbEntity
  8
0
100
AcDbLine
 10
74.133992
 20
134.0851
 30
0.0
 11
75.86599200000001
 21
133.0851
 31
0.0
  0
LINE
  5
17E
330
1E
100
AcDbEntity
  8
0
100
AcDbLine
 10
74.54456494606816
 20
130.79638834259
 30
0.0
 11
78.533992
 21
127.7854999999999
 31
0.0
  0
LINE
  5
17F
330
1E
100
AcDbEntity
  8
0
100
AcDbLine
 10
81.09799200000001
 20
140.5014999999999
 30
0.0
 11
89.15399200000001
 21
140.5014999999999
 31
0.0
  0
LINE
  5
180
330
1E
100
AcDbEntity
  8
0
100
AcDbLine
 10
81.09799200000001
 20
136.5014999999999
 30
0.0
 11
89.15399200000001
 21
136.5014999999999
 31
0.0
  0
LINE
  5
181
330
1E
100
AcDbEntity
  8
0
100
AcDbLine
 10
75.14599200000001
 20
134.0694999999999
 30
0.0
 11
80.657992
 21
129.9095
 31
0.0
  0
LINE
  5
182
330
1E
100
AcDbEntity
  8
0
100
AcDbLine
 10
80.657992
 20
129.9095
 30
0.0
 11
84.81799200000001
 21
124.3975
 31
0.0
  0
LINE
  5
183
330
1E
100
AcDbEntity
  8
0
100
AcDbLine
 10
87.249992
 20
118.3175
 30
0.0
 11
87.249992
 21
129.5015
 31
0.0
  0
LINE
  5
184
330
1E
100
AcDbEntity
  8
0
100
AcDbLine
 10
86.34999200000001
 20
129.5015
 30
0.0
 11
87.249992
 21
129.5015
 31
0.0
  0
LINE
  5
185
330
1E
100
AcDbEntity
  8
0
100
AcDbLine
 10
87.249992
 20
129.5015
 30
0.0
 11
87.249992
 21
118.3175
 31
0.0
  0
LINE
  5
186
330
1E
100
AcDbEntity
  8
0
100
AcDbLine
 10
87.249992
 20
129.5015
 30
0.0
 11
88.289992
 21
129.5015
 31
0.0
  0
LINE
  5
187
330
1E
100
AcDbEntity
  8
0
100
AcDbLine
 10
84.81799200000001
 20
124.3975
 30
0.0
 11
87.313992
 21
118.1575
 31
0.0
  0
LINE
  5
188
330
1E
100
AcDbEntity
  8
0
100
AcDbLine
 10
87.313992
 20
118.1575
 30
0.0
 11
88.249992
 21
111.5014999999999
 31
0.0
  0
LINE
  5
189
330
1E
100
AcDbEntity
  8
0
100
AcDbLine
 10
68.905992
 20
136.5654999999999
 30
0.0
 11
75.14599200000001
 21
134.0694999999999
 31
0.0
  0
LINE
  5
18A
330
1E
100
AcDbEntity
  8
0
100
AcDbLine
 10
84.81799200000001
 20
98.60550000000001
 30
0.0
 11
87.313992
 21
104.8455
 31
0.0
  0
LINE
  5
18B
330
1E
100
AcDbEntity
  8
0
100
AcDbLine
 10
87.74999200000001
 20
78.50149999999999
 30
0.0
 11
88.249992
 21
78.50149999999999
 31
0.0
  0
LINE
  5
18C
330
1E
100
AcDbEntity
  8
0
100
AcDbLine
 10
87.74999200000001
 20
78.50149999999999
 30
0.0
 11
87.74999200000001
 21
64.50149999999999
 31
0.0
  0
LINE
  5
18D
330
1E
100
AcDbEntity
  8
0
100
AcDbLine
 10
87.74999200000001
 20
80.5015
 30
0.0
 11
87.74999200000001
 21
82.50149999999999
 31
0.0
  0
LINE
  5
18E
330
1E
100
AcDbEntity
  8
0
100
AcDbLine
 10
88.249992
 20
78.50149999999999
 30
0.0
 11
88.249992
 21
80.5015
 31
0.0
  0
LINE
  5
18F
330
1E
100
AcDbEntity
  8
0
100
AcDbLine
 10
88.249992
 20
80.5015
 30
0.0
 11
88.249992
 21
78.50149999999999
 31
0.0
  0
LINE
  5
190
330
1E
100
AcDbEntity
  8
0
100
AcDbLine
 10
88.249992
 20
82.50149999999999
 30
0.0
 11
88.249992
 21
84.50149999999998
 31
0.0
  0
LINE
  5
191
330
1E
100
AcDbEntity
  8
0
100
AcDbLine
 10
88.249992
 20
84.50149999999998
 30
0.0
 11
88.249992
 21
82.50149999999999
 31
0.0
  0
LINE
  5
192
330
1E
100
AcDbEntity
  8
0
100
AcDbLine
 10
87.74999200000001
 20
82.50149999999999
 30
0.0
 11
88.249992
 21
82.50149999999999
 31
0.0
  0
LINE
  5
193
330
1E
100
AcDbEntity
  8
0
100
AcDbLine
 10
87.74999200000001
 20
82.50149999999999
 30
0.0
 11
87.74999200000001
 21
80.5015
 31
0.0
  0
LINE
  5
194
330
1E
100
AcDbEntity
  8
0
100
AcDbLine
 10
89.15399200000001
 20
140.5014999999999
 30
0.0
 11
95.233992
 21
140.5014999999999
 31
0.0
  0
LINE
  5
195
330
1E
100
AcDbEntity
  8
0
100
AcDbLine
 10
89.15399200000001
 20
136.5014999999999
 30
0.0
 11
95.233992
 21
136.5014999999999
 31
0.0
  0
LINE
  5
196
330
1E
100
AcDbEntity
  8
0
100
AcDbLine
 10
88.289992
 20
129.5015
 30
0.0
 11
91.169992
 21
129.5015
 31
0.0
  0
LINE
  5
197
330
1E
100
AcDbEntity
  8
0
100
AcDbLine
 10
87.74999200000001
 20
112.5014999999999
 30
0.0
 11
87.74999200000001
 21
110.5014999999999
 31
0.0
  0
LINE
  5
198
330
1E
100
AcDbEntity
  8
0
100
AcDbLine
 10
87.74999200000001
 20
110.5014999999999
 30
0.0
 11
87.74999200000001
 21
112.5014999999999
 31
0.0
  0
LINE
  5
199
330
1E
100
AcDbEntity
  8
0
100
AcDbLine
 10
87.313992
 20
104.8455
 30
0.0
 11
88.249992
 21
111.5014999999999
 31
0.0
  0
LINE
  5
19A
330
1E
100
AcDbEntity
  8
0
100
AcDbLine
 10
68.905992
 20
70.5798
 30
0.0
 11
75.14599200000001
 21
68.8148
 31
0.0
  0
LINE
  5
19B
330
1E
100
AcDbEntity
  8
0
100
AcDbLine
 10
62.249992
 20
71.2416
 30
0.0
 11
68.905992
 21
70.5798
 31
0.0
  0
LINE
  5
19C
330
1E
100
AcDbEntity
  8
0
100
AcDbLine
 10
62.249992
 20
70.53449999999999
 30
0.0
 11
68.905992
 21
69.87269999999999
 31
0.0
  0
LINE
  5
19D
330
1E
100
AcDbEntity
  8
0
100
AcDbLine
 10
55.59399200000001
 20
70.5798
 30
0.0
 11
62.249992
 21
71.2416
 31
0.0
  0
LINE
  5
19E
330
1E
100
AcDbEntity
  8
0
100
AcDbLine
 10
55.59399200000001
 20
69.87269999999999
 30
0.0
 11
62.249992
 21
70.53449999999999
 31
0.0
  0
LINE
  5
19F
330
1E
100
AcDbEntity
  8
0
100
AcDbLine
 10
36.24999199999999
 20
52.1497
 30
0.0
 11
37.18599199999999
 21
47.4432
 31
0.0
  0
LINE
  5
1A0
330
1E
100
AcDbEntity
  8
0
100
AcDbLine
 10
36.24999199999999
 20
52.1497
 30
0.0
 11
36.24999199999999
 21
52.8568
 31
0.0
  0
LINE
  5
1A1
330
1E
100
AcDbEntity
  8
0
100
AcDbLine
 10
36.24999199999999
 20
52.1497
 30
0.0
 11
37.18599199999999
 21
56.8562
 31
0.0
  0
LINE
  5
1A2
330
1E
100
AcDbEntity
  8
0
100
AcDbLine
 10
37.18599199999999
 20
47.4432
 30
0.0
 11
37.249992
 21
47.3300641025641
 31
0.0
  0
LINE
  5
1A3
330
1E
100
AcDbEntity
  8
0
100
AcDbLine
 10
92.249992
 20
129.5015
 30
0.0
 11
92.249992
 21
136.5014999999999
 31
0.0
  0
LINE
  5
1A4
330
1E
100
AcDbEntity
  8
0
100
AcDbLine
 10
100.2499919999999
 20
136.5014999999999
 30
0.0
 11
100.2499919999999
 21
140.5014999999999
 31
0.0
  0
LINE
  5
1A5
330
1E
100
AcDbEntity
  8
0
100
AcDbLine
 10
98.88199200000002
 20
136.5014999999999
 30
0.0
 11
100.2499919999999
 21
136.5014999999999
 31
0.0
  0
LINE
  5
1A6
330
1E
100
AcDbEntity
  8
0
100
AcDbLine
 10
100.2499919999999
 20
140.5014999999999
 30
0.0
 11
100.2499919999999
 21
136.5014999999999
 31
0.0
  0
LINE
  5
1A7
330
1E
100
AcDbEntity
  8
0
100
AcDbLine
 10
98.88199200000002
 20
140.5014999999999
 30
0.0
 11
100.2499919999999
 21
140.5014999999999
 31
0.0
  0
LINE
  5
1A8
330
1E
100
AcDbEntity
  8
0
100
AcDbLine
 10
95.233992
 20
140.5014999999999
 30
0.0
 11
98.88199200000002
 21
140.5014999999999
 31
0.0
  0
LINE
  5
1A9
330
1E
100
AcDbEntity
  8
0
100
AcDbLine
 10
95.233992
 20
136.5014999999999
 30
0.0
 11
98.88199200000002
 21
136.5014999999999
 31
0.0
  0
LINE
  5
1AA
330
1E
100
AcDbEntity
  8
0
100
AcDbLine
 10
92.249992
 20
136.5014999999999
 30
0.0
 11
92.249992
 21
129.5015
 31
0.0
  0
LINE
  5
1AB
330
1E
100
AcDbEntity
  8
0
100
AcDbLine
 10
92.249992
 20
136.5014999999999
 30
0.0
 11
95.233992
 21
136.5014999999999
 31
0.0
  0
LINE
  5
1AC
330
1E
100
AcDbEntity
  8
0
100
AcDbLine
 10
91.169992
 20
129.5015
 30
0.0
 11
92.249992
 21
129.5015
 31
0.0
  0
LINE
  5
1AD
330
1E
100
AcDbEntity
  8
0
100
AcDbLine
 10
89.249992
 20
140.5014999999999
 30
0.0
 11
89.249992
 21
150.5015
 31
0.0
  0
LINE
  5
1AE
330
1E
100
AcDbEntity
  8
0
100
AcDbLine
 10
35.24999199999999
 20
150.5015
 30
0.0
 11
35.24999199999999
 21
140.5014999999999
 31
0.0
  0
LINE
  5
1AF
330
1E
100
AcDbEntity
  8
0
100
AcDbLine
 10
35.24999199999999
 20
150.5015
 30
0.0
 11
36.221992
 21
150.5015
 31
0.0
  0
LINE
  5
1B0
330
1E
100
AcDbEntity
  8
0
100
AcDbLine
 10
36.221992
 20
150.5015
 30
0.0
 11
38.813992
 21
150.5015
 31
0.0
  0
LINE
  5
1B1
330
1E
100
AcDbEntity
  8
0
100
AcDbLine
 10
38.813992
 20
150.5015
 30
0.0
 11
43.133992
 21
150.5015
 31
0.0
  0
LINE
  5
1B2
330
1E
100
AcDbEntity
  8
0
100
AcDbLine
 10
43.133992
 20
150.5015
 30
0.0
 11
48.857992
 21
150.5015
 31
0.0
  0
LINE
  5
1B3
330
1E
100
AcDbEntity
  8
0
100
AcDbLine
 10
48.857992
 20
150.5015
 30
0.0
 11
55.337992
 21
150.5015
 31
0.0
  0
LINE
  5
1B4
330
1E
100
AcDbEntity
  8
0
100
AcDbLine
 10
37.46999199999999
 20
150.5015
 30
0.0
 11
44.889992
 21
150.5015
 31
0.0
  0
LINE
  5
1B5
330
1E
100
AcDbEntity
  8
0
100
AcDbLine
 10
36.749992
 20
152.5014999999999
 30
0.0
 11
36.749992
 21
160.1296
 31
0.0
  0
LINE
  5
1B6
330
1E
100
AcDbEntity
  8
0
100
AcDbLine
 10
36.749992
 20
152.5014999999999
 30
0.0
 11
36.749992
 21
159.7269999999999
 31
0.0
  0
LINE
  5
1B7
330
1E
100
AcDbEntity
  8
0
100
AcDbLine
 10
48.63399199999999
 20
152.5014999999999
 30
0.0
 11
48.63399199999999
 21
164.2736
 31
0.0
  0
LINE
  5
1B8
330
1E
100
AcDbEntity
  8
0
100
AcDbLine
 10
50.365992
 20
152.5014999999999
 30
0.0
 11
50.365992
 21
164.4749999999999
 31
0.0
  0
LINE
  5
1B9
330
1E
100
AcDbEntity
  8
0
100
AcDbLine
 10
37.46999199999999
 20
152.5014999999999
 30
0.0
 11
44.889992
 21
152.5014999999999
 31
0.0
  0
LINE
  5
1BA
330
1E
100
AcDbEntity
  8
0
100
AcDbLine
 10
36.749992
 20
159.7269999999999
 30
0.0
 11
36.749992
 21
152.5014999999999
 31
0.0
  0
LINE
  5
1BB
330
1E
100
AcDbEntity
  8
0
100
AcDbLine
 10
36.749992
 20
159.7269999999999
 30
0.0
 11
36.749992
 21
160.1296
 31
0.0
  0
LINE
  5
1BC
330
1E
100
AcDbEntity
  8
0
100
AcDbLine
 10
36.749992
 20
160.1296
 30
0.0
 11
36.749992
 21
152.5014999999999
 31
0.0
  0
LINE
  5
1BD
330
1E
100
AcDbEntity
  8
0
100
AcDbLine
 10
36.749992
 20
160.1296
 30
0.0
 11
39.3905997273494
 21
160.1296
 31
0.0
  0
LINE
  5
1BE
330
1E
100
AcDbEntity
  8
0
100
AcDbLine
 10
36.749992
 20
160.1296
 30
0.0
 11
36.749992
 21
159.7269999999999
 31
0.0
  0
LINE
  5
1BF
330
1E
100
AcDbEntity
  8
0
100
AcDbLine
 10
39.3905997273494
 20
160.1296
 30
0.0
 11
40.077992
 21
161.1137
 31
0.0
  0
LINE
  5
1C0
330
1E
100
AcDbEntity
  8
0
100
AcDbLine
 10
36.749992
 20
199.3810999999999
 30
0.0
 11
36.749992
 21
213.1683999999999
 31
0.0
  0
LINE
  5
1C1
330
1E
100
AcDbEntity
  8
0
100
AcDbLine
 10
36.749992
 20
199.3810999999999
 30
0.0
 11
39.749992
 21
199.3810999999999
 31
0.0
  0
LINE
  5
1C2
330
1E
100
AcDbEntity
  8
0
100
AcDbLine
 10
36.749992
 20
199.3810999999999
 30
0.0
 11
36.749992
 21
199.7284
 31
0.0
  0
LINE
  5
1C3
330
1E
100
AcDbEntity
  8
0
100
AcDbLine
 10
36.749992
 20
213.1683999999999
 30
0.0
 11
36.749992
 21
213.5156999999999
 31
0.0
  0
LINE
  5
1C4
330
1E
100
AcDbEntity
  8
0
100
AcDbLine
 10
36.749992
 20
213.1683999999999
 30
0.0
 11
36.749992
 21
199.3810999999999
 31
0.0
  0
LINE
  5
1C5
330
1E
100
AcDbEntity
  8
0
100
AcDbLine
 10
36.749992
 20
199.7284
 30
0.0
 11
36.749992
 21
213.5156999999999
 31
0.0
  0
LINE
  5
1C6
330
1E
100
AcDbEntity
  8
0
100
AcDbLine
 10
36.749992
 20
199.7284
 30
0.0
 11
39.749992
 21
199.7284
 31
0.0
  0
LINE
  5
1C7
330
1E
100
AcDbEntity
  8
0
100
AcDbLine
 10
36.749992
 20
199.7284
 30
0.0
 11
36.749992
 21
199.3810999999999
 31
0.0
  0
LINE
  5
1C8
330
1E
100
AcDbEntity
  8
0
100
AcDbLine
 10
36.749992
 20
213.5156999999999
 30
0.0
 11
39.3906507775061
 21
213.5156999999999
 31
0.0
  0
LINE
  5
1C9
330
1E
100
AcDbEntity
  8
0
100
AcDbLine
 10
36.749992
 20
213.5156999999999
 30
0.0
 11
36.749992
 21
199.7284
 31
0.0
  0
LINE
  5
1CA
330
1E
100
AcDbEntity
  8
0
100
AcDbLine
 10
36.749992
 20
213.5156999999999
 30
0.0
 11
36.749992
 21
213.1683999999999
 31
0.0
  0
LINE
  5
1CB
330
1E
100
AcDbEntity
  8
0
100
AcDbLine
 10
39.249992
 20
199.5547
 30
0.0
 11
40.077992
 21
200.5771
 31
0.0
  0
LINE
  5
1CC
330
1E
100
AcDbEntity
  8
0
100
AcDbLine
 10
39.249992
 20
199.5547
 30
0.0
 11
40.077992
 21
198.5322999999999
 31
0.0
  0
LINE
  5
1CD
330
1E
100
AcDbEntity
  8
0
100
AcDbLine
 10
40.077992
 20
161.1137
 30
0.0
 11
42.285992
 21
162.225
 31
0.0
  0
LINE
  5
1CE
330
1E
100
AcDbEntity
  8
0
100
AcDbLine
 10
39.749992
 20
199.7284
 30
0.0
 11
39.749992
 21
199.3810999999999
 31
0.0
  0
LINE
  5
1CF
330
1E
100
AcDbEntity
  8
0
100
AcDbLine
 10
39.749992
 20
199.3810999999999
 30
0.0
 11
39.749992
 21
199.7284
 31
0.0
  0
LINE
  5
1D0
330
1E
100
AcDbEntity
  8
0
100
AcDbLine
 10
40.077992
 20
198.5322999999999
 30
0.0
 11
42.249992
 21
197.5893293478259
 31
0.0
  0
LINE
  5
1D1
330
1E
100
AcDbEntity
  8
0
100
AcDbLine
 10
40.077992
 20
200.5771
 30
0.0
 11
42.285992
 21
201.5356999999999
 31
0.0
  0
LINE
  5
1D2
330
1E
100
AcDbEntity
  8
0
100
AcDbLine
 10
40.077992
 20
214.3644999999999
 30
0.0
 11
42.285992
 21
215.3229999999999
 31
0.0
  0
LINE
  5
1D3
330
1E
100
AcDbEntity
  8
0
100
AcDbLine
 10
39.3906507775061
 20
213.5156999999999
 30
0.0
 11
40.077992
 21
214.3644999999999
 31
0.0
  0
LINE
  5
1D4
330
1E
100
AcDbEntity
  8
0
100
AcDbLine
 10
37.18599199999999
 20
214.4978
 30
0.0
 11
39.681992
 21
215.5813999999999
 31
0.0
  0
LINE
  5
1D5
330
1E
100
AcDbEntity
  8
0
100
AcDbLine
 10
36.24999199999999
 20
213.342
 30
0.0
 11
36.24999199999999
 21
215.3116
 31
0.0
  0
LINE
  5
1D6
330
1E
100
AcDbEntity
  8
0
100
AcDbLine
 10
36.24999199999999
 20
213.342
 30
0.0
 11
37.18599199999999
 21
214.4978
 31
0.0
  0
LINE
  5
1D7
330
1E
100
AcDbEntity
  8
0
100
AcDbLine
 10
36.24999199999999
 20
213.342
 30
0.0
 11
36.749992
 21
212.7245854700849
 31
0.0
  0
LINE
  5
1D8
330
1E
100
AcDbEntity
  8
0
100
AcDbLine
 10
39.681992
 20
215.5813999999999
 30
0.0
 11
43.841992
 21
216.5385
 31
0.0
  0
LINE
  5
1D9
330
1E
100
AcDbEntity
  8
0
100
AcDbLine
 10
40.077992
 20
255.6624999999999
 30
0.0
 11
42.249992
 21
254.719135869565
 31
0.0
  0
LINE
  5
1DB
330
1E
100
AcDbEntity
  8
0
100
AcDbLine
 10
39.249992
 20
256.6845
 30
0.0
 11
40.077992
 21
257.7074999999999
 31
0.0
  0
LINE
  5
1DC
330
1E
100
AcDbEntity
  8
0
100
AcDbLine
 10
39.249992
 20
256.6845
 30
0.0
 11
39.249992
 21
286.2284999999999
 31
0.0
  0
LINE
  5
1DE
330
1E
100
AcDbEntity
  8
0
100
AcDbLine
 10
39.249992
 20
256.6845
 30
0.0
 11
40.077992
 21
255.6624999999999
 31
0.0
  0
LINE
  5
1DF
330
1E
100
AcDbEntity
  8
0
100
AcDbLine
 10
40.077992
 20
257.7074999999999
 30
0.0
 11
42.285992
 21
258.6654999999999
 31
0.0
  0
LINE
  5
1E2
330
1E
100
AcDbEntity
  8
0
100
AcDbLine
 10
39.249992
 20
286.2284999999999
 30
0.0
 11
40.077992
 21
287.2515
 31
0.0
  0
LINE
  5
1E3
330
1E
100
AcDbEntity
  8
0
100
AcDbLine
 10
41.249992
 20
287.760003623188
 30
0.0
 11
41.249992
 21
305.9245
 31
0.0
  0
LINE
  5
1E6
330
1E
100
AcDbEntity
  8
0
100
AcDbLine
 10
41.249992
 20
305.9245
 30
0.0
 11
42.005992
 21
306.8585
 31
0.0
  0
LINE
  5
1E7
330
1E
100
AcDbEntity
  8
0
100
AcDbLine
 10
41.249992
 20
305.9245
 30
0.0
 11
41.249992
 21
287.760003623188
 31
0.0
  0
LINE
  5
1E8
330
1E
100
AcDbEntity
  8
0
100
AcDbLine
 10
42.005992
 20
306.8585
 30
0.0
 11
44.021992
 21
307.7335
 31
0.0
  0
LINE
  5
1E9
330
1E
100
AcDbEntity
  8
0
100
AcDbLine
 10
40.077992
 20
287.2515
 30
0.0
 11
42.285992
 21
288.2094999999999
 31
0.0
  0
LINE
  5
1EA
330
1E
100
AcDbEntity
  8
0
100
AcDbLine
 10
39.681992
 20
217.551
 30
0.0
 11
43.841992
 21
218.5081
 31
0.0
  0
LINE
  5
1EB
330
1E
100
AcDbEntity
  8
0
100
AcDbLine
 10
37.18599199999999
 20
216.4674
 30
0.0
 11
39.681992
 21
217.551
 31
0.0
  0
LINE
  5
1EC
330
1E
100
AcDbEntity
  8
0
100
AcDbLine
 10
36.24999199999999
 20
215.3116
 30
0.0
 11
37.18599199999999
 21
216.4674
 31
0.0
  0
LINE
  5
1ED
330
1E
100
AcDbEntity
  8
0
100
AcDbLine
 10
36.24999199999999
 20
215.3116
 30
0.0
 11
36.24999199999999
 21
213.342
 31
0.0
  0
LINE
  5
1EE
330
1E
100
AcDbEntity
  8
0
100
AcDbLine
 10
42.005992
 20
410.3564999999999
 30
0.0
 11
44.021992
 21
409.4814999999999
 31
0.0
  0
LINE
  5
1EF
330
1E
100
AcDbEntity
  8
0
100
AcDbLine
 10
41.249992
 20
411.2905
 30
0.0
 11
42.005992
 21
412.2234999999999
 31
0.0
  0
LINE
  5
1F0
330
1E
100
AcDbEntity
  8
0
100
AcDbLine
 10
41.249992
 20
411.2905
 30
0.0
 11
41.249992
 21
490.0744999999999
 31
0.0
  0
LINE
  5
1F1
330
1E
100
AcDbEntity
  8
0
100
AcDbLine
 10
41.249992
 20
411.2905
 30
0.0
 11
42.005992
 21
410.3564999999999
 31
0.0
  0
LINE
  5
1F2
330
1E
100
AcDbEntity
  8
0
100
AcDbLine
 10
42.005992
 20
412.2234999999999
 30
0.0
 11
44.021992
 21
413.0984999999999
 31
0.0
  0
LINE
  5
1F3
330
1E
100
AcDbEntity
  8
0
100
AcDbLine
 10
33.929992
 20
501.3595
 30
0.0
 11
42.409992
 21
495.0565
 31
0.0
  0
LINE
  5
1F4
330
1E
100
AcDbEntity
  8
0
100
AcDbLine
 10
33.929992
 20
502.8945
 30
0.0
 11
42.409992
 21
496.5914999999999
 31
0.0
  0
LINE
  5
1F5
330
1E
100
AcDbEntity
  8
0
100
AcDbLine
 10
41.249992
 20
490.0744999999999
 30
0.0
 11
42.005992
 21
491.0085
 31
0.0
  0
LINE
  5
1F6
330
1E
100
AcDbEntity
  8
0
100
AcDbLine
 10
42.249992
 20
218.141825192308
 30
0.0
 11
42.249992
 21
256.6845
 31
0.0
  0
LINE
  5
1F7
330
1E
100
AcDbEntity
  8
0
100
AcDbLine
 10
42.285992
 20
162.225
 30
0.0
 11
45.96599199999999
 21
163.2067
 31
0.0
  0
LINE
  5
1F8
330
1E
100
AcDbEntity
  8
0
100
AcDbLine
 10
42.285992
 20
201.5356999999999
 30
0.0
 11
45.96599199999999
 21
202.3823999999999
 31
0.0
  0
LINE
  5
1F9
330
1E
100
AcDbEntity
  8
0
100
AcDbLine
 10
42.285992
 20
258.6654999999999
 30
0.0
 11
45.96599199999999
 21
259.5124999999999
 31
0.0
  0
LINE
  5
1FC
330
1E
100
AcDbEntity
  8
0
100
AcDbLine
 10
42.285992
 20
288.2094999999999
 30
0.0
 11
45.96599199999999
 21
289.0565
 31
0.0
  0
LINE
  5
1FD
330
1E
100
AcDbEntity
  8
0
100
AcDbLine
 10
42.285992
 20
215.3229999999999
 30
0.0
 11
45.96599199999999
 21
216.1697
 31
0.0
  0
LINE
  5
1FE
330
1E
100
AcDbEntity
  8
0
100
AcDbLine
 10
42.249992
 20
218.141825192308
 30
0.0
 11
42.249992
 21
256.6845
 31
0.0
  0
LINE
  5
1FF
330
1E
100
AcDbEntity
  8
0
100
AcDbLine
 10
42.249992
 20
162.2068809782609
 30
0.0
 11
42.249992
 21
199.5547
 31
0.0
  0
LINE
  5
200
330
1E
100
AcDbEntity
  8
0
100
AcDbLine
 10
42.409992
 20
495.0565
 30
0.0
 11
48.2225905144866
 21
492.7665783768969
 31
0.0
  0
LINE
  5
201
330
1E
100
AcDbEntity
  8
0
100
AcDbLine
 10
42.409992
 20
496.5914999999999
 30
0.0
 11
52.009992
 21
492.8094999999999
 31
0.0
  0
LINE
  5
202
330
1E
100
AcDbEntity
  8
0
100
AcDbLine
 10
42.005992
 20
491.0085
 30
0.0
 11
44.021992
 21
491.8835
 31
0.0
  0
LINE
  5
203
330
1E
100
AcDbEntity
  8
0
100
AcDbLine
 10
35.34599199999999
 20
504.3895
 30
0.0
 11
43.40199199999999
 21
498.4015
 31
0.0
  0
LINE
  5
204
330
1E
100
AcDbEntity
  8
0
100
AcDbLine
 10
43.40199199999999
 20
498.4015
 30
0.0
 11
52.521992
 21
494.8095
 31
0.0
  0
LINE
  5
205
330
1E
100
AcDbEntity
  8
0
100
AcDbLine
 10
35.34599199999999
 20
504.8094999999999
 30
0.0
 11
43.40199199999999
 21
498.8224999999999
 31
0.0
  0
LINE
  5
206
330
1E
100
AcDbEntity
  8
0
100
AcDbLine
 10
43.841992
 20
216.5385
 30
0.0
 11
49.35399199999999
 21
217.2609
 31
0.0
  0
LINE
  5
207
330
1E
100
AcDbEntity
  8
0
100
AcDbLine
 10
45.96599199999999
 20
163.2067
 30
0.0
 11
48.63399199999999
 21
163.612098113208
 31
0.0
  0
LINE
  5
208
330
1E
100
AcDbEntity
  8
0
100
AcDbLine
 10
45.96599199999999
 20
202.3823999999999
 30
0.0
 11
50.841992
 21
203.0213999999999
 31
0.0
  0
LINE
  5
20A
330
1E
100
AcDbEntity
  8
0
100
AcDbLine
 10
44.021992
 20
307.7335
 30
0.0
 11
47.38199199999999
 21
308.5065
 31
0.0
  0
LINE
  5
20C
330
1E
100
AcDbEntity
  8
0
100
AcDbLine
 10
45.96599199999999
 20
259.5124999999999
 30
0.0
 11
50.841992
 21
260.1515
 31
0.0
  0
LINE
  5
210
330
1E
100
AcDbEntity
  8
0
100
AcDbLine
 10
45.96599199999999
 20
289.0565
 30
0.0
 11
50.841992
 21
289.6954999999999
 31
0.0
  0
LINE
  5
211
330
1E
100
AcDbEntity
  8
0
100
AcDbLine
 10
45.96599199999999
 20
216.1697
 30
0.0
 11
48.63399199999999
 21
216.519341509434
 31
0.0
  0
LINE
  5
212
330
1E
100
AcDbEntity
  8
0
100
AcDbLine
 10
43.841992
 20
218.5081
 30
0.0
 11
49.35399199999999
 21
219.2305
 31
0.0
  0
LINE
  5
213
330
1E
100
AcDbEntity
  8
0
100
AcDbLine
 10
44.021992
 20
409.4814999999999
 30
0.0
 11
44.249992
 21
409.429046428571
 31
0.0
  0
LINE
  5
214
330
1E
100
AcDbEntity
  8
0
100
AcDbLine
 10
44.021992
 20
413.0984999999999
 30
0.0
 11
47.38199199999999
 21
413.8715
 31
0.0
  0
LINE
  5
215
330
1E
100
AcDbEntity
  8
0
100
AcDbLine
 10
44.021992
 20
491.8835
 30
0.0
 11
47.38199199999999
 21
492.6565
 31
0.0
  0
LINE
  5
216
330
1E
100
AcDbEntity
  8
0
100
AcDbLine
 10
47.38199199999999
 20
308.5065
 30
0.0
 11
51.833992
 21
309.0905
 31
0.0
  0
LINE
  5
218
330
1E
100
AcDbEntity
  8
0
100
AcDbLine
 10
47.38199199999999
 20
413.8715
 30
0.0
 11
51.833992
 21
414.4554999999999
 31
0.0
  0
LINE
  5
219
330
1E
100
AcDbEntity
  8
0
100
AcDbLine
 10
47.38199199999999
 20
492.6565
 30
0.0
 11
49.1069128370455
 21
492.8823824905649
 31
0.0
  0
LINE
  5
21A
330
1E
100
AcDbEntity
  8
0
100
AcDbLine
 10
47.249992
 20
492.626132142857
 30
0.0
 11
47.249992
 21
493.149741666667
 31
0.0
  0
LINE
  5
21B
330
1E
100
AcDbEntity
  8
0
100
AcDbLine
 10
44.249992
 20
307.7859535714289
 30
0.0
 11
44.249992
 21
411.2905
 31
0.0
  0
LINE
  5
21C
330
1E
100
AcDbEntity
  8
0
100
AcDbLine
 10
43.40199199999999
 20
498.8224999999999
 30
0.0
 11
52.521992
 21
495.2294999999999
 31
0.0
  0
LINE
  5
221
330
1E
100
AcDbEntity
  8
0
100
AcDbLine
 10
48.167992
 20
525.1045
 30
0.0
 11
48.528292
 21
524.6844999999999
 31
0.0
  0
LINE
  5
222
330
1E
100
AcDbEntity
  8
0
100
AcDbLine
 10
48.167992
 20
525.1045
 30
0.0
 11
48.167992
 21
526.0765
 31
0.0
  0
LINE
  5
223
330
1E
100
AcDbEntity
  8
0
100
AcDbLine
 10
48.167992
 20
525.0345
 30
0.0
 11
48.167992
 21
527.687883538634
 31
0.0
  0
LINE
  5
227
330
1E
100
AcDbEntity
  8
0
100
AcDbLine
 10
48.167992
 20
526.0765
 30
0.0
 11
48.167992
 21
529.2775
 31
0.0
  0
LINE
  5
229
330
1E
100
AcDbEntity
  8
0
100
AcDbLine
 10
48.167992
 20
526.0765
 30
0.0
 11
48.167992
 21
525.1045
 31
0.0
  0
LINE
  5
22A
330
1E
100
AcDbEntity
  8
0
100
AcDbLine
 10
33.929992
 20
558.6735
 30
0.0
 11
42.409992
 21
564.9765
 31
0.0
  0
LINE
  5
22B
330
1E
100
AcDbEntity
  8
0
100
AcDbLine
 10
42.409992
 20
564.9765
 30
0.0
 11
52.009992
 21
568.7585
 31
0.0
  0
LINE
  5
22C
330
1E
100
AcDbEntity
  8
0
100
AcDbLine
 10
35.34599199999999
 20
557.8005
 30
0.0
 11
43.40199199999999
 21
563.7875
 31
0.0
  0
LINE
  5
22D
330
1E
100
AcDbEntity
  8
0
100
AcDbLine
 10
43.40199199999999
 20
563.7875
 30
0.0
 11
52.521992
 21
567.3804999999999
 31
0.0
  0
LINE
  5
22E
330
1E
100
AcDbEntity
  8
0
100
AcDbLine
 10
48.167992
 20
535.123510694289
 30
0.0
 11
48.167992
 21
536.0465
 31
0.0
  0
LINE
  5
22F
330
1E
100
AcDbEntity
  8
0
100
AcDbLine
 10
48.167992
 20
536.0465
 30
0.0
 11
48.167992
 21
532.6744999999999
 31
0.0
  0
LINE
  5
230
330
1E
100
AcDbEntity
  8
0
100
AcDbLine
 10
48.167992
 20
536.0465
 30
0.0
 11
48.167992
 21
539.1155
 31
0.0
  0
LINE
  5
231
330
1E
100
AcDbEntity
  8
0
100
AcDbLine
 10
48.167992
 20
529.2775
 30
0.0
 11
48.167992
 21
526.0765
 31
0.0
  0
LINE
  5
232
330
1E
100
AcDbEntity
  8
0
100
AcDbLine
 10
48.167992
 20
529.2775
 30
0.0
 11
48.167992
 21
532.6744999999999
 31
0.0
  0
LINE
  5
235
330
1E
100
AcDbEntity
  8
0
100
AcDbLine
 10
48.167992
 20
539.1155
 30
0.0
 11
48.167992
 21
539.9135
 31
0.0
  0
LINE
  5
237
330
1E
100
AcDbEntity
  8
0
100
AcDbLine
 10
48.167992
 20
539.9135
 30
0.0
 11
48.167992
 21
539.1155
 31
0.0
  0
LINE
  5
238
330
1E
100
AcDbEntity
  8
0
100
AcDbLine
 10
48.167992
 20
539.9135
 30
0.0
 11
48.528292
 21
540.3334999999999
 31
0.0
  0
LINE
  5
239
330
1E
100
AcDbEntity
  8
0
100
AcDbLine
 10
48.167992
 20
532.6744999999999
 30
0.0
 11
48.167992
 21
529.2775
 31
0.0
  0
LINE
  5
23A
330
1E
100
AcDbEntity
  8
0
100
AcDbLine
 10
48.167992
 20
532.6744999999999
 30
0.0
 11
48.167992
 21
536.0465
 31
0.0
  0
LINE
  5
23B
330
1E
100
AcDbEntity
  8
0
100
AcDbLine
 10
48.167992
 20
527.687883538634
 30
0.0
 11
48.167992
 21
525.0345
 31
0.0
  0
LINE
  5
23C
330
1E
100
AcDbEntity
  8
0
100
AcDbLine
 10
48.528292
 20
540.3334999999999
 30
0.0
 11
49.36789199999999
 21
540.8724999999999
 31
0.0
  0
LINE
  5
23E
330
1E
100
AcDbEntity
  8
0
100
AcDbLine
 10
48.63399199999999
 20
164.2736
 30
0.0
 11
48.63399199999999
 21
152.5014999999999
 31
0.0
  0
LINE
  5
23F
330
1E
100
AcDbEntity
  8
0
100
AcDbLine
 10
48.63399199999999
 20
164.2736
 30
0.0
 11
50.365992
 21
164.4749999999999
 31
0.0
  0
LINE
  5
240
330
1E
100
AcDbEntity
  8
0
100
AcDbLine
 10
48.63399199999999
 20
217.09
 30
0.0
 11
50.365992
 21
217.2636
 31
0.0
  0
LINE
  5
241
330
1E
100
AcDbEntity
  8
0
100
AcDbLine
 10
48.63399199999999
 20
203.3026999999999
 30
0.0
 11
48.63399199999999
 21
217.09
 31
0.0
  0
LINE
  5
242
330
1E
100
AcDbEntity
  8
0
100
AcDbLine
 10
48.63399199999999
 20
203.3026999999999
 30
0.0
 11
50.365992
 21
203.4763
 31
0.0
  0
LINE
  5
243
330
1E
100
AcDbEntity
  8
0
100
AcDbLine
 10
48.63399199999999
 20
203.3026999999999
 30
0.0
 11
50.133992
 21
202.8515
 31
0.0
  0
LINE
  5
244
330
1E
100
AcDbEntity
  8
0
100
AcDbLine
 10
49.35399199999999
 20
217.2609
 30
0.0
 11
55.59399200000001
 21
217.6943
 31
0.0
  0
LINE
  5
245
330
1E
100
AcDbEntity
  8
0
100
AcDbLine
 10
49.35399199999999
 20
219.2305
 30
0.0
 11
55.59399200000001
 21
219.664
 31
0.0
  0
LINE
  5
246
330
1E
100
AcDbEntity
  8
0
100
AcDbLine
 10
50.365992
 20
164.4749999999999
 30
0.0
 11
50.365992
 21
152.5014999999999
 31
0.0
  0
LINE
  5
247
330
1E
100
AcDbEntity
  8
0
100
AcDbLine
 10
50.365992
 20
164.4749999999999
 30
0.0
 11
51.68391538325089
 21
164.0153961854809
 31
0.0
  0
LINE
  5
248
330
1E
100
AcDbEntity
  8
0
100
AcDbLine
 10
50.133992
 20
202.8515
 30
0.0
 11
51.86599199999999
 21
203.0251999999999
 31
0.0
  0
LINE
  5
249
330
1E
100
AcDbEntity
  8
0
100
AcDbLine
 10
50.365992
 20
203.4763
 30
0.0
 11
50.365992
 21
217.2636
 31
0.0
  0
LINE
  5
24A
330
1E
100
AcDbEntity
  8
0
100
AcDbLine
 10
50.365992
 20
203.4763
 30
0.0
 11
51.86599199999999
 21
203.0251999999999
 31
0.0
  0
LINE
  5
24B
330
1E
100
AcDbEntity
  8
0
100
AcDbLine
 10
51.68391538325089
 20
164.0153961854809
 30
0.0
 11
56.361992
 21
164.3920999999999
 31
0.0
  0
LINE
  5
24C
330
1E
100
AcDbEntity
  8
0
100
AcDbLine
 10
50.841992
 20
203.0213999999999
 30
0.0
 11
56.361992
 21
203.4047999999999
 31
0.0
  0
LINE
  5
24D
330
1E
100
AcDbEntity
  8
0
100
AcDbLine
 10
50.841992
 20
260.1515
 30
0.0
 11
56.361992
 21
260.5344999999999
 31
0.0
  0
LINE
  5
251
330
1E
100
AcDbEntity
  8
0
100
AcDbLine
 10
51.833992
 20
309.0905
 30
0.0
 11
56.873992
 21
309.4405
 31
0.0
  0
LINE
  5
253
330
1E
100
AcDbEntity
  8
0
100
AcDbLine
 10
50.841992
 20
289.6954999999999
 30
0.0
 11
56.361992
 21
290.0785
 31
0.0
  0
LINE
  5
254
330
1E
100
AcDbEntity
  8
0
100
AcDbLine
 10
50.365992
 20
217.2636
 30
0.0
 11
51.684129970724
 21
216.867191974271
 31
0.0
  0
LINE
  5
255
330
1E
100
AcDbEntity
  8
0
100
AcDbLine
 10
51.684129970724
 20
216.867191974271
 30
0.0
 11
56.361992
 21
217.1921
 31
0.0
  0
LINE
  5
256
330
1E
100
AcDbEntity
  8
0
100
AcDbLine
 10
51.86599199999999
 20
203.0251999999999
 30
0.0
 11
51.86599199999999
 21
203.092523478261
 31
0.0
  0
LINE
  5
257
330
1E
100
AcDbEntity
  8
0
100
AcDbLine
 10
51.86599199999999
 20
203.092523478261
 30
0.0
 11
51.86599199999999
 21
203.0251999999999
 31
0.0
  0
LINE
  5
258
330
1E
100
AcDbEntity
  8
0
100
AcDbLine
 10
52.009992
 20
492.8094999999999
 30
0.0
 11
62.249992
 21
491.3915
 31
0.0
  0
LINE
  5
259
330
1E
100
AcDbEntity
  8
0
100
AcDbLine
 10
51.833992
 20
414.4554999999999
 30
0.0
 11
56.873992
 21
414.8055
 31
0.0
  0
LINE
  5
25A
330
1E
100
AcDbEntity
  8
0
100
AcDbLine
 10
52.521992
 20
494.8095
 30
0.0
 11
62.249992
 21
493.4614999999999
 31
0.0
  0
LINE
  5
25B
330
1E
100
AcDbEntity
  8
0
100
AcDbLine
 10
52.521992
 20
495.2294999999999
 30
0.0
 11
62.249992
 21
493.8825
 31
0.0
  0
LINE
  5
25C
330
1E
100
AcDbEntity
  8
0
100
AcDbLine
 10
51.70479199999999
 20
523.1164999999999
 30
0.0
 11
55.041592
 21
521.3334999999999
 31
0.0
  0
LINE
  5
25E
330
1E
100
AcDbEntity
  8
0
100
AcDbLine
 10
51.507092
 20
530.0075
 30
0.0
 11
52.52069200000001
 21
527.6105
 31
0.0
  0
LINE
  5
25F
330
1E
100
AcDbEntity
  8
0
100
AcDbLine
 10
51.18849199999999
 20
532.5755
 30
0.0
 11
51.507092
 21
530.0075
 31
0.0
  0
LINE
  5
260
330
1E
100
AcDbEntity
  8
0
100
AcDbLine
 10
51.18849199999999
 20
532.5755
 30
0.0
 11
51.507092
 21
535.0584999999999
 31
0.0
  0
LINE
  5
262
330
1E
100
AcDbEntity
  8
0
100
AcDbLine
 10
52.317992
 20
537.4554999999999
 30
0.0
 11
54.026692
 21
539.8805
 31
0.0
  0
LINE
  5
263
330
1E
100
AcDbEntity
  8
0
100
AcDbLine
 10
51.507092
 20
535.0584999999999
 30
0.0
 11
52.317992
 21
537.4554999999999
 31
0.0
  0
LINE
  5
264
330
1E
100
AcDbEntity
  8
0
100
AcDbLine
 10
52.52069200000001
 20
527.6105
 30
0.0
 11
54.171492
 21
525.1565
 31
0.0
  0
LINE
  5
265
330
1E
100
AcDbEntity
  8
0
100
AcDbLine
 10
52.009992
 20
568.7585
 30
0.0
 11
62.249992
 21
570.1765
 31
0.0
  0
LINE
  5
266
330
1E
100
AcDbEntity
  8
0
100
AcDbLine
 10
52.521992
 20
567.3804999999999
 30
0.0
 11
62.249992
 21
568.7274999999999
 31
0.0
  0
LINE
  5
267
330
1E
100
AcDbEntity
  8
0
100
AcDbLine
 10
51.70479199999999
 20
542.1855
 30
0.0
 11
55.041592
 21
543.9964999999999
 31
0.0
  0
LINE
  5
268
330
1E
100
AcDbEntity
  8
0
100
AcDbLine
 10
49.36789199999999
 20
540.8724999999999
 30
0.0
 11
51.70479199999999
 21
542.1855
 31
0.0
  0
LINE
  5
26A
330
1E
100
AcDbEntity
  8
0
100
AcDbLine
 10
49.36789199999999
 20
524.3194999999999
 30
0.0
 11
51.70479199999999
 21
523.1164999999999
 31
0.0
  0
LINE
  5
26C
330
1E
100
AcDbEntity
  8
0
100
AcDbLine
 10
48.528292
 20
524.6844999999999
 30
0.0
 11
49.36789199999999
 21
524.3194999999999
 31
0.0
  0
LINE
  5
26D
330
1E
100
AcDbEntity
  8
0
100
AcDbLine
 10
44.889992
 20
152.5014999999999
 30
0.0
 11
53.28999200000001
 21
152.5014999999999
 31
0.0
  0
LINE
  5
26E
330
1E
100
AcDbEntity
  8
0
100
AcDbLine
 10
53.28999200000001
 20
152.5014999999999
 30
0.0
 11
62.249992
 21
152.5014999999999
 31
0.0
  0
LINE
  5
26F
330
1E
100
AcDbEntity
  8
0
100
AcDbLine
 10
44.889992
 20
150.5015
 30
0.0
 11
53.28999200000001
 21
150.5015
 31
0.0
  0
LINE
  5
270
330
1E
100
AcDbEntity
  8
0
100
AcDbLine
 10
71.20999199999999
 20
150.5015
 30
0.0
 11
79.609992
 21
150.5015
 31
0.0
  0
LINE
  5
271
330
1E
100
AcDbEntity
  8
0
100
AcDbLine
 10
79.609992
 20
150.5015
 30
0.0
 11
87.029992
 21
150.5015
 31
0.0
  0
LINE
  5
272
330
1E
100
AcDbEntity
  8
0
100
AcDbLine
 10
89.249992
 20
150.5015
 30
0.0
 11
89.249992
 21
140.5014999999999
 31
0.0
  0
LINE
  5
273
330
1E
100
AcDbEntity
  8
0
100
AcDbLine
 10
89.249992
 20
150.5015
 30
0.0
 11
92.62999200000001
 21
150.5015
 31
0.0
  0
LINE
  5
274
330
1E
100
AcDbEntity
  8
0
100
AcDbLine
 10
95.98999199999999
 20
150.5015
 30
0.0
 11
97.249992
 21
150.5015
 31
0.0
  0
LINE
  5
275
330
1E
100
AcDbEntity
  8
0
100
AcDbLine
 10
97.249992
 20
150.5015
 30
0.0
 11
97.249992
 21
152.5014999999999
 31
0.0
  0
LINE
  5
276
330
1E
100
AcDbEntity
  8
0
100
AcDbLine
 10
92.62999200000001
 20
150.5015
 30
0.0
 11
95.98999199999999
 21
150.5015
 31
0.0
  0
LINE
  5
277
330
1E
100
AcDbEntity
  8
0
100
AcDbLine
 10
87.029992
 20
150.5015
 30
0.0
 11
92.62999200000001
 21
150.5015
 31
0.0
  0
LINE
  5
278
330
1E
100
AcDbEntity
  8
0
100
AcDbLine
 10
88.27799199999999
 20
150.5015
 30
0.0
 11
89.249992
 21
150.5015
 31
0.0
  0
LINE
  5
279
330
1E
100
AcDbEntity
  8
0
100
AcDbLine
 10
85.68599199999999
 20
150.5015
 30
0.0
 11
88.27799199999999
 21
150.5015
 31
0.0
  0
LINE
  5
27A
330
1E
100
AcDbEntity
  8
0
100
AcDbLine
 10
81.365992
 20
150.5015
 30
0.0
 11
85.68599199999999
 21
150.5015
 31
0.0
  0
LINE
  5
27B
330
1E
100
AcDbEntity
  8
0
100
AcDbLine
 10
75.641992
 20
150.5015
 30
0.0
 11
81.365992
 21
150.5015
 31
0.0
  0
LINE
  5
27C
330
1E
100
AcDbEntity
  8
0
100
AcDbLine
 10
69.161992
 20
150.5015
 30
0.0
 11
75.641992
 21
150.5015
 31
0.0
  0
LINE
  5
27D
330
1E
100
AcDbEntity
  8
0
100
AcDbLine
 10
62.249992
 20
150.5015
 30
0.0
 11
69.161992
 21
150.5015
 31
0.0
  0
LINE
  5
27E
330
1E
100
AcDbEntity
  8
0
100
AcDbLine
 10
62.249992
 20
150.5015
 30
0.0
 11
71.20999199999999
 21
150.5015
 31
0.0
  0
LINE
  5
27F
330
1E
100
AcDbEntity
  8
0
100
AcDbLine
 10
56.361992
 20
164.3920999999999
 30
0.0
 11
62.249992
 21
164.5588
 31
0.0
  0
LINE
  5
280
330
1E
100
AcDbEntity
  8
0
100
AcDbLine
 10
56.361992
 20
203.4047999999999
 30
0.0
 11
62.249992
 21
203.5486
 31
0.0
  0
LINE
  5
281
330
1E
100
AcDbEntity
  8
0
100
AcDbLine
 10
56.361992
 20
217.1921
 30
0.0
 11
62.249992
 21
217.3359
 31
0.0
  0
LINE
  5
282
330
1E
100
AcDbEntity
  8
0
100
AcDbLine
 10
55.59399200000001
 20
217.6943
 30
0.0
 11
62.249992
 21
217.8568999999999
 31
0.0
  0
LINE
  5
283
330
1E
100
AcDbEntity
  8
0
100
AcDbLine
 10
56.361992
 20
260.5344999999999
 30
0.0
 11
62.249992
 21
260.6784999999999
 31
0.0
  0
LINE
  5
287
330
1E
100
AcDbEntity
  8
0
100
AcDbLine
 10
56.873992
 20
309.4405
 30
0.0
 11
62.249992
 21
309.5715
 31
0.0
  0
LINE
  5
289
330
1E
100
AcDbEntity
  8
0
100
AcDbLine
 10
56.361992
 20
290.0785
 30
0.0
 11
62.249992
 21
290.2225
 31
0.0
  0
LINE
  5
28B
330
1E
100
AcDbEntity
  8
0
100
AcDbLine
 10
55.59399200000001
 20
219.664
 30
0.0
 11
62.249992
 21
219.8265
 31
0.0
  0
LINE
  5
28D
330
1E
100
AcDbEntity
  8
0
100
AcDbLine
 10
56.873992
 20
414.8055
 30
0.0
 11
62.249992
 21
414.9365
 31
0.0
  0
LINE
  5
290
330
1E
100
AcDbEntity
  8
0
100
AcDbLine
 10
54.026692
 20
539.8805
 30
0.0
 11
56.583792
 21
542.0214999999999
 31
0.0
  0
LINE
  5
291
330
1E
100
AcDbEntity
  8
0
100
AcDbLine
 10
54.171492
 20
525.1565
 30
0.0
 11
56.604192
 21
523.3295
 31
0.0
  0
LINE
  5
292
330
1E
100
AcDbEntity
  8
0
100
AcDbLine
 10
56.604192
 20
523.3295
 30
0.0
 11
59.326592
 21
522.2455
 31
0.0
  0
LINE
  5
293
330
1E
100
AcDbEntity
  8
0
100
AcDbLine
 10
56.583792
 20
542.0214999999999
 30
0.0
 11
59.335192
 21
543.1054999999999
 31
0.0
  0
LINE
  5
295
330
1E
100
AcDbEntity
  8
0
100
AcDbLine
 10
58.360092
 20
545.7645
 30
0.0
 11
60.437692
 21
546.8034999999999
 31
0.0
  0
LINE
  5
297
330
1E
100
AcDbEntity
  8
0
100
AcDbLine
 10
55.041592
 20
543.9964999999999
 30
0.0
 11
58.360092
 21
545.7645
 31
0.0
  0
LINE
  5
29A
330
1E
100
AcDbEntity
  8
0
100
AcDbLine
 10
55.041592
 20
521.3334999999999
 30
0.0
 11
58.360092
 21
519.5285
 31
0.0
  0
LINE
  5
29D
330
1E
100
AcDbEntity
  8
0
100
AcDbLine
 10
59.335192
 20
543.1054999999999
 30
0.0
 11
62.260192
 21
543.5335
 31
0.0
  0
LINE
  5
29E
330
1E
100
AcDbEntity
  8
0
100
AcDbLine
 10
59.326592
 20
522.2455
 30
0.0
 11
62.112592
 21
521.8745
 31
0.0
  0
LINE
  5
29F
330
1E
100
AcDbEntity
  8
0
100
AcDbLine
 10
60.437692
 20
518.3885
 30
0.0
 11
62.167992
 21
518.1594999999999
 31
0.0
  0
LINE
  5
2A4
330
1E
100
AcDbEntity
  8
0
100
AcDbLine
 10
58.360092
 20
519.5285
 30
0.0
 11
60.437692
 21
518.3885
 31
0.0
  0
LINE
  5
2A9
330
1E
100
AcDbEntity
  8
0
100
AcDbLine
 10
62.167992
 20
518.1594999999999
 30
0.0
 11
63.89829200000001
 21
518.3885
 31
0.0
  0
LINE
  5
2B1
330
1E
100
AcDbEntity
  8
0
100
AcDbLine
 10
62.112592
 20
521.8745
 30
0.0
 11
64.92179200000001
 21
522.2455
 31
0.0
  0
LINE
  5
2B2
330
1E
100
AcDbEntity
  8
0
100
AcDbLine
 10
61.358592
 20
547.1775
 30
0.0
 11
62.167992
 21
547.2815
 31
0.0
  0
LINE
  5
2B3
330
1E
100
AcDbEntity
  8
0
100
AcDbLine
 10
60.437692
 20
546.8034999999999
 30
0.0
 11
61.358592
 21
547.1775
 31
0.0
  0
LINE
  5
2B8
330
1E
100
AcDbEntity
  8
0
100
AcDbLine
 10
62.249992
 20
164.5588
 30
0.0
 11
68.13799200000001
 21
164.3920999999999
 31
0.0
  0
LINE
  5
2B9
330
1E
100
AcDbEntity
  8
0
100
AcDbLine
 10
62.249992
 20
203.5486
 30
0.0
 11
68.13799200000001
 21
203.4047999999999
 31
0.0
  0
LINE
  5
2BC
330
1E
100
AcDbEntity
  8
0
100
AcDbLine
 10
62.167992
 20
547.2815
 30
0.0
 11
62.977392
 21
547.1775
 31
0.0
  0
LINE
  5
2BD
330
1E
100
AcDbEntity
  8
0
100
AcDbLine
 10
75.86599200000001
 20
152.5014999999999
 30
0.0
 11
75.86599200000001
 21
164.2736
 31
0.0
  0
LINE
  5
2BE
330
1E
100
AcDbEntity
  8
0
100
AcDbLine
 10
74.133992
 20
152.5014999999999
 30
0.0
 11
74.133992
 21
164.4749999999999
 31
0.0
  0
LINE
  5
2BF
330
1E
100
AcDbEntity
  8
0
100
AcDbLine
 10
87.74999200000001
 20
152.5014999999999
 30
0.0
 11
87.74999200000001
 21
160.1296
 31
0.0
  0
LINE
  5
2C0
330
1E
100
AcDbEntity
  8
0
100
AcDbLine
 10
97.249992
 20
152.5014999999999
 30
0.0
 11
97.249992
 21
150.5015
 31
0.0
  0
LINE
  5
2C1
330
1E
100
AcDbEntity
  8
0
100
AcDbLine
 10
95.98999199999999
 20
152.5014999999999
 30
0.0
 11
97.249992
 21
152.5014999999999
 31
0.0
  0
LINE
  5
2C2
330
1E
100
AcDbEntity
  8
0
100
AcDbLine
 10
92.62999200000001
 20
152.5014999999999
 30
0.0
 11
95.98999199999999
 21
152.5014999999999
 31
0.0
  0
LINE
  5
2C3
330
1E
100
AcDbEntity
  8
0
100
AcDbLine
 10
87.029992
 20
152.5014999999999
 30
0.0
 11
92.62999200000001
 21
152.5014999999999
 31
0.0
  0
LINE
  5
2C4
330
1E
100
AcDbEntity
  8
0
100
AcDbLine
 10
79.609992
 20
152.5014999999999
 30
0.0
 11
87.029992
 21
152.5014999999999
 31
0.0
  0
LINE
  5
2C5
330
1E
100
AcDbEntity
  8
0
100
AcDbLine
 10
62.249992
 20
217.3359
 30
0.0
 11
68.13799200000001
 21
217.1921
 31
0.0
  0
LINE
  5
2C6
330
1E
100
AcDbEntity
  8
0
100
AcDbLine
 10
62.249992
 20
260.6784999999999
 30
0.0
 11
68.13799200000001
 21
260.5344999999999
 31
0.0
  0
LINE
  5
2C8
330
1E
100
AcDbEntity
  8
0
100
AcDbLine
 10
62.249992
 20
290.2225
 30
0.0
 11
68.13799200000001
 21
290.0785
 31
0.0
  0
LINE
  5
2CB
330
1E
100
AcDbEntity
  8
0
100
AcDbLine
 10
62.249992
 20
217.8568999999999
 30
0.0
 11
68.905992
 21
217.6943
 31
0.0
  0
LINE
  5
2CC
330
1E
100
AcDbEntity
  8
0
100
AcDbLine
 10
62.249992
 20
219.8265
 30
0.0
 11
68.905992
 21
219.664
 31
0.0
  0
LINE
  5
2CD
330
1E
100
AcDbEntity
  8
0
100
AcDbLine
 10
62.249992
 20
491.3915
 30
0.0
 11
72.489992
 21
492.8094999999999
 31
0.0
  0
LINE
  5
2CE
330
1E
100
AcDbEntity
  8
0
100
AcDbLine
 10
62.249992
 20
414.9365
 30
0.0
 11
67.62599200000001
 21
414.8055
 31
0.0
  0
LINE
  5
2D0
330
1E
100
AcDbEntity
  8
0
100
AcDbLine
 10
62.249992
 20
309.5715
 30
0.0
 11
67.62599200000001
 21
309.4405
 31
0.0
  0
LINE
  5
2D3
330
1E
100
AcDbEntity
  8
0
100
AcDbLine
 10
62.249992
 20
493.4614999999999
 30
0.0
 11
71.977992
 21
494.8095
 31
0.0
  0
LINE
  5
2D4
330
1E
100
AcDbEntity
  8
0
100
AcDbLine
 10
62.249992
 20
493.8825
 30
0.0
 11
71.977992
 21
495.2294999999999
 31
0.0
  0
LINE
  5
2DB
330
1E
100
AcDbEntity
  8
0
100
AcDbLine
 10
63.89829200000001
 20
518.3885
 30
0.0
 11
65.975892
 21
519.5285
 31
0.0
  0
LINE
  5
2DD
330
1E
100
AcDbEntity
  8
0
100
AcDbLine
 10
68.13799200000001
 20
164.3920999999999
 30
0.0
 11
72.81606861674909
 21
164.0153961854809
 31
0.0
  0
LINE
  5
2DE
330
1E
100
AcDbEntity
  8
0
100
AcDbLine
 10
68.13799200000001
 20
203.4047999999999
 30
0.0
 11
73.65799200000001
 21
203.0213999999999
 31
0.0
  0
LINE
  5
2DF
330
1E
100
AcDbEntity
  8
0
100
AcDbLine
 10
68.13799200000001
 20
217.1921
 30
0.0
 11
72.81585402927589
 21
216.867191974271
 31
0.0
  0
LINE
  5
2E0
330
1E
100
AcDbEntity
  8
0
100
AcDbLine
 10
68.905992
 20
217.6943
 30
0.0
 11
75.14599200000001
 21
217.2609
 31
0.0
  0
LINE
  5
2E3
330
1E
100
AcDbEntity
  8
0
100
AcDbLine
 10
67.62599200000001
 20
309.4405
 30
0.0
 11
72.665992
 21
309.0905
 31
0.0
  0
LINE
  5
2E6
330
1E
100
AcDbEntity
  8
0
100
AcDbLine
 10
68.13799200000001
 20
260.5344999999999
 30
0.0
 11
73.65799200000001
 21
260.1515
 31
0.0
  0
LINE
  5
2E7
330
1E
100
AcDbEntity
  8
0
100
AcDbLine
 10
68.13799200000001
 20
290.0785
 30
0.0
 11
73.65799200000001
 21
289.6954999999999
 31
0.0
  0
LINE
  5
2E9
330
1E
100
AcDbEntity
  8
0
100
AcDbLine
 10
68.905992
 20
219.664
 30
0.0
 11
75.14599200000001
 21
219.2305
 31
0.0
  0
LINE
  5
2EB
330
1E
100
AcDbEntity
  8
0
100
AcDbLine
 10
67.62599200000001
 20
414.8055
 30
0.0
 11
72.665992
 21
414.4554999999999
 31
0.0
  0
LINE
  5
2ED
330
1E
100
AcDbEntity
  8
0
100
AcDbLine
 10
72.489992
 20
492.8094999999999
 30
0.0
 11
82.089992
 21
496.5914999999999
 31
0.0
  0
LINE
  5
2EE
330
1E
100
AcDbEntity
  8
0
100
AcDbLine
 10
71.977992
 20
494.8095
 30
0.0
 11
81.09799200000001
 21
498.4015
 31
0.0
  0
LINE
  5
2EF
330
1E
100
AcDbEntity
  8
0
100
AcDbLine
 10
71.977992
 20
495.2294999999999
 30
0.0
 11
81.09799200000001
 21
498.8224999999999
 31
0.0
  0
LINE
  5
2F0
330
1E
100
AcDbEntity
  8
0
100
AcDbLine
 10
65.975892
 20
519.5285
 30
0.0
 11
69.294392
 21
521.3334999999999
 31
0.0
  0
LINE
  5
2F2
330
1E
100
AcDbEntity
  8
0
100
AcDbLine
 10
64.92179200000001
 20
522.2455
 30
0.0
 11
67.67309200000001
 21
523.3015
 31
0.0
  0
LINE
  5
2F3
330
1E
100
AcDbEntity
  8
0
100
AcDbLine
 10
69.294392
 20
521.3334999999999
 30
0.0
 11
72.631192
 21
523.1164999999999
 31
0.0
  0
LINE
  5
2F6
330
1E
100
AcDbEntity
  8
0
100
AcDbLine
 10
72.665992
 20
309.0905
 30
0.0
 11
77.117992
 21
308.5065
 31
0.0
  0
LINE
  5
2F8
330
1E
100
AcDbEntity
  8
0
100
AcDbLine
 10
72.63399200000001
 20
203.092523478261
 30
0.0
 11
72.63399200000001
 21
203.0251999999999
 31
0.0
  0
LINE
  5
2F9
330
1E
100
AcDbEntity
  8
0
100
AcDbLine
 10
72.63399200000001
 20
203.0251999999999
 30
0.0
 11
72.63399200000001
 21
203.092523478261
 31
0.0
  0
LINE
  5
2FA
330
1E
100
AcDbEntity
  8
0
100
AcDbLine
 10
72.63399200000001
 20
203.0251999999999
 30
0.0
 11
74.133992
 21
203.4763
 31
0.0
  0
LINE
  5
2FB
330
1E
100
AcDbEntity
  8
0
100
AcDbLine
 10
72.63399200000001
 20
203.0251999999999
 30
0.0
 11
74.365992
 21
202.8515
 31
0.0
  0
LINE
  5
2FC
330
1E
100
AcDbEntity
  8
0
100
AcDbLine
 10
72.81606861674909
 20
164.0153961854809
 30
0.0
 11
74.133992
 21
164.4749999999999
 31
0.0
  0
LINE
  5
2FD
330
1E
100
AcDbEntity
  8
0
100
AcDbLine
 10
72.81585402927589
 20
216.867191974271
 30
0.0
 11
74.133992
 21
217.2636
 31
0.0
  0
LINE
  5
2FE
330
1E
100
AcDbEntity
  8
0
100
AcDbLine
 10
72.665992
 20
414.4554999999999
 30
0.0
 11
77.117992
 21
413.8715
 31
0.0
  0
LINE
  5
300
330
1E
100
AcDbEntity
  8
0
100
AcDbLine
 10
67.67309200000001
 20
523.3015
 30
0.0
 11
70.10579200000001
 21
525.1275
 31
0.0
  0
LINE
  5
301
330
1E
100
AcDbEntity
  8
0
100
AcDbLine
 10
70.10579200000001
 20
525.1275
 30
0.0
 11
71.846292
 21
527.5815
 31
0.0
  0
LINE
  5
302
330
1E
100
AcDbEntity
  8
0
100
AcDbLine
 10
72.802092
 20
530.0354999999999
 30
0.0
 11
73.17849200000001
 21
532.5185
 31
0.0
  0
LINE
  5
303
330
1E
100
AcDbEntity
  8
0
100
AcDbLine
 10
71.846292
 20
527.5815
 30
0.0
 11
72.802092
 21
530.0354999999999
 31
0.0
  0
LINE
  5
304
330
1E
100
AcDbEntity
  8
0
100
AcDbLine
 10
72.631192
 20
523.1164999999999
 30
0.0
 11
74.968092
 21
524.3194999999999
 31
0.0
  0
LINE
  5
305
330
1E
100
AcDbEntity
  8
0
100
AcDbLine
 10
74.133992
 20
164.4749999999999
 30
0.0
 11
75.86599200000001
 21
164.2736
 31
0.0
  0
LINE
  5
306
330
1E
100
AcDbEntity
  8
0
100
AcDbLine
 10
74.365992
 20
202.8515
 30
0.0
 11
75.86599200000001
 21
203.3026999999999
 31
0.0
  0
LINE
  5
308
330
1E
100
AcDbEntity
  8
0
100
AcDbLine
 10
73.65799200000001
 20
260.1515
 30
0.0
 11
78.533992
 21
259.5124999999999
 31
0.0
  0
LINE
  5
309
330
1E
100
AcDbEntity
  8
0
100
AcDbLine
 10
73.65799200000001
 20
289.6954999999999
 30
0.0
 11
78.533992
 21
289.0565
 31
0.0
  0
LINE
  5
30A
330
1E
100
AcDbEntity
  8
0
100
AcDbLine
 10
74.133992
 20
203.4763
 30
0.0
 11
74.133992
 21
217.2636
 31
0.0
  0
LINE
  5
30B
330
1E
100
AcDbEntity
  8
0
100
AcDbLine
 10
74.133992
 20
203.4763
 30
0.0
 11
75.86599200000001
 21
203.3026999999999
 31
0.0
  0
LINE
  5
30C
330
1E
100
AcDbEntity
  8
0
100
AcDbLine
 10
74.133992
 20
217.2636
 30
0.0
 11
75.86599200000001
 21
217.09
 31
0.0
  0
LINE
  5
30D
330
1E
100
AcDbEntity
  8
0
100
AcDbLine
 10
74.133992
 20
217.2636
 30
0.0
 11
74.133992
 21
203.4763
 31
0.0
  0
LINE
  5
30E
330
1E
100
AcDbEntity
  8
0
100
AcDbLine
 10
73.65799200000001
 20
203.0213999999999
 30
0.0
 11
78.533992
 21
202.3823999999999
 31
0.0
  0
LINE
  5
30F
330
1E
100
AcDbEntity
  8
0
100
AcDbLine
 10
75.14599200000001
 20
217.2609
 30
0.0
 11
80.657992
 21
216.5385
 31
0.0
  0
LINE
  5
310
330
1E
100
AcDbEntity
  8
0
100
AcDbLine
 10
75.14599200000001
 20
219.2305
 30
0.0
 11
80.657992
 21
218.5081
 31
0.0
  0
LINE
  5
311
330
1E
100
AcDbEntity
  8
0
100
AcDbLine
 10
75.3930711629545
 20
492.8823824905649
 30
0.0
 11
77.117992
 21
492.6565
 31
0.0
  0
LINE
  5
312
330
1E
100
AcDbEntity
  8
0
100
AcDbLine
 10
75.86599200000001
 20
164.2736
 30
0.0
 11
75.86599200000001
 21
152.5014999999999
 31
0.0
  0
LINE
  5
313
330
1E
100
AcDbEntity
  8
0
100
AcDbLine
 10
75.86599200000001
 20
163.612098113208
 30
0.0
 11
78.533992
 21
163.2067
 31
0.0
  0
LINE
  5
314
330
1E
100
AcDbEntity
  8
0
100
AcDbLine
 10
75.86599200000001
 20
203.3026999999999
 30
0.0
 11
75.86599200000001
 21
217.09
 31
0.0
  0
LINE
  5
315
330
1E
100
AcDbEntity
  8
0
100
AcDbLine
 10
75.86599200000001
 20
217.09
 30
0.0
 11
75.86599200000001
 21
203.3026999999999
 31
0.0
  0
LINE
  5
316
330
1E
100
AcDbEntity
  8
0
100
AcDbLine
 10
75.86599200000001
 20
216.519341509434
 30
0.0
 11
78.533992
 21
216.1697
 31
0.0
  0
LINE
  5
31A
330
1E
100
AcDbEntity
  8
0
100
AcDbLine
 10
75.807692
 20
524.6844999999999
 30
0.0
 11
76.16799199999999
 21
525.1045
 31
0.0
  0
LINE
  5
31E
330
1E
100
AcDbEntity
  8
0
100
AcDbLine
 10
76.16799199999999
 20
525.1045
 30
0.0
 11
76.16799199999999
 21
526.0765
 31
0.0
  0
LINE
  5
320
330
1E
100
AcDbEntity
  8
0
100
AcDbLine
 10
76.16799199999999
 20
526.0765
 30
0.0
 11
76.16799199999999
 21
529.2775
 31
0.0
  0
LINE
  5
321
330
1E
100
AcDbEntity
  8
0
100
AcDbLine
 10
76.16799199999999
 20
526.0765
 30
0.0
 11
76.16799199999999
 21
525.1045
 31
0.0
  0
LINE
  5
322
330
1E
100
AcDbEntity
  8
0
100
AcDbLine
 10
76.16799199999999
 20
529.2775
 30
0.0
 11
76.16799199999999
 21
532.6744999999999
 31
0.0
  0
LINE
  5
323
330
1E
100
AcDbEntity
  8
0
100
AcDbLine
 10
76.16799199999999
 20
529.2775
 30
0.0
 11
76.16799199999999
 21
526.0765
 31
0.0
  0
LINE
  5
324
330
1E
100
AcDbEntity
  8
0
100
AcDbLine
 10
74.968092
 20
524.3194999999999
 30
0.0
 11
75.807692
 21
524.6844999999999
 31
0.0
  0
LINE
  5
326
330
1E
100
AcDbEntity
  8
0
100
AcDbLine
 10
72.88889199999999
 20
535.0584999999999
 30
0.0
 11
73.17849200000001
 21
532.5185
 31
0.0
  0
LINE
  5
327
330
1E
100
AcDbEntity
  8
0
100
AcDbLine
 10
62.260192
 20
543.5335
 30
0.0
 11
65.359092
 21
543.0195
 31
0.0
  0
LINE
  5
328
330
1E
100
AcDbEntity
  8
0
100
AcDbLine
 10
65.359092
 20
543.0195
 30
0.0
 11
67.933692
 21
541.9355
 31
0.0
  0
LINE
  5
32B
330
1E
100
AcDbEntity
  8
0
100
AcDbLine
 10
72.01719200000001
 20
537.4835
 30
0.0
 11
72.88889199999999
 21
535.0584999999999
 31
0.0
  0
LINE
  5
32C
330
1E
100
AcDbEntity
  8
0
100
AcDbLine
 10
70.308492
 20
539.9664999999999
 30
0.0
 11
72.01719200000001
 21
537.4835
 31
0.0
  0
LINE
  5
32D
330
1E
100
AcDbEntity
  8
0
100
AcDbLine
 10
76.16799199999999
 20
539.9135
 30
0.0
 11
76.16799199999999
 21
539.1155
 31
0.0
  0
LINE
  5
32F
330
1E
100
AcDbEntity
  8
0
100
AcDbLine
 10
75.807692
 20
540.3334999999999
 30
0.0
 11
76.16799199999999
 21
539.9135
 31
0.0
  0
LINE
  5
330
330
1E
100
AcDbEntity
  8
0
100
AcDbLine
 10
74.968092
 20
540.8724999999999
 30
0.0
 11
75.807692
 21
540.3334999999999
 31
0.0
  0
LINE
  5
332
330
1E
100
AcDbEntity
  8
0
100
AcDbLine
 10
69.294392
 20
543.9964999999999
 30
0.0
 11
72.631192
 21
542.1855
 31
0.0
  0
LINE
  5
333
330
1E
100
AcDbEntity
  8
0
100
AcDbLine
 10
72.631192
 20
542.1855
 30
0.0
 11
74.968092
 21
540.8724999999999
 31
0.0
  0
LINE
  5
334
330
1E
100
AcDbEntity
  8
0
100
AcDbLine
 10
67.933692
 20
541.9355
 30
0.0
 11
70.308492
 21
539.9664999999999
 31
0.0
  0
LINE
  5
337
330
1E
100
AcDbEntity
  8
0
100
AcDbLine
 10
62.249992
 20
570.1765
 30
0.0
 11
72.489992
 21
568.7585
 31
0.0
  0
LINE
  5
338
330
1E
100
AcDbEntity
  8
0
100
AcDbLine
 10
62.249992
 20
568.7274999999999
 30
0.0
 11
71.977992
 21
567.3804999999999
 31
0.0
  0
LINE
  5
339
330
1E
100
AcDbEntity
  8
0
100
AcDbLine
 10
62.977392
 20
547.1775
 30
0.0
 11
63.89829200000001
 21
546.8034999999999
 31
0.0
  0
LINE
  5
33A
330
1E
100
AcDbEntity
  8
0
100
AcDbLine
 10
72.489992
 20
568.7585
 30
0.0
 11
82.089992
 21
564.9765
 31
0.0
  0
LINE
  5
33B
330
1E
100
AcDbEntity
  8
0
100
AcDbLine
 10
71.977992
 20
567.3804999999999
 30
0.0
 11
81.09799200000001
 21
563.7875
 31
0.0
  0
LINE
  5
33C
330
1E
100
AcDbEntity
  8
0
100
AcDbLine
 10
63.89829200000001
 20
546.8034999999999
 30
0.0
 11
65.975892
 21
545.7645
 31
0.0
  0
LINE
  5
33D
330
1E
100
AcDbEntity
  8
0
100
AcDbLine
 10
65.975892
 20
545.7645
 30
0.0
 11
69.294392
 21
543.9964999999999
 31
0.0
  0
LINE
  5
33E
330
1E
100
AcDbEntity
  8
0
100
AcDbLine
 10
76.16799199999999
 20
539.1155
 30
0.0
 11
76.16799199999999
 21
539.9135
 31
0.0
  0
LINE
  5
33F
330
1E
100
AcDbEntity
  8
0
100
AcDbLine
 10
76.16799199999999
 20
539.1155
 30
0.0
 11
76.16799199999999
 21
536.0465
 31
0.0
  0
LINE
  5
340
330
1E
100
AcDbEntity
  8
0
100
AcDbLine
 10
76.16799199999999
 20
536.0465
 30
0.0
 11
76.16799199999999
 21
539.1155
 31
0.0
  0
LINE
  5
341
330
1E
100
AcDbEntity
  8
0
100
AcDbLine
 10
76.16799199999999
 20
536.0465
 30
0.0
 11
76.16799199999999
 21
532.6744999999999
 31
0.0
  0
LINE
  5
342
330
1E
100
AcDbEntity
  8
0
100
AcDbLine
 10
78.533992
 20
163.2067
 30
0.0
 11
82.213992
 21
162.225
 31
0.0
  0
LINE
  5
343
330
1E
100
AcDbEntity
  8
0
100
AcDbLine
 10
78.533992
 20
202.3823999999999
 30
0.0
 11
82.213992
 21
201.5356999999999
 31
0.0
  0
LINE
  5
346
330
1E
100
AcDbEntity
  8
0
100
AcDbLine
 10
77.117992
 20
308.5065
 30
0.0
 11
80.477992
 21
307.7335
 31
0.0
  0
LINE
  5
349
330
1E
100
AcDbEntity
  8
0
100
AcDbLine
 10
78.533992
 20
259.5124999999999
 30
0.0
 11
82.213992
 21
258.6654999999999
 31
0.0
  0
LINE
  5
34B
330
1E
100
AcDbEntity
  8
0
100
AcDbLine
 10
78.533992
 20
289.0565
 30
0.0
 11
82.213992
 21
288.2094999999999
 31
0.0
  0
LINE
  5
34D
330
1E
100
AcDbEntity
  8
0
100
AcDbLine
 10
78.533992
 20
216.1697
 30
0.0
 11
82.213992
 21
215.3229999999999
 31
0.0
  0
LINE
  5
34E
330
1E
100
AcDbEntity
  8
0
100
AcDbLine
 10
80.657992
 20
216.5385
 30
0.0
 11
84.81799200000001
 21
215.5813999999999
 31
0.0
  0
LINE
  5
350
330
1E
100
AcDbEntity
  8
0
100
AcDbLine
 10
80.477992
 20
307.7335
 30
0.0
 11
82.493992
 21
306.8585
 31
0.0
  0
LINE
  5
352
330
1E
100
AcDbEntity
  8
0
100
AcDbLine
 10
80.657992
 20
218.5081
 30
0.0
 11
84.81799200000001
 21
217.551
 31
0.0
  0
LINE
  5
353
330
1E
100
AcDbEntity
  8
0
100
AcDbLine
 10
80.24999200000001
 20
307.7859535714289
 30
0.0
 11
80.24999200000001
 21
411.2905
 31
0.0
  0
LINE
  5
354
330
1E
100
AcDbEntity
  8
0
100
AcDbLine
 10
77.117992
 20
413.8715
 30
0.0
 11
80.477992
 21
413.0984999999999
 31
0.0
  0
LINE
  5
355
330
1E
100
AcDbEntity
  8
0
100
AcDbLine
 10
76.2773934855135
 20
492.7665783768969
 30
0.0
 11
82.089992
 21
495.0565
 31
0.0
  0
LINE
  5
356
330
1E
100
AcDbEntity
  8
0
100
AcDbLine
 10
77.117992
 20
492.6565
 30
0.0
 11
80.477992
 21
491.8835
 31
0.0
  0
LINE
  5
357
330
1E
100
AcDbEntity
  8
0
100
AcDbLine
 10
80.24999200000001
 20
409.429046428571
 30
0.0
 11
80.477992
 21
409.4814999999999
 31
0.0
  0
LINE
  5
358
330
1E
100
AcDbEntity
  8
0
100
AcDbLine
 10
77.249992
 20
492.626132142857
 30
0.0
 11
77.249992
 21
493.149741666667
 31
0.0
  0
LINE
  5
359
330
1E
100
AcDbEntity
  8
0
100
AcDbLine
 10
77.249992
 20
493.149741666667
 30
0.0
 11
77.249992
 21
492.626132142857
 31
0.0
  0
LINE
  5
35A
330
1E
100
AcDbEntity
  8
0
100
AcDbLine
 10
80.477992
 20
413.0984999999999
 30
0.0
 11
82.493992
 21
412.2234999999999
 31
0.0
  0
LINE
  5
35B
330
1E
100
AcDbEntity
  8
0
100
AcDbLine
 10
80.477992
 20
491.8835
 30
0.0
 11
82.493992
 21
491.0085
 31
0.0
  0
LINE
  5
35C
330
1E
100
AcDbEntity
  8
0
100
AcDbLine
 10
80.477992
 20
409.4814999999999
 30
0.0
 11
82.493992
 21
410.3564999999999
 31
0.0
  0
LINE
  5
35D
330
1E
100
AcDbEntity
  8
0
100
AcDbLine
 10
80.81826725942098
 20
494.555493440743
 30
0.0
 11
81.378792
 21
494.5624999999999
 31
0.0
  0
LINE
  5
35E
330
1E
100
AcDbEntity
  8
0
100
AcDbLine
 10
80.24999200000001
 20
405.43354875
 30
0.0
 11
81.378792
 21
405.5235
 31
0.0
  0
LINE
  5
35F
330
1E
100
AcDbEntity
  8
0
100
AcDbLine
 10
80.24999200000001
 20
399.9324512499999
 30
0.0
 11
81.378792
 21
399.8424999999999
 31
0.0
  0
LINE
  5
360
330
1E
100
AcDbEntity
  8
0
100
AcDbLine
 10
82.213992
 20
162.225
 30
0.0
 11
84.42199200000001
 21
161.1137
 31
0.0
  0
LINE
  5
363
330
1E
100
AcDbEntity
  8
0
100
AcDbLine
 10
82.213992
 20
258.6654999999999
 30
0.0
 11
84.42199200000001
 21
257.7074999999999
 31
0.0
  0
LINE
  5
364
330
1E
100
AcDbEntity
  8
0
100
AcDbLine
 10
82.213992
 20
288.2094999999999
 30
0.0
 11
84.42199200000001
 21
287.2515
 31
0.0
  0
LINE
  5
366
330
1E
100
AcDbEntity
  8
0
100
AcDbLine
 10
82.213992
 20
201.5356999999999
 30
0.0
 11
84.42199200000001
 21
200.5771
 31
0.0
  0
LINE
  5
367
330
1E
100
AcDbEntity
  8
0
100
AcDbLine
 10
82.249992
 20
162.2068809782609
 30
0.0
 11
82.249992
 21
199.5547
 31
0.0
  0
LINE
  5
36A
330
1E
100
AcDbEntity
  8
0
100
AcDbLine
 10
82.249992
 20
254.719135869565
 30
0.0
 11
84.42199200000001
 21
255.6624999999999
 31
0.0
  0
LINE
  5
36B
330
1E
100
AcDbEntity
  8
0
100
AcDbLine
 10
82.249992
 20
218.141825192308
 30
0.0
 11
82.249992
 21
256.6845
 31
0.0
  0
LINE
  5
36D
330
1E
100
AcDbEntity
  8
0
100
AcDbLine
 10
82.493992
 20
306.8585
 30
0.0
 11
83.249992
 21
305.9245
 31
0.0
  0
LINE
  5
36F
330
1E
100
AcDbEntity
  8
0
100
AcDbLine
 10
82.249992
 20
218.141825192308
 30
0.0
 11
82.249992
 21
256.6845
 31
0.0
  0
LINE
  5
370
330
1E
100
AcDbEntity
  8
0
100
AcDbLine
 10
82.249992
 20
197.5893293478259
 30
0.0
 11
84.42199200000001
 21
198.5322999999999
 31
0.0
  0
LINE
  5
371
330
1E
100
AcDbEntity
  8
0
100
AcDbLine
 10
82.213992
 20
215.3229999999999
 30
0.0
 11
84.42199200000001
 21
214.3644999999999
 31
0.0
  0
LINE
  5
372
330
1E
100
AcDbEntity
  8
0
100
AcDbLine
 10
82.658792
 20
399.9445
 30
0.0
 11
83.85879200000001
 21
400.2174999999999
 31
0.0
  0
LINE
  5
373
330
1E
100
AcDbEntity
  8
0
100
AcDbLine
 10
81.378792
 20
399.8424999999999
 30
0.0
 11
82.658792
 21
399.9445
 31
0.0
  0
LINE
  5
374
330
1E
100
AcDbEntity
  8
0
100
AcDbLine
 10
84.42199200000001
 20
161.1137
 30
0.0
 11
85.1093842726506
 21
160.1296
 31
0.0
  0
LINE
  5
375
330
1E
100
AcDbEntity
  8
0
100
AcDbLine
 10
84.42199200000001
 20
198.5322999999999
 30
0.0
 11
85.24999200000001
 21
199.5547
 31
0.0
  0
LINE
  5
376
330
1E
100
AcDbEntity
  8
0
100
AcDbLine
 10
84.42199200000001
 20
200.5771
 30
0.0
 11
85.24999200000001
 21
199.5547
 31
0.0
  0
LINE
  5
377
330
1E
100
AcDbEntity
  8
0
100
AcDbLine
 10
84.749992
 20
199.3810999999999
 30
0.0
 11
87.74999200000001
 21
199.3810999999999
 31
0.0
  0
LINE
  5
378
330
1E
100
AcDbEntity
  8
0
100
AcDbLine
 10
84.749992
 20
199.3810999999999
 30
0.0
 11
84.749992
 21
199.7284
 31
0.0
  0
LINE
  5
379
330
1E
100
AcDbEntity
  8
0
100
AcDbLine
 10
84.749992
 20
199.7284
 30
0.0
 11
87.74999200000001
 21
199.7284
 31
0.0
  0
LINE
  5
37A
330
1E
100
AcDbEntity
  8
0
100
AcDbLine
 10
84.749992
 20
199.7284
 30
0.0
 11
84.749992
 21
199.3810999999999
 31
0.0
  0
LINE
  5
37B
330
1E
100
AcDbEntity
  8
0
100
AcDbLine
 10
84.42199200000001
 20
214.3644999999999
 30
0.0
 11
85.10933322249391
 21
213.5156999999999
 31
0.0
  0
LINE
  5
37D
330
1E
100
AcDbEntity
  8
0
100
AcDbLine
 10
84.42199200000001
 20
257.7074999999999
 30
0.0
 11
85.24999200000001
 21
256.6845
 31
0.0
  0
LINE
  5
37E
330
1E
100
AcDbEntity
  8
0
100
AcDbLine
 10
83.249992
 20
287.760003623188
 30
0.0
 11
83.249992
 21
305.9245
 31
0.0
  0
LINE
  5
37F
330
1E
100
AcDbEntity
  8
0
100
AcDbLine
 10
83.249992
 20
305.9245
 30
0.0
 11
83.249992
 21
287.760003623188
 31
0.0
  0
LINE
  5
380
330
1E
100
AcDbEntity
  8
0
100
AcDbLine
 10
84.42199200000001
 20
287.2515
 30
0.0
 11
85.24999200000001
 21
286.2284999999999
 31
0.0
  0
LINE
  5
382
330
1E
100
AcDbEntity
  8
0
100
AcDbLine
 10
84.42199200000001
 20
255.6624999999999
 30
0.0
 11
85.24999200000001
 21
256.6845
 31
0.0
  0
LINE
  5
383
330
1E
100
AcDbEntity
  8
0
100
AcDbLine
 10
84.81799200000001
 20
215.5813999999999
 30
0.0
 11
87.313992
 21
214.4978
 31
0.0
  0
LINE
  5
384
330
1E
100
AcDbEntity
  8
0
100
AcDbLine
 10
84.81799200000001
 20
217.551
 30
0.0
 11
87.313992
 21
216.4674
 31
0.0
  0
LINE
  5
385
330
1E
100
AcDbEntity
  8
0
100
AcDbLine
 10
84.91879200000001
 20
400.6725
 30
0.0
 11
85.71879200000001
 21
401.2744999999999
 31
0.0
  0
LINE
  5
386
330
1E
100
AcDbEntity
  8
0
100
AcDbLine
 10
83.85879200000001
 20
400.2174999999999
 30
0.0
 11
84.91879200000001
 21
400.6725
 31
0.0
  0
LINE
  5
387
330
1E
100
AcDbEntity
  8
0
100
AcDbLine
 10
85.1093842726506
 20
160.1296
 30
0.0
 11
87.74999200000001
 21
160.1296
 31
0.0
  0
LINE
  5
388
330
1E
100
AcDbEntity
  8
0
100
AcDbLine
 10
85.24999200000001
 20
256.6845
 30
0.0
 11
85.24999200000001
 21
286.2284999999999
 31
0.0
  0
LINE
  5
389
330
1E
100
AcDbEntity
  8
0
100
AcDbLine
 10
85.24999200000001
 20
286.2284999999999
 30
0.0
 11
85.24999200000001
 21
256.6845
 31
0.0
  0
LINE
  5
38A
330
1E
100
AcDbEntity
  8
0
100
AcDbLine
 10
85.10933322249391
 20
213.5156999999999
 30
0.0
 11
87.74999200000001
 21
213.5156999999999
 31
0.0
  0
LINE
  5
38B
330
1E
100
AcDbEntity
  8
0
100
AcDbLine
 10
86.19879199999999
 20
401.9554999999999
 30
0.0
 11
86.378792
 21
402.6835
 31
0.0
  0
LINE
  5
38C
330
1E
100
AcDbEntity
  8
0
100
AcDbLine
 10
85.71879200000001
 20
401.2744999999999
 30
0.0
 11
86.19879199999999
 21
401.9554999999999
 31
0.0
  0
LINE
  5
38D
330
1E
100
AcDbEntity
  8
0
100
AcDbLine
 10
86.19879199999999
 20
403.4105
 30
0.0
 11
86.378792
 21
402.6835
 31
0.0
  0
LINE
  5
38E
330
1E
100
AcDbEntity
  8
0
100
AcDbLine
 10
87.74999200000001
 20
160.1296
 30
0.0
 11
87.74999200000001
 21
152.5014999999999
 31
0.0
  0
LINE
  5
38F
330
1E
100
AcDbEntity
  8
0
100
AcDbLine
 10
87.74999200000001
 20
199.3810999999999
 30
0.0
 11
87.74999200000001
 21
199.7284
 31
0.0
  0
LINE
  5
390
330
1E
100
AcDbEntity
  8
0
100
AcDbLine
 10
87.74999200000001
 20
213.5156999999999
 30
0.0
 11
87.74999200000001
 21
199.7284
 31
0.0
  0
LINE
  5
391
330
1E
100
AcDbEntity
  8
0
100
AcDbLine
 10
87.74999200000001
 20
199.7284
 30
0.0
 11
87.74999200000001
 21
213.5156999999999
 31
0.0
  0
LINE
  5
392
330
1E
100
AcDbEntity
  8
0
100
AcDbLine
 10
87.74999200000001
 20
199.7284
 30
0.0
 11
87.74999200000001
 21
199.3810999999999
 31
0.0
  0
LINE
  5
393
330
1E
100
AcDbEntity
  8
0
100
AcDbLine
 10
88.249992
 20
213.342
 30
0.0
 11
88.249992
 21
215.3116
 31
0.0
  0
LINE
  5
394
330
1E
100
AcDbEntity
  8
0
100
AcDbLine
 10
87.74999200000001
 20
212.7245854700849
 30
0.0
 11
88.249992
 21
213.342
 31
0.0
  0
LINE
  5
395
330
1E
100
AcDbEntity
  8
0
100
AcDbLine
 10
88.249992
 20
215.3116
 30
0.0
 11
88.249992
 21
213.342
 31
0.0
  0
LINE
  5
396
330
1E
100
AcDbEntity
  8
0
100
AcDbLine
 10
87.313992
 20
214.4978
 30
0.0
 11
88.249992
 21
213.342
 31
0.0
  0
LINE
  5
397
330
1E
100
AcDbEntity
  8
0
100
AcDbLine
 10
87.313992
 20
216.4674
 30
0.0
 11
88.249992
 21
215.3116
 31
0.0
  0
LINE
  5
398
330
1E
100
AcDbEntity
  8
0
100
AcDbLine
 10
86.378792
 20
402.6835
 30
0.0
 11
86.378792
 21
494.1265
 31
0.0
  0
LINE
  5
399
330
1E
100
AcDbEntity
  8
0
100
AcDbLine
 10
85.71879200000001
 20
404.0915
 30
0.0
 11
86.19879199999999
 21
403.4105
 31
0.0
  0
LINE
  5
39A
330
1E
100
AcDbEntity
  8
0
100
AcDbLine
 10
84.91879200000001
 20
404.6945
 30
0.0
 11
85.71879200000001
 21
404.0915
 31
0.0
  0
LINE
  5
39B
330
1E
100
AcDbEntity
  8
0
100
AcDbLine
 10
83.85879200000001
 20
405.1485
 30
0.0
 11
84.91879200000001
 21
404.6945
 31
0.0
  0
LINE
  5
39C
330
1E
100
AcDbEntity
  8
0
100
AcDbLine
 10
82.658792
 20
405.4215
 30
0.0
 11
83.85879200000001
 21
405.1485
 31
0.0
  0
LINE
  5
39D
330
1E
100
AcDbEntity
  8
0
100
AcDbLine
 10
82.493992
 20
412.2234999999999
 30
0.0
 11
83.249992
 21
411.2905
 31
0.0
  0
LINE
  5
39E
330
1E
100
AcDbEntity
  8
0
100
AcDbLine
 10
83.249992
 20
411.2905
 30
0.0
 11
83.249992
 21
490.0744999999999
 31
0.0
  0
LINE
  5
39F
330
1E
100
AcDbEntity
  8
0
100
AcDbLine
 10
82.493992
 20
491.0085
 30
0.0
 11
83.249992
 21
490.0744999999999
 31
0.0
  0
LINE
  5
3A0
330
1E
100
AcDbEntity
  8
0
100
AcDbLine
 10
83.249992
 20
490.0744999999999
 30
0.0
 11
83.249992
 21
411.2905
 31
0.0
  0
LINE
  5
3A1
330
1E
100
AcDbEntity
  8
0
100
AcDbLine
 10
82.493992
 20
410.3564999999999
 30
0.0
 11
83.249992
 21
411.2905
 31
0.0
  0
LINE
  5
3A2
330
1E
100
AcDbEntity
  8
0
100
AcDbLine
 10
86.378792
 20
493.480896226415
 30
0.0
 11
87.750792
 21
493.5715
 31
0.0
  0
LINE
  5
3A3
330
1E
100
AcDbEntity
  8
0
100
AcDbLine
 10
90.05479200000001
 20
493.9255
 30
0.0
 11
90.378792
 21
494.1265
 31
0.0
  0
LINE
  5
3A4
330
1E
100
AcDbEntity
  8
0
100
AcDbLine
 10
89.190792
 20
493.7375
 30
0.0
 11
90.05479200000001
 21
493.9255
 31
0.0
  0
LINE
  5
3A5
330
1E
100
AcDbEntity
  8
0
100
AcDbLine
 10
87.750792
 20
493.5715
 30
0.0
 11
89.190792
 21
493.7375
 31
0.0
  0
LINE
  5
3A6
330
1E
100
AcDbEntity
  8
0
100
AcDbLine
 10
90.378792
 20
494.1265
 30
0.0
 11
90.378792
 21
501.217385188679
 31
0.0
  0
LINE
  5
3A7
330
1E
100
AcDbEntity
  8
0
100
AcDbLine
 10
86.378792
 20
494.1265
 30
0.0
 11
86.378792
 21
402.6835
 31
0.0
  0
LINE
  5
3A8
330
1E
100
AcDbEntity
  8
0
100
AcDbLine
 10
90.05479200000001
 20
494.3274999999999
 30
0.0
 11
90.378792
 21
494.1265
 31
0.0
  0
LINE
  5
3A9
330
1E
100
AcDbEntity
  8
0
100
AcDbLine
 10
86.19879199999999
 20
494.2384999999999
 30
0.0
 11
86.378792
 21
494.1265
 31
0.0
  0
LINE
  5
3AA
330
1E
100
AcDbEntity
  8
0
100
AcDbLine
 10
85.71879200000001
 20
494.3424999999999
 30
0.0
 11
86.19879199999999
 21
494.2384999999999
 31
0.0
  0
LINE
  5
3AB
330
1E
100
AcDbEntity
  8
0
100
AcDbLine
 10
89.190792
 20
494.5154999999999
 30
0.0
 11
90.05479200000001
 21
494.3274999999999
 31
0.0
  0
LINE
  5
3AC
330
1E
100
AcDbEntity
  8
0
100
AcDbLine
 10
84.91879200000001
 20
494.4354999999999
 30
0.0
 11
85.71879200000001
 21
494.3424999999999
 31
0.0
  0
LINE
  5
3AD
330
1E
100
AcDbEntity
  8
0
100
AcDbLine
 10
83.85879200000001
 20
494.5054999999999
 30
0.0
 11
84.91879200000001
 21
494.4354999999999
 31
0.0
  0
LINE
  5
3AE
330
1E
100
AcDbEntity
  8
0
100
AcDbLine
 10
81.7113089919289
 20
494.907314673279
 30
0.0
 11
83.68279200000001
 21
494.8825
 31
0.0
  0
LINE
  5
3AF
330
1E
100
AcDbEntity
  8
0
100
AcDbLine
 10
87.750792
 20
494.6825
 30
0.0
 11
89.190792
 21
494.5154999999999
 31
0.0
  0
LINE
  5
3B0
330
1E
100
AcDbEntity
  8
0
100
AcDbLine
 10
85.842792
 20
494.8075
 30
0.0
 11
87.750792
 21
494.6825
 31
0.0
  0
LINE
  5
3B1
330
1E
100
AcDbEntity
  8
0
100
AcDbLine
 10
82.089992
 20
495.0565
 30
0.0
 11
90.56999199999999
 21
501.3595
 31
0.0
  0
LINE
  5
3B2
330
1E
100
AcDbEntity
  8
0
100
AcDbLine
 10
82.089992
 20
496.5914999999999
 30
0.0
 11
90.56999199999999
 21
502.8945
 31
0.0
  0
LINE
  5
3B3
330
1E
100
AcDbEntity
  8
0
100
AcDbLine
 10
83.68279200000001
 20
494.8825
 30
0.0
 11
85.842792
 21
494.8075
 31
0.0
  0
LINE
  5
3B4
330
1E
100
AcDbEntity
  8
0
100
AcDbLine
 10
81.7113089919289
 20
494.907314673279
 30
0.0
 11
83.68279200000001
 21
494.8825
 31
0.0
  0
LINE
  5
3B5
330
1E
100
AcDbEntity
  8
0
100
AcDbLine
 10
82.658792
 20
494.5464999999999
 30
0.0
 11
83.85879200000001
 21
494.5054999999999
 31
0.0
  0
LINE
  5
3B6
330
1E
100
AcDbEntity
  8
0
100
AcDbLine
 10
81.378792
 20
494.5624999999999
 30
0.0
 11
82.658792
 21
494.5464999999999
 31
0.0
  0
LINE
  5
3B7
330
1E
100
AcDbEntity
  8
0
100
AcDbLine
 10
81.378792
 20
405.5235
 30
0.0
 11
82.658792
 21
405.4215
 31
0.0
  0
LINE
  5
3B8
330
1E
100
AcDbEntity
  8
0
100
AcDbLine
 10
81.09799200000001
 20
498.4015
 30
0.0
 11
89.15399200000001
 21
504.3895
 31
0.0
  0
LINE
  5
3B9
330
1E
100
AcDbEntity
  8
0
100
AcDbLine
 10
82.089992
 20
564.9765
 30
0.0
 11
90.56999199999999
 21
558.6735
 31
0.0
  0
LINE
  5
3BA
330
1E
100
AcDbEntity
  8
0
100
AcDbLine
 10
89.15399200000001
 20
557.8005
 30
0.0
 11
95.233992
 21
549.8664999999999
 31
0.0
  0
LINE
  5
3BB
330
1E
100
AcDbEntity
  8
0
100
AcDbLine
 10
81.09799200000001
 20
563.7875
 30
0.0
 11
89.15399200000001
 21
557.8005
 31
0.0
  0
LINE
  5
3BC
330
1E
100
AcDbEntity
  8
0
100
AcDbLine
 10
89.15399200000001
 20
504.3895
 30
0.0
 11
95.233992
 21
512.3235
 31
0.0
  0
LINE
  5
3BD
330
1E
100
AcDbEntity
  8
0
100
AcDbLine
 10
90.56999199999999
 20
501.3595
 30
0.0
 11
96.969992
 21
509.7104999999999
 31
0.0
  0
LINE
  5
3BE
330
1E
100
AcDbEntity
  8
0
100
AcDbLine
 10
90.56999199999999
 20
502.8945
 30
0.0
 11
96.969992
 21
511.2454999999999
 31
0.0
  0
LINE
  5
3BF
330
1E
100
AcDbEntity
  8
0
100
AcDbLine
 10
90.378792
 20
501.217385188679
 30
0.0
 11
90.378792
 21
494.1265
 31
0.0
  0
LINE
  5
3C0
330
1E
100
AcDbEntity
  8
0
100
AcDbLine
 10
96.969992
 20
509.7104999999999
 30
0.0
 11
100.809992
 21
519.1645
 31
0.0
  0
LINE
  5
3C1
330
1E
100
AcDbEntity
  8
0
100
AcDbLine
 10
96.969992
 20
511.2454999999999
 30
0.0
 11
100.809992
 21
520.6994999999999
 31
0.0
  0
LINE
  5
3C2
330
1E
100
AcDbEntity
  8
0
100
AcDbLine
 10
95.233992
 20
512.3235
 30
0.0
 11
98.88199200000002
 21
521.3045
 31
0.0
  0
LINE
  5
3C3
330
1E
100
AcDbEntity
  8
0
100
AcDbLine
 10
90.56999199999999
 20
558.6735
 30
0.0
 11
96.969992
 21
550.3224999999999
 31
0.0
  0
LINE
  5
3C4
330
1E
100
AcDbEntity
  8
0
100
AcDbLine
 10
96.969992
 20
550.3224999999999
 30
0.0
 11
100.809992
 21
540.8685
 31
0.0
  0
LINE
  5
3C5
330
1E
100
AcDbEntity
  8
0
100
AcDbLine
 10
98.88199200000002
 20
540.8854999999999
 30
0.0
 11
100.2499919999999
 21
531.3044999999999
 31
0.0
  0
LINE
  5
3C6
330
1E
100
AcDbEntity
  8
0
100
AcDbLine
 10
95.233992
 20
549.8664999999999
 30
0.0
 11
98.88199200000002
 21
540.8854999999999
 31
0.0
  0
LINE
  5
3C7
330
1E
100
AcDbEntity
  8
0
100
AcDbLine
 10
98.88199200000002
 20
521.3045
 30
0.0
 11
100.2499919999999
 21
530.8844999999999
 31
0.0
  0
LINE
  5
3C8
330
1E
100
AcDbEntity
  8
0
100
AcDbLine
 10
100.809992
 20
519.1645
 30
0.0
 11
102.249992
 21
529.2485
 31
0.0
  0
LINE
  5
3C9
330
1E
100
AcDbEntity
  8
0
100
AcDbLine
 10
102.249992
 20
530.7844999999999
 30
0.0
 11
102.249992
 21
529.2485
 31
0.0
  0
LINE
  5
3CA
330
1E
100
AcDbEntity
  8
0
100
AcDbLine
 10
102.249992
 20
529.2485
 30
0.0
 11
102.249992
 21
530.7844999999999
 31
0.0
  0
LINE
  5
3CB
330
1E
100
AcDbEntity
  8
0
100
AcDbLine
 10
100.809992
 20
520.6994999999999
 30
0.0
 11
102.249992
 21
530.7844999999999
 31
0.0
  0
LINE
  5
3CC
330
1E
100
AcDbEntity
  8
0
100
AcDbLine
 10
100.2499919999999
 20
530.8844999999999
 30
0.0
 11
100.2499919999999
 21
531.3044999999999
 31
0.0
  0
LINE
  5
3CD
330
1E
100
AcDbEntity
  8
0
100
AcDbLine
 10
100.809992
 20
540.8685
 30
0.0
 11
102.249992
 21
530.7844999999999
 31
0.0
  0
LINE
  5
3CE
330
1E
100
AcDbEntity
  8
0
100
AcDbLine
 10
100.2499919999999
 20
531.3044999999999
 30
0.0
 11
100.2499919999999
 21
530.8844999999999
 31
0.0
  0
LINE
  5
3CF
330
1E
100
AcDbEntity
  8
0
100
AcDbLine
 10
98.88199200000002
 20
521.7245
 30
0.0
 11
100.2499919999999
 21
531.3044999999999
 31
0.0
  0
LINE
  5
3D0
330
1E
100
AcDbEntity
  8
0
100
AcDbLine
 10
95.233992
 20
512.7435
 30
0.0
 11
98.88199200000002
 21
521.7245
 31
0.0
  0
LINE
  5
3D1
330
1E
100
AcDbEntity
  8
0
100
AcDbLine
 10
89.15399200000001
 20
504.8094999999999
 30
0.0
 11
95.233992
 21
512.7435
 31
0.0
  0
LINE
  5
3D2
330
1E
100
AcDbEntity
  8
0
100
AcDbLine
 10
81.09799200000001
 20
498.8224999999999
 30
0.0
 11
89.15399200000001
 21
504.8094999999999
 31
0.0
  0
LINE
  5
3D3
330
1E
100
AcDbEntity
  8
0
100
AcDbLine
 10
76.16799199999999
 20
532.6744999999999
 30
0.0
 11
76.16799199999999
 21
536.0465
 31
0.0
  0
LINE
  5
3D4
330
1E
100
AcDbEntity
  8
0
100
AcDbLine
 10
76.16799199999999
 20
532.6744999999999
 30
0.0
 11
76.16799199999999
 21
529.2775
 31
0.0
  0
LINE
  5
3D5
330
1E
100
AcDbEntity
  8
0
100
AcDbLine
 10
71.20999199999999
 20
152.5014999999999
 30
0.0
 11
79.609992
 21
152.5014999999999
 31
0.0
  0
LINE
  5
3D6
330
1E
100
AcDbEntity
  8
0
100
AcDbLine
 10
62.249992
 20
152.5014999999999
 30
0.0
 11
71.20999199999999
 21
152.5014999999999
 31
0.0
  0
LINE
  5
3D7
330
1E
100
AcDbEntity
  8
0
100
AcDbLine
 10
55.337992
 20
150.5015
 30
0.0
 11
62.249992
 21
150.5015
 31
0.0
  0
LINE
  5
3D8
330
1E
100
AcDbEntity
  8
0
100
AcDbLine
 10
53.28999200000001
 20
150.5015
 30
0.0
 11
62.249992
 21
150.5015
 31
0.0
  0
LINE
  5
3D9
330
1E
100
AcDbEntity
  8
0
100
AcDbLine
 10
35.24999199999999
 20
140.5014999999999
 30
0.0
 11
35.24999199999999
 21
150.5015
 31
0.0
  0
LINE
  5
3DA
330
1E
100
AcDbEntity
  8
0
100
AcDbLine
 10
31.869992
 20
150.5015
 30
0.0
 11
35.24999199999999
 21
150.5015
 31
0.0
  0
LINE
  5
3DB
330
1E
100
AcDbEntity
  8
0
100
AcDbLine
 10
31.869992
 20
150.5015
 30
0.0
 11
37.46999199999999
 21
150.5015
 31
0.0
  0
LINE
  5
3E0
330
1E
100
AcDbEntity
  8
0
100
AcDbLine
 10
42.969992
 20
116.6215
 30
0.0
 11
42.249992
 21
111.5014999999999
 31
0.0
  0
LINE
  5
3E1
330
1E
100
AcDbEntity
  8
0
100
AcDbLine
 10
89.249992
 20
61.53999999999999
 30
0.0
 11
89.30025114918681
 21
38.22081032950563
 31
0.0
  0
LINE
  5
3E2
330
1E
100
AcDbEntity
  8
0
100
AcDbLine
 10
89.30025114918681
 20
38.22081032950563
 30
0.0
 11
88.60199200000002
 21
37.5015
 31
0.0
  0
ENDSEC
  0
SECTION
  2
OBJECTS
  0
DICTIONARY
  5
C
330
0
100
AcDbDictionary
281
     1
  3
ACAD_GROUP
350
D
  3
ACAD_LAYOUT
350
19
  3
ACAD_MLINESTYLE
350
16
  3
ACAD_PLOTSETTINGS
350
18
  3
ACAD_PLOTSTYLENAME
350
E
  3
AcDbVariableDictionary
350
3E3
  0
DICTIONARY
  5
D
102
{ACAD_REACTORS
330
C
102
}
330
C
100
AcDbDictionary
281
     1
  0
DICTIONARY
  5
19
102
{ACAD_REACTORS
330
C
102
}
330
C
100
AcDbDictionary
281
     1
  3
Layout1
350
1D
  3
Model
350
21
  0
DICTIONARY
  5
16
102
{ACAD_REACTORS
330
C
102
}
330
C
100
AcDbDictionary
281
     1
  3
Standard
350
17
  0
DICTIONARY
  5
18
102
{ACAD_REACTORS
330
C
102
}
330
C
100
AcDbDictionary
281
     1
  0
ACDBDICTIONARYWDFLT
  5
E
102
{ACAD_REACTORS
330
C
102
}
330
C
100
AcDbDictionary
281
     1
  3
Normal
350
F
100
AcDbDictionaryWithDefault
340
F
  0
DICTIONARY
  5
3E3
102
{ACAD_REACTORS
330
C
102
}
330
C
100
AcDbDictionary
281
     1
  3
DIMASSOC
350
3E4
  0
LAYOUT
  5
1D
102
{ACAD_REACTORS
330
19
102
}
330
19
100
AcDbPlotSettings
  1

  2
hp deskjet 980c series
  4

  6

 40
0.0
 41
0.0
 42
0.0
 43
0.0
 44
0.0
 45
0.0
 46
0.0
 47
0.0
 48
0.0
 49
0.0
140
0.0
141
0.0
142
1.0
143
1.0
 70
   688
 72
     0
 73
     0
 74
     5
  7

 75
    16
147
1.0
148
0.0
149
0.0
100
AcDbLayout
  1
Layout1
 70
     1
 71
     1
 10
0.0
 20
0.0
 11
12.0
 21
9.0
 12
0.0
 22
0.0
 32
0.0
 14
1.000000000000000E+20
 24
1.000000000000000E+20
 34
1.000000000000000E+20
 15
-1.000000000000000E+20
 25
-1.000000000000000E+20
 35
-1.000000000000000E+20
146
0.0
 13
0.0
 23
0.0
 33
0.0
 16
1.0
 26
0.0
 36
0.0
 17
0.0
 27
1.0
 37
0.0
 76
     0
330
1A
  0
LAYOUT
  5
21
102
{ACAD_REACTORS
330
19
102
}
330
19
100
AcDbPlotSettings
  1

  2
hp deskjet 980c series
  4

  6

 40
0.0
 41
0.0
 42
0.0
 43
0.0
 44
0.0
 45
0.0
 46
0.0
 47
0.0
 48
0.0
 49
0.0
140
0.0
141
0.0
142
1.0
143
1.0
 70
  1712
 72
     0
 73
     0
 74
     0
  7

 75
     0
147
1.0
148
0.0
149
0.0
100
AcDbLayout
  1
Model
 70
     1
 71
     0
 10
0.0
 20
0.0
 11
12.0
 21
9.0
 12
0.0
 22
0.0
 32
0.0
 14
0.0
 24
0.0
 34
0.0
 15
0.0
 25
0.0
 35
0.0
146
0.0
 13
0.0
 23
0.0
 33
0.0
 16
1.0
 26
0.0
 36
0.0
 17
0.0
 27
1.0
 37
0.0
 76
     0
330
1E
  0
MLINESTYLE
  5
17
102
{ACAD_REACTORS
330
16
102
}
330
16
100
AcDbMlineStyle
  2
STANDARD
 70
     0
  3

 62
   256
 51
90.0
 52
90.0
 71
     2
 49
0.5
 62
   256
  6
BYLAYER
 49
-0.5
 62
   256
  6
BYLAYER
  0
ACDBPLACEHOLDER
  5
F
102
{ACAD_REACTORS
330
E
102
}
330
E
  0
DICTIONARYVAR
  5
3E4
102
{ACAD_REACTORS
330
3E3
102
}
330
3E3
100
DictionaryVariables
280
     0
  1
1
  0
ENDSEC
  0
EOF
