  0
SECTION
  2
HEADER
  9
$ACADVER
  1
AC1015
  9
$ACADMAINTVER
 70
    13
  9
$DWGCODEPAGE
  3
ANSI_1252
  9
$INSBASE
 10
0.0
 20
0.0
 30
0.0
  9
$EXTMIN
 10
0.179349999999968
 20
-0.176500000000031
 30
0.0
  9
$EXTMAX
 10
672.8206499999999
 20
570.1765
 30
0.0
  9
$LIMMIN
 10
0.0
 20
0.0
  9
$LIMMAX
 10
12.0
 20
9.0
  9
$ORTHOMODE
 70
     0
  9
$REGENMODE
 70
     1
  9
$FILLMODE
 70
     1
  9
$QTEXTMODE
 70
     0
  9
$MIRRTEXT
 70
     1
  9
$LTSCALE
 40
1.0
  9
$ATTMODE
 70
     1
  9
$TEXTSIZE
 40
0.2
  9
$TRACEWID
 40
0.05
  9
$TEXTSTYLE
  7
Standard
  9
$CLAYER
  8
0
  9
$CELTYPE
  6
Continuous
  9
$CECOLOR
 62
   256
  9
$CELTSCALE
 40
1.0
  9
$DISPSILH
 70
     0
  9
$DIMSCALE
 40
1.0
  9
$DIMASZ
 40
0.18
  9
$DIMEXO
 40
0.0625
  9
$DIMDLI
 40
0.38
  9
$DIMRND
 40
0.0
  9
$DIMDLE
 40
0.0
  9
$DIMEXE
 40
0.18
  9
$DIMTP
 40
0.0
  9
$DIMTM
 40
0.0
  9
$DIMTXT
 40
0.18
  9
$DIMCEN
 40
0.09
  9
$DIMTSZ
 40
0.0
  9
$DIMTOL
 70
     0
  9
$DIMLIM
 70
     0
  9
$DIMTIH
 70
     1
  9
$DIMTOH
 70
     1
  9
$DIMSE1
 70
     0
  9
$DIMSE2
 70
     0
  9
$DIMTAD
 70
     0
  9
$DIMZIN
 70
     0
  9
$DIMBLK
  1

  9
$DIMASO
 70
     1
  9
$DIMSHO
 70
     1
  9
$DIMPOST
  1

  9
$DIMAPOST
  1

  9
$DIMALT
 70
     0
  9
$DIMALTD
 70
     2
  9
$DIMALTF
 40
25.4
  9
$DIMLFAC
 40
1.0
  9
$DIMTOFL
 70
     0
  9
$DIMTVP
 40
0.0
  9
$DIMTIX
 70
     0
  9
$DIMSOXD
 70
     0
  9
$DIMSAH
 70
     0
  9
$DIMBLK1
  1

  9
$DIMBLK2
  1

  9
$DIMSTYLE
  2
Standard
  9
$DIMCLRD
 70
     0
  9
$DIMCLRE
 70
     0
  9
$DIMCLRT
 70
     0
  9
$DIMTFAC
 40
1.0
  9
$DIMGAP
 40
0.09
  9
$DIMJUST
 70
     0
  9
$DIMSD1
 70
     0
  9
$DIMSD2
 70
     0
  9
$DIMTOLJ
 70
     1
  9
$DIMTZIN
 70
     0
  9
$DIMALTZ
 70
     0
  9
$DIMALTTZ
 70
     0
  9
$DIMUPT
 70
     0
  9
$DIMDEC
 70
     4
  9
$DIMTDEC
 70
     4
  9
$DIMALTU
 70
     2
  9
$DIMALTTD
 70
     2
  9
$DIMTXSTY
  7
Standard
  9
$DIMAUNIT
 70
     0
  9
$DIMADEC
 70
     0
  9
$DIMALTRND
 40
0.0
  9
$DIMAZIN
 70
     0
  9
$DIMDSEP
 70
    46
  9
$DIMATFIT
 70
     3
  9
$DIMFRAC
 70
     0
  9
$DIMLDRBLK
  1

  9
$DIMLUNIT
 70
     2
  9
$DIMLWD
 70
    -2
  9
$DIMLWE
 70
    -2
  9
$DIMTMOVE
 70
     0
  9
$LUNITS
 70
     2
  9
$LUPREC
 70
     4
  9
$SKETCHINC
 40
0.1
  9
$FILLETRAD
 40
0.0
  9
$AUNITS
 70
     0
  9
$AUPREC
 70
     0
  9
$MENU
  1
.
  9
$ELEVATION
 40
0.0
  9
$PELEVATION
 40
0.0
  9
$THICKNESS
 40
0.0
  9
$LIMCHECK
 70
     0
  9
$CHAMFERA
 40
0.0
  9
$CHAMFERB
 40
0.0
  9
$CHAMFERC
 40
0.0
  9
$CHAMFERD
 40
0.0
  9
$SKPOLY
 70
     0
  9
$TDCREATE
 40
2454781.444634872
  9
$TDUCREATE
 40
2454781.402968206
  9
$TDUPDATE
 40
2454781.449767604
  9
$TDUUPDATE
 40
2454781.408100937
  9
$TDINDWG
 40
0.0051327315
  9
$TDUSRTIMER
 40
0.0051327315
  9
$USRTIMER
 70
     1
  9
$ANGBASE
 50
0.0
  9
$ANGDIR
 70
     0
  9
$PDMODE
 70
     0
  9
$PDSIZE
 40
0.0
  9
$PLINEWID
 40
0.0
  9
$SPLFRAME
 70
     0
  9
$SPLINETYPE
 70
     6
  9
$SPLINESEGS
 70
     8
  9
$HANDSEED
  5
5EF
  9
$SURFTAB1
 70
     6
  9
$SURFTAB2
 70
     6
  9
$SURFTYPE
 70
     6
  9
$SURFU
 70
     6
  9
$SURFV
 70
     6
  9
$UCSBASE
  2

  9
$UCSNAME
  2

  9
$UCSORG
 10
0.0
 20
0.0
 30
0.0
  9
$UCSXDIR
 10
1.0
 20
0.0
 30
0.0
  9
$UCSYDIR
 10
0.0
 20
1.0
 30
0.0
  9
$UCSORTHOREF
  2

  9
$UCSORTHOVIEW
 70
     1
  9
$UCSORGTOP
 10
0.0
 20
0.0
 30
0.0
  9
$UCSORGBOTTOM
 10
0.0
 20
0.0
 30
0.0
  9
$UCSORGLEFT
 10
0.0
 20
0.0
 30
0.0
  9
$UCSORGRIGHT
 10
0.0
 20
0.0
 30
0.0
  9
$UCSORGFRONT
 10
0.0
 20
0.0
 30
0.0
  9
$UCSORGBACK
 10
0.0
 20
0.0
 30
0.0
  9
$PUCSBASE
  2

  9
$PUCSNAME
  2

  9
$PUCSORG
 10
0.0
 20
0.0
 30
0.0
  9
$PUCSXDIR
 10
1.0
 20
0.0
 30
0.0
  9
$PUCSYDIR
 10
0.0
 20
1.0
 30
0.0
  9
$PUCSORTHOREF
  2

  9
$PUCSORTHOVIEW
 70
     0
  9
$PUCSORGTOP
 10
0.0
 20
0.0
 30
0.0
  9
$PUCSORGBOTTOM
 10
0.0
 20
0.0
 30
0.0
  9
$PUCSORGLEFT
 10
0.0
 20
0.0
 30
0.0
  9
$PUCSORGRIGHT
 10
0.0
 20
0.0
 30
0.0
  9
$PUCSORGFRONT
 10
0.0
 20
0.0
 30
0.0
  9
$PUCSORGBACK
 10
0.0
 20
0.0
 30
0.0
  9
$USERI1
 70
     0
  9
$USERI2
 70
     0
  9
$USERI3
 70
     0
  9
$USERI4
 70
     0
  9
$USERI5
 70
     0
  9
$USERR1
 40
0.0
  9
$USERR2
 40
0.0
  9
$USERR3
 40
0.0
  9
$USERR4
 40
0.0
  9
$USERR5
 40
0.0
  9
$WORLDVIEW
 70
     1
  9
$SHADEDGE
 70
     3
  9
$SHADEDIF
 70
    70
  9
$TILEMODE
 70
     1
  9
$MAXACTVP
 70
    64
  9
$PINSBASE
 10
0.0
 20
0.0
 30
0.0
  9
$PLIMCHECK
 70
     0
  9
$PEXTMIN
 10
1.000000000000000E+20
 20
1.000000000000000E+20
 30
1.000000000000000E+20
  9
$PEXTMAX
 10
-1.000000000000000E+20
 20
-1.000000000000000E+20
 30
-1.000000000000000E+20
  9
$PLIMMIN
 10
0.0
 20
0.0
  9
$PLIMMAX
 10
12.0
 20
9.0
  9
$UNITMODE
 70
     0
  9
$VISRETAIN
 70
     1
  9
$PLINEGEN
 70
     0
  9
$PSLTSCALE
 70
     1
  9
$TREEDEPTH
 70
  3020
  9
$CMLSTYLE
  2
Standard
  9
$CMLJUST
 70
     0
  9
$CMLSCALE
 40
1.0
  9
$PROXYGRAPHICS
 70
     1
  9
$MEASUREMENT
 70
     0
  9
$CELWEIGHT
370
    -1
  9
$ENDCAPS
280
     0
  9
$JOINSTYLE
280
     0
  9
$LWDISPLAY
290
     0
  9
$INSUNITS
 70
     0
  9
$HYPERLINKBASE
  1

  9
$STYLESHEET
  1

  9
$XEDIT
290
     1
  9
$CEPSNTYPE
380
     0
  9
$PSTYLEMODE
290
     1
  9
$FINGERPRINTGUID
  2
{A6D6D210-826E-49B4-BB9A-4866E200514F}
  9
$VERSIONGUID
  2
{E112470B-4456-4844-90AB-80947DBC4157}
  9
$EXTNAMES
290
     1
  9
$PSVPSCALE
 40
0.0
  9
$OLESTARTUP
290
     0
  0
ENDSEC
  0
SECTION
  2
CLASSES
  0
CLASS
  1
ACDBDICTIONARYWDFLT
  2
AcDbDictionaryWithDefault
  3
AutoCAD 2000
 90
        0
280
     0
281
     0
  0
CLASS
  1
ACDBPLACEHOLDER
  2
AcDbPlaceHolder
  3
AutoCAD 2000
 90
        0
280
     0
281
     0
  0
CLASS
  1
LAYOUT
  2
AcDbLayout
  3
AutoCAD 2000
 90
        0
280
     0
281
     0
  0
CLASS
  1
DICTIONARYVAR
  2
AcDbDictionaryVar
  3
AutoCAD 2000
 90
        0
280
     0
281
     0
  0
ENDSEC
  0
SECTION
  2
TABLES
  0
TABLE
  2
VPORT
  5
8
330
0
100
AcDbSymbolTable
 70
     2
  0
VPORT
  5
5EE
330
8
100
AcDbSymbolTableRecord
100
AcDbViewportTableRecord
  2
*Active
 70
     0
 10
0.0
 20
0.0
 11
1.0
 21
1.0
 12
336.4999999999999
 22
285.0
 13
0.0
 23
0.0
 14
1.0
 24
1.0
 15
0.0
 25
0.0
 16
0.0
 26
0.0
 36
1.0
 17
0.0
 27
0.0
 37
0.0
 40
574.7291099744246
 41
2.078104993597951
 42
50.0
 43
0.0
 44
0.0
 50
0.0
 51
0.0
 71
     0
 72
   100
 73
     1
 74
     3
 75
     0
 76
     0
 77
     0
 78
     0
281
     0
 65
     1
110
0.0
120
0.0
130
0.0
111
1.0
121
0.0
131
0.0
112
0.0
122
1.0
132
0.0
 79
     1
146
0.0
  0
ENDTAB
  0
TABLE
  2
LTYPE
  5
5
330
0
100
AcDbSymbolTable
 70
     1
  0
LTYPE
  5
13
330
5
100
AcDbSymbolTableRecord
100
AcDbLinetypeTableRecord
  2
ByBlock
 70
     0
  3

 72
    65
 73
     0
 40
0.0
  0
LTYPE
  5
14
330
5
100
AcDbSymbolTableRecord
100
AcDbLinetypeTableRecord
  2
ByLayer
 70
     0
  3

 72
    65
 73
     0
 40
0.0
  0
LTYPE
  5
15
330
5
100
AcDbSymbolTableRecord
100
AcDbLinetypeTableRecord
  2
Continuous
 70
     0
  3
Solid line
 72
    65
 73
     0
 40
0.0
  0
ENDTAB
  0
TABLE
  2
LAYER
  5
2
330
0
100
AcDbSymbolTable
 70
     1
  0
LAYER
  5
10
330
2
100
AcDbSymbolTableRecord
100
AcDbLayerTableRecord
  2
0
 70
     0
 62
     7
  6
Continuous
370
    -3
390
F
  0
ENDTAB
  0
TABLE
  2
STYLE
  5
3
330
0
100
AcDbSymbolTable
 70
     1
  0
STYLE
  5
11
330
3
100
AcDbSymbolTableRecord
100
AcDbTextStyleTableRecord
  2
Standard
 70
     0
 40
0.0
 41
1.0
 50
0.0
 71
     0
 42
0.2
  3
txt
  4

  0
ENDTAB
  0
TABLE
  2
VIEW
  5
6
330
0
100
AcDbSymbolTable
 70
     0
  0
ENDTAB
  0
TABLE
  2
UCS
  5
7
330
0
100
AcDbSymbolTable
 70
     0
  0
ENDTAB
  0
TABLE
  2
APPID
  5
9
330
0
100
AcDbSymbolTable
 70
     1
  0
APPID
  5
12
330
9
100
AcDbSymbolTableRecord
100
AcDbRegAppTableRecord
  2
ACAD
 70
     0
  0
ENDTAB
  0
TABLE
  2
DIMSTYLE
  5
A
330
0
100
AcDbSymbolTable
 70
     1
100
AcDbDimStyleTable
 71
     0
  0
DIMSTYLE
105
5E7
330
A
100
AcDbSymbolTableRecord
100
AcDbDimStyleTableRecord
  2
Standard
 70
     0
340
11
  0
ENDTAB
  0
TABLE
  2
BLOCK_RECORD
  5
1
330
0
100
AcDbSymbolTable
 70
     0
  0
BLOCK_RECORD
  5
1E
330
1
100
AcDbSymbolTableRecord
100
AcDbBlockTableRecord
  2
*Model_Space
340
21
  0
BLOCK_RECORD
  5
1A
330
1
100
AcDbSymbolTableRecord
100
AcDbBlockTableRecord
  2
*Paper_Space
340
1D
  0
ENDTAB
  0
ENDSEC
  0
SECTION
  2
BLOCKS
  0
BLOCK
  5
1F
330
1E
100
AcDbEntity
  8
0
100
AcDbBlockBegin
  2
*Model_Space
 70
     0
 10
0.0
 20
0.0
 30
0.0
  3
*Model_Space
  1

  0
ENDBLK
  5
20
330
1E
100
AcDbEntity
  8
0
100
AcDbBlockEnd
  0
BLOCK
  5
1B
330
1A
100
AcDbEntity
 67
     1
  8
0
100
AcDbBlockBegin
  2
*Paper_Space
 70
     0
 10
0.0
 20
0.0
 30
0.0
  3
*Paper_Space
  1

  0
ENDBLK
  5
1C
330
1A
100
AcDbEntity
 67
     1
  8
0
100
AcDbBlockEnd
  0
ENDSEC
  0
SECTION
  2
ENTITIES
  0
LINE
  5
22
330
1E
100
AcDbEntity
  8
0
100
AcDbLine
 10
314.14265
 20
85.5015
 30
0.0
 11
314.14265
 21
86.4375
 31
0.0
  0
LINE
  5
23
330
1E
100
AcDbEntity
  8
0
100
AcDbLine
 10
314.14265
 20
85.5015
 30
0.0
 11
316.14265
 21
85.5015
 31
0.0
  0
LINE
  5
24
330
1E
100
AcDbEntity
  8
0
100
AcDbLine
 10
300.1426499999999
 20
88.9179
 30
0.0
 11
300.1426499999999
 21
91.5015
 31
0.0
  0
LINE
  5
25
330
1E
100
AcDbEntity
  8
0
100
AcDbLine
 10
300.1426499999999
 20
88.9179
 30
0.0
 11
300.1426499999999
 21
89.91789999999999
 31
0.0
  0
LINE
  5
26
330
1E
100
AcDbEntity
  8
0
100
AcDbLine
 10
300.1426499999999
 20
88.9179
 30
0.0
 11
314.14265
 21
88.9179
 31
0.0
  0
LINE
  5
27
330
1E
100
AcDbEntity
  8
0
100
AcDbLine
 10
300.1426499999999
 20
88.9179
 30
0.0
 11
300.1426499999999
 21
91.5159
 31
0.0
  0
LINE
  5
28
330
1E
100
AcDbEntity
  8
0
100
AcDbLine
 10
300.1426499999999
 20
88.50149999999999
 30
0.0
 11
300.1426499999999
 21
89.32949999999999
 31
0.0
  0
LINE
  5
29
330
1E
100
AcDbEntity
  8
0
100
AcDbLine
 10
300.1426499999999
 20
88.50149999999999
 30
0.0
 11
314.14265
 21
88.50149999999999
 31
0.0
  0
LINE
  5
2A
330
1E
100
AcDbEntity
  8
0
100
AcDbLine
 10
314.14265
 20
88.9179
 30
0.0
 11
314.14265
 21
88.50149999999999
 31
0.0
  0
LINE
  5
2B
330
1E
100
AcDbEntity
  8
0
100
AcDbLine
 10
314.14265
 20
88.9179
 30
0.0
 11
314.14265
 21
89.91789999999999
 31
0.0
  0
LINE
  5
2C
330
1E
100
AcDbEntity
  8
0
100
AcDbLine
 10
314.14265
 20
88.50149999999999
 30
0.0
 11
314.14265
 21
86.4375
 31
0.0
  0
LINE
  5
2D
330
1E
100
AcDbEntity
  8
0
100
AcDbLine
 10
314.14265
 20
88.50149999999999
 30
0.0
 11
314.14265
 21
88.9179
 31
0.0
  0
LINE
  5
2E
330
1E
100
AcDbEntity
  8
0
100
AcDbLine
 10
314.14265
 20
86.4375
 30
0.0
 11
314.14265
 21
88.93349999999999
 31
0.0
  0
LINE
  5
2F
330
1E
100
AcDbEntity
  8
0
100
AcDbLine
 10
314.14265
 20
86.4375
 30
0.0
 11
314.14265
 21
85.5015
 31
0.0
  0
LINE
  5
30
330
1E
100
AcDbEntity
  8
0
100
AcDbLine
 10
314.14265
 20
86.4375
 30
0.0
 11
314.14265
 21
88.50149999999999
 31
0.0
  0
LINE
  5
31
330
1E
100
AcDbEntity
  8
0
100
AcDbLine
 10
314.14265
 20
88.93349999999999
 30
0.0
 11
314.14265
 21
93.0935
 31
0.0
  0
LINE
  5
32
330
1E
100
AcDbEntity
  8
0
100
AcDbLine
 10
314.14265
 20
88.93349999999999
 30
0.0
 11
314.14265
 21
86.4375
 31
0.0
  0
LINE
  5
33
330
1E
100
AcDbEntity
  8
0
100
AcDbLine
 10
316.14265
 20
85.5015
 30
0.0
 11
316.14265
 21
86.4375
 31
0.0
  0
LINE
  5
34
330
1E
100
AcDbEntity
  8
0
100
AcDbLine
 10
316.14265
 20
86.4375
 30
0.0
 11
316.14265
 21
88.93349999999999
 31
0.0
  0
LINE
  5
35
330
1E
100
AcDbEntity
  8
0
100
AcDbLine
 10
316.14265
 20
86.4375
 30
0.0
 11
316.14265
 21
85.5015
 31
0.0
  0
LINE
  5
36
330
1E
100
AcDbEntity
  8
0
100
AcDbLine
 10
121.1426499999999
 20
91.5015
 30
0.0
 11
278.14265
 21
91.5015
 31
0.0
  0
LINE
  5
37
330
1E
100
AcDbEntity
  8
0
100
AcDbLine
 10
278.14265
 20
91.5015
 30
0.0
 11
278.14265
 21
92.2215
 31
0.0
  0
LINE
  5
38
330
1E
100
AcDbEntity
  8
0
100
AcDbLine
 10
278.14265
 20
91.5015
 30
0.0
 11
300.1426499999999
 21
91.5015
 31
0.0
  0
LINE
  5
39
330
1E
100
AcDbEntity
  8
0
100
AcDbLine
 10
300.1426499999999
 20
89.91789999999999
 30
0.0
 11
300.1426499999999
 21
88.9179
 31
0.0
  0
LINE
  5
3A
330
1E
100
AcDbEntity
  8
0
100
AcDbLine
 10
300.1426499999999
 20
89.91789999999999
 30
0.0
 11
300.1426499999999
 21
91.5015
 31
0.0
  0
LINE
  5
3B
330
1E
100
AcDbEntity
  8
0
100
AcDbLine
 10
300.1426499999999
 20
89.91789999999999
 30
0.0
 11
314.14265
 21
89.91789999999999
 31
0.0
  0
LINE
  5
3C
330
1E
100
AcDbEntity
  8
0
100
AcDbLine
 10
300.1426499999999
 20
89.91789999999999
 30
0.0
 11
300.1426499999999
 21
92.5159
 31
0.0
  0
LINE
  5
3D
330
1E
100
AcDbEntity
  8
0
100
AcDbLine
 10
300.1426499999999
 20
91.5159
 30
0.0
 11
300.1426499999999
 21
88.9179
 31
0.0
  0
LINE
  5
3E
330
1E
100
AcDbEntity
  8
0
100
AcDbLine
 10
300.1426499999999
 20
91.5159
 30
0.0
 11
300.1426499999999
 21
92.5159
 31
0.0
  0
LINE
  5
3F
330
1E
100
AcDbEntity
  8
0
100
AcDbLine
 10
300.1426499999999
 20
91.5015
 30
0.0
 11
300.1426499999999
 21
89.32949999999999
 31
0.0
  0
LINE
  5
40
330
1E
100
AcDbEntity
  8
0
100
AcDbLine
 10
300.1426499999999
 20
91.5015
 30
0.0
 11
300.1426499999999
 21
89.91789999999999
 31
0.0
  0
LINE
  5
41
330
1E
100
AcDbEntity
  8
0
100
AcDbLine
 10
300.1426499999999
 20
91.5015
 30
0.0
 11
300.1426499999999
 21
88.9179
 31
0.0
  0
LINE
  5
42
330
1E
100
AcDbEntity
  8
0
100
AcDbLine
 10
314.14265
 20
89.91789999999999
 30
0.0
 11
314.14265
 21
88.9179
 31
0.0
  0
LINE
  5
43
330
1E
100
AcDbEntity
  8
0
100
AcDbLine
 10
314.14265
 20
89.91789999999999
 30
0.0
 11
314.14265
 21
92.5159
 31
0.0
  0
LINE
  5
44
330
1E
100
AcDbEntity
  8
0
100
AcDbLine
 10
300.1426499999999
 20
89.32949999999999
 30
0.0
 11
300.1426499999999
 21
91.5375
 31
0.0
  0
LINE
  5
45
330
1E
100
AcDbEntity
  8
0
100
AcDbLine
 10
300.1426499999999
 20
89.32949999999999
 30
0.0
 11
300.1426499999999
 21
88.50149999999999
 31
0.0
  0
LINE
  5
46
330
1E
100
AcDbEntity
  8
0
100
AcDbLine
 10
300.1426499999999
 20
89.32949999999999
 30
0.0
 11
300.1426499999999
 21
91.5015
 31
0.0
  0
LINE
  5
47
330
1E
100
AcDbEntity
  8
0
100
AcDbLine
 10
300.1426499999999
 20
92.2215
 30
0.0
 11
300.1426499999999
 21
91.5015
 31
0.0
  0
LINE
  5
48
330
1E
100
AcDbEntity
  8
0
100
AcDbLine
 10
278.14265
 20
92.2215
 30
0.0
 11
278.14265
 21
94.14149999999999
 31
0.0
  0
LINE
  5
49
330
1E
100
AcDbEntity
  8
0
100
AcDbLine
 10
300.1426499999999
 20
92.5159
 30
0.0
 11
300.1426499999999
 21
91.5159
 31
0.0
  0
LINE
  5
4A
330
1E
100
AcDbEntity
  8
0
100
AcDbLine
 10
300.1426499999999
 20
92.5159
 30
0.0
 11
300.1426499999999
 21
89.91789999999999
 31
0.0
  0
LINE
  5
4B
330
1E
100
AcDbEntity
  8
0
100
AcDbLine
 10
300.1426499999999
 20
91.5375
 30
0.0
 11
300.1426499999999
 21
95.2175
 31
0.0
  0
LINE
  5
4C
330
1E
100
AcDbEntity
  8
0
100
AcDbLine
 10
300.1426499999999
 20
91.5375
 30
0.0
 11
300.1426499999999
 21
89.32949999999999
 31
0.0
  0
LINE
  5
4D
330
1E
100
AcDbEntity
  8
0
100
AcDbLine
 10
314.14265
 20
92.5159
 30
0.0
 11
314.14265
 21
95.2175
 31
0.0
  0
LINE
  5
4E
330
1E
100
AcDbEntity
  8
0
100
AcDbLine
 10
314.14265
 20
92.5159
 30
0.0
 11
314.14265
 21
89.91789999999999
 31
0.0
  0
LINE
  5
4F
330
1E
100
AcDbEntity
  8
0
100
AcDbLine
 10
107.94285
 20
93.2393
 30
0.0
 11
121.1426499999999
 21
91.5015
 31
0.0
  0
LINE
  5
50
330
1E
100
AcDbEntity
  8
0
100
AcDbLine
 10
300.1426499999999
 20
94.14149999999999
 30
0.0
 11
300.1426499999999
 21
92.2215
 31
0.0
  0
LINE
  5
51
330
1E
100
AcDbEntity
  8
0
100
AcDbLine
 10
278.14265
 20
94.14149999999999
 30
0.0
 11
278.14265
 21
97.34149999999999
 31
0.0
  0
LINE
  5
52
330
1E
100
AcDbEntity
  8
0
100
AcDbLine
 10
95.64265
 20
98.3342
 30
0.0
 11
107.94285
 21
93.2393
 31
0.0
  0
LINE
  5
53
330
1E
100
AcDbEntity
  8
0
100
AcDbLine
 10
300.1426499999999
 20
97.34149999999999
 30
0.0
 11
300.1426499999999
 21
94.14149999999999
 31
0.0
  0
LINE
  5
54
330
1E
100
AcDbEntity
  8
0
100
AcDbLine
 10
278.14265
 20
97.34149999999999
 30
0.0
 11
278.14265
 21
101.5815
 31
0.0
  0
LINE
  5
55
330
1E
100
AcDbEntity
  8
0
100
AcDbLine
 10
300.1426499999999
 20
95.2175
 30
0.0
 11
300.1426499999999
 21
100.0935
 31
0.0
  0
LINE
  5
56
330
1E
100
AcDbEntity
  8
0
100
AcDbLine
 10
300.1426499999999
 20
95.2175
 30
0.0
 11
300.1426499999999
 21
91.5375
 31
0.0
  0
LINE
  5
57
330
1E
100
AcDbEntity
  8
0
100
AcDbLine
 10
314.14265
 20
95.2175
 30
0.0
 11
314.14265
 21
100.0935
 31
0.0
  0
LINE
  5
58
330
1E
100
AcDbEntity
  8
0
100
AcDbLine
 10
314.14265
 20
95.2175
 30
0.0
 11
314.14265
 21
92.5159
 31
0.0
  0
LINE
  5
59
330
1E
100
AcDbEntity
  8
0
100
AcDbLine
 10
314.14265
 20
93.0935
 30
0.0
 11
314.14265
 21
98.60550000000001
 31
0.0
  0
LINE
  5
5A
330
1E
100
AcDbEntity
  8
0
100
AcDbLine
 10
314.14265
 20
93.0935
 30
0.0
 11
314.14265
 21
88.93349999999999
 31
0.0
  0
LINE
  5
5B
330
1E
100
AcDbEntity
  8
0
100
AcDbLine
 10
316.14265
 20
91.5015
 30
0.0
 11
360.14265
 21
91.5015
 31
0.0
  0
LINE
  5
5C
330
1E
100
AcDbEntity
  8
0
100
AcDbLine
 10
314.14265
 20
98.60550000000001
 30
0.0
 11
314.14265
 21
104.8455
 31
0.0
  0
LINE
  5
5D
330
1E
100
AcDbEntity
  8
0
100
AcDbLine
 10
314.14265
 20
98.60550000000001
 30
0.0
 11
314.14265
 21
93.0935
 31
0.0
  0
LINE
  5
5E
330
1E
100
AcDbEntity
  8
0
100
AcDbLine
 10
316.14265
 20
88.93349999999999
 30
0.0
 11
316.14265
 21
93.0935
 31
0.0
  0
LINE
  5
5F
330
1E
100
AcDbEntity
  8
0
100
AcDbLine
 10
316.14265
 20
88.93349999999999
 30
0.0
 11
316.14265
 21
86.4375
 31
0.0
  0
LINE
  5
60
330
1E
100
AcDbEntity
  8
0
100
AcDbLine
 10
316.14265
 20
93.0935
 30
0.0
 11
316.14265
 21
98.60550000000001
 31
0.0
  0
LINE
  5
61
330
1E
100
AcDbEntity
  8
0
100
AcDbLine
 10
316.14265
 20
93.0935
 30
0.0
 11
316.14265
 21
88.93349999999999
 31
0.0
  0
LINE
  5
62
330
1E
100
AcDbEntity
  8
0
100
AcDbLine
 10
300.1426499999999
 20
100.0935
 30
0.0
 11
300.1426499999999
 21
105.6135
 31
0.0
  0
LINE
  5
63
330
1E
100
AcDbEntity
  8
0
100
AcDbLine
 10
300.1426499999999
 20
100.0935
 30
0.0
 11
300.1426499999999
 21
95.2175
 31
0.0
  0
LINE
  5
64
330
1E
100
AcDbEntity
  8
0
100
AcDbLine
 10
85.08025000000001
 20
106.4391
 30
0.0
 11
95.64265
 21
98.3342
 31
0.0
  0
LINE
  5
65
330
1E
100
AcDbEntity
  8
0
100
AcDbLine
 10
278.14265
 20
101.5815
 30
0.0
 11
278.14265
 21
106.3814999999999
 31
0.0
  0
LINE
  5
66
330
1E
100
AcDbEntity
  8
0
100
AcDbLine
 10
300.1426499999999
 20
101.5815
 30
0.0
 11
300.1426499999999
 21
97.34149999999999
 31
0.0
  0
LINE
  5
67
330
1E
100
AcDbEntity
  8
0
100
AcDbLine
 10
300.1426499999999
 20
106.3814999999999
 30
0.0
 11
300.1426499999999
 21
101.5815
 31
0.0
  0
LINE
  5
68
330
1E
100
AcDbEntity
  8
0
100
AcDbLine
 10
278.14265
 20
106.3814999999999
 30
0.0
 11
278.14265
 21
111.5014999999999
 31
0.0
  0
LINE
  5
69
330
1E
100
AcDbEntity
  8
0
100
AcDbLine
 10
278.14265
 20
111.5014999999999
 30
0.0
 11
278.14265
 21
116.5014999999999
 31
0.0
  0
LINE
  5
6A
330
1E
100
AcDbEntity
  8
0
100
AcDbLine
 10
300.1426499999999
 20
110.5014999999999
 30
0.0
 11
314.14265
 21
110.5014999999999
 31
0.0
  0
LINE
  5
6B
330
1E
100
AcDbEntity
  8
0
100
AcDbLine
 10
300.1426499999999
 20
110.5014999999999
 30
0.0
 11
300.1426499999999
 21
112.5014999999999
 31
0.0
  0
LINE
  5
6C
330
1E
100
AcDbEntity
  8
0
100
AcDbLine
 10
300.1426499999999
 20
111.5014999999999
 30
0.0
 11
300.1426499999999
 21
105.6135
 31
0.0
  0
LINE
  5
6D
330
1E
100
AcDbEntity
  8
0
100
AcDbLine
 10
300.1426499999999
 20
111.5014999999999
 30
0.0
 11
300.1426499999999
 21
114.5014999999999
 31
0.0
  0
LINE
  5
6E
330
1E
100
AcDbEntity
  8
0
100
AcDbLine
 10
300.1426499999999
 20
111.5014999999999
 30
0.0
 11
300.1426499999999
 21
106.3814999999999
 31
0.0
  0
LINE
  5
6F
330
1E
100
AcDbEntity
  8
0
100
AcDbLine
 10
314.14265
 20
110.5014999999999
 30
0.0
 11
314.14265
 21
105.6135
 31
0.0
  0
LINE
  5
70
330
1E
100
AcDbEntity
  8
0
100
AcDbLine
 10
314.14265
 20
110.5014999999999
 30
0.0
 11
314.14265
 21
112.5014999999999
 31
0.0
  0
LINE
  5
71
330
1E
100
AcDbEntity
  8
0
100
AcDbLine
 10
300.1426499999999
 20
105.6135
 30
0.0
 11
300.1426499999999
 21
111.5014999999999
 31
0.0
  0
LINE
  5
72
330
1E
100
AcDbEntity
  8
0
100
AcDbLine
 10
300.1426499999999
 20
105.6135
 30
0.0
 11
300.1426499999999
 21
100.0935
 31
0.0
  0
LINE
  5
73
330
1E
100
AcDbEntity
  8
0
100
AcDbLine
 10
314.14265
 20
100.0935
 30
0.0
 11
314.14265
 21
105.6135
 31
0.0
  0
LINE
  5
74
330
1E
100
AcDbEntity
  8
0
100
AcDbLine
 10
314.14265
 20
100.0935
 30
0.0
 11
314.14265
 21
95.2175
 31
0.0
  0
LINE
  5
75
330
1E
100
AcDbEntity
  8
0
100
AcDbLine
 10
314.14265
 20
105.6135
 30
0.0
 11
314.14265
 21
110.5014999999999
 31
0.0
  0
LINE
  5
76
330
1E
100
AcDbEntity
  8
0
100
AcDbLine
 10
314.14265
 20
105.6135
 30
0.0
 11
314.14265
 21
100.0935
 31
0.0
  0
LINE
  5
77
330
1E
100
AcDbEntity
  8
0
100
AcDbLine
 10
300.1426499999999
 20
112.5014999999999
 30
0.0
 11
314.14265
 21
112.5014999999999
 31
0.0
  0
LINE
  5
78
330
1E
100
AcDbEntity
  8
0
100
AcDbLine
 10
300.1426499999999
 20
112.5014999999999
 30
0.0
 11
300.1426499999999
 21
110.5014999999999
 31
0.0
  0
LINE
  5
79
330
1E
100
AcDbEntity
  8
0
100
AcDbLine
 10
296.1426499999999
 20
114.5014999999999
 30
0.0
 11
296.1426499999999
 21
114.7534999999999
 31
0.0
  0
LINE
  5
7A
330
1E
100
AcDbEntity
  8
0
100
AcDbLine
 10
296.1426499999999
 20
114.5014999999999
 30
0.0
 11
316.14265
 21
114.5014999999999
 31
0.0
  0
LINE
  5
7B
330
1E
100
AcDbEntity
  8
0
100
AcDbLine
 10
76.97535000000001
 20
117.0015
 30
0.0
 11
85.08025000000001
 21
106.4391
 31
0.0
  0
LINE
  5
7C
330
1E
100
AcDbEntity
  8
0
100
AcDbLine
 10
250.9256499999999
 20
117.1615
 30
0.0
 11
251.13265
 21
117.9615
 31
0.0
  0
LINE
  5
7D
330
1E
100
AcDbEntity
  8
0
100
AcDbLine
 10
250.80165
 20
116.6814999999999
 30
0.0
 11
250.9256499999999
 21
117.1615
 31
0.0
  0
LINE
  5
7E
330
1E
100
AcDbEntity
  8
0
100
AcDbLine
 10
251.71565
 20
120.2215
 30
0.0
 11
252.0456499999999
 21
121.5014999999999
 31
0.0
  0
LINE
  5
7F
330
1E
100
AcDbEntity
  8
0
100
AcDbLine
 10
251.40565
 20
119.0215
 30
0.0
 11
251.71565
 21
120.2215
 31
0.0
  0
LINE
  5
80
330
1E
100
AcDbEntity
  8
0
100
AcDbLine
 10
251.71565
 20
120.2215
 30
0.0
 11
252.0456499999999
 21
121.5014999999999
 31
0.0
  0
LINE
  5
81
330
1E
100
AcDbEntity
  8
0
100
AcDbLine
 10
251.13265
 20
117.9615
 30
0.0
 11
251.40565
 21
119.0215
 31
0.0
  0
LINE
  5
82
330
1E
100
AcDbEntity
  8
0
100
AcDbLine
 10
250.75565
 20
116.5014999999999
 30
0.0
 11
250.80165
 21
116.6814999999999
 31
0.0
  0
LINE
  5
83
330
1E
100
AcDbEntity
  8
0
100
AcDbLine
 10
250.75565
 20
116.5014999999999
 30
0.0
 11
296.1426499999999
 21
116.5014999999999
 31
0.0
  0
LINE
  5
84
330
1E
100
AcDbEntity
  8
0
100
AcDbLine
 10
252.0456499999999
 20
121.5014999999999
 30
0.0
 11
252.37665
 21
122.7814999999999
 31
0.0
  0
LINE
  5
85
330
1E
100
AcDbEntity
  8
0
100
AcDbLine
 10
252.37665
 20
122.7814999999999
 30
0.0
 11
252.68565
 21
123.9814999999999
 31
0.0
  0
LINE
  5
86
330
1E
100
AcDbEntity
  8
0
100
AcDbLine
 10
252.68565
 20
123.9814999999999
 30
0.0
 11
252.95965
 21
125.0415
 31
0.0
  0
LINE
  5
87
330
1E
100
AcDbEntity
  8
0
100
AcDbLine
 10
252.95965
 20
125.0415
 30
0.0
 11
253.1656499999999
 21
125.8415
 31
0.0
  0
LINE
  5
88
330
1E
100
AcDbEntity
  8
0
100
AcDbLine
 10
253.1656499999999
 20
125.8415
 30
0.0
 11
253.28965
 21
126.3214999999999
 31
0.0
  0
LINE
  5
89
330
1E
100
AcDbEntity
  8
0
100
AcDbLine
 10
253.28965
 20
126.3214999999999
 30
0.0
 11
253.33665
 21
126.5015
 31
0.0
  0
LINE
  5
8A
330
1E
100
AcDbEntity
  8
0
100
AcDbLine
 10
253.33665
 20
126.5015
 30
0.0
 11
296.1426499999999
 21
126.5015
 31
0.0
  0
LINE
  5
8B
330
1E
100
AcDbEntity
  8
0
100
AcDbLine
 10
296.1426499999999
 20
116.5455
 30
0.0
 11
296.1426499999999
 21
115.4255
 31
0.0
  0
LINE
  5
8C
330
1E
100
AcDbEntity
  8
0
100
AcDbLine
 10
296.1426499999999
 20
116.5455
 30
0.0
 11
296.1426499999999
 21
118.0295
 31
0.0
  0
LINE
  5
8D
330
1E
100
AcDbEntity
  8
0
100
AcDbLine
 10
296.1426499999999
 20
115.4255
 30
0.0
 11
296.1426499999999
 21
116.5014999999999
 31
0.0
  0
LINE
  5
8E
330
1E
100
AcDbEntity
  8
0
100
AcDbLine
 10
296.1426499999999
 20
115.4255
 30
0.0
 11
296.1426499999999
 21
114.7534999999999
 31
0.0
  0
LINE
  5
8F
330
1E
100
AcDbEntity
  8
0
100
AcDbLine
 10
296.1426499999999
 20
115.4255
 30
0.0
 11
296.1426499999999
 21
116.5455
 31
0.0
  0
LINE
  5
90
330
1E
100
AcDbEntity
  8
0
100
AcDbLine
 10
296.1426499999999
 20
114.7534999999999
 30
0.0
 11
296.1426499999999
 21
115.4255
 31
0.0
  0
LINE
  5
91
330
1E
100
AcDbEntity
  8
0
100
AcDbLine
 10
296.1426499999999
 20
114.7534999999999
 30
0.0
 11
296.1426499999999
 21
114.5014999999999
 31
0.0
  0
LINE
  5
92
330
1E
100
AcDbEntity
  8
0
100
AcDbLine
 10
296.1426499999999
 20
116.5014999999999
 30
0.0
 11
296.1426499999999
 21
116.6814999999999
 31
0.0
  0
LINE
  5
93
330
1E
100
AcDbEntity
  8
0
100
AcDbLine
 10
296.1426499999999
 20
116.5014999999999
 30
0.0
 11
296.1426499999999
 21
115.4255
 31
0.0
  0
LINE
  5
94
330
1E
100
AcDbEntity
  8
0
100
AcDbLine
 10
296.1426499999999
 20
119.7095
 30
0.0
 11
296.1426499999999
 21
118.0295
 31
0.0
  0
LINE
  5
95
330
1E
100
AcDbEntity
  8
0
100
AcDbLine
 10
296.1426499999999
 20
119.7095
 30
0.0
 11
296.1426499999999
 21
121.5014999999999
 31
0.0
  0
LINE
  5
96
330
1E
100
AcDbEntity
  8
0
100
AcDbLine
 10
296.1426499999999
 20
118.0295
 30
0.0
 11
296.1426499999999
 21
116.5455
 31
0.0
  0
LINE
  5
97
330
1E
100
AcDbEntity
  8
0
100
AcDbLine
 10
296.1426499999999
 20
118.0295
 30
0.0
 11
296.1426499999999
 21
119.7095
 31
0.0
  0
LINE
  5
98
330
1E
100
AcDbEntity
  8
0
100
AcDbLine
 10
296.1426499999999
 20
123.2934999999999
 30
0.0
 11
296.1426499999999
 21
121.5014999999999
 31
0.0
  0
LINE
  5
99
330
1E
100
AcDbEntity
  8
0
100
AcDbLine
 10
296.1426499999999
 20
123.2934999999999
 30
0.0
 11
296.1426499999999
 21
124.9735
 31
0.0
  0
LINE
  5
9A
330
1E
100
AcDbEntity
  8
0
100
AcDbLine
 10
296.1426499999999
 20
122.7814999999999
 30
0.0
 11
296.1426499999999
 21
121.5014999999999
 31
0.0
  0
LINE
  5
9B
330
1E
100
AcDbEntity
  8
0
100
AcDbLine
 10
296.1426499999999
 20
122.7814999999999
 30
0.0
 11
296.1426499999999
 21
123.9814999999999
 31
0.0
  0
LINE
  5
9C
330
1E
100
AcDbEntity
  8
0
100
AcDbLine
 10
296.1426499999999
 20
124.9735
 30
0.0
 11
296.1426499999999
 21
123.2934999999999
 31
0.0
  0
LINE
  5
9D
330
1E
100
AcDbEntity
  8
0
100
AcDbLine
 10
296.1426499999999
 20
124.9735
 30
0.0
 11
296.1426499999999
 21
126.4575
 31
0.0
  0
LINE
  5
9E
330
1E
100
AcDbEntity
  8
0
100
AcDbLine
 10
296.1426499999999
 20
123.9814999999999
 30
0.0
 11
296.1426499999999
 21
122.7814999999999
 31
0.0
  0
LINE
  5
9F
330
1E
100
AcDbEntity
  8
0
100
AcDbLine
 10
296.1426499999999
 20
123.9814999999999
 30
0.0
 11
296.1426499999999
 21
125.0415
 31
0.0
  0
LINE
  5
A0
330
1E
100
AcDbEntity
  8
0
100
AcDbLine
 10
296.1426499999999
 20
125.0415
 30
0.0
 11
296.1426499999999
 21
123.9814999999999
 31
0.0
  0
LINE
  5
A1
330
1E
100
AcDbEntity
  8
0
100
AcDbLine
 10
296.1426499999999
 20
125.0415
 30
0.0
 11
296.1426499999999
 21
125.8415
 31
0.0
  0
LINE
  5
A2
330
1E
100
AcDbEntity
  8
0
100
AcDbLine
 10
296.1426499999999
 20
126.4575
 30
0.0
 11
296.1426499999999
 21
124.9735
 31
0.0
  0
LINE
  5
A3
330
1E
100
AcDbEntity
  8
0
100
AcDbLine
 10
296.1426499999999
 20
126.4575
 30
0.0
 11
296.1426499999999
 21
127.5775
 31
0.0
  0
LINE
  5
A4
330
1E
100
AcDbEntity
  8
0
100
AcDbLine
 10
296.1426499999999
 20
125.8415
 30
0.0
 11
296.1426499999999
 21
125.0415
 31
0.0
  0
LINE
  5
A5
330
1E
100
AcDbEntity
  8
0
100
AcDbLine
 10
296.1426499999999
 20
125.8415
 30
0.0
 11
296.1426499999999
 21
126.3214999999999
 31
0.0
  0
LINE
  5
A6
330
1E
100
AcDbEntity
  8
0
100
AcDbLine
 10
296.1426499999999
 20
126.3214999999999
 30
0.0
 11
296.1426499999999
 21
125.8415
 31
0.0
  0
LINE
  5
A7
330
1E
100
AcDbEntity
  8
0
100
AcDbLine
 10
296.1426499999999
 20
126.3214999999999
 30
0.0
 11
296.1426499999999
 21
126.5015
 31
0.0
  0
LINE
  5
A8
330
1E
100
AcDbEntity
  8
0
100
AcDbLine
 10
296.1426499999999
 20
127.5775
 30
0.0
 11
296.1426499999999
 21
128.2495
 31
0.0
  0
LINE
  5
A9
330
1E
100
AcDbEntity
  8
0
100
AcDbLine
 10
296.1426499999999
 20
127.5775
 30
0.0
 11
296.1426499999999
 21
126.5015
 31
0.0
  0
LINE
  5
AA
330
1E
100
AcDbEntity
  8
0
100
AcDbLine
 10
296.1426499999999
 20
127.5775
 30
0.0
 11
296.1426499999999
 21
126.4575
 31
0.0
  0
LINE
  5
AB
330
1E
100
AcDbEntity
  8
0
100
AcDbLine
 10
296.1426499999999
 20
128.2495
 30
0.0
 11
296.1426499999999
 21
128.5015
 31
0.0
  0
LINE
  5
AC
330
1E
100
AcDbEntity
  8
0
100
AcDbLine
 10
296.1426499999999
 20
128.2495
 30
0.0
 11
296.1426499999999
 21
127.5775
 31
0.0
  0
LINE
  5
AD
330
1E
100
AcDbEntity
  8
0
100
AcDbLine
 10
296.1426499999999
 20
128.5015
 30
0.0
 11
316.14265
 21
128.5015
 31
0.0
  0
LINE
  5
AE
330
1E
100
AcDbEntity
  8
0
100
AcDbLine
 10
296.1426499999999
 20
128.5015
 30
0.0
 11
296.1426499999999
 21
128.2495
 31
0.0
  0
LINE
  5
AF
330
1E
100
AcDbEntity
  8
0
100
AcDbLine
 10
296.1426499999999
 20
126.5015
 30
0.0
 11
296.1426499999999
 21
126.3214999999999
 31
0.0
  0
LINE
  5
B0
330
1E
100
AcDbEntity
  8
0
100
AcDbLine
 10
296.1426499999999
 20
126.5015
 30
0.0
 11
296.1426499999999
 21
127.5775
 31
0.0
  0
LINE
  5
B1
330
1E
100
AcDbEntity
  8
0
100
AcDbLine
 10
296.1426499999999
 20
121.5014999999999
 30
0.0
 11
296.1426499999999
 21
120.2215
 31
0.0
  0
LINE
  5
B2
330
1E
100
AcDbEntity
  8
0
100
AcDbLine
 10
296.1426499999999
 20
121.5014999999999
 30
0.0
 11
296.1426499999999
 21
122.7814999999999
 31
0.0
  0
LINE
  5
B3
330
1E
100
AcDbEntity
  8
0
100
AcDbLine
 10
296.1426499999999
 20
121.5014999999999
 30
0.0
 11
296.1426499999999
 21
119.7095
 31
0.0
  0
LINE
  5
B4
330
1E
100
AcDbEntity
  8
0
100
AcDbLine
 10
296.1426499999999
 20
121.5014999999999
 30
0.0
 11
296.1426499999999
 21
123.2934999999999
 31
0.0
  0
LINE
  5
B5
330
1E
100
AcDbEntity
  8
0
100
AcDbLine
 10
296.1426499999999
 20
120.2215
 30
0.0
 11
296.1426499999999
 21
119.0215
 31
0.0
  0
LINE
  5
B6
330
1E
100
AcDbEntity
  8
0
100
AcDbLine
 10
296.1426499999999
 20
120.2215
 30
0.0
 11
296.1426499999999
 21
121.5014999999999
 31
0.0
  0
LINE
  5
B7
330
1E
100
AcDbEntity
  8
0
100
AcDbLine
 10
296.1426499999999
 20
119.0215
 30
0.0
 11
296.1426499999999
 21
117.9615
 31
0.0
  0
LINE
  5
B8
330
1E
100
AcDbEntity
  8
0
100
AcDbLine
 10
296.1426499999999
 20
119.0215
 30
0.0
 11
296.1426499999999
 21
120.2215
 31
0.0
  0
LINE
  5
B9
330
1E
100
AcDbEntity
  8
0
100
AcDbLine
 10
296.1426499999999
 20
117.9615
 30
0.0
 11
296.1426499999999
 21
117.1615
 31
0.0
  0
LINE
  5
BA
330
1E
100
AcDbEntity
  8
0
100
AcDbLine
 10
296.1426499999999
 20
117.9615
 30
0.0
 11
296.1426499999999
 21
119.0215
 31
0.0
  0
LINE
  5
BB
330
1E
100
AcDbEntity
  8
0
100
AcDbLine
 10
296.1426499999999
 20
117.1615
 30
0.0
 11
296.1426499999999
 21
116.6814999999999
 31
0.0
  0
LINE
  5
BC
330
1E
100
AcDbEntity
  8
0
100
AcDbLine
 10
296.1426499999999
 20
117.1615
 30
0.0
 11
296.1426499999999
 21
117.9615
 31
0.0
  0
LINE
  5
BD
330
1E
100
AcDbEntity
  8
0
100
AcDbLine
 10
296.1426499999999
 20
116.6814999999999
 30
0.0
 11
296.1426499999999
 21
116.5014999999999
 31
0.0
  0
LINE
  5
BE
330
1E
100
AcDbEntity
  8
0
100
AcDbLine
 10
296.1426499999999
 20
116.6814999999999
 30
0.0
 11
296.1426499999999
 21
117.1615
 31
0.0
  0
LINE
  5
BF
330
1E
100
AcDbEntity
  8
0
100
AcDbLine
 10
278.14265
 20
126.5015
 30
0.0
 11
278.14265
 21
128.8615
 31
0.0
  0
LINE
  5
C0
330
1E
100
AcDbEntity
  8
0
100
AcDbLine
 10
300.1426499999999
 20
114.5014999999999
 30
0.0
 11
300.1426499999999
 21
111.5014999999999
 31
0.0
  0
LINE
  5
C1
330
1E
100
AcDbEntity
  8
0
100
AcDbLine
 10
300.1426499999999
 20
128.5015
 30
0.0
 11
300.1426499999999
 21
131.4654999999999
 31
0.0
  0
LINE
  5
C2
330
1E
100
AcDbEntity
  8
0
100
AcDbLine
 10
314.14265
 20
112.5014999999999
 30
0.0
 11
314.14265
 21
114.5014999999999
 31
0.0
  0
LINE
  5
C3
330
1E
100
AcDbEntity
  8
0
100
AcDbLine
 10
314.14265
 20
112.5014999999999
 30
0.0
 11
314.14265
 21
110.5014999999999
 31
0.0
  0
LINE
  5
C4
330
1E
100
AcDbEntity
  8
0
100
AcDbLine
 10
314.14265
 20
114.5014999999999
 30
0.0
 11
314.14265
 21
111.5014999999999
 31
0.0
  0
LINE
  5
C5
330
1E
100
AcDbEntity
  8
0
100
AcDbLine
 10
314.14265
 20
114.5014999999999
 30
0.0
 11
314.14265
 21
112.5014999999999
 31
0.0
  0
LINE
  5
C6
330
1E
100
AcDbEntity
  8
0
100
AcDbLine
 10
278.14265
 20
128.8615
 30
0.0
 11
278.14265
 21
130.7814999999999
 31
0.0
  0
LINE
  5
C7
330
1E
100
AcDbEntity
  8
0
100
AcDbLine
 10
71.88044999999999
 20
129.3017
 30
0.0
 11
76.97535000000001
 21
117.0015
 31
0.0
  0
LINE
  5
C8
330
1E
100
AcDbEntity
  8
0
100
AcDbLine
 10
278.14265
 20
130.7814999999999
 30
0.0
 11
278.14265
 21
131.5015
 31
0.0
  0
LINE
  5
C9
330
1E
100
AcDbEntity
  8
0
100
AcDbLine
 10
300.1426499999999
 20
130.7814999999999
 30
0.0
 11
300.1426499999999
 21
128.8615
 31
0.0
  0
LINE
  5
CA
330
1E
100
AcDbEntity
  8
0
100
AcDbLine
 10
300.1426499999999
 20
128.8615
 30
0.0
 11
300.1426499999999
 21
128.5015
 31
0.0
  0
LINE
  5
CB
330
1E
100
AcDbEntity
  8
0
100
AcDbLine
 10
300.1426499999999
 20
130.4871
 30
0.0
 11
300.1426499999999
 21
131.4870999999999
 31
0.0
  0
LINE
  5
CC
330
1E
100
AcDbEntity
  8
0
100
AcDbLine
 10
300.1426499999999
 20
130.4871
 30
0.0
 11
300.1426499999999
 21
133.0851
 31
0.0
  0
LINE
  5
CD
330
1E
100
AcDbEntity
  8
0
100
AcDbLine
 10
121.1426499999999
 20
131.5015
 30
0.0
 11
278.14265
 21
131.5015
 31
0.0
  0
LINE
  5
CE
330
1E
100
AcDbEntity
  8
0
100
AcDbLine
 10
278.14265
 20
131.5015
 30
0.0
 11
300.1426499999999
 21
131.5015
 31
0.0
  0
LINE
  5
CF
330
1E
100
AcDbEntity
  8
0
100
AcDbLine
 10
300.1426499999999
 20
131.4870999999999
 30
0.0
 11
300.1426499999999
 21
134.0851
 31
0.0
  0
LINE
  5
D0
330
1E
100
AcDbEntity
  8
0
100
AcDbLine
 10
300.1426499999999
 20
131.4870999999999
 30
0.0
 11
300.1426499999999
 21
130.4871
 31
0.0
  0
LINE
  5
D1
330
1E
100
AcDbEntity
  8
0
100
AcDbLine
 10
300.1426499999999
 20
131.4654999999999
 30
0.0
 11
300.1426499999999
 21
133.6735
 31
0.0
  0
LINE
  5
D2
330
1E
100
AcDbEntity
  8
0
100
AcDbLine
 10
300.1426499999999
 20
131.4654999999999
 30
0.0
 11
300.1426499999999
 21
128.5015
 31
0.0
  0
LINE
  5
D3
330
1E
100
AcDbEntity
  8
0
100
AcDbLine
 10
115.64265
 20
132.97522
 30
0.0
 11
118.2956499999999
 21
131.87632
 31
0.0
  0
LINE
  5
D4
330
1E
100
AcDbEntity
  8
0
100
AcDbLine
 10
118.2956499999999
 20
131.87632
 30
0.0
 11
121.1426499999999
 21
131.5015
 31
0.0
  0
LINE
  5
D5
330
1E
100
AcDbEntity
  8
0
100
AcDbLine
 10
300.1426499999999
 20
133.0851
 30
0.0
 11
300.1426499999999
 21
134.0851
 31
0.0
  0
LINE
  5
D6
330
1E
100
AcDbEntity
  8
0
100
AcDbLine
 10
300.1426499999999
 20
133.0851
 30
0.0
 11
300.1426499999999
 21
131.5015
 31
0.0
  0
LINE
  5
D7
330
1E
100
AcDbEntity
  8
0
100
AcDbLine
 10
300.1426499999999
 20
133.0851
 30
0.0
 11
314.14265
 21
133.0851
 31
0.0
  0
LINE
  5
D8
330
1E
100
AcDbEntity
  8
0
100
AcDbLine
 10
300.1426499999999
 20
133.0851
 30
0.0
 11
300.1426499999999
 21
130.4871
 31
0.0
  0
LINE
  5
D9
330
1E
100
AcDbEntity
  8
0
100
AcDbLine
 10
300.1426499999999
 20
133.0851
 30
0.0
 11
300.1426499999999
 21
134.0851
 31
0.0
  0
LINE
  5
DA
330
1E
100
AcDbEntity
  8
0
100
AcDbLine
 10
300.1426499999999
 20
131.5015
 30
0.0
 11
300.1426499999999
 21
133.6735
 31
0.0
  0
LINE
  5
DB
330
1E
100
AcDbEntity
  8
0
100
AcDbLine
 10
300.1426499999999
 20
131.5015
 30
0.0
 11
300.1426499999999
 21
133.0851
 31
0.0
  0
LINE
  5
DC
330
1E
100
AcDbEntity
  8
0
100
AcDbLine
 10
300.1426499999999
 20
131.5015
 30
0.0
 11
300.1426499999999
 21
134.0851
 31
0.0
  0
LINE
  5
DD
330
1E
100
AcDbEntity
  8
0
100
AcDbLine
 10
300.1426499999999
 20
131.5015
 30
0.0
 11
300.1426499999999
 21
130.7814999999999
 31
0.0
  0
LINE
  5
DE
330
1E
100
AcDbEntity
  8
0
100
AcDbLine
 10
314.14265
 20
133.0851
 30
0.0
 11
314.14265
 21
134.0851
 31
0.0
  0
LINE
  5
DF
330
1E
100
AcDbEntity
  8
0
100
AcDbLine
 10
314.14265
 20
133.0851
 30
0.0
 11
314.14265
 21
130.4871
 31
0.0
  0
LINE
  5
E0
330
1E
100
AcDbEntity
  8
0
100
AcDbLine
 10
314.14265
 20
130.4871
 30
0.0
 11
314.14265
 21
128.5015
 31
0.0
  0
LINE
  5
E1
330
1E
100
AcDbEntity
  8
0
100
AcDbLine
 10
314.14265
 20
130.4871
 30
0.0
 11
314.14265
 21
133.0851
 31
0.0
  0
LINE
  5
E2
330
1E
100
AcDbEntity
  8
0
100
AcDbLine
 10
300.1426499999999
 20
133.6735
 30
0.0
 11
300.1426499999999
 21
131.5015
 31
0.0
  0
LINE
  5
E3
330
1E
100
AcDbEntity
  8
0
100
AcDbLine
 10
300.1426499999999
 20
133.6735
 30
0.0
 11
300.1426499999999
 21
134.5014999999999
 31
0.0
  0
LINE
  5
E4
330
1E
100
AcDbEntity
  8
0
100
AcDbLine
 10
300.1426499999999
 20
133.6735
 30
0.0
 11
300.1426499999999
 21
131.4654999999999
 31
0.0
  0
LINE
  5
E5
330
1E
100
AcDbEntity
  8
0
100
AcDbLine
 10
111.61635
 20
137.0014999999999
 30
0.0
 11
113.36445
 21
134.72333
 31
0.0
  0
LINE
  5
E6
330
1E
100
AcDbEntity
  8
0
100
AcDbLine
 10
113.36445
 20
134.72333
 30
0.0
 11
115.64265
 21
132.97522
 31
0.0
  0
LINE
  5
E7
330
1E
100
AcDbEntity
  8
0
100
AcDbLine
 10
300.1426499999999
 20
134.0851
 30
0.0
 11
314.14265
 21
134.0851
 31
0.0
  0
LINE
  5
E8
330
1E
100
AcDbEntity
  8
0
100
AcDbLine
 10
300.1426499999999
 20
134.0851
 30
0.0
 11
300.1426499999999
 21
133.0851
 31
0.0
  0
LINE
  5
E9
330
1E
100
AcDbEntity
  8
0
100
AcDbLine
 10
300.1426499999999
 20
134.0851
 30
0.0
 11
300.1426499999999
 21
131.4870999999999
 31
0.0
  0
LINE
  5
EA
330
1E
100
AcDbEntity
  8
0
100
AcDbLine
 10
300.1426499999999
 20
134.0851
 30
0.0
 11
300.1426499999999
 21
131.5015
 31
0.0
  0
LINE
  5
EB
330
1E
100
AcDbEntity
  8
0
100
AcDbLine
 10
300.1426499999999
 20
134.0851
 30
0.0
 11
300.1426499999999
 21
133.0851
 31
0.0
  0
LINE
  5
EC
330
1E
100
AcDbEntity
  8
0
100
AcDbLine
 10
314.14265
 20
134.0851
 30
0.0
 11
314.14265
 21
134.5014999999999
 31
0.0
  0
LINE
  5
ED
330
1E
100
AcDbEntity
  8
0
100
AcDbLine
 10
314.14265
 20
134.0851
 30
0.0
 11
314.14265
 21
133.0851
 31
0.0
  0
LINE
  5
EE
330
1E
100
AcDbEntity
  8
0
100
AcDbLine
 10
300.1426499999999
 20
134.5014999999999
 30
0.0
 11
300.1426499999999
 21
133.6735
 31
0.0
  0
LINE
  5
EF
330
1E
100
AcDbEntity
  8
0
100
AcDbLine
 10
300.1426499999999
 20
134.5014999999999
 30
0.0
 11
314.14265
 21
134.5014999999999
 31
0.0
  0
LINE
  5
F0
330
1E
100
AcDbEntity
  8
0
100
AcDbLine
 10
314.14265
 20
134.0694999999999
 30
0.0
 11
314.14265
 21
136.5654999999999
 31
0.0
  0
LINE
  5
F1
330
1E
100
AcDbEntity
  8
0
100
AcDbLine
 10
314.14265
 20
134.0694999999999
 30
0.0
 11
314.14265
 21
129.9095
 31
0.0
  0
LINE
  5
F2
330
1E
100
AcDbEntity
  8
0
100
AcDbLine
 10
314.14265
 20
129.9095
 30
0.0
 11
314.14265
 21
134.0694999999999
 31
0.0
  0
LINE
  5
F3
330
1E
100
AcDbEntity
  8
0
100
AcDbLine
 10
314.14265
 20
129.9095
 30
0.0
 11
314.14265
 21
128.5015
 31
0.0
  0
LINE
  5
F4
330
1E
100
AcDbEntity
  8
0
100
AcDbLine
 10
314.14265
 20
128.5015
 30
0.0
 11
314.14265
 21
129.9095
 31
0.0
  0
LINE
  5
F5
330
1E
100
AcDbEntity
  8
0
100
AcDbLine
 10
314.14265
 20
128.5015
 30
0.0
 11
314.14265
 21
130.4871
 31
0.0
  0
LINE
  5
F6
330
1E
100
AcDbEntity
  8
0
100
AcDbLine
 10
314.14265
 20
134.5014999999999
 30
0.0
 11
314.14265
 21
136.5654999999999
 31
0.0
  0
LINE
  5
F7
330
1E
100
AcDbEntity
  8
0
100
AcDbLine
 10
314.14265
 20
134.5014999999999
 30
0.0
 11
314.14265
 21
134.0851
 31
0.0
  0
LINE
  5
F8
330
1E
100
AcDbEntity
  8
0
100
AcDbLine
 10
63.80024999999999
 20
140.980448
 30
0.0
 11
64.20295
 21
139.0214
 31
0.0
  0
LINE
  5
F9
330
1E
100
AcDbEntity
  8
0
100
AcDbLine
 10
63.80024999999999
 20
140.980448
 30
0.0
 11
64.71715
 21
141.16889
 31
0.0
  0
LINE
  5
FA
330
1E
100
AcDbEntity
  8
0
100
AcDbLine
 10
67.14674999999999
 20
141.66826
 30
0.0
 11
69.69155
 21
142.19131
 31
0.0
  0
LINE
  5
FB
330
1E
100
AcDbEntity
  8
0
100
AcDbLine
 10
67.14674999999999
 20
141.66826
 30
0.0
 11
68.12625
 21
141.8695899999999
 31
0.0
  0
LINE
  5
FC
330
1E
100
AcDbEntity
  8
0
100
AcDbLine
 10
67.14674999999999
 20
141.66826
 30
0.0
 11
69.4837983840199
 21
142.1486094016269
 31
0.0
  0
LINE
  5
FD
330
1E
100
AcDbEntity
  8
0
100
AcDbLine
 10
66.73885
 20
141.58443
 30
0.0
 11
67.1467473738345
 21
141.6682727770879
 31
0.0
  0
LINE
  5
FE
330
1E
100
AcDbEntity
  8
0
100
AcDbLine
 10
64.71715
 20
141.16889
 30
0.0
 11
67.16204999999999
 21
141.6713999999999
 31
0.0
  0
LINE
  5
FF
330
1E
100
AcDbEntity
  8
0
100
AcDbLine
 10
65.11974999999999
 20
139.2098399999999
 30
0.0
 11
67.56465
 21
139.712353
 31
0.0
  0
LINE
  5
100
330
1E
100
AcDbEntity
  8
0
100
AcDbLine
 10
67.56465
 20
139.712353
 30
0.0
 11
71.63945
 21
140.5498709999999
 31
0.0
  0
LINE
  5
101
330
1E
100
AcDbEntity
  8
0
100
AcDbLine
 10
68.12625
 20
141.8695899999999
 30
0.0
 11
70.67104999999999
 21
142.3926299999999
 31
0.0
  0
LINE
  5
102
330
1E
100
AcDbEntity
  8
0
100
AcDbLine
 10
67.16204999999999
 20
141.6713999999999
 30
0.0
 11
69.483799361236
 21
142.1486041634
 31
0.0
  0
LINE
  5
103
330
1E
100
AcDbEntity
  8
0
100
AcDbLine
 10
67.16204999999999
 20
141.6713999999999
 30
0.0
 11
71.23685
 21
142.5089199999999
 31
0.0
  0
LINE
  5
104
330
1E
100
AcDbEntity
  8
0
100
AcDbLine
 10
64.20295
 20
139.0214
 30
0.0
 11
65.11974999999999
 21
139.2098399999999
 31
0.0
  0
LINE
  5
105
330
1E
100
AcDbEntity
  8
0
100
AcDbLine
 10
64.20295
 20
139.0214
 30
0.0
 11
65.11974999999999
 21
139.2098399999999
 31
0.0
  0
LINE
  5
106
330
1E
100
AcDbEntity
  8
0
100
AcDbLine
 10
69.69155
 20
142.19131
 30
0.0
 11
70.67104999999999
 21
142.3926299999999
 31
0.0
  0
LINE
  5
107
330
1E
100
AcDbEntity
  8
0
100
AcDbLine
 10
71.63945
 20
140.5498709999999
 30
0.0
 11
77.03865
 21
141.65958
 31
0.0
  0
LINE
  5
108
330
1E
100
AcDbEntity
  8
0
100
AcDbLine
 10
70.67104842077359
 20
142.392633883809
 30
0.0
 11
73.31735000000001
 21
142.9365399999999
 31
0.0
  0
LINE
  5
109
330
1E
100
AcDbEntity
  8
0
100
AcDbLine
 10
73.31735000000001
 20
142.9365399999999
 30
0.0
 11
78.09345
 21
143.9182
 31
0.0
  0
LINE
  5
10A
330
1E
100
AcDbEntity
  8
0
100
AcDbLine
 10
71.23685
 20
142.5089199999999
 30
0.0
 11
76.63594999999999
 21
143.6186299999999
 31
0.0
  0
LINE
  5
10B
330
1E
100
AcDbEntity
  8
0
100
AcDbLine
 10
78.09345
 20
143.9182
 30
0.0
 11
78.6622637692492
 21
144.0351113752879
 31
0.0
  0
LINE
  5
10C
330
1E
100
AcDbEntity
  8
0
100
AcDbLine
 10
78.09345
 20
143.9182
 30
0.0
 11
78.6622637692492
 21
144.0351113752879
 31
0.0
  0
LINE
  5
10D
330
1E
100
AcDbEntity
  8
0
100
AcDbLine
 10
76.63594999999999
 20
143.6186299999999
 30
0.0
 11
82.74815
 21
144.87491
 31
0.0
  0
LINE
  5
10E
330
1E
100
AcDbEntity
  8
0
100
AcDbLine
 10
77.03865
 20
141.65958
 30
0.0
 11
83.15085000000001
 21
142.91586
 31
0.0
  0
LINE
  5
10F
330
1E
100
AcDbEntity
  8
0
100
AcDbLine
 10
83.15085000000001
 20
142.91586
 30
0.0
 11
89.67055
 21
144.2558899999999
 31
0.0
  0
LINE
  5
110
330
1E
100
AcDbEntity
  8
0
100
AcDbLine
 10
88.28834999999999
 20
146.0136099999999
 30
0.0
 11
89.97314565897909
 21
146.3598827640689
 31
0.0
  0
LINE
  5
111
330
1E
100
AcDbEntity
  8
0
100
AcDbLine
 10
88.28834999999999
 20
146.0136099999999
 30
0.0
 11
89.973145658979
 21
146.3598827640689
 31
0.0
  0
LINE
  5
112
330
1E
100
AcDbEntity
  8
0
100
AcDbLine
 10
89.26795
 20
146.2149399999999
 30
0.0
 11
89.9081666390259
 21
146.346527752899
 31
0.0
  0
LINE
  5
113
330
1E
100
AcDbEntity
  8
0
100
AcDbLine
 10
82.74815
 20
144.87491
 30
0.0
 11
89.26794999999989
 21
146.2149399999999
 31
0.0
  0
LINE
  5
114
330
1E
100
AcDbEntity
  8
0
100
AcDbLine
 10
89.9081666390259
 20
146.346527752899
 30
0.0
 11
89.97314565897909
 21
146.3598827640689
 31
0.0
  0
LINE
  5
115
330
1E
100
AcDbEntity
  8
0
100
AcDbLine
 10
89.9081666390259
 20
146.346527752899
 30
0.0
 11
89.973145658979
 21
146.3598827640689
 31
0.0
  0
LINE
  5
116
330
1E
100
AcDbEntity
  8
0
100
AcDbLine
 10
95.03534999999999
 20
147.40035
 30
0.0
 11
98.08356469130542
 21
148.026860440307
 31
0.0
  0
LINE
  5
117
330
1E
100
AcDbEntity
  8
0
100
AcDbLine
 10
95.03534999999999
 20
147.40035
 30
0.0
 11
98.08356469130529
 21
148.026860440307
 31
0.0
  0
LINE
  5
118
330
1E
100
AcDbEntity
  8
0
100
AcDbLine
 10
90.24744944856571
 20
146.416262682894
 30
0.0
 11
95.03534999999999
 21
147.40035
 31
0.0
  0
LINE
  5
119
330
1E
100
AcDbEntity
  8
0
100
AcDbLine
 10
95.78764999999989
 20
147.55497
 30
0.0
 11
101.8998499999999
 21
148.81124
 31
0.0
  0
LINE
  5
11A
330
1E
100
AcDbEntity
  8
0
100
AcDbLine
 10
89.26794999999989
 20
146.2149399999999
 30
0.0
 11
95.78764999999989
 21
147.55497
 31
0.0
  0
LINE
  5
11B
330
1E
100
AcDbEntity
  8
0
100
AcDbLine
 10
89.26794999999989
 20
146.2149399999999
 30
0.0
 11
89.9081666390259
 21
146.346527752899
 31
0.0
  0
LINE
  5
11C
330
1E
100
AcDbEntity
  8
0
100
AcDbLine
 10
107.70165
 20
147.96191
 30
0.0
 11
111.77645
 21
148.7994299999999
 31
0.0
  0
LINE
  5
11D
330
1E
100
AcDbEntity
  8
0
100
AcDbLine
 10
102.3025499999999
 20
146.8522
 30
0.0
 11
107.70165
 21
147.96191
 31
0.0
  0
LINE
  5
11E
330
1E
100
AcDbEntity
  8
0
100
AcDbLine
 10
96.19025
 20
145.59592
 30
0.0
 11
102.3025499999999
 21
146.8522
 31
0.0
  0
LINE
  5
11F
330
1E
100
AcDbEntity
  8
0
100
AcDbLine
 10
89.67055
 20
144.2558899999999
 30
0.0
 11
96.19025
 21
145.59592
 31
0.0
  0
LINE
  5
120
330
1E
100
AcDbEntity
  8
0
100
AcDbLine
 10
69.850640182389
 20
140.182206226066
 30
0.0
 11
71.88044999999999
 21
129.3017
 31
0.0
  0
LINE
  5
121
330
1E
100
AcDbEntity
  8
0
100
AcDbLine
 10
101.3863634362669
 20
148.7057006254019
 30
0.0
 11
105.21845
 21
149.4933399999999
 31
0.0
  0
LINE
  5
122
330
1E
100
AcDbEntity
  8
0
100
AcDbLine
 10
105.21845
 20
149.4933399999999
 30
0.0
 11
105.4926963372489
 21
149.549706306861
 31
0.0
  0
LINE
  5
123
330
1E
100
AcDbEntity
  8
0
100
AcDbLine
 10
107.29895
 20
149.92096
 30
0.0
 11
111.3738499999999
 21
150.7584999999999
 31
0.0
  0
LINE
  5
124
330
1E
100
AcDbEntity
  8
0
100
AcDbLine
 10
101.8998499999999
 20
148.81124
 30
0.0
 11
107.29895
 21
149.92096
 31
0.0
  0
LINE
  5
125
330
1E
100
AcDbEntity
  8
0
100
AcDbLine
 10
108.927469407135
 20
148.2138605914069
 30
0.0
 11
110.5174499999999
 21
139.6544909999999
 31
0.0
  0
LINE
  5
126
330
1E
100
AcDbEntity
  8
0
100
AcDbLine
 10
108.927469407135
 20
148.2138605914069
 30
0.0
 11
110.5174499999999
 21
139.6544909999999
 31
0.0
  0
LINE
  5
127
330
1E
100
AcDbEntity
  8
0
100
AcDbLine
 10
113.8186499999999
 20
151.261
 30
0.0
 11
114.7355499999999
 21
151.4494
 31
0.0
  0
LINE
  5
128
330
1E
100
AcDbEntity
  8
0
100
AcDbLine
 10
111.3738499999999
 20
150.7584999999999
 30
0.0
 11
113.8186499999999
 21
151.261
 31
0.0
  0
LINE
  5
129
330
1E
100
AcDbEntity
  8
0
100
AcDbLine
 10
114.7355499999999
 20
151.4494
 30
0.0
 11
115.13815
 21
149.49038
 31
0.0
  0
LINE
  5
12A
330
1E
100
AcDbEntity
  8
0
100
AcDbLine
 10
114.2213499999999
 20
149.30194
 30
0.0
 11
115.13815
 21
149.49038
 31
0.0
  0
LINE
  5
12B
330
1E
100
AcDbEntity
  8
0
100
AcDbLine
 10
111.77645
 20
148.7994299999999
 30
0.0
 11
114.2213499999999
 21
149.30194
 31
0.0
  0
LINE
  5
12C
330
1E
100
AcDbEntity
  8
0
100
AcDbLine
 10
110.5174499999999
 20
139.6544909999999
 30
0.0
 11
111.61635
 21
137.0014999999999
 31
0.0
  0
LINE
  5
12D
330
1E
100
AcDbEntity
  8
0
100
AcDbLine
 10
314.14265
 20
137.5014999999999
 30
0.0
 11
314.14265
 21
136.5654999999999
 31
0.0
  0
LINE
  5
12E
330
1E
100
AcDbEntity
  8
0
100
AcDbLine
 10
314.14265
 20
137.5014999999999
 30
0.0
 11
316.14265
 21
137.5014999999999
 31
0.0
  0
LINE
  5
12F
330
1E
100
AcDbEntity
  8
0
100
AcDbLine
 10
314.14265
 20
136.5654999999999
 30
0.0
 11
314.14265
 21
134.5014999999999
 31
0.0
  0
LINE
  5
130
330
1E
100
AcDbEntity
  8
0
100
AcDbLine
 10
314.14265
 20
136.5654999999999
 30
0.0
 11
314.14265
 21
137.5014999999999
 31
0.0
  0
LINE
  5
131
330
1E
100
AcDbEntity
  8
0
100
AcDbLine
 10
314.14265
 20
136.5654999999999
 30
0.0
 11
314.14265
 21
134.0694999999999
 31
0.0
  0
LINE
  5
132
330
1E
100
AcDbEntity
  8
0
100
AcDbLine
 10
314.14265
 20
111.5014999999999
 30
0.0
 11
314.14265
 21
104.8455
 31
0.0
  0
LINE
  5
133
330
1E
100
AcDbEntity
  8
0
100
AcDbLine
 10
314.14265
 20
111.5014999999999
 30
0.0
 11
314.14265
 21
114.5014999999999
 31
0.0
  0
LINE
  5
134
330
1E
100
AcDbEntity
  8
0
100
AcDbLine
 10
316.14265
 20
113.6894999999999
 30
0.0
 11
316.14265
 21
112.8255
 31
0.0
  0
LINE
  5
135
330
1E
100
AcDbEntity
  8
0
100
AcDbLine
 10
316.14265
 20
113.6894999999999
 30
0.0
 11
316.14265
 21
115.1294999999999
 31
0.0
  0
LINE
  5
136
330
1E
100
AcDbEntity
  8
0
100
AcDbLine
 10
316.14265
 20
112.8255
 30
0.0
 11
316.14265
 21
112.5014999999999
 31
0.0
  0
LINE
  5
137
330
1E
100
AcDbEntity
  8
0
100
AcDbLine
 10
316.14265
 20
112.8255
 30
0.0
 11
316.14265
 21
113.6894999999999
 31
0.0
  0
LINE
  5
138
330
1E
100
AcDbEntity
  8
0
100
AcDbLine
 10
316.14265
 20
112.5014999999999
 30
0.0
 11
316.14265
 21
112.8255
 31
0.0
  0
LINE
  5
139
330
1E
100
AcDbEntity
  8
0
100
AcDbLine
 10
316.14265
 20
112.5014999999999
 30
0.0
 11
326.14265
 21
112.5014999999999
 31
0.0
  0
LINE
  5
13A
330
1E
100
AcDbEntity
  8
0
100
AcDbLine
 10
316.14265
 20
115.1294999999999
 30
0.0
 11
316.14265
 21
113.6894999999999
 31
0.0
  0
LINE
  5
13B
330
1E
100
AcDbEntity
  8
0
100
AcDbLine
 10
316.14265
 20
115.1294999999999
 30
0.0
 11
316.14265
 21
117.0374999999999
 31
0.0
  0
LINE
  5
13C
330
1E
100
AcDbEntity
  8
0
100
AcDbLine
 10
316.14265
 20
119.1975
 30
0.0
 11
316.14265
 21
117.0374999999999
 31
0.0
  0
LINE
  5
13D
330
1E
100
AcDbEntity
  8
0
100
AcDbLine
 10
316.14265
 20
119.1975
 30
0.0
 11
316.14265
 21
121.5014999999999
 31
0.0
  0
LINE
  5
13E
330
1E
100
AcDbEntity
  8
0
100
AcDbLine
 10
316.14265
 20
117.0374999999999
 30
0.0
 11
316.14265
 21
115.1294999999999
 31
0.0
  0
LINE
  5
13F
330
1E
100
AcDbEntity
  8
0
100
AcDbLine
 10
316.14265
 20
117.0374999999999
 30
0.0
 11
316.14265
 21
119.1975
 31
0.0
  0
LINE
  5
140
330
1E
100
AcDbEntity
  8
0
100
AcDbLine
 10
316.14265
 20
123.8054999999999
 30
0.0
 11
316.14265
 21
121.5014999999999
 31
0.0
  0
LINE
  5
141
330
1E
100
AcDbEntity
  8
0
100
AcDbLine
 10
316.14265
 20
123.8054999999999
 30
0.0
 11
316.14265
 21
125.9655
 31
0.0
  0
LINE
  5
142
330
1E
100
AcDbEntity
  8
0
100
AcDbLine
 10
316.14265
 20
125.9655
 30
0.0
 11
316.14265
 21
123.8054999999999
 31
0.0
  0
LINE
  5
143
330
1E
100
AcDbEntity
  8
0
100
AcDbLine
 10
316.14265
 20
125.9655
 30
0.0
 11
316.14265
 21
127.8735
 31
0.0
  0
LINE
  5
144
330
1E
100
AcDbEntity
  8
0
100
AcDbLine
 10
316.14265
 20
123.2934999999999
 30
0.0
 11
316.14265
 21
121.5014999999999
 31
0.0
  0
LINE
  5
145
330
1E
100
AcDbEntity
  8
0
100
AcDbLine
 10
316.14265
 20
123.2934999999999
 30
0.0
 11
316.14265
 21
124.9735
 31
0.0
  0
LINE
  5
146
330
1E
100
AcDbEntity
  8
0
100
AcDbLine
 10
316.14265
 20
124.9735
 30
0.0
 11
316.14265
 21
123.2934999999999
 31
0.0
  0
LINE
  5
147
330
1E
100
AcDbEntity
  8
0
100
AcDbLine
 10
316.14265
 20
124.9735
 30
0.0
 11
316.14265
 21
126.4575
 31
0.0
  0
LINE
  5
148
330
1E
100
AcDbEntity
  8
0
100
AcDbLine
 10
316.14265
 20
127.8735
 30
0.0
 11
316.14265
 21
125.9655
 31
0.0
  0
LINE
  5
149
330
1E
100
AcDbEntity
  8
0
100
AcDbLine
 10
316.14265
 20
127.8735
 30
0.0
 11
316.14265
 21
129.3135
 31
0.0
  0
LINE
  5
14A
330
1E
100
AcDbEntity
  8
0
100
AcDbLine
 10
316.14265
 20
126.4575
 30
0.0
 11
316.14265
 21
124.9735
 31
0.0
  0
LINE
  5
14B
330
1E
100
AcDbEntity
  8
0
100
AcDbLine
 10
316.14265
 20
126.4575
 30
0.0
 11
316.14265
 21
127.5775
 31
0.0
  0
LINE
  5
14C
330
1E
100
AcDbEntity
  8
0
100
AcDbLine
 10
316.14265
 20
127.5775
 30
0.0
 11
316.14265
 21
126.4575
 31
0.0
  0
LINE
  5
14D
330
1E
100
AcDbEntity
  8
0
100
AcDbLine
 10
316.14265
 20
127.5775
 30
0.0
 11
316.14265
 21
128.2495
 31
0.0
  0
LINE
  5
14E
330
1E
100
AcDbEntity
  8
0
100
AcDbLine
 10
316.14265
 20
129.3135
 30
0.0
 11
316.14265
 21
130.1775
 31
0.0
  0
LINE
  5
14F
330
1E
100
AcDbEntity
  8
0
100
AcDbLine
 10
316.14265
 20
129.3135
 30
0.0
 11
316.14265
 21
128.5015
 31
0.0
  0
LINE
  5
150
330
1E
100
AcDbEntity
  8
0
100
AcDbLine
 10
316.14265
 20
129.3135
 30
0.0
 11
316.14265
 21
127.8735
 31
0.0
  0
LINE
  5
151
330
1E
100
AcDbEntity
  8
0
100
AcDbLine
 10
316.14265
 20
128.2495
 30
0.0
 11
316.14265
 21
127.5775
 31
0.0
  0
LINE
  5
152
330
1E
100
AcDbEntity
  8
0
100
AcDbLine
 10
316.14265
 20
128.2495
 30
0.0
 11
316.14265
 21
128.5015
 31
0.0
  0
LINE
  5
153
330
1E
100
AcDbEntity
  8
0
100
AcDbLine
 10
316.14265
 20
121.5014999999999
 30
0.0
 11
316.14265
 21
119.7095
 31
0.0
  0
LINE
  5
154
330
1E
100
AcDbEntity
  8
0
100
AcDbLine
 10
316.14265
 20
121.5014999999999
 30
0.0
 11
316.14265
 21
123.2934999999999
 31
0.0
  0
LINE
  5
155
330
1E
100
AcDbEntity
  8
0
100
AcDbLine
 10
316.14265
 20
121.5014999999999
 30
0.0
 11
316.14265
 21
119.1975
 31
0.0
  0
LINE
  5
156
330
1E
100
AcDbEntity
  8
0
100
AcDbLine
 10
316.14265
 20
121.5014999999999
 30
0.0
 11
316.14265
 21
123.8054999999999
 31
0.0
  0
LINE
  5
157
330
1E
100
AcDbEntity
  8
0
100
AcDbLine
 10
316.14265
 20
119.7095
 30
0.0
 11
316.14265
 21
118.0295
 31
0.0
  0
LINE
  5
158
330
1E
100
AcDbEntity
  8
0
100
AcDbLine
 10
316.14265
 20
119.7095
 30
0.0
 11
316.14265
 21
121.5014999999999
 31
0.0
  0
LINE
  5
159
330
1E
100
AcDbEntity
  8
0
100
AcDbLine
 10
316.14265
 20
118.0295
 30
0.0
 11
316.14265
 21
116.5455
 31
0.0
  0
LINE
  5
15A
330
1E
100
AcDbEntity
  8
0
100
AcDbLine
 10
316.14265
 20
118.0295
 30
0.0
 11
316.14265
 21
119.7095
 31
0.0
  0
LINE
  5
15B
330
1E
100
AcDbEntity
  8
0
100
AcDbLine
 10
316.14265
 20
116.5455
 30
0.0
 11
316.14265
 21
115.4255
 31
0.0
  0
LINE
  5
15C
330
1E
100
AcDbEntity
  8
0
100
AcDbLine
 10
316.14265
 20
116.5455
 30
0.0
 11
316.14265
 21
118.0295
 31
0.0
  0
LINE
  5
15D
330
1E
100
AcDbEntity
  8
0
100
AcDbLine
 10
316.14265
 20
115.4255
 30
0.0
 11
316.14265
 21
114.7534999999999
 31
0.0
  0
LINE
  5
15E
330
1E
100
AcDbEntity
  8
0
100
AcDbLine
 10
316.14265
 20
115.4255
 30
0.0
 11
316.14265
 21
116.5455
 31
0.0
  0
LINE
  5
15F
330
1E
100
AcDbEntity
  8
0
100
AcDbLine
 10
316.14265
 20
114.7534999999999
 30
0.0
 11
316.14265
 21
114.5014999999999
 31
0.0
  0
LINE
  5
160
330
1E
100
AcDbEntity
  8
0
100
AcDbLine
 10
316.14265
 20
114.7534999999999
 30
0.0
 11
316.14265
 21
115.4255
 31
0.0
  0
LINE
  5
161
330
1E
100
AcDbEntity
  8
0
100
AcDbLine
 10
316.14265
 20
114.5014999999999
 30
0.0
 11
316.14265
 21
111.5014999999999
 31
0.0
  0
LINE
  5
162
330
1E
100
AcDbEntity
  8
0
100
AcDbLine
 10
316.14265
 20
114.5014999999999
 30
0.0
 11
316.14265
 21
114.7534999999999
 31
0.0
  0
LINE
  5
163
330
1E
100
AcDbEntity
  8
0
100
AcDbLine
 10
316.14265
 20
130.1775
 30
0.0
 11
316.14265
 21
130.5015
 31
0.0
  0
LINE
  5
164
330
1E
100
AcDbEntity
  8
0
100
AcDbLine
 10
316.14265
 20
130.1775
 30
0.0
 11
316.14265
 21
129.3135
 31
0.0
  0
LINE
  5
165
330
1E
100
AcDbEntity
  8
0
100
AcDbLine
 10
316.14265
 20
130.5015
 30
0.0
 11
326.14265
 21
130.5015
 31
0.0
  0
LINE
  5
166
330
1E
100
AcDbEntity
  8
0
100
AcDbLine
 10
316.14265
 20
130.5015
 30
0.0
 11
316.14265
 21
130.1775
 31
0.0
  0
LINE
  5
167
330
1E
100
AcDbEntity
  8
0
100
AcDbLine
 10
316.14265
 20
131.5015
 30
0.0
 11
336.14265
 21
131.5015
 31
0.0
  0
LINE
  5
168
330
1E
100
AcDbEntity
  8
0
100
AcDbLine
 10
316.14265
 20
137.5014999999999
 30
0.0
 11
316.14265
 21
136.5654999999999
 31
0.0
  0
LINE
  5
169
330
1E
100
AcDbEntity
  8
0
100
AcDbLine
 10
316.14265
 20
136.5654999999999
 30
0.0
 11
316.14265
 21
137.5014999999999
 31
0.0
  0
LINE
  5
16A
330
1E
100
AcDbEntity
  8
0
100
AcDbLine
 10
316.14265
 20
136.5654999999999
 30
0.0
 11
316.14265
 21
134.0694999999999
 31
0.0
  0
LINE
  5
16B
330
1E
100
AcDbEntity
  8
0
100
AcDbLine
 10
316.14265
 20
134.0694999999999
 30
0.0
 11
316.14265
 21
136.5654999999999
 31
0.0
  0
LINE
  5
16C
330
1E
100
AcDbEntity
  8
0
100
AcDbLine
 10
316.14265
 20
134.0694999999999
 30
0.0
 11
316.14265
 21
129.9095
 31
0.0
  0
LINE
  5
16D
330
1E
100
AcDbEntity
  8
0
100
AcDbLine
 10
316.14265
 20
129.9095
 30
0.0
 11
316.14265
 21
134.0694999999999
 31
0.0
  0
LINE
  5
16E
330
1E
100
AcDbEntity
  8
0
100
AcDbLine
 10
316.14265
 20
129.9095
 30
0.0
 11
316.14265
 21
128.5015
 31
0.0
  0
LINE
  5
16F
330
1E
100
AcDbEntity
  8
0
100
AcDbLine
 10
316.14265
 20
128.5015
 30
0.0
 11
316.14265
 21
129.9095
 31
0.0
  0
LINE
  5
170
330
1E
100
AcDbEntity
  8
0
100
AcDbLine
 10
316.14265
 20
128.5015
 30
0.0
 11
316.14265
 21
128.2495
 31
0.0
  0
LINE
  5
171
330
1E
100
AcDbEntity
  8
0
100
AcDbLine
 10
316.14265
 20
128.5015
 30
0.0
 11
316.14265
 21
129.3135
 31
0.0
  0
LINE
  5
172
330
1E
100
AcDbEntity
  8
0
100
AcDbLine
 10
316.14265
 20
111.5014999999999
 30
0.0
 11
316.14265
 21
104.8455
 31
0.0
  0
LINE
  5
173
330
1E
100
AcDbEntity
  8
0
100
AcDbLine
 10
316.14265
 20
111.5014999999999
 30
0.0
 11
316.14265
 21
114.5014999999999
 31
0.0
  0
LINE
  5
174
330
1E
100
AcDbEntity
  8
0
100
AcDbLine
 10
314.14265
 20
104.8455
 30
0.0
 11
314.14265
 21
111.5014999999999
 31
0.0
  0
LINE
  5
175
330
1E
100
AcDbEntity
  8
0
100
AcDbLine
 10
314.14265
 20
104.8455
 30
0.0
 11
314.14265
 21
98.60550000000001
 31
0.0
  0
LINE
  5
176
330
1E
100
AcDbEntity
  8
0
100
AcDbLine
 10
316.14265
 20
98.60550000000001
 30
0.0
 11
316.14265
 21
104.8455
 31
0.0
  0
LINE
  5
177
330
1E
100
AcDbEntity
  8
0
100
AcDbLine
 10
316.14265
 20
98.60550000000001
 30
0.0
 11
316.14265
 21
93.0935
 31
0.0
  0
LINE
  5
178
330
1E
100
AcDbEntity
  8
0
100
AcDbLine
 10
326.14265
 20
112.5014999999999
 30
0.0
 11
326.14265
 21
112.8255
 31
0.0
  0
LINE
  5
179
330
1E
100
AcDbEntity
  8
0
100
AcDbLine
 10
326.14265
 20
123.8054999999999
 30
0.0
 11
326.14265
 21
121.5014999999999
 31
0.0
  0
LINE
  5
17A
330
1E
100
AcDbEntity
  8
0
100
AcDbLine
 10
326.14265
 20
123.8054999999999
 30
0.0
 11
326.14265
 21
125.9655
 31
0.0
  0
LINE
  5
17B
330
1E
100
AcDbEntity
  8
0
100
AcDbLine
 10
326.14265
 20
125.9655
 30
0.0
 11
326.14265
 21
123.8054999999999
 31
0.0
  0
LINE
  5
17C
330
1E
100
AcDbEntity
  8
0
100
AcDbLine
 10
326.14265
 20
125.9655
 30
0.0
 11
326.14265
 21
127.8735
 31
0.0
  0
LINE
  5
17D
330
1E
100
AcDbEntity
  8
0
100
AcDbLine
 10
326.14265
 20
127.8735
 30
0.0
 11
326.14265
 21
125.9655
 31
0.0
  0
LINE
  5
17E
330
1E
100
AcDbEntity
  8
0
100
AcDbLine
 10
326.14265
 20
127.8735
 30
0.0
 11
326.14265
 21
129.3135
 31
0.0
  0
LINE
  5
17F
330
1E
100
AcDbEntity
  8
0
100
AcDbLine
 10
326.14265
 20
121.5014999999999
 30
0.0
 11
326.14265
 21
119.1975
 31
0.0
  0
LINE
  5
180
330
1E
100
AcDbEntity
  8
0
100
AcDbLine
 10
326.14265
 20
121.5014999999999
 30
0.0
 11
326.14265
 21
123.8054999999999
 31
0.0
  0
LINE
  5
181
330
1E
100
AcDbEntity
  8
0
100
AcDbLine
 10
326.14265
 20
119.1975
 30
0.0
 11
326.14265
 21
117.0374999999999
 31
0.0
  0
LINE
  5
182
330
1E
100
AcDbEntity
  8
0
100
AcDbLine
 10
326.14265
 20
119.1975
 30
0.0
 11
326.14265
 21
121.5014999999999
 31
0.0
  0
LINE
  5
183
330
1E
100
AcDbEntity
  8
0
100
AcDbLine
 10
326.14265
 20
117.0374999999999
 30
0.0
 11
326.14265
 21
115.1294999999999
 31
0.0
  0
LINE
  5
184
330
1E
100
AcDbEntity
  8
0
100
AcDbLine
 10
326.14265
 20
117.0374999999999
 30
0.0
 11
326.14265
 21
119.1975
 31
0.0
  0
LINE
  5
185
330
1E
100
AcDbEntity
  8
0
100
AcDbLine
 10
326.14265
 20
115.1294999999999
 30
0.0
 11
326.14265
 21
113.6894999999999
 31
0.0
  0
LINE
  5
186
330
1E
100
AcDbEntity
  8
0
100
AcDbLine
 10
326.14265
 20
115.1294999999999
 30
0.0
 11
326.14265
 21
117.0374999999999
 31
0.0
  0
LINE
  5
187
330
1E
100
AcDbEntity
  8
0
100
AcDbLine
 10
326.14265
 20
113.6894999999999
 30
0.0
 11
326.14265
 21
112.8255
 31
0.0
  0
LINE
  5
188
330
1E
100
AcDbEntity
  8
0
100
AcDbLine
 10
326.14265
 20
113.6894999999999
 30
0.0
 11
326.14265
 21
115.1294999999999
 31
0.0
  0
LINE
  5
189
330
1E
100
AcDbEntity
  8
0
100
AcDbLine
 10
326.14265
 20
112.8255
 30
0.0
 11
326.14265
 21
112.5014999999999
 31
0.0
  0
LINE
  5
18A
330
1E
100
AcDbEntity
  8
0
100
AcDbLine
 10
326.14265
 20
112.8255
 30
0.0
 11
326.14265
 21
113.6894999999999
 31
0.0
  0
LINE
  5
18B
330
1E
100
AcDbEntity
  8
0
100
AcDbLine
 10
336.14265
 20
96.5015
 30
0.0
 11
366.14265
 21
96.5015
 31
0.0
  0
LINE
  5
18C
330
1E
100
AcDbEntity
  8
0
100
AcDbLine
 10
336.14265
 20
96.5015
 30
0.0
 11
336.14265
 21
131.5015
 31
0.0
  0
LINE
  5
18D
330
1E
100
AcDbEntity
  8
0
100
AcDbLine
 10
326.14265
 20
114.5014999999999
 30
0.0
 11
336.14265
 21
114.5014999999999
 31
0.0
  0
LINE
  5
18E
330
1E
100
AcDbEntity
  8
0
100
AcDbLine
 10
326.14265
 20
129.3135
 30
0.0
 11
326.14265
 21
127.8735
 31
0.0
  0
LINE
  5
18F
330
1E
100
AcDbEntity
  8
0
100
AcDbLine
 10
326.14265
 20
129.3135
 30
0.0
 11
326.14265
 21
130.1775
 31
0.0
  0
LINE
  5
190
330
1E
100
AcDbEntity
  8
0
100
AcDbLine
 10
326.14265
 20
130.1775
 30
0.0
 11
326.14265
 21
129.3135
 31
0.0
  0
LINE
  5
191
330
1E
100
AcDbEntity
  8
0
100
AcDbLine
 10
326.14265
 20
130.1775
 30
0.0
 11
326.14265
 21
130.5015
 31
0.0
  0
LINE
  5
192
330
1E
100
AcDbEntity
  8
0
100
AcDbLine
 10
347.14265
 20
140.5014999999999
 30
0.0
 11
347.14265
 21
136.5014999999999
 31
0.0
  0
LINE
  5
193
330
1E
100
AcDbEntity
  8
0
100
AcDbLine
 10
347.14265
 20
140.5014999999999
 30
0.0
 11
348.51065
 21
140.5014999999999
 31
0.0
  0
LINE
  5
194
330
1E
100
AcDbEntity
  8
0
100
AcDbLine
 10
348.51065
 20
136.5014999999999
 30
0.0
 11
352.15865
 21
136.5014999999999
 31
0.0
  0
LINE
  5
195
330
1E
100
AcDbEntity
  8
0
100
AcDbLine
 10
348.51065
 20
140.5014999999999
 30
0.0
 11
352.15865
 21
140.5014999999999
 31
0.0
  0
LINE
  5
196
330
1E
100
AcDbEntity
  8
0
100
AcDbLine
 10
348.51065
 20
136.5014999999999
 30
0.0
 11
352.15865
 21
136.5014999999999
 31
0.0
  0
LINE
  5
197
330
1E
100
AcDbEntity
  8
0
100
AcDbLine
 10
347.14265
 20
136.5014999999999
 30
0.0
 11
348.51065
 21
136.5014999999999
 31
0.0
  0
LINE
  5
198
330
1E
100
AcDbEntity
  8
0
100
AcDbLine
 10
347.14265
 20
136.5014999999999
 30
0.0
 11
348.51065
 21
136.5014999999999
 31
0.0
  0
LINE
  5
199
330
1E
100
AcDbEntity
  8
0
100
AcDbLine
 10
347.14265
 20
136.5014999999999
 30
0.0
 11
347.14265
 21
140.5014999999999
 31
0.0
  0
LINE
  5
19A
330
1E
100
AcDbEntity
  8
0
100
AcDbLine
 10
336.14265
 20
131.5015
 30
0.0
 11
366.14265
 21
131.5015
 31
0.0
  0
LINE
  5
19B
330
1E
100
AcDbEntity
  8
0
100
AcDbLine
 10
336.14265
 20
131.5015
 30
0.0
 11
336.14265
 21
96.5015
 31
0.0
  0
LINE
  5
19C
330
1E
100
AcDbEntity
  8
0
100
AcDbLine
 10
326.14265
 20
130.5015
 30
0.0
 11
326.14265
 21
130.1775
 31
0.0
  0
LINE
  5
19D
330
1E
100
AcDbEntity
  8
0
100
AcDbLine
 10
326.14265
 20
128.5015
 30
0.0
 11
336.14265
 21
128.5015
 31
0.0
  0
LINE
  5
19E
330
1E
100
AcDbEntity
  8
0
100
AcDbLine
 10
316.14265
 20
104.8455
 30
0.0
 11
316.14265
 21
111.5014999999999
 31
0.0
  0
LINE
  5
19F
330
1E
100
AcDbEntity
  8
0
100
AcDbLine
 10
316.14265
 20
104.8455
 30
0.0
 11
316.14265
 21
98.60550000000001
 31
0.0
  0
LINE
  5
1A0
330
1E
100
AcDbEntity
  8
0
100
AcDbLine
 10
6.303949999999959
 20
486.4284999999999
 30
0.0
 11
20.19582999999999
 21
407.6435
 31
0.0
  0
LINE
  5
1A2
330
1E
100
AcDbEntity
  8
0
100
AcDbLine
 10
7.048449999999959
 20
486.5594999999999
 30
0.0
 11
11.3610449408675
 21
487.3195195377839
 31
0.0
  0
LINE
  5
1A3
330
1E
100
AcDbEntity
  8
0
100
AcDbLine
 10
6.30394999999997
 20
486.4284999999999
 30
0.0
 11
7.048449999999959
 21
486.5594999999999
 31
0.0
  0
LINE
  5
1A4
330
1E
100
AcDbEntity
  8
0
100
AcDbLine
 10
6.30394999999997
 20
486.4284999999999
 30
0.0
 11
20.19582999999999
 21
407.6435
 31
0.0
  0
LINE
  5
1A9
330
1E
100
AcDbEntity
  8
0
100
AcDbLine
 10
8.002349999999958
 20
493.4454999999999
 30
0.0
 11
9.43694999999996
 21
493.5715
 31
0.0
  0
LINE
  5
1AB
330
1E
100
AcDbEntity
  8
0
100
AcDbLine
 10
9.43694999999996
 20
493.5715
 30
0.0
 11
10.80365
 21
493.6905
 31
0.0
  0
LINE
  5
1AC
330
1E
100
AcDbEntity
  8
0
100
AcDbLine
 10
7.141649999999959
 20
493.3704999999999
 30
0.0
 11
8.002349999999958
 21
493.4454999999999
 31
0.0
  0
LINE
  5
1AD
330
1E
100
AcDbEntity
  8
0
100
AcDbLine
 10
6.818949999999969
 20
493.3424999999999
 30
0.0
 11
7.141649999999959
 21
493.3704999999999
 31
0.0
  0
LINE
  5
1AE
330
1E
100
AcDbEntity
  8
0
100
AcDbLine
 10
16.49618148386889
 20
428.625311557787
 30
0.0
 11
19.01437999999999
 21
399.8424999999999
 31
0.0
  0
LINE
  5
1B0
330
1E
100
AcDbEntity
  8
0
100
AcDbLine
 10
10.80365
 20
493.6905
 30
0.0
 11
11.3610449408675
 21
487.3195195377839
 31
0.0
  0
LINE
  5
1B2
330
1E
100
AcDbEntity
  8
0
100
AcDbLine
 10
19.18611
 20
399.9445
 30
0.0
 11
19.64406
 21
400.2174999999999
 31
0.0
  0
LINE
  5
1B3
330
1E
100
AcDbEntity
  8
0
100
AcDbLine
 10
19.01437999999999
 20
399.8424999999999
 30
0.0
 11
19.18611
 21
399.9445
 31
0.0
  0
LINE
  5
1B5
330
1E
100
AcDbEntity
  8
0
100
AcDbLine
 10
19.64406
 20
400.2174999999999
 30
0.0
 11
20.40738
 21
400.6725
 31
0.0
  0
LINE
  5
1B6
330
1E
100
AcDbEntity
  8
0
100
AcDbLine
 10
16.49618148386889
 20
428.625311557787
 30
0.0
 11
19.01437999999999
 21
399.8424999999999
 31
0.0
  0
LINE
  5
1B7
330
1E
100
AcDbEntity
  8
0
100
AcDbLine
 10
7.351649999999959
 20
512.2944999999999
 30
0.0
 11
11.31655
 21
510.2524999999999
 31
0.0
  0
LINE
  5
1B8
330
1E
100
AcDbEntity
  8
0
100
AcDbLine
 10
11.31655
 20
510.2524999999999
 30
0.0
 11
15.64944999999999
 21
509.2894999999999
 31
0.0
  0
LINE
  5
1B9
330
1E
100
AcDbEntity
  8
0
100
AcDbLine
 10
15.64944999999999
 20
509.2894999999999
 30
0.0
 11
20.03756
 21
509.4545
 31
0.0
  0
LINE
  5
1BA
330
1E
100
AcDbEntity
  8
0
100
AcDbLine
 10
20.94034
 20
407.7745
 30
0.0
 11
22.92572
 21
408.1245
 31
0.0
  0
LINE
  5
1BB
330
1E
100
AcDbEntity
  8
0
100
AcDbLine
 10
20.19582999999999
 20
407.6435
 30
0.0
 11
20.94034
 21
407.7745
 31
0.0
  0
LINE
  5
1BC
330
1E
100
AcDbEntity
  8
0
100
AcDbLine
 10
21.41872
 20
401.2744999999999
 30
0.0
 11
22.56369
 21
401.9554999999999
 31
0.0
  0
LINE
  5
1BD
330
1E
100
AcDbEntity
  8
0
100
AcDbLine
 10
22.56369
 20
401.9554999999999
 30
0.0
 11
23.5651058076873
 21
402.552444744402
 31
0.0
  0
LINE
  5
1BE
330
1E
100
AcDbEntity
  8
0
100
AcDbLine
 10
20.40738
 20
400.6725
 30
0.0
 11
21.41872
 21
401.2744999999999
 31
0.0
  0
LINE
  5
1BF
330
1E
100
AcDbEntity
  8
0
100
AcDbLine
 10
22.92572
 20
408.1245
 30
0.0
 11
26.23467
 21
408.7085
 31
0.0
  0
LINE
  5
1C0
330
1E
100
AcDbEntity
  8
0
100
AcDbLine
 10
22.6087490601392
 20
408.0686216145269
 30
0.0
 11
40.9069721913683
 21
302.526170578714
 31
0.0
  0
LINE
  5
1C5
330
1E
100
AcDbEntity
  8
0
100
AcDbLine
 10
30.61904
 20
409.4814999999999
 30
0.0
 11
35.58245
 21
410.3564999999999
 31
0.0
  0
LINE
  5
1C6
330
1E
100
AcDbEntity
  8
0
100
AcDbLine
 10
26.23467
 20
408.7085
 30
0.0
 11
30.61904
 21
409.4814999999999
 31
0.0
  0
LINE
  5
1C8
330
1E
100
AcDbEntity
  8
0
100
AcDbLine
 10
35.58245
 20
410.3564999999999
 30
0.0
 11
40.87674999999999
 21
411.2905
 31
0.0
  0
LINE
  5
1D2
330
1E
100
AcDbEntity
  8
0
100
AcDbLine
 10
40.24515
 20
302.4094999999999
 30
0.0
 11
40.9069695444443
 21
302.526185845926
 31
0.0
  0
LINE
  5
1D3
330
1E
100
AcDbEntity
  8
0
100
AcDbLine
 10
40.24515
 20
302.4094999999999
 30
0.0
 11
41.54515619609689
 21
302.6387049607389
 31
0.0
  0
LINE
  5
1D4
330
1E
100
AcDbEntity
  8
0
100
AcDbLine
 10
40.24515
 20
302.4094999999999
 30
0.0
 11
42.23055
 21
302.7595
 31
0.0
  0
LINE
  5
1D6
330
1E
100
AcDbEntity
  8
0
100
AcDbLine
 10
39.50065
 20
302.2785
 30
0.0
 11
40.24515
 21
302.4094999999999
 31
0.0
  0
LINE
  5
1D7
330
1E
100
AcDbEntity
  8
0
100
AcDbLine
 10
39.50065
 20
302.2785
 30
0.0
 11
40.9278608350544
 21
302.530114325518
 31
0.0
  0
LINE
  5
1D8
330
1E
100
AcDbEntity
  8
0
100
AcDbLine
 10
39.50065
 20
302.2785
 30
0.0
 11
42.97355
 21
282.5825
 31
0.0
  0
LINE
  5
1D9
330
1E
100
AcDbEntity
  8
0
100
AcDbLine
 10
40.24515
 20
302.4094999999999
 30
0.0
 11
40.9069695444443
 21
302.526185845926
 31
0.0
  0
LINE
  5
1DA
330
1E
100
AcDbEntity
  8
0
100
AcDbLine
 10
42.97355
 20
282.5825
 30
0.0
 11
43.2523846135028
 21
282.631562907144
 31
0.0
  0
LINE
  5
1DB
330
1E
100
AcDbEntity
  8
0
100
AcDbLine
 10
42.23055
 20
302.7595
 30
0.0
 11
45.53945
 21
303.3435
 31
0.0
  0
LINE
  5
1DD
330
1E
100
AcDbEntity
  8
0
100
AcDbLine
 10
45.53945
 20
303.3435
 30
0.0
 11
49.92385
 21
304.1164999999999
 31
0.0
  0
LINE
  5
1DF
330
1E
100
AcDbEntity
  8
0
100
AcDbLine
 10
43.99385
 20
282.7624999999999
 30
0.0
 11
47.61795
 21
283.4014999999999
 31
0.0
  0
LINE
  5
1E1
330
1E
100
AcDbEntity
  8
0
100
AcDbLine
 10
41.81935
 20
282.3784999999999
 30
0.0
 11
43.99385
 21
282.7624999999999
 31
0.0
  0
LINE
  5
1E3
330
1E
100
AcDbEntity
  8
0
100
AcDbLine
 10
41.00395
 20
282.2345
 30
0.0
 11
41.81935
 21
282.3784999999999
 31
0.0
  0
LINE
  5
1E4
330
1E
100
AcDbEntity
  8
0
100
AcDbLine
 10
41.00395
 20
282.2345
 30
0.0
 11
46.21345
 21
252.6904999999999
 31
0.0
  0
LINE
  5
1E5
330
1E
100
AcDbEntity
  8
0
100
AcDbLine
 10
40.87674999999999
 20
411.2905
 30
0.0
 11
46.17115
 21
412.2234999999999
 31
0.0
  0
LINE
  5
1E6
330
1E
100
AcDbEntity
  8
0
100
AcDbLine
 10
46.21345
 20
252.6904999999999
 30
0.0
 11
48.1757344743602
 21
253.036512855813
 31
0.0
  0
LINE
  5
1E7
330
1E
100
AcDbEntity
  8
0
100
AcDbLine
 10
46.21345
 20
252.6904999999999
 30
0.0
 11
47.02885
 21
252.8344999999999
 31
0.0
  0
LINE
  5
1E8
330
1E
100
AcDbEntity
  8
0
100
AcDbLine
 10
47.9847917762975
 20
283.4661302802529
 30
0.0
 11
49.01245
 21
283.6474999999999
 31
0.0
  0
LINE
  5
1E9
330
1E
100
AcDbEntity
  8
0
100
AcDbLine
 10
47.61795
 20
283.4014999999999
 30
0.0
 11
49.04214378030999
 21
283.6525629321009
 31
0.0
  0
LINE
  5
1EA
330
1E
100
AcDbEntity
  8
0
100
AcDbLine
 10
47.61795
 20
283.4014999999999
 30
0.0
 11
52.41984999999999
 21
284.2474999999999
 31
0.0
  0
LINE
  5
1EC
330
1E
100
AcDbEntity
  8
0
100
AcDbLine
 10
47.02885
 20
252.8344999999999
 30
0.0
 11
48.77736679925909
 21
253.14248470112
 31
0.0
  0
LINE
  5
1ED
330
1E
100
AcDbEntity
  8
0
100
AcDbLine
 10
47.02885
 20
252.8344999999999
 30
0.0
 11
49.20325
 21
253.2175
 31
0.0
  0
LINE
  5
1EE
330
1E
100
AcDbEntity
  8
0
100
AcDbLine
 10
46.17115
 20
412.2234999999999
 30
0.0
 11
51.13455
 21
413.0984999999999
 31
0.0
  0
LINE
  5
1F1
330
1E
100
AcDbEntity
  8
0
100
AcDbLine
 10
48.02215
 20
502.8945
 30
0.0
 11
49.13355
 21
496.5914999999999
 31
0.0
  0
LINE
  5
1F3
330
1E
100
AcDbEntity
  8
0
100
AcDbLine
 10
48.1362920958317
 20
491.054034155393
 30
0.0
 11
61.55775
 21
414.9365
 31
0.0
  0
LINE
  5
1F4
330
1E
100
AcDbEntity
  8
0
100
AcDbLine
 10
48.1362920958317
 20
491.054034155393
 30
0.0
 11
50.05035
 21
491.3915
 31
0.0
  0
LINE
  5
1F6
330
1E
100
AcDbEntity
  8
0
100
AcDbLine
 10
46.54964999999999
 20
511.2454999999999
 30
0.0
 11
48.02215
 21
502.8945
 31
0.0
  0
LINE
  5
1F7
330
1E
100
AcDbEntity
  8
0
100
AcDbLine
 10
24.217281
 20
510.8005
 30
0.0
 11
27.95979
 21
513.1865
 31
0.0
  0
LINE
  5
1F8
330
1E
100
AcDbEntity
  8
0
100
AcDbLine
 10
20.03756
 20
509.4545
 30
0.0
 11
24.217281
 21
510.8005
 31
0.0
  0
LINE
  5
1FC
330
1E
100
AcDbEntity
  8
0
100
AcDbLine
 10
4.655549999999969
 20
515.7795
 30
0.0
 11
4.873866574799789
 21
515.574957985502
 31
0.0
  0
LINE
  5
1FD
330
1E
100
AcDbEntity
  8
0
100
AcDbLine
 10
4.076149999999969
 20
515.3215
 30
0.0
 11
7.351649999999959
 21
512.2944999999999
 31
0.0
  0
LINE
  5
1FE
330
1E
100
AcDbEntity
  8
0
100
AcDbLine
 10
4.076149999999969
 20
515.3215
 30
0.0
 11
4.968161253421929
 21
514.497162322055
 31
0.0
  0
LINE
  5
1FF
330
1E
100
AcDbEntity
  8
0
100
AcDbLine
 10
27.95979
 20
513.1865
 30
0.0
 11
30.98701
 21
516.4625
 31
0.0
  0
LINE
  5
200
330
1E
100
AcDbEntity
  8
0
100
AcDbLine
 10
30.98701
 20
516.4625
 30
0.0
 11
33.02954
 21
520.4274999999999
 31
0.0
  0
LINE
  5
201
330
1E
100
AcDbEntity
  8
0
100
AcDbLine
 10
46.94825
 20
512.3235
 30
0.0
 11
48.34715
 21
504.3895
 31
0.0
  0
LINE
  5
202
330
1E
100
AcDbEntity
  8
0
100
AcDbLine
 10
49.01245
 20
283.6474999999999
 30
0.0
 11
53.39674999999999
 21
284.4205
 31
0.0
  0
LINE
  5
203
330
1E
100
AcDbEntity
  8
0
100
AcDbLine
 10
49.20325
 20
253.2175
 30
0.0
 11
52.82735
 21
253.8565
 31
0.0
  0
LINE
  5
204
330
1E
100
AcDbEntity
  8
0
100
AcDbLine
 10
48.77736679925909
 20
253.14248470112
 30
0.0
 11
56.48395094612929
 21
211.832438772575
 31
0.0
  0
LINE
  5
205
330
1E
100
AcDbEntity
  8
0
100
AcDbLine
 10
49.13355
 20
496.5914999999999
 30
0.0
 11
49.80035
 21
492.8094999999999
 31
0.0
  0
LINE
  5
206
330
1E
100
AcDbEntity
  8
0
100
AcDbLine
 10
48.34715
 20
504.3895
 30
0.0
 11
50.45455
 21
492.4375
 31
0.0
  0
LINE
  5
209
330
1E
100
AcDbEntity
  8
0
100
AcDbLine
 10
49.28895
 20
517.3474999999999
 30
0.0
 11
49.32935
 21
517.1174999999999
 31
0.0
  0
LINE
  5
20A
330
1E
100
AcDbEntity
  8
0
100
AcDbLine
 10
49.92385
 20
304.1164999999999
 30
0.0
 11
54.88725
 21
304.9914999999999
 31
0.0
  0
LINE
  5
20C
330
1E
100
AcDbEntity
  8
0
100
AcDbLine
 10
49.80035
 20
492.8094999999999
 30
0.0
 11
50.05035
 21
491.3915
 31
0.0
  0
LINE
  5
210
330
1E
100
AcDbEntity
  8
0
100
AcDbLine
 10
50.61035
 20
210.7968
 30
0.0
 11
51.53204999999999
 21
210.9593
 31
0.0
  0
LINE
  5
211
330
1E
100
AcDbEntity
  8
0
100
AcDbLine
 10
50.61035
 20
210.7968
 30
0.0
 11
50.95765
 21
208.8271999999999
 31
0.0
  0
LINE
  5
212
330
1E
100
AcDbEntity
  8
0
100
AcDbLine
 10
50.05035
 20
491.3915
 30
0.0
 11
50.45455
 21
492.4375
 31
0.0
  0
LINE
  5
214
330
1E
100
AcDbEntity
  8
0
100
AcDbLine
 10
50.27401210008121
 20
493.4615109683401
 30
0.0
 11
52.65755
 21
493.8825
 31
0.0
  0
LINE
  5
216
330
1E
100
AcDbEntity
  8
0
100
AcDbLine
 10
49.82355
 20
513.2934999999999
 30
0.0
 11
53.07005
 21
494.8815
 31
0.0
  0
LINE
  5
217
330
1E
100
AcDbEntity
  8
0
100
AcDbLine
 10
49.33175
 20
512.7435
 30
0.0
 11
50.73075
 21
504.8094999999999
 31
0.0
  0
LINE
  5
218
330
1E
100
AcDbEntity
  8
0
100
AcDbLine
 10
50.95765
 20
208.8271999999999
 30
0.0
 11
51.87935
 21
208.9897
 31
0.0
  0
LINE
  5
219
330
1E
100
AcDbEntity
  8
0
100
AcDbLine
 10
51.53204999999999
 20
210.9593
 30
0.0
 11
53.99015
 21
211.3926999999999
 31
0.0
  0
LINE
  5
21A
330
1E
100
AcDbEntity
  8
0
100
AcDbLine
 10
51.13455
 20
413.0984999999999
 30
0.0
 11
55.51895
 21
413.8715
 31
0.0
  0
LINE
  5
21B
330
1E
100
AcDbEntity
  8
0
100
AcDbLine
 10
50.73075
 20
504.8094999999999
 30
0.0
 11
51.78645
 21
498.8224999999999
 31
0.0
  0
LINE
  5
21C
330
1E
100
AcDbEntity
  8
0
100
AcDbLine
 10
49.88095
 20
516.8685
 30
0.0
 11
54.80505
 21
517.7374999999999
 31
0.0
  0
LINE
  5
21D
330
1E
100
AcDbEntity
  8
0
100
AcDbLine
 10
49.32935
 20
517.1174999999999
 30
0.0
 11
49.88095
 21
516.8685
 31
0.0
  0
LINE
  5
225
330
1E
100
AcDbEntity
  8
0
100
AcDbLine
 10
2.40264999999997
 20
519.3424999999999
 30
0.0
 11
4.655549999999969
 21
515.7795
 31
0.0
  0
LINE
  5
226
330
1E
100
AcDbEntity
  8
0
100
AcDbLine
 10
1.690049999999969
 20
519.0644999999999
 30
0.0
 11
4.076149999999969
 21
515.3215
 31
0.0
  0
LINE
  5
227
330
1E
100
AcDbEntity
  8
0
100
AcDbLine
 10
45.42575
 20
520.9575
 30
0.0
 11
47.03714999999999
 21
511.8184999999999
 31
0.0
  0
LINE
  5
228
330
1E
100
AcDbEntity
  8
0
100
AcDbLine
 10
44.88265
 20
520.6994999999999
 30
0.0
 11
46.54964999999999
 21
511.2454999999999
 31
0.0
  0
LINE
  5
229
330
1E
100
AcDbEntity
  8
0
100
AcDbLine
 10
33.02954
 20
520.4274999999999
 30
0.0
 11
33.99175
 21
524.7605
 31
0.0
  0
LINE
  5
22A
330
1E
100
AcDbEntity
  8
0
100
AcDbLine
 10
45.52937093866789
 20
520.3698173895459
 30
0.0
 11
46.94825
 21
512.3235
 31
0.0
  0
LINE
  5
22B
330
1E
100
AcDbEntity
  8
0
100
AcDbLine
 10
45.52937093866789
 20
520.3698173895459
 30
0.0
 11
47.03714999999999
 21
511.8184999999999
 31
0.0
  0
LINE
  5
22C
330
1E
100
AcDbEntity
  8
0
100
AcDbLine
 10
47.74815
 20
521.7245
 30
0.0
 11
49.33175
 21
512.7435
 31
0.0
  0
LINE
  5
22D
330
1E
100
AcDbEntity
  8
0
100
AcDbLine
 10
0.179349999999968
 20
527.6325
 30
0.0
 11
0.3438499999999651
 21
523.2445
 31
0.0
  0
LINE
  5
22E
330
1E
100
AcDbEntity
  8
0
100
AcDbLine
 10
0.179349999999968
 20
527.6325
 30
0.0
 11
1.141549999999959
 21
531.9655
 31
0.0
  0
LINE
  5
231
330
1E
100
AcDbEntity
  8
0
100
AcDbLine
 10
0.9439499999999657
 20
527.6145
 30
0.0
 11
1.082449999999969
 21
523.3744999999999
 31
0.0
  0
LINE
  5
232
330
1E
100
AcDbEntity
  8
0
100
AcDbLine
 10
0.9439499999999657
 20
527.6145
 30
0.0
 11
1.84244999999996
 21
531.7335
 31
0.0
  0
LINE
  5
233
330
1E
100
AcDbEntity
  8
0
100
AcDbLine
 10
1.082449999999969
 20
523.3744999999999
 30
0.0
 11
2.40264999999997
 21
519.3424999999999
 31
0.0
  0
LINE
  5
234
330
1E
100
AcDbEntity
  8
0
100
AcDbLine
 10
0.3438499999999651
 20
523.2445
 30
0.0
 11
1.690049999999969
 21
519.0644999999999
 31
0.0
  0
LINE
  5
235
330
1E
100
AcDbEntity
  8
0
100
AcDbLine
 10
1.84244999999996
 20
531.7335
 30
0.0
 11
3.22197506951583
 21
534.4562090475498
 31
0.0
  0
LINE
  5
236
330
1E
100
AcDbEntity
  8
0
100
AcDbLine
 10
1.141549999999959
 20
531.9655
 30
0.0
 11
3.18404999999997
 21
535.9305
 31
0.0
  0
LINE
  5
237
330
1E
100
AcDbEntity
  8
0
100
AcDbLine
 10
3.18404999999997
 20
535.9305
 30
0.0
 11
6.211249999999959
 21
539.2055
 31
0.0
  0
LINE
  5
239
330
1E
100
AcDbEntity
  8
0
100
AcDbLine
 10
40.86158198064389
 20
546.842355361112
 30
0.0
 11
45.42575
 21
520.9575
 31
0.0
  0
LINE
  5
23A
330
1E
100
AcDbEntity
  8
0
100
AcDbLine
 10
43.10445
 20
530.7844999999999
 30
0.0
 11
44.88265
 21
520.6994999999999
 31
0.0
  0
LINE
  5
23D
330
1E
100
AcDbEntity
  8
0
100
AcDbLine
 10
26.81945
 20
540.0974999999999
 30
0.0
 11
30.09488
 21
537.0705
 31
0.0
  0
LINE
  5
240
330
1E
100
AcDbEntity
  8
0
100
AcDbLine
 10
30.09488
 20
537.0705
 30
0.0
 11
32.48102
 21
533.3274999999999
 31
0.0
  0
LINE
  5
241
330
1E
100
AcDbEntity
  8
0
100
AcDbLine
 10
32.48102
 20
533.3274999999999
 30
0.0
 11
33.82727
 21
529.1485
 31
0.0
  0
LINE
  5
242
330
1E
100
AcDbEntity
  8
0
100
AcDbLine
 10
6.211249999999959
 20
539.2055
 30
0.0
 11
9.953749999999971
 21
541.5915
 31
0.0
  0
LINE
  5
243
330
1E
100
AcDbEntity
  8
0
100
AcDbLine
 10
33.82727
 20
529.1485
 30
0.0
 11
33.99175
 21
524.7605
 31
0.0
  0
LINE
  5
248
330
1E
100
AcDbEntity
  8
0
100
AcDbLine
 10
41.32624999999999
 20
540.8685
 30
0.0
 11
43.10445
 21
530.7844999999999
 31
0.0
  0
LINE
  5
249
330
1E
100
AcDbEntity
  8
0
100
AcDbLine
 10
2.461149999999959
 20
543.1525
 30
0.0
 11
6.818949999999969
 21
493.3424999999999
 31
0.0
  0
LINE
  5
24A
330
1E
100
AcDbEntity
  8
0
100
AcDbLine
 10
2.461149999999959
 20
543.1525
 30
0.0
 11
2.78384999999996
 21
543.1805
 31
0.0
  0
LINE
  5
24B
330
1E
100
AcDbEntity
  8
0
100
AcDbLine
 10
6.979849999999959
 20
543.5475
 30
0.0
 11
9.131649999999961
 21
543.7355
 31
0.0
  0
LINE
  5
24C
330
1E
100
AcDbEntity
  8
0
100
AcDbLine
 10
5.079149999999969
 20
543.3815
 30
0.0
 11
6.979849999999959
 21
543.5475
 31
0.0
  0
LINE
  5
24D
330
1E
100
AcDbEntity
  8
0
100
AcDbLine
 10
9.131649999999961
 20
543.7355
 30
0.0
 11
11.42684999999999
 21
543.9365
 31
0.0
  0
LINE
  5
24E
330
1E
100
AcDbEntity
  8
0
100
AcDbLine
 10
3.64464999999997
 20
543.2554999999999
 30
0.0
 11
5.079149999999969
 21
543.3815
 31
0.0
  0
LINE
  5
24F
330
1E
100
AcDbEntity
  8
0
100
AcDbLine
 10
2.78384999999996
 20
543.1805
 30
0.0
 11
3.64464999999997
 21
543.2554999999999
 31
0.0
  0
LINE
  5
250
330
1E
100
AcDbEntity
  8
0
100
AcDbLine
 10
2.46114999999997
 20
543.1525
 30
0.0
 11
6.818949999999969
 21
493.3424999999999
 31
0.0
  0
LINE
  5
251
330
1E
100
AcDbEntity
  8
0
100
AcDbLine
 10
11.42684999999999
 20
543.9365
 30
0.0
 11
13.72214999999999
 21
544.1375
 31
0.0
  0
LINE
  5
252
330
1E
100
AcDbEntity
  8
0
100
AcDbLine
 10
13.72214999999999
 20
544.1375
 30
0.0
 11
15.8739
 21
544.3255
 31
0.0
  0
LINE
  5
253
330
1E
100
AcDbEntity
  8
0
100
AcDbLine
 10
22.85452999999999
 20
542.1405
 30
0.0
 11
26.81945
 21
540.0974999999999
 31
0.0
  0
LINE
  5
255
330
1E
100
AcDbEntity
  8
0
100
AcDbLine
 10
18.52162
 20
543.1024999999999
 30
0.0
 11
22.85452999999999
 21
542.1405
 31
0.0
  0
LINE
  5
256
330
1E
100
AcDbEntity
  8
0
100
AcDbLine
 10
14.13355
 20
542.9375
 30
0.0
 11
18.52162
 21
543.1024999999999
 31
0.0
  0
LINE
  5
257
330
1E
100
AcDbEntity
  8
0
100
AcDbLine
 10
9.953749999999971
 20
541.5915
 30
0.0
 11
14.13355
 21
542.9375
 31
0.0
  0
LINE
  5
258
330
1E
100
AcDbEntity
  8
0
100
AcDbLine
 10
44.36964999999999
 20
540.8854999999999
 30
0.0
 11
46.05884999999999
 21
531.3044999999999
 31
0.0
  0
LINE
  5
259
330
1E
100
AcDbEntity
  8
0
100
AcDbLine
 10
45.02604085928879
 20
540.501350917757
 30
0.0
 11
45.32455
 21
539.8305
 31
0.0
  0
LINE
  5
25B
330
1E
100
AcDbEntity
  8
0
100
AcDbLine
 10
48.05064999999999
 20
524.3695
 30
0.0
 11
48.24315
 21
523.2775
 31
0.0
  0
LINE
  5
25E
330
1E
100
AcDbEntity
  8
0
100
AcDbLine
 10
45.51705
 20
538.7385
 30
0.0
 11
45.63425
 21
538.0734999999999
 31
0.0
  0
LINE
  5
260
330
1E
100
AcDbEntity
  8
0
100
AcDbLine
 10
46.05884999999999
 20
531.3044999999999
 30
0.0
 11
47.74815
 21
521.7245
 31
0.0
  0
LINE
  5
263
330
1E
100
AcDbEntity
  8
0
100
AcDbLine
 10
45.63425
 20
538.0734999999999
 30
0.0
 11
45.7177210462072
 21
536.578307952381
 31
0.0
  0
LINE
  5
265
330
1E
100
AcDbEntity
  8
0
100
AcDbLine
 10
47.5004715306565
 20
526.46779837387
 30
0.0
 11
47.93345
 21
525.0345
 31
0.0
  0
LINE
  5
266
330
1E
100
AcDbEntity
  8
0
100
AcDbLine
 10
47.93345
 20
525.0345
 30
0.0
 11
48.05064999999999
 21
524.3695
 31
0.0
  0
LINE
  5
26A
330
1E
100
AcDbEntity
  8
0
100
AcDbLine
 10
45.32455
 20
539.8305
 30
0.0
 11
45.51705
 21
538.7385
 31
0.0
  0
LINE
  5
26C
330
1E
100
AcDbEntity
  8
0
100
AcDbLine
 10
48.19217763861179
 20
522.5452602789649
 30
0.0
 11
48.24315
 21
523.2775
 31
0.0
  0
LINE
  5
26D
330
1E
100
AcDbEntity
  8
0
100
AcDbLine
 10
48.29265
 20
521.9755
 30
0.0
 11
49.82355
 21
513.2934999999999
 31
0.0
  0
LINE
  5
272
330
1E
100
AcDbEntity
  8
0
100
AcDbLine
 10
48.9969401238955
 20
517.981348288156
 30
0.0
 11
49.28895
 21
517.3474999999999
 31
0.0
  0
LINE
  5
274
330
1E
100
AcDbEntity
  8
0
100
AcDbLine
 10
51.42585
 20
539.7804999999999
 30
0.0
 11
51.54315
 21
539.1155
 31
0.0
  0
LINE
  5
276
330
1E
100
AcDbEntity
  8
0
100
AcDbLine
 10
51.54315
 20
539.1155
 30
0.0
 11
52.47025
 21
536.0465
 31
0.0
  0
LINE
  5
27A
330
1E
100
AcDbEntity
  8
0
100
AcDbLine
 10
51.23335
 20
540.8724999999999
 30
0.0
 11
51.32484999999999
 21
542.1855
 31
0.0
  0
LINE
  5
27C
330
1E
100
AcDbEntity
  8
0
100
AcDbLine
 10
51.23335
 20
540.8724999999999
 30
0.0
 11
51.42585
 21
539.7804999999999
 31
0.0
  0
LINE
  5
27F
330
1E
100
AcDbEntity
  8
0
100
AcDbLine
 10
51.08744999999999
 20
543.9964999999999
 30
0.0
 11
51.32484999999999
 21
542.1855
 31
0.0
  0
LINE
  5
284
330
1E
100
AcDbEntity
  8
0
100
AcDbLine
 10
49.06460470824839
 20
517.597610668879
 30
0.0
 11
49.32935
 21
517.1174999999999
 31
0.0
  0
LINE
  5
285
330
1E
100
AcDbEntity
  8
0
100
AcDbLine
 10
52.41984999999999
 20
284.2474999999999
 30
0.0
 11
57.85595
 21
285.2064999999999
 31
0.0
  0
LINE
  5
287
330
1E
100
AcDbEntity
  8
0
100
AcDbLine
 10
51.87935
 20
208.9897
 30
0.0
 11
53.9120507555401
 21
209.3480957151669
 31
0.0
  0
LINE
  5
288
330
1E
100
AcDbEntity
  8
0
100
AcDbLine
 10
51.87935
 20
208.9897
 30
0.0
 11
54.33745
 21
209.4231
 31
0.0
  0
LINE
  5
289
330
1E
100
AcDbEntity
  8
0
100
AcDbLine
 10
51.78645
 20
498.8224999999999
 30
0.0
 11
52.41995
 21
495.2294999999999
 31
0.0
  0
LINE
  5
28A
330
1E
100
AcDbEntity
  8
0
100
AcDbLine
 10
52.41995
 20
495.2294999999999
 30
0.0
 11
52.65755
 21
493.8825
 31
0.0
  0
LINE
  5
28B
330
1E
100
AcDbEntity
  8
0
100
AcDbLine
 10
52.65755
 20
493.8825
 30
0.0
 11
53.07005
 21
494.8815
 31
0.0
  0
LINE
  5
28C
330
1E
100
AcDbEntity
  8
0
100
AcDbLine
 10
52.47025
 20
536.0465
 30
0.0
 11
53.13584999999999
 21
532.6744999999999
 31
0.0
  0
LINE
  5
28D
330
1E
100
AcDbEntity
  8
0
100
AcDbLine
 10
50.99475
 20
545.1045
 30
0.0
 11
52.76625
 21
535.0584999999999
 31
0.0
  0
LINE
  5
291
330
1E
100
AcDbEntity
  8
0
100
AcDbLine
 10
44.2211658581673
 20
545.0659715000269
 30
0.0
 11
44.27875
 21
545.7614999999999
 31
0.0
  0
LINE
  5
292
330
1E
100
AcDbEntity
  8
0
100
AcDbLine
 10
13.24555
 20
559.4914999999999
 30
0.0
 11
14.03215
 21
555.0304999999999
 31
0.0
  0
LINE
  5
293
330
1E
100
AcDbEntity
  8
0
100
AcDbLine
 10
13.24555
 20
559.4914999999999
 30
0.0
 11
13.55925
 21
560.5915
 31
0.0
  0
LINE
  5
294
330
1E
100
AcDbEntity
  8
0
100
AcDbLine
 10
14.03215
 20
555.0304999999999
 30
0.0
 11
15.8739
 21
544.3255
 31
0.0
  0
LINE
  5
298
330
1E
100
AcDbEntity
  8
0
100
AcDbLine
 10
13.55925
 20
560.5915
 30
0.0
 11
14.45465
 21
561.2725
 31
0.0
  0
LINE
  5
2A3
330
1E
100
AcDbEntity
  8
0
100
AcDbLine
 10
14.45465
 20
561.2725
 30
0.0
 11
27.7495768501221
 21
563.616499444652
 31
0.0
  0
LINE
  5
2A4
330
1E
100
AcDbEntity
  8
0
100
AcDbLine
 10
14.45465
 20
561.2725
 30
0.0
 11
27.7495768501221
 21
563.616499444652
 31
0.0
  0
LINE
  5
2A5
330
1E
100
AcDbEntity
  8
0
100
AcDbLine
 10
27.04804
 20
567.5955
 30
0.0
 11
27.7495768501221
 21
563.616499444652
 31
0.0
  0
LINE
  5
2A6
330
1E
100
AcDbEntity
  8
0
100
AcDbLine
 10
27.04804
 20
567.5955
 30
0.0
 11
27.45224
 21
568.6414999999999
 31
0.0
  0
LINE
  5
2A7
330
1E
100
AcDbEntity
  8
0
100
AcDbLine
 10
37.07535
 20
564.9765
 30
0.0
 11
38.18675
 21
558.6735
 31
0.0
  0
LINE
  5
2AA
330
1E
100
AcDbEntity
  8
0
100
AcDbLine
 10
37.81295
 20
564.1314999999999
 30
0.0
 11
38.89654999999999
 21
557.9864999999999
 31
0.0
  0
LINE
  5
2AB
330
1E
100
AcDbEntity
  8
0
100
AcDbLine
 10
38.89654999999999
 20
557.9864999999999
 30
0.0
 11
40.31355
 21
549.9505
 31
0.0
  0
LINE
  5
2AC
330
1E
100
AcDbEntity
  8
0
100
AcDbLine
 10
39.65925
 20
550.3224999999999
 30
0.0
 11
41.32624999999999
 21
540.8685
 31
0.0
  0
LINE
  5
2AD
330
1E
100
AcDbEntity
  8
0
100
AcDbLine
 10
38.18675
 20
558.6735
 30
0.0
 11
39.65925
 21
550.3224999999999
 31
0.0
  0
LINE
  5
2AE
330
1E
100
AcDbEntity
  8
0
100
AcDbLine
 10
43.43605
 20
549.5185
 30
0.0
 11
44.96694999999999
 21
540.8364999999999
 31
0.0
  0
LINE
  5
2AF
330
1E
100
AcDbEntity
  8
0
100
AcDbLine
 10
42.08995
 20
557.1525
 30
0.0
 11
43.43605
 21
549.5185
 31
0.0
  0
LINE
  5
2B0
330
1E
100
AcDbEntity
  8
0
100
AcDbLine
 10
42.78595
 20
549.8664999999999
 30
0.0
 11
44.36964999999999
 21
540.8854999999999
 31
0.0
  0
LINE
  5
2B1
330
1E
100
AcDbEntity
  8
0
100
AcDbLine
 10
40.40245
 20
549.4464999999999
 30
0.0
 11
40.86158198064389
 21
546.842355361112
 31
0.0
  0
LINE
  5
2B2
330
1E
100
AcDbEntity
  8
0
100
AcDbLine
 10
41.06055
 20
562.9904999999999
 30
0.0
 11
42.08995
 21
557.1525
 31
0.0
  0
LINE
  5
2B3
330
1E
100
AcDbEntity
  8
0
100
AcDbLine
 10
41.38705
 20
557.8005
 30
0.0
 11
42.78595
 21
549.8664999999999
 31
0.0
  0
LINE
  5
2B4
330
1E
100
AcDbEntity
  8
0
100
AcDbLine
 10
39.7514600920947
 20
553.138188426201
 30
0.0
 11
40.40245
 21
549.4464999999999
 31
0.0
  0
LINE
  5
2B5
330
1E
100
AcDbEntity
  8
0
100
AcDbLine
 10
40.18955
 20
567.9305
 30
0.0
 11
41.06055
 21
562.9904999999999
 31
0.0
  0
LINE
  5
2B6
330
1E
100
AcDbEntity
  8
0
100
AcDbLine
 10
40.33125
 20
563.7875
 30
0.0
 11
41.38705
 21
557.8005
 31
0.0
  0
LINE
  5
2B7
330
1E
100
AcDbEntity
  8
0
100
AcDbLine
 10
37.94775
 20
563.3674999999999
 30
0.0
 11
38.6591958486854
 21
559.332514451669
 31
0.0
  0
LINE
  5
2B8
330
1E
100
AcDbEntity
  8
0
100
AcDbLine
 10
39.69775
 20
567.3804999999999
 30
0.0
 11
40.33125
 21
563.7875
 31
0.0
  0
LINE
  5
2B9
330
1E
100
AcDbEntity
  8
0
100
AcDbLine
 10
37.31425
 20
566.9605
 30
0.0
 11
37.94775
 21
563.3674999999999
 31
0.0
  0
LINE
  5
2BA
330
1E
100
AcDbEntity
  8
0
100
AcDbLine
 10
36.40855
 20
568.7585
 30
0.0
 11
37.07535
 21
564.9765
 31
0.0
  0
LINE
  5
2BC
330
1E
100
AcDbEntity
  8
0
100
AcDbLine
 10
27.45224
 20
568.6414999999999
 30
0.0
 11
36.15854999999999
 21
570.1765
 31
0.0
  0
LINE
  5
2BD
330
1E
100
AcDbEntity
  8
0
100
AcDbLine
 10
36.15854999999999
 20
570.1765
 30
0.0
 11
36.40855
 21
568.7585
 31
0.0
  0
LINE
  5
2BE
330
1E
100
AcDbEntity
  8
0
100
AcDbLine
 10
36.15854999999999
 20
570.1765
 30
0.0
 11
36.89614999999999
 21
569.3315
 31
0.0
  0
LINE
  5
2BF
330
1E
100
AcDbEntity
  8
0
100
AcDbLine
 10
39.46025
 20
568.7274999999999
 30
0.0
 11
39.69775
 21
567.3804999999999
 31
0.0
  0
LINE
  5
2C0
330
1E
100
AcDbEntity
  8
0
100
AcDbLine
 10
39.46025
 20
568.7274999999999
 30
0.0
 11
40.18955
 21
567.9305
 31
0.0
  0
LINE
  5
2C1
330
1E
100
AcDbEntity
  8
0
100
AcDbLine
 10
36.89614999999999
 20
569.3315
 30
0.0
 11
37.31425
 21
566.9605
 31
0.0
  0
LINE
  5
2C2
330
1E
100
AcDbEntity
  8
0
100
AcDbLine
 10
37.07675
 20
568.3075
 30
0.0
 11
39.46025
 21
568.7274999999999
 31
0.0
  0
LINE
  5
2C3
330
1E
100
AcDbEntity
  8
0
100
AcDbLine
 10
44.27875
 20
545.7614999999999
 30
0.0
 11
44.68974999999999
 21
546.3095
 31
0.0
  0
LINE
  5
2C4
330
1E
100
AcDbEntity
  8
0
100
AcDbLine
 10
44.23834999999999
 20
545.9905
 30
0.0
 11
44.67155
 21
546.4134999999999
 31
0.0
  0
LINE
  5
2C6
330
1E
100
AcDbEntity
  8
0
100
AcDbLine
 10
44.153626435925
 20
545.448999303219
 30
0.0
 11
44.23834999999999
 21
545.9905
 31
0.0
  0
LINE
  5
2C7
330
1E
100
AcDbEntity
  8
0
100
AcDbLine
 10
50.18765
 20
546.8034999999999
 30
0.0
 11
50.66584999999999
 21
545.7645
 31
0.0
  0
LINE
  5
2C9
330
1E
100
AcDbEntity
  8
0
100
AcDbLine
 10
50.66584999999999
 20
545.7645
 30
0.0
 11
51.08744999999999
 21
543.9964999999999
 31
0.0
  0
LINE
  5
2CC
330
1E
100
AcDbEntity
  8
0
100
AcDbLine
 10
50.66945
 20
546.0865
 30
0.0
 11
50.99475
 21
545.1045
 31
0.0
  0
LINE
  5
2CD
330
1E
100
AcDbEntity
  8
0
100
AcDbLine
 10
49.61384999999999
 20
547.1775
 30
0.0
 11
50.18765
 21
546.8034999999999
 31
0.0
  0
LINE
  5
2CE
330
1E
100
AcDbEntity
  8
0
100
AcDbLine
 10
49.59555
 20
547.2815
 30
0.0
 11
50.14715
 21
547.0325
 31
0.0
  0
LINE
  5
2CF
330
1E
100
AcDbEntity
  8
0
100
AcDbLine
 10
50.14715
 20
547.0325
 30
0.0
 11
50.66945
 21
546.0865
 31
0.0
  0
LINE
  5
2D1
330
1E
100
AcDbEntity
  8
0
100
AcDbLine
 10
44.67155
 20
546.4134999999999
 30
0.0
 11
49.59555
 21
547.2815
 31
0.0
  0
LINE
  5
2D4
330
1E
100
AcDbEntity
  8
0
100
AcDbLine
 10
53.39674999999999
 20
284.4205
 30
0.0
 11
58.36025
 21
285.2955
 31
0.0
  0
LINE
  5
2D5
330
1E
100
AcDbEntity
  8
0
100
AcDbLine
 10
52.82735
 20
253.8565
 30
0.0
 11
57.62925
 21
254.7035
 31
0.0
  0
LINE
  5
2D6
330
1E
100
AcDbEntity
  8
0
100
AcDbLine
 10
52.82735
 20
253.8565
 30
0.0
 11
54.5253424705303
 21
254.1559352111209
 31
0.0
  0
LINE
  5
2D7
330
1E
100
AcDbEntity
  8
0
100
AcDbLine
 10
53.9120507555401
 20
209.3480957151669
 30
0.0
 11
56.34315
 21
195.5607999999999
 31
0.0
  0
LINE
  5
2D8
330
1E
100
AcDbEntity
  8
0
100
AcDbLine
 10
54.32215
 20
209.4203999999999
 30
0.0
 11
56.75315
 21
195.6331
 31
0.0
  0
LINE
  5
2D9
330
1E
100
AcDbEntity
  8
0
100
AcDbLine
 10
54.88725
 20
304.9914999999999
 30
0.0
 11
60.18155
 21
305.9245
 31
0.0
  0
LINE
  5
2DB
330
1E
100
AcDbEntity
  8
0
100
AcDbLine
 10
54.33745
 20
209.4231
 30
0.0
 11
58.43424999999999
 21
210.1455
 31
0.0
  0
LINE
  5
2DC
330
1E
100
AcDbEntity
  8
0
100
AcDbLine
 10
53.99015
 20
211.3926999999999
 30
0.0
 11
58.08695
 21
212.1151
 31
0.0
  0
LINE
  5
2DE
330
1E
100
AcDbEntity
  8
0
100
AcDbLine
 10
55.19775
 20
518.3885
 30
0.0
 11
55.23825
 21
518.1594999999999
 31
0.0
  0
LINE
  5
2E0
330
1E
100
AcDbEntity
  8
0
100
AcDbLine
 10
55.19775
 20
518.3885
 30
0.0
 11
55.29215
 21
519.5285
 31
0.0
  0
LINE
  5
2E1
330
1E
100
AcDbEntity
  8
0
100
AcDbLine
 10
54.80505
 20
517.7374999999999
 30
0.0
 11
55.23825
 21
518.1594999999999
 31
0.0
  0
LINE
  5
2E2
330
1E
100
AcDbEntity
  8
0
100
AcDbLine
 10
55.3069577638439
 20
209.5940559677309
 30
0.0
 11
57.73794999999999
 21
195.8068
 31
0.0
  0
LINE
  5
2E3
330
1E
100
AcDbEntity
  8
0
100
AcDbLine
 10
57.62925
 20
254.7035
 30
0.0
 11
63.06544999999999
 21
255.6624999999999
 31
0.0
  0
LINE
  5
2E4
330
1E
100
AcDbEntity
  8
0
100
AcDbLine
 10
57.62925
 20
254.7035
 30
0.0
 11
58.6984935160811
 21
254.892038314807
 31
0.0
  0
LINE
  5
2E5
330
1E
100
AcDbEntity
  8
0
100
AcDbLine
 10
56.75315
 20
195.6331
 30
0.0
 11
59.31175
 21
196.0842
 31
0.0
  0
LINE
  5
2E6
330
1E
100
AcDbEntity
  8
0
100
AcDbLine
 10
56.75315
 20
195.6331
 30
0.0
 11
57.73794999999999
 21
195.8068
 31
0.0
  0
LINE
  5
2E7
330
1E
100
AcDbEntity
  8
0
100
AcDbLine
 10
56.34315
 20
195.5607999999999
 30
0.0
 11
56.75314903949029
 21
195.633105447484
 31
0.0
  0
LINE
  5
2E8
330
1E
100
AcDbEntity
  8
0
100
AcDbLine
 10
55.51895
 20
413.8715
 30
0.0
 11
58.82785
 21
414.4554999999999
 31
0.0
  0
LINE
  5
2EA
330
1E
100
AcDbEntity
  8
0
100
AcDbLine
 10
59.31175
 20
196.0842
 30
0.0
 11
60.29655
 21
196.2579
 31
0.0
  0
LINE
  5
2EB
330
1E
100
AcDbEntity
  8
0
100
AcDbLine
 10
59.31175
 20
196.0842
 30
0.0
 11
59.4183515640304
 21
196.103002489513
 31
0.0
  0
LINE
  5
2EC
330
1E
100
AcDbEntity
  8
0
100
AcDbLine
 10
57.73794999999999
 20
195.8068
 30
0.0
 11
60.29655
 21
196.2579
 31
0.0
  0
LINE
  5
2ED
330
1E
100
AcDbEntity
  8
0
100
AcDbLine
 10
64.32814999999999
 20
155.3815999999999
 30
0.0
 11
67.14674999999999
 21
141.66826
 31
0.0
  0
LINE
  5
2EE
330
1E
100
AcDbEntity
  8
0
100
AcDbLine
 10
64.32814999999999
 20
155.3815999999999
 30
0.0
 11
65.410250000314
 21
155.6039900896589
 31
0.0
  0
LINE
  5
2EF
330
1E
100
AcDbEntity
  8
0
100
AcDbLine
 10
64.32814999999999
 20
155.3815999999999
 30
0.0
 11
65.30764999999999
 21
155.5828999999999
 31
0.0
  0
LINE
  5
2F0
330
1E
100
AcDbEntity
  8
0
100
AcDbLine
 10
63.92025
 20
155.2977999999999
 30
0.0
 11
66.73885
 21
141.58443
 31
0.0
  0
LINE
  5
2F1
330
1E
100
AcDbEntity
  8
0
100
AcDbLine
 10
63.92025
 20
155.2977999999999
 30
0.0
 11
64.73135
 21
155.4644999999999
 31
0.0
  0
LINE
  5
2F2
330
1E
100
AcDbEntity
  8
0
100
AcDbLine
 10
65.30764999999999
 20
155.5828999999999
 30
0.0
 11
68.12625
 21
141.8695899999999
 31
0.0
  0
LINE
  5
2F3
330
1E
100
AcDbEntity
  8
0
100
AcDbLine
 10
65.30764999999999
 20
155.5828999999999
 30
0.0
 11
67.85245
 21
156.1059999999999
 31
0.0
  0
LINE
  5
2F4
330
1E
100
AcDbEntity
  8
0
100
AcDbLine
 10
67.85245556558379
 20
156.105972921695
 30
0.0
 11
70.49875
 21
156.6499
 31
0.0
  0
LINE
  5
2F5
330
1E
100
AcDbEntity
  8
0
100
AcDbLine
 10
70.49875
 20
156.6499
 30
0.0
 11
75.27495
 21
157.6314999999999
 31
0.0
  0
LINE
  5
2F6
330
1E
100
AcDbEntity
  8
0
100
AcDbLine
 10
75.27495
 20
157.6314999999999
 30
0.0
 11
80.68184999999999
 21
158.7429
 31
0.0
  0
LINE
  5
2F7
330
1E
100
AcDbEntity
  8
0
100
AcDbLine
 10
85.46984999999999
 20
159.7269999999999
 30
0.0
 11
88.28834999999999
 21
146.0136099999999
 31
0.0
  0
LINE
  5
2F8
330
1E
100
AcDbEntity
  8
0
100
AcDbLine
 10
85.46984999999999
 20
159.7269999999999
 30
0.0
 11
87.42884999999999
 21
160.1296
 31
0.0
  0
LINE
  5
2F9
330
1E
100
AcDbEntity
  8
0
100
AcDbLine
 10
80.68184999999999
 20
158.7429
 30
0.0
 11
85.4698534721359
 21
159.726983106349
 31
0.0
  0
LINE
  5
2FA
330
1E
100
AcDbEntity
  8
0
100
AcDbLine
 10
64.73135
 20
155.4644999999999
 30
0.0
 11
66.46758192653479
 21
155.821331464465
 31
0.0
  0
LINE
  5
2FB
330
1E
100
AcDbEntity
  8
0
100
AcDbLine
 10
59.4183515640304
 20
196.103002489513
 30
0.0
 11
66.91589579036911
 21
155.913485261294
 31
0.0
  0
LINE
  5
2FC
330
1E
100
AcDbEntity
  8
0
100
AcDbLine
 10
87.42884999999999
 20
160.1296
 30
0.0
 11
90.2474495952552
 21
146.416261969206
 31
0.0
  0
LINE
  5
2FD
330
1E
100
AcDbEntity
  8
0
100
AcDbLine
 10
97.62375
 20
162.225
 30
0.0
 11
102.3999499999999
 21
163.2067
 31
0.0
  0
LINE
  5
2FE
330
1E
100
AcDbEntity
  8
0
100
AcDbLine
 10
92.21675000000001
 20
161.1137
 30
0.0
 11
97.62375
 21
162.225
 31
0.0
  0
LINE
  5
2FF
330
1E
100
AcDbEntity
  8
0
100
AcDbLine
 10
86.44935
 20
159.9282999999999
 30
0.0
 11
92.21675000000001
 21
161.1137
 31
0.0
  0
LINE
  5
300
330
1E
100
AcDbEntity
  8
0
100
AcDbLine
 10
59.33295
 20
196.0879999999999
 30
0.0
 11
62.95705
 21
196.727
 31
0.0
  0
LINE
  5
301
330
1E
100
AcDbEntity
  8
0
100
AcDbLine
 10
57.7609568062757
 20
210.026776361271
 30
0.0
 11
57.86545
 21
210.0451999999999
 31
0.0
  0
LINE
  5
302
330
1E
100
AcDbEntity
  8
0
100
AcDbLine
 10
57.8654527411204
 20
210.045184454506
 30
0.0
 11
60.52604999999999
 21
210.5142999999999
 31
0.0
  0
LINE
  5
303
330
1E
100
AcDbEntity
  8
0
100
AcDbLine
 10
62.95705
 20
196.727
 30
0.0
 11
67.75905
 21
197.5737
 31
0.0
  0
LINE
  5
304
330
1E
100
AcDbEntity
  8
0
100
AcDbLine
 10
60.52604999999999
 20
210.5142999999999
 30
0.0
 11
65.32795
 21
211.3609999999999
 31
0.0
  0
LINE
  5
305
330
1E
100
AcDbEntity
  8
0
100
AcDbLine
 10
58.43424999999999
 20
210.1455
 30
0.0
 11
63.86255
 21
211.1026999999999
 31
0.0
  0
LINE
  5
306
330
1E
100
AcDbEntity
  8
0
100
AcDbLine
 10
58.08695
 20
212.1151
 30
0.0
 11
63.51525
 21
213.0723
 31
0.0
  0
LINE
  5
307
330
1E
100
AcDbEntity
  8
0
100
AcDbLine
 10
67.75905
 20
197.5737
 30
0.0
 11
73.19514999999999
 21
198.5322999999999
 31
0.0
  0
LINE
  5
308
330
1E
100
AcDbEntity
  8
0
100
AcDbLine
 10
73.19514999999999
 20
198.5322999999999
 30
0.0
 11
78.99365
 21
199.5547
 31
0.0
  0
LINE
  5
309
330
1E
100
AcDbEntity
  8
0
100
AcDbLine
 10
65.32795
 20
211.3609999999999
 30
0.0
 11
68.52725810009309
 21
211.9251648874649
 31
0.0
  0
LINE
  5
30A
330
1E
100
AcDbEntity
  8
0
100
AcDbLine
 10
65.32795
 20
211.3609999999999
 30
0.0
 11
68.52725810009309
 21
211.9251648874649
 31
0.0
  0
LINE
  5
30B
330
1E
100
AcDbEntity
  8
0
100
AcDbLine
 10
63.86255
 20
211.1026999999999
 30
0.0
 11
70.00775
 21
212.1862
 31
0.0
  0
LINE
  5
30C
330
1E
100
AcDbEntity
  8
0
100
AcDbLine
 10
75.5778578577463
 20
213.1683554351679
 30
0.0
 11
78.00885
 21
199.3810999999999
 31
0.0
  0
LINE
  5
30D
330
1E
100
AcDbEntity
  8
0
100
AcDbLine
 10
70.00775
 20
212.1862
 30
0.0
 11
76.56265000000001
 21
213.342
 31
0.0
  0
LINE
  5
30E
330
1E
100
AcDbEntity
  8
0
100
AcDbLine
 10
63.51525
 20
213.0723
 30
0.0
 11
69.66045
 21
214.1557999999999
 31
0.0
  0
LINE
  5
30F
330
1E
100
AcDbEntity
  8
0
100
AcDbLine
 10
63.06544999999999
 20
255.6624999999999
 30
0.0
 11
68.86395
 21
256.6845
 31
0.0
  0
LINE
  5
310
330
1E
100
AcDbEntity
  8
0
100
AcDbLine
 10
68.86395
 20
256.6845
 30
0.0
 11
74.66255
 21
257.7074999999999
 31
0.0
  0
LINE
  5
311
330
1E
100
AcDbEntity
  8
0
100
AcDbLine
 10
74.66255
 20
257.7074999999999
 30
0.0
 11
80.09865000000001
 21
258.6654999999999
 31
0.0
  0
LINE
  5
312
330
1E
100
AcDbEntity
  8
0
100
AcDbLine
 10
69.66045
 20
214.1557999999999
 30
0.0
 11
76.21535
 21
215.3116
 31
0.0
  0
LINE
  5
313
330
1E
100
AcDbEntity
  8
0
100
AcDbLine
 10
78.00885
 20
199.3810999999999
 30
0.0
 11
79.97844999999999
 21
199.7284
 31
0.0
  0
LINE
  5
314
330
1E
100
AcDbEntity
  8
0
100
AcDbLine
 10
77.5474587897446
 20
213.5156501493849
 30
0.0
 11
79.97844999999999
 21
199.7284
 31
0.0
  0
LINE
  5
315
330
1E
100
AcDbEntity
  8
0
100
AcDbLine
 10
97.69085
 20
202.8515
 30
0.0
 11
100.24935
 21
203.3026999999999
 31
0.0
  0
LINE
  5
316
330
1E
100
AcDbEntity
  8
0
100
AcDbLine
 10
98.65434999999999
 20
203.0213999999999
 30
0.0
 11
100.82885
 21
203.4047999999999
 31
0.0
  0
LINE
  5
317
330
1E
100
AcDbEntity
  8
0
100
AcDbLine
 10
95.03024999999999
 20
202.3823999999999
 30
0.0
 11
98.65434999999999
 21
203.0213999999999
 31
0.0
  0
LINE
  5
318
330
1E
100
AcDbEntity
  8
0
100
AcDbLine
 10
90.22834999999991
 20
201.5356999999999
 30
0.0
 11
95.03024999999999
 21
202.3823999999999
 31
0.0
  0
LINE
  5
319
330
1E
100
AcDbEntity
  8
0
100
AcDbLine
 10
84.79224999999999
 20
200.5771
 30
0.0
 11
90.22834999999991
 21
201.5356999999999
 31
0.0
  0
LINE
  5
31A
330
1E
100
AcDbEntity
  8
0
100
AcDbLine
 10
78.99365
 20
199.5547
 30
0.0
 11
84.79224999999999
 21
200.5771
 31
0.0
  0
LINE
  5
31B
330
1E
100
AcDbEntity
  8
0
100
AcDbLine
 10
86.46514297769179
 20
215.0881079005769
 30
0.0
 11
87.79735
 21
215.3229999999999
 31
0.0
  0
LINE
  5
31C
330
1E
100
AcDbEntity
  8
0
100
AcDbLine
 10
87.79735
 20
215.3229999999999
 30
0.0
 11
92.42089709905279
 21
216.13825173968
 31
0.0
  0
LINE
  5
31D
330
1E
100
AcDbEntity
  8
0
100
AcDbLine
 10
86.46514297769179
 20
215.0881079005769
 30
0.0
 11
87.79735
 21
215.3229999999999
 31
0.0
  0
LINE
  5
31E
330
1E
100
AcDbEntity
  8
0
100
AcDbLine
 10
89.26264999999999
 20
215.5813999999999
 30
0.0
 11
94.69095000000001
 21
216.5385
 31
0.0
  0
LINE
  5
31F
330
1E
100
AcDbEntity
  8
0
100
AcDbLine
 10
83.11745
 20
214.4978
 30
0.0
 11
89.26264999999999
 21
215.5813999999999
 31
0.0
  0
LINE
  5
320
330
1E
100
AcDbEntity
  8
0
100
AcDbLine
 10
76.56265000000001
 20
213.342
 30
0.0
 11
83.11745
 21
214.4978
 31
0.0
  0
LINE
  5
321
330
1E
100
AcDbEntity
  8
0
100
AcDbLine
 10
78.2255781363818
 20
258.335223680933
 30
0.0
 11
80.09865000000001
 21
258.6654999999999
 31
0.0
  0
LINE
  5
322
330
1E
100
AcDbEntity
  8
0
100
AcDbLine
 10
80.09865000000001
 20
258.6654999999999
 30
0.0
 11
84.90054999999999
 21
259.5124999999999
 31
0.0
  0
LINE
  5
323
330
1E
100
AcDbEntity
  8
0
100
AcDbLine
 10
85.5481665588368
 20
259.626622040898
 30
0.0
 11
88.52465
 21
260.1515
 31
0.0
  0
LINE
  5
324
330
1E
100
AcDbEntity
  8
0
100
AcDbLine
 10
87.4378493345228
 20
259.9594648474899
 30
0.0
 11
90.69914999999999
 21
260.5344999999999
 31
0.0
  0
LINE
  5
325
330
1E
100
AcDbEntity
  8
0
100
AcDbLine
 10
84.90054999999999
 20
259.5124999999999
 30
0.0
 11
88.52465
 21
260.1515
 31
0.0
  0
LINE
  5
326
330
1E
100
AcDbEntity
  8
0
100
AcDbLine
 10
88.14642635151871
 20
260.084803423109
 30
0.0
 11
88.52465
 21
260.1515
 31
0.0
  0
LINE
  5
327
330
1E
100
AcDbEntity
  8
0
100
AcDbLine
 10
88.1464636912422
 20
260.08460241154
 30
0.0
 11
89.59138584909359
 21
260.339386792459
 31
0.0
  0
LINE
  5
328
330
1E
100
AcDbEntity
  8
0
100
AcDbLine
 10
88.1464986056712
 20
260.0844144560999
 30
0.0
 11
90.69914999999999
 21
260.5344999999999
 31
0.0
  0
LINE
  5
329
330
1E
100
AcDbEntity
  8
0
100
AcDbLine
 10
97.8183563212716
 20
217.089964149211
 30
0.0
 11
100.24935
 21
203.3026999999999
 31
0.0
  0
LINE
  5
32A
330
1E
100
AcDbEntity
  8
0
100
AcDbLine
 10
98.5118866067863
 20
217.212256249937
 30
0.0
 11
98.78775
 21
217.2609
 31
0.0
  0
LINE
  5
32B
330
1E
100
AcDbEntity
  8
0
100
AcDbLine
 10
98.5118866067863
 20
217.212256249937
 30
0.0
 11
98.8031499999999
 21
217.2636
 31
0.0
  0
LINE
  5
32C
330
1E
100
AcDbEntity
  8
0
100
AcDbLine
 10
94.69095000000001
 20
216.5385
 30
0.0
 11
98.78775
 21
217.2609
 31
0.0
  0
LINE
  5
32D
330
1E
100
AcDbEntity
  8
0
100
AcDbLine
 10
98.44045000000001
 20
219.2305
 30
0.0
 11
100.89855
 21
219.664
 31
0.0
  0
LINE
  5
32E
330
1E
100
AcDbEntity
  8
0
100
AcDbLine
 10
94.34364999999999
 20
218.5081
 30
0.0
 11
98.44045000000001
 21
219.2305
 31
0.0
  0
LINE
  5
32F
330
1E
100
AcDbEntity
  8
0
100
AcDbLine
 10
88.91545
 20
217.551
 30
0.0
 11
94.34364999999999
 21
218.5081
 31
0.0
  0
LINE
  5
330
330
1E
100
AcDbEntity
  8
0
100
AcDbLine
 10
82.77015
 20
216.4674
 30
0.0
 11
88.91545
 21
217.551
 31
0.0
  0
LINE
  5
331
330
1E
100
AcDbEntity
  8
0
100
AcDbLine
 10
76.21535
 20
215.3116
 30
0.0
 11
82.77015
 21
216.4674
 31
0.0
  0
LINE
  5
332
330
1E
100
AcDbEntity
  8
0
100
AcDbLine
 10
59.4183515640304
 20
196.103002489513
 30
0.0
 11
66.91589579036911
 21
155.913485261294
 31
0.0
  0
LINE
  5
333
330
1E
100
AcDbEntity
  8
0
100
AcDbLine
 10
98.8031499999999
 20
217.2636
 30
0.0
 11
101.23415
 21
203.4763
 31
0.0
  0
LINE
  5
334
330
1E
100
AcDbEntity
  8
0
100
AcDbLine
 10
105.0461499999999
 20
163.7505999999999
 30
0.0
 11
107.59095
 21
164.2736
 31
0.0
  0
LINE
  5
335
330
1E
100
AcDbEntity
  8
0
100
AcDbLine
 10
107.59095
 20
164.2736
 30
0.0
 11
110.409549740697
 21
150.5603012615829
 31
0.0
  0
LINE
  5
336
330
1E
100
AcDbEntity
  8
0
100
AcDbLine
 10
107.59095
 20
164.2736
 30
0.0
 11
108.5705499999999
 21
164.4749999999999
 31
0.0
  0
LINE
  5
337
330
1E
100
AcDbEntity
  8
0
100
AcDbLine
 10
106.6513499997509
 20
164.080496101804
 30
0.0
 11
108.5705499999999
 21
164.4749999999999
 31
0.0
  0
LINE
  5
338
330
1E
100
AcDbEntity
  8
0
100
AcDbLine
 10
107.6186388171779
 20
164.279328536728
 30
0.0
 11
108.5705499999999
 21
164.4749999999999
 31
0.0
  0
LINE
  5
339
330
1E
100
AcDbEntity
  8
0
100
AcDbLine
 10
108.5705499999999
 20
164.4749999999999
 30
0.0
 11
111.38904523136
 21
150.7616232017989
 31
0.0
  0
LINE
  5
33A
330
1E
100
AcDbEntity
  8
0
100
AcDbLine
 10
108.97835
 20
164.5588
 30
0.0
 11
111.796937527065
 21
150.8454606848619
 31
0.0
  0
LINE
  5
33B
330
1E
100
AcDbEntity
  8
0
100
AcDbLine
 10
108.570554488626
 20
164.474978160609
 30
0.0
 11
108.97835
 21
164.5588
 31
0.0
  0
LINE
  5
33C
330
1E
100
AcDbEntity
  8
0
100
AcDbLine
 10
106.0045499999999
 20
163.9475999999999
 30
0.0
 11
107.6186388171779
 21
164.279328536728
 31
0.0
  0
LINE
  5
33D
330
1E
100
AcDbEntity
  8
0
100
AcDbLine
 10
102.3999499999999
 20
163.2067
 30
0.0
 11
106.0045499999999
 21
163.9475999999999
 31
0.0
  0
LINE
  5
33E
330
1E
100
AcDbEntity
  8
0
100
AcDbLine
 10
100.24935
 20
203.3026999999999
 30
0.0
 11
101.23415
 21
203.4763
 31
0.0
  0
LINE
  5
33F
330
1E
100
AcDbEntity
  8
0
100
AcDbLine
 10
99.37255000037572
 20
203.1480733985419
 30
0.0
 11
101.23415
 21
203.4763
 31
0.0
  0
LINE
  5
340
330
1E
100
AcDbEntity
  8
0
100
AcDbLine
 10
99.21314999999999
 20
217.3359
 30
0.0
 11
101.6442499999999
 21
203.5486
 31
0.0
  0
LINE
  5
341
330
1E
100
AcDbEntity
  8
0
100
AcDbLine
 10
100.82885
 20
203.4047999999999
 30
0.0
 11
101.6442499999999
 21
203.5486
 31
0.0
  0
LINE
  5
342
330
1E
100
AcDbEntity
  8
0
100
AcDbLine
 10
98.80315096050958
 20
217.263594552516
 30
0.0
 11
99.21314999999999
 21
217.3359
 31
0.0
  0
LINE
  5
343
330
1E
100
AcDbEntity
  8
0
100
AcDbLine
 10
101.24585
 20
217.6943
 30
0.0
 11
102.1676499999999
 21
217.8568999999999
 31
0.0
  0
LINE
  5
344
330
1E
100
AcDbEntity
  8
0
100
AcDbLine
 10
98.78775
 20
217.2609
 30
0.0
 11
101.24585
 21
217.6943
 31
0.0
  0
LINE
  5
345
330
1E
100
AcDbEntity
  8
0
100
AcDbLine
 10
101.82035
 20
219.8265
 30
0.0
 11
102.1676499999999
 21
217.8568999999999
 31
0.0
  0
LINE
  5
346
330
1E
100
AcDbEntity
  8
0
100
AcDbLine
 10
100.89855
 20
219.664
 30
0.0
 11
101.82035
 21
219.8265
 31
0.0
  0
LINE
  5
347
330
1E
100
AcDbEntity
  8
0
100
AcDbLine
 10
98.743549976924
 20
203.0371274183269
 30
0.0
 11
106.00477587737
 21
163.947646422457
 31
0.0
  0
LINE
  5
348
330
1E
100
AcDbEntity
  8
0
100
AcDbLine
 10
58.36025
 20
285.2955
 30
0.0
 11
63.65455
 21
286.2284999999999
 31
0.0
  0
LINE
  5
349
330
1E
100
AcDbEntity
  8
0
100
AcDbLine
 10
57.85595
 20
285.2064999999999
 30
0.0
 11
63.65455
 21
286.2284999999999
 31
0.0
  0
LINE
  5
34B
330
1E
100
AcDbEntity
  8
0
100
AcDbLine
 10
63.65455
 20
286.2284999999999
 30
0.0
 11
69.45304999999989
 21
287.2515
 31
0.0
  0
LINE
  5
34D
330
1E
100
AcDbEntity
  8
0
100
AcDbLine
 10
72.75638315602541
 20
287.833656729018
 30
0.0
 11
73.91225
 21
288.0375
 31
0.0
  0
LINE
  5
34E
330
1E
100
AcDbEntity
  8
0
100
AcDbLine
 10
71.22862090575449
 20
287.564401829902
 30
0.0
 11
73.91225
 21
288.0375
 31
0.0
  0
LINE
  5
34F
330
1E
100
AcDbEntity
  8
0
100
AcDbLine
 10
73.91225
 20
288.0375
 30
0.0
 11
77.97536721069509
 21
288.7538556253689
 31
0.0
  0
LINE
  5
350
330
1E
100
AcDbEntity
  8
0
100
AcDbLine
 10
69.45304999999989
 20
287.2515
 30
0.0
 11
74.88925
 21
288.2094999999999
 31
0.0
  0
LINE
  5
352
330
1E
100
AcDbEntity
  8
0
100
AcDbLine
 10
68.94884204029001
 20
287.1625451422289
 30
0.0
 11
69.45304999999989
 21
287.2515
 31
0.0
  0
LINE
  5
353
330
1E
100
AcDbEntity
  8
0
100
AcDbLine
 10
76.9280184905795
 20
288.5691543899219
 30
0.0
 11
77.74684523663871
 21
288.713546974205
 31
0.0
  0
LINE
  5
354
330
1E
100
AcDbEntity
  8
0
100
AcDbLine
 10
74.88925
 20
288.2094999999999
 30
0.0
 11
79.69114999999999
 21
289.0565
 31
0.0
  0
LINE
  5
356
330
1E
100
AcDbEntity
  8
0
100
AcDbLine
 10
60.18155
 20
305.9245
 30
0.0
 11
65.47595
 21
306.8585
 31
0.0
  0
LINE
  5
358
330
1E
100
AcDbEntity
  8
0
100
AcDbLine
 10
65.47595
 20
306.8585
 30
0.0
 11
70.43935000000001
 21
307.7335
 31
0.0
  0
LINE
  5
35A
330
1E
100
AcDbEntity
  8
0
100
AcDbLine
 10
70.43935000000001
 20
307.7335
 30
0.0
 11
74.82365
 21
308.5065
 31
0.0
  0
LINE
  5
35C
330
1E
100
AcDbEntity
  8
0
100
AcDbLine
 10
74.82365
 20
308.5065
 30
0.0
 11
78.13265
 21
309.0905
 31
0.0
  0
LINE
  5
35E
330
1E
100
AcDbEntity
  8
0
100
AcDbLine
 10
74.0201688529301
 20
308.365189834516
 30
0.0
 11
78.13265
 21
309.0905
 31
0.0
  0
LINE
  5
35F
330
1E
100
AcDbEntity
  8
0
100
AcDbLine
 10
78.5592260117332
 20
288.856841611016
 30
0.0
 11
81.60565
 21
289.3945
 31
0.0
  0
LINE
  5
360
330
1E
100
AcDbEntity
  8
0
100
AcDbLine
 10
75.7218720502002
 20
308.6651903081539
 30
0.0
 11
77.00332485837219
 21
308.8911872521269
 31
0.0
  0
LINE
  5
361
330
1E
100
AcDbEntity
  8
0
100
AcDbLine
 10
76.3601220915975
 20
308.777882758828
 30
0.0
 11
78.13265
 21
309.0905
 31
0.0
  0
LINE
  5
362
330
1E
100
AcDbEntity
  8
0
100
AcDbLine
 10
76.3601220915975
 20
308.777882758828
 30
0.0
 11
78.13265
 21
309.0905
 31
0.0
  0
LINE
  5
363
330
1E
100
AcDbEntity
  8
0
100
AcDbLine
 10
78.13265
 20
309.0905
 30
0.0
 11
80.11805
 21
309.4405
 31
0.0
  0
LINE
  5
365
330
1E
100
AcDbEntity
  8
0
100
AcDbLine
 10
76.36014408082999
 20
308.7777559269779
 30
0.0
 11
77.00332485837219
 21
308.8911872521269
 31
0.0
  0
LINE
  5
366
330
1E
100
AcDbEntity
  8
0
100
AcDbLine
 10
81.9580521783965
 20
289.456520789071
 30
0.0
 11
83.59095000000001
 21
289.7445
 31
0.0
  0
LINE
  5
367
330
1E
100
AcDbEntity
  8
0
100
AcDbLine
 10
81.60565
 20
289.3945
 30
0.0
 11
83.59095000000001
 21
289.7445
 31
0.0
  0
LINE
  5
368
330
1E
100
AcDbEntity
  8
0
100
AcDbLine
 10
80.86254999999999
 20
309.5715
 30
0.0
 11
84.33555
 21
289.8754999999999
 31
0.0
  0
LINE
  5
369
330
1E
100
AcDbEntity
  8
0
100
AcDbLine
 10
80.11805
 20
309.4405
 30
0.0
 11
80.86254999999999
 21
309.5715
 31
0.0
  0
LINE
  5
36B
330
1E
100
AcDbEntity
  8
0
100
AcDbLine
 10
79.69114999999999
 20
289.0565
 30
0.0
 11
83.31525
 21
289.6954999999999
 31
0.0
  0
LINE
  5
36D
330
1E
100
AcDbEntity
  8
0
100
AcDbLine
 10
78.2966172468777
 20
288.810578880447
 30
0.0
 11
79.69114999999999
 21
289.0565
 31
0.0
  0
LINE
  5
36E
330
1E
100
AcDbEntity
  8
0
100
AcDbLine
 10
82.66718593870349
 20
289.5812916091319
 30
0.0
 11
84.33555
 21
289.8754999999999
 31
0.0
  0
LINE
  5
36F
330
1E
100
AcDbEntity
  8
0
100
AcDbLine
 10
82.6671333103544
 20
289.581574924219
 30
0.0
 11
83.59095000000001
 21
289.7445
 31
0.0
  0
LINE
  5
370
330
1E
100
AcDbEntity
  8
0
100
AcDbLine
 10
88.52465
 20
260.1515
 30
0.0
 11
90.69914999999999
 21
260.5344999999999
 31
0.0
  0
LINE
  5
371
330
1E
100
AcDbEntity
  8
0
100
AcDbLine
 10
90.69914999999999
 20
260.5344999999999
 30
0.0
 11
91.51455
 21
260.6784999999999
 31
0.0
  0
LINE
  5
372
330
1E
100
AcDbEntity
  8
0
100
AcDbLine
 10
82.6671963764012
 20
289.581235419696
 30
0.0
 11
83.31525
 21
289.6954999999999
 31
0.0
  0
LINE
  5
373
330
1E
100
AcDbEntity
  8
0
100
AcDbLine
 10
83.59095000000001
 20
289.7445
 30
0.0
 11
84.33555
 21
289.8754999999999
 31
0.0
  0
LINE
  5
374
330
1E
100
AcDbEntity
  8
0
100
AcDbLine
 10
83.31525
 20
289.6954999999999
 30
0.0
 11
85.48965
 21
290.0785
 31
0.0
  0
LINE
  5
376
330
1E
100
AcDbEntity
  8
0
100
AcDbLine
 10
85.48965
 20
290.0785
 30
0.0
 11
86.30515
 21
290.2225
 31
0.0
  0
LINE
  5
378
330
1E
100
AcDbEntity
  8
0
100
AcDbLine
 10
86.30515
 20
290.2225
 30
0.0
 11
91.51455
 21
260.6784999999999
 31
0.0
  0
LINE
  5
379
330
1E
100
AcDbEntity
  8
0
100
AcDbLine
 10
84.42738631174741
 20
289.8913922955289
 30
0.0
 11
86.30515
 21
290.2225
 31
0.0
  0
LINE
  5
37A
330
1E
100
AcDbEntity
  8
0
100
AcDbLine
 10
88.14642485499719
 20
260.084811479359
 30
0.0
 11
95.8212761458825
 21
218.768653878096
 31
0.0
  0
LINE
  5
37B
330
1E
100
AcDbEntity
  8
0
100
AcDbLine
 10
88.14642485499719
 20
260.084811479359
 30
0.0
 11
95.8212761458825
 21
218.768653878096
 31
0.0
  0
LINE
  5
37C
330
1E
100
AcDbEntity
  8
0
100
AcDbLine
 10
88.14642485499719
 20
260.084811479359
 30
0.0
 11
88.52465
 21
260.1515
 31
0.0
  0
LINE
  5
37E
330
1E
100
AcDbEntity
  8
0
100
AcDbLine
 10
58.82785
 20
414.4554999999999
 30
0.0
 11
60.81324999999999
 21
414.8055
 31
0.0
  0
LINE
  5
37F
330
1E
100
AcDbEntity
  8
0
100
AcDbLine
 10
60.81324999999999
 20
414.8055
 30
0.0
 11
61.55775
 21
414.9365
 31
0.0
  0
LINE
  5
380
330
1E
100
AcDbEntity
  8
0
100
AcDbLine
 10
58.0619022116186
 20
414.320315041732
 30
0.0
 11
76.36015797605629
 21
308.7776757806039
 31
0.0
  0
LINE
  5
381
330
1E
100
AcDbEntity
  8
0
100
AcDbLine
 10
58.0619022116186
 20
414.320315041732
 30
0.0
 11
58.82785
 21
414.4554999999999
 31
0.0
  0
LINE
  5
384
330
1E
100
AcDbEntity
  8
0
100
AcDbLine
 10
55.37545
 20
520.2605
 30
0.0
 11
55.40535
 21
519.2274999999999
 31
0.0
  0
LINE
  5
385
330
1E
100
AcDbEntity
  8
0
100
AcDbLine
 10
55.23825
 20
518.1594999999999
 30
0.0
 11
55.40535
 21
519.2274999999999
 31
0.0
  0
LINE
  5
386
330
1E
100
AcDbEntity
  8
0
100
AcDbLine
 10
54.73605
 20
523.8864999999999
 30
0.0
 11
55.07945
 21
521.9394999999999
 31
0.0
  0
LINE
  5
387
330
1E
100
AcDbEntity
  8
0
100
AcDbLine
 10
54.68725
 20
523.1164999999999
 30
0.0
 11
55.08355
 21
521.3334999999999
 31
0.0
  0
LINE
  5
388
330
1E
100
AcDbEntity
  8
0
100
AcDbLine
 10
54.15205
 20
524.3194999999999
 30
0.0
 11
54.68725
 21
523.1164999999999
 31
0.0
  0
LINE
  5
38A
330
1E
100
AcDbEntity
  8
0
100
AcDbLine
 10
53.5271075586747
 20
530.743155971127
 30
0.0
 11
53.65685
 21
530.0075
 31
0.0
  0
LINE
  5
38D
330
1E
100
AcDbEntity
  8
0
100
AcDbLine
 10
53.1003900719754
 20
533.163199011126
 30
0.0
 11
53.75345
 21
529.4595
 31
0.0
  0
LINE
  5
38E
330
1E
100
AcDbEntity
  8
0
100
AcDbLine
 10
53.13584999999999
 20
532.6744999999999
 30
0.0
 11
53.66365
 21
529.2775
 31
0.0
  0
LINE
  5
38F
330
1E
100
AcDbEntity
  8
0
100
AcDbLine
 10
53.65685
 20
530.0075
 30
0.0
 11
54.07955
 21
527.6105
 31
0.0
  0
LINE
  5
390
330
1E
100
AcDbEntity
  8
0
100
AcDbLine
 10
53.66365
 20
529.2775
 30
0.0
 11
53.84225
 21
526.0765
 31
0.0
  0
LINE
  5
391
330
1E
100
AcDbEntity
  8
0
100
AcDbLine
 10
54.07955
 20
527.6105
 30
0.0
 11
54.51225
 21
525.1565
 31
0.0
  0
LINE
  5
393
330
1E
100
AcDbEntity
  8
0
100
AcDbLine
 10
53.95955
 20
525.4115
 30
0.0
 11
54.15205
 21
524.3194999999999
 31
0.0
  0
LINE
  5
394
330
1E
100
AcDbEntity
  8
0
100
AcDbLine
 10
53.84225
 20
526.0765
 30
0.0
 11
53.95955
 21
525.4115
 31
0.0
  0
LINE
  5
395
330
1E
100
AcDbEntity
  8
0
100
AcDbLine
 10
54.51225
 20
525.1565
 30
0.0
 11
54.7791062691181
 21
523.642380733917
 31
0.0
  0
LINE
  5
397
330
1E
100
AcDbEntity
  8
0
100
AcDbLine
 10
54.6468047850196
 20
524.3930478502149
 30
0.0
 11
54.83935
 21
523.3015
 31
0.0
  0
LINE
  5
398
330
1E
100
AcDbEntity
  8
0
100
AcDbLine
 10
55.07945
 20
521.9394999999999
 30
0.0
 11
55.29255
 21
520.7304999999999
 31
0.0
  0
LINE
  5
399
330
1E
100
AcDbEntity
  8
0
100
AcDbLine
 10
55.08355
 20
521.3334999999999
 30
0.0
 11
55.29215
 21
519.5285
 31
0.0
  0
LINE
  5
39B
330
1E
100
AcDbEntity
  8
0
100
AcDbLine
 10
54.83935
 20
523.3015
 30
0.0
 11
54.9889523493471
 21
522.452601123533
 31
0.0
  0
LINE
  5
39C
330
1E
100
AcDbEntity
  8
0
100
AcDbLine
 10
55.29255
 20
520.7304999999999
 30
0.0
 11
55.37545
 21
520.2605
 31
0.0
  0
LINE
  5
39D
330
1E
100
AcDbEntity
  8
0
100
AcDbLine
 10
52.76625
 20
535.0584999999999
 30
0.0
 11
53.1003900719754
 21
533.163199011126
 31
0.0
  0
LINE
  5
39E
330
1E
100
AcDbEntity
  8
0
100
AcDbLine
 10
52.76625
 20
535.0584999999999
 30
0.0
 11
52.9566689890298
 21
533.9782844419439
 31
0.0
  0
LINE
  5
39F
330
1E
100
AcDbEntity
  8
0
100
AcDbLine
 10
350.1426499999999
 20
152.5014999999999
 30
0.0
 11
350.1426499999999
 21
150.5015
 31
0.0
  0
LINE
  5
3A0
330
1E
100
AcDbEntity
  8
0
100
AcDbLine
 10
350.1426499999999
 20
152.5014999999999
 30
0.0
 11
351.4026499999999
 21
152.5014999999999
 31
0.0
  0
LINE
  5
3A1
330
1E
100
AcDbEntity
  8
0
100
AcDbLine
 10
352.15865
 20
136.5014999999999
 30
0.0
 11
355.14265
 21
136.5014999999999
 31
0.0
  0
LINE
  5
3A2
330
1E
100
AcDbEntity
  8
0
100
AcDbLine
 10
352.15865
 20
140.5014999999999
 30
0.0
 11
358.23865
 21
140.5014999999999
 31
0.0
  0
LINE
  5
3A3
330
1E
100
AcDbEntity
  8
0
100
AcDbLine
 10
352.15865
 20
136.5014999999999
 30
0.0
 11
358.23865
 21
136.5014999999999
 31
0.0
  0
LINE
  5
3A4
330
1E
100
AcDbEntity
  8
0
100
AcDbLine
 10
355.14265
 20
136.5014999999999
 30
0.0
 11
355.14265
 21
131.5015
 31
0.0
  0
LINE
  5
3A5
330
1E
100
AcDbEntity
  8
0
100
AcDbLine
 10
358.23865
 20
140.5014999999999
 30
0.0
 11
366.2946499999999
 21
140.5014999999999
 31
0.0
  0
LINE
  5
3A6
330
1E
100
AcDbEntity
  8
0
100
AcDbLine
 10
358.23865
 20
136.5014999999999
 30
0.0
 11
366.2946499999999
 21
136.5014999999999
 31
0.0
  0
LINE
  5
3A7
330
1E
100
AcDbEntity
  8
0
100
AcDbLine
 10
355.14265
 20
131.5015
 30
0.0
 11
355.14265
 21
136.5014999999999
 31
0.0
  0
LINE
  5
3A8
330
1E
100
AcDbEntity
  8
0
100
AcDbLine
 10
358.14265
 20
140.5014999999999
 30
0.0
 11
358.14265
 21
150.5015
 31
0.0
  0
LINE
  5
3A9
330
1E
100
AcDbEntity
  8
0
100
AcDbLine
 10
359.14265
 20
82.50149999999999
 30
0.0
 11
360.0786499999999
 21
82.50149999999999
 31
0.0
  0
LINE
  5
3AA
330
1E
100
AcDbEntity
  8
0
100
AcDbLine
 10
359.14265
 20
82.50149999999999
 30
0.0
 11
359.14265
 21
84.50149999999998
 31
0.0
  0
LINE
  5
3AB
330
1E
100
AcDbEntity
  8
0
100
AcDbLine
 10
360.0786499999999
 20
82.50149999999999
 30
0.0
 11
362.57465
 21
82.50149999999999
 31
0.0
  0
LINE
  5
3AC
330
1E
100
AcDbEntity
  8
0
100
AcDbLine
 10
360.0786499999999
 20
82.50149999999999
 30
0.0
 11
362.14265
 21
82.50149999999999
 31
0.0
  0
LINE
  5
3AD
330
1E
100
AcDbEntity
  8
0
100
AcDbLine
 10
359.14265
 20
84.50149999999998
 30
0.0
 11
360.0786499999999
 21
84.50149999999998
 31
0.0
  0
LINE
  5
3AE
330
1E
100
AcDbEntity
  8
0
100
AcDbLine
 10
359.14265
 20
84.50149999999998
 30
0.0
 11
359.14265
 21
82.50149999999999
 31
0.0
  0
LINE
  5
3AF
330
1E
100
AcDbEntity
  8
0
100
AcDbLine
 10
362.14265
 20
68.50149999999999
 30
0.0
 11
362.9706499999999
 21
68.50149999999999
 31
0.0
  0
LINE
  5
3B0
330
1E
100
AcDbEntity
  8
0
100
AcDbLine
 10
362.14265
 20
68.50149999999999
 30
0.0
 11
362.9706499999999
 21
68.50149999999999
 31
0.0
  0
LINE
  5
3B1
330
1E
100
AcDbEntity
  8
0
100
AcDbLine
 10
362.14265
 20
68.50149999999999
 30
0.0
 11
362.14265
 21
82.50149999999999
 31
0.0
  0
LINE
  5
3B2
330
1E
100
AcDbEntity
  8
0
100
AcDbLine
 10
362.55865
 20
68.50149999999999
 30
0.0
 11
363.55865
 21
68.50149999999999
 31
0.0
  0
LINE
  5
3B3
330
1E
100
AcDbEntity
  8
0
100
AcDbLine
 10
362.55865
 20
68.50149999999999
 30
0.0
 11
365.1426499999999
 21
68.50149999999999
 31
0.0
  0
LINE
  5
3B4
330
1E
100
AcDbEntity
  8
0
100
AcDbLine
 10
362.55865
 20
68.50149999999999
 30
0.0
 11
362.55865
 21
82.50149999999999
 31
0.0
  0
LINE
  5
3B5
330
1E
100
AcDbEntity
  8
0
100
AcDbLine
 10
362.55865
 20
68.50149999999999
 30
0.0
 11
365.15665
 21
68.50149999999999
 31
0.0
  0
LINE
  5
3B6
330
1E
100
AcDbEntity
  8
0
100
AcDbLine
 10
362.55865
 20
68.50149999999999
 30
0.0
 11
363.55865
 21
68.50149999999999
 31
0.0
  0
LINE
  5
3B7
330
1E
100
AcDbEntity
  8
0
100
AcDbLine
 10
362.9706499999999
 20
68.50149999999999
 30
0.0
 11
365.1426499999999
 21
68.50149999999999
 31
0.0
  0
LINE
  5
3B8
330
1E
100
AcDbEntity
  8
0
100
AcDbLine
 10
365.1426499999999
 20
38.4635
 30
0.0
 11
365.79065
 21
37.5015
 31
0.0
  0
LINE
  5
3B9
330
1E
100
AcDbEntity
  8
0
100
AcDbLine
 10
365.1426499999999
 20
38.4635
 30
0.0
 11
365.1426499999999
 21
61.53999999999999
 31
0.0
  0
LINE
  5
3BA
330
1E
100
AcDbEntity
  8
0
100
AcDbLine
 10
365.1426499999999
 20
61.53999999999999
 30
0.0
 11
365.1426499999999
 21
38.4635
 31
0.0
  0
LINE
  5
3BB
330
1E
100
AcDbEntity
  8
0
100
AcDbLine
 10
365.79065
 20
37.5015
 30
0.0
 11
366.76265
 21
37.5015
 31
0.0
  0
LINE
  5
3BC
330
1E
100
AcDbEntity
  8
0
100
AcDbLine
 10
365.1426499999999
 20
46.5015
 30
0.0
 11
365.1426499999999
 21
68.50149999999999
 31
0.0
  0
LINE
  5
3BE
330
1E
100
AcDbEntity
  8
0
100
AcDbLine
 10
365.1426499999999
 20
68.50149999999999
 30
0.0
 11
365.86265
 21
68.50149999999999
 31
0.0
  0
LINE
  5
3BF
330
1E
100
AcDbEntity
  8
0
100
AcDbLine
 10
365.1426499999999
 20
68.50149999999999
 30
0.0
 11
365.1426499999999
 21
46.5015
 31
0.0
  0
LINE
  5
3C0
330
1E
100
AcDbEntity
  8
0
100
AcDbLine
 10
365.86265
 20
68.50149999999999
 30
0.0
 11
367.78265
 21
68.50149999999999
 31
0.0
  0
LINE
  5
3C1
330
1E
100
AcDbEntity
  8
0
100
AcDbLine
 10
365.15665
 20
68.50149999999999
 30
0.0
 11
366.15665
 21
68.50149999999999
 31
0.0
  0
LINE
  5
3C2
330
1E
100
AcDbEntity
  8
0
100
AcDbLine
 10
363.55865
 20
68.50149999999999
 30
0.0
 11
363.55865
 21
82.50149999999999
 31
0.0
  0
LINE
  5
3C3
330
1E
100
AcDbEntity
  8
0
100
AcDbLine
 10
363.55865
 20
68.50149999999999
 30
0.0
 11
366.15665
 21
68.50149999999999
 31
0.0
  0
LINE
  5
3C4
330
1E
100
AcDbEntity
  8
0
100
AcDbLine
 10
363.55865
 20
68.50149999999999
 30
0.0
 11
365.1426499999999
 21
68.50149999999999
 31
0.0
  0
LINE
  5
3C5
330
1E
100
AcDbEntity
  8
0
100
AcDbLine
 10
362.9706499999999
 20
68.50149999999999
 30
0.0
 11
365.17865
 21
68.50149999999999
 31
0.0
  0
LINE
  5
3C6
330
1E
100
AcDbEntity
  8
0
100
AcDbLine
 10
363.55865
 20
82.50149999999999
 30
0.0
 11
363.55865
 21
68.50149999999999
 31
0.0
  0
LINE
  5
3C7
330
1E
100
AcDbEntity
  8
0
100
AcDbLine
 10
363.55865
 20
82.50149999999999
 30
0.0
 11
366.15665
 21
82.50149999999999
 31
0.0
  0
LINE
  5
3C8
330
1E
100
AcDbEntity
  8
0
100
AcDbLine
 10
362.55865
 20
82.50149999999999
 30
0.0
 11
362.55865
 21
68.50149999999999
 31
0.0
  0
LINE
  5
3C9
330
1E
100
AcDbEntity
  8
0
100
AcDbLine
 10
362.55865
 20
82.50149999999999
 30
0.0
 11
363.55865
 21
82.50149999999999
 31
0.0
  0
LINE
  5
3CA
330
1E
100
AcDbEntity
  8
0
100
AcDbLine
 10
365.17865
 20
68.50149999999999
 30
0.0
 11
368.8586499999999
 21
68.50149999999999
 31
0.0
  0
LINE
  5
3CB
330
1E
100
AcDbEntity
  8
0
100
AcDbLine
 10
362.14265
 20
82.50149999999999
 30
0.0
 11
362.55865
 21
82.50149999999999
 31
0.0
  0
LINE
  5
3CC
330
1E
100
AcDbEntity
  8
0
100
AcDbLine
 10
362.14265
 20
82.50149999999999
 30
0.0
 11
362.14265
 21
68.50149999999999
 31
0.0
  0
LINE
  5
3CD
330
1E
100
AcDbEntity
  8
0
100
AcDbLine
 10
360.14265
 20
84.50149999999998
 30
0.0
 11
360.14265
 21
91.5015
 31
0.0
  0
LINE
  5
3CE
330
1E
100
AcDbEntity
  8
0
100
AcDbLine
 10
362.57465
 20
82.50149999999999
 30
0.0
 11
366.7346499999999
 21
82.50149999999999
 31
0.0
  0
LINE
  5
3CF
330
1E
100
AcDbEntity
  8
0
100
AcDbLine
 10
360.0786499999999
 20
84.50149999999998
 30
0.0
 11
362.57465
 21
84.50149999999998
 31
0.0
  0
LINE
  5
3D0
330
1E
100
AcDbEntity
  8
0
100
AcDbLine
 10
360.14265
 20
91.5015
 30
0.0
 11
360.14265
 21
84.50149999999998
 31
0.0
  0
LINE
  5
3D1
330
1E
100
AcDbEntity
  8
0
100
AcDbLine
 10
362.57465
 20
84.50149999999998
 30
0.0
 11
366.7346499999999
 21
84.50149999999998
 31
0.0
  0
LINE
  5
3D4
330
1E
100
AcDbEntity
  8
0
100
AcDbLine
 10
366.15665
 20
82.50149999999999
 30
0.0
 11
368.8586499999999
 21
82.50149999999999
 31
0.0
  0
LINE
  5
3D5
330
1E
100
AcDbEntity
  8
0
100
AcDbLine
 10
366.76265
 20
37.5015
 30
0.0
 11
369.35465
 21
37.5015
 31
0.0
  0
LINE
  5
3D6
330
1E
100
AcDbEntity
  8
0
100
AcDbLine
 10
367.78265
 20
68.50149999999999
 30
0.0
 11
370.9826499999999
 21
68.50149999999999
 31
0.0
  0
LINE
  5
3D7
330
1E
100
AcDbEntity
  8
0
100
AcDbLine
 10
366.7346499999999
 20
82.50149999999999
 30
0.0
 11
372.2466499999999
 21
82.50149999999999
 31
0.0
  0
LINE
  5
3D8
330
1E
100
AcDbEntity
  8
0
100
AcDbLine
 10
366.14265
 20
96.5015
 30
0.0
 11
366.14265
 21
131.5015
 31
0.0
  0
LINE
  5
3D9
330
1E
100
AcDbEntity
  8
0
100
AcDbLine
 10
366.14265
 20
131.5015
 30
0.0
 11
366.14265
 21
96.5015
 31
0.0
  0
LINE
  5
3DA
330
1E
100
AcDbEntity
  8
0
100
AcDbLine
 10
366.14265
 20
112.5014999999999
 30
0.0
 11
368.14265
 21
112.5014999999999
 31
0.0
  0
LINE
  5
3DB
330
1E
100
AcDbEntity
  8
0
100
AcDbLine
 10
366.2946499999999
 20
140.5014999999999
 30
0.0
 11
375.41465
 21
140.5014999999999
 31
0.0
  0
LINE
  5
3DC
330
1E
100
AcDbEntity
  8
0
100
AcDbLine
 10
366.2946499999999
 20
136.5014999999999
 30
0.0
 11
375.41465
 21
136.5014999999999
 31
0.0
  0
LINE
  5
3DD
330
1E
100
AcDbEntity
  8
0
100
AcDbLine
 10
366.14265
 20
130.5015
 30
0.0
 11
368.14265
 21
130.5015
 31
0.0
  0
LINE
  5
3DE
330
1E
100
AcDbEntity
  8
0
100
AcDbLine
 10
366.7346499999999
 20
84.50149999999998
 30
0.0
 11
372.2466499999999
 21
84.50149999999998
 31
0.0
  0
LINE
  5
3DF
330
1E
100
AcDbEntity
  8
0
100
AcDbLine
 10
366.02665
 20
150.5015
 30
0.0
 11
371.75065
 21
150.5015
 31
0.0
  0
LINE
  5
3E0
330
1E
100
AcDbEntity
  8
0
100
AcDbLine
 10
361.70665
 20
150.5015
 30
0.0
 11
366.02665
 21
150.5015
 31
0.0
  0
LINE
  5
3E1
330
1E
100
AcDbEntity
  8
0
100
AcDbLine
 10
359.1146499999999
 20
150.5015
 30
0.0
 11
361.70665
 21
150.5015
 31
0.0
  0
LINE
  5
3E2
330
1E
100
AcDbEntity
  8
0
100
AcDbLine
 10
358.14265
 20
150.5015
 30
0.0
 11
358.14265
 21
140.5014999999999
 31
0.0
  0
LINE
  5
3E3
330
1E
100
AcDbEntity
  8
0
100
AcDbLine
 10
358.14265
 20
150.5015
 30
0.0
 11
359.1146499999999
 21
150.5015
 31
0.0
  0
LINE
  5
3E4
330
1E
100
AcDbEntity
  8
0
100
AcDbLine
 10
365.1426499999999
 20
62.5015
 30
0.0
 11
369.35465
 21
62.5015
 31
0.0
  0
LINE
  5
3E7
330
1E
100
AcDbEntity
  8
0
100
AcDbLine
 10
369.35465
 20
62.5015
 30
0.0
 11
373.5666499999999
 21
62.5015
 31
0.0
  0
LINE
  5
3E8
330
1E
100
AcDbEntity
  8
0
100
AcDbLine
 10
369.35465
 20
37.5015
 30
0.0
 11
373.5666499999999
 21
37.5015
 31
0.0
  0
LINE
  5
3E9
330
1E
100
AcDbEntity
  8
0
100
AcDbLine
 10
370.9826499999999
 20
68.50149999999999
 30
0.0
 11
375.2226499999999
 21
68.50149999999999
 31
0.0
  0
LINE
  5
3EA
330
1E
100
AcDbEntity
  8
0
100
AcDbLine
 10
368.8586499999999
 20
68.50149999999999
 30
0.0
 11
373.73465
 21
68.50149999999999
 31
0.0
  0
LINE
  5
3EB
330
1E
100
AcDbEntity
  8
0
100
AcDbLine
 10
368.14265
 20
112.5014999999999
 30
0.0
 11
368.14265
 21
112.8255
 31
0.0
  0
LINE
  5
3EC
330
1E
100
AcDbEntity
  8
0
100
AcDbLine
 10
368.14265
 20
123.8054999999999
 30
0.0
 11
368.14265
 21
121.5014999999999
 31
0.0
  0
LINE
  5
3ED
330
1E
100
AcDbEntity
  8
0
100
AcDbLine
 10
368.14265
 20
123.8054999999999
 30
0.0
 11
368.14265
 21
125.9655
 31
0.0
  0
LINE
  5
3EE
330
1E
100
AcDbEntity
  8
0
100
AcDbLine
 10
368.14265
 20
125.9655
 30
0.0
 11
368.14265
 21
123.8054999999999
 31
0.0
  0
LINE
  5
3EF
330
1E
100
AcDbEntity
  8
0
100
AcDbLine
 10
368.14265
 20
125.9655
 30
0.0
 11
368.14265
 21
127.8735
 31
0.0
  0
LINE
  5
3F0
330
1E
100
AcDbEntity
  8
0
100
AcDbLine
 10
368.14265
 20
129.5015
 30
0.0
 11
372.74265
 21
129.5015
 31
0.0
  0
LINE
  5
3F1
330
1E
100
AcDbEntity
  8
0
100
AcDbLine
 10
368.14265
 20
129.5015
 30
0.0
 11
370.26265
 21
129.5015
 31
0.0
  0
LINE
  5
3F2
330
1E
100
AcDbEntity
  8
0
100
AcDbLine
 10
368.14265
 20
127.8735
 30
0.0
 11
368.14265
 21
125.9655
 31
0.0
  0
LINE
  5
3F3
330
1E
100
AcDbEntity
  8
0
100
AcDbLine
 10
368.14265
 20
127.8735
 30
0.0
 11
368.14265
 21
129.3135
 31
0.0
  0
LINE
  5
3F4
330
1E
100
AcDbEntity
  8
0
100
AcDbLine
 10
368.14265
 20
129.3135
 30
0.0
 11
368.14265
 21
127.8735
 31
0.0
  0
LINE
  5
3F5
330
1E
100
AcDbEntity
  8
0
100
AcDbLine
 10
368.14265
 20
129.3135
 30
0.0
 11
368.14265
 21
130.1775
 31
0.0
  0
LINE
  5
3F6
330
1E
100
AcDbEntity
  8
0
100
AcDbLine
 10
368.14265
 20
130.1775
 30
0.0
 11
368.14265
 21
129.3135
 31
0.0
  0
LINE
  5
3F7
330
1E
100
AcDbEntity
  8
0
100
AcDbLine
 10
368.14265
 20
130.1775
 30
0.0
 11
368.14265
 21
130.5015
 31
0.0
  0
LINE
  5
3F8
330
1E
100
AcDbEntity
  8
0
100
AcDbLine
 10
368.14265
 20
130.5015
 30
0.0
 11
368.14265
 21
130.1775
 31
0.0
  0
LINE
  5
3F9
330
1E
100
AcDbEntity
  8
0
100
AcDbLine
 10
368.14265
 20
121.5014999999999
 30
0.0
 11
368.14265
 21
119.1975
 31
0.0
  0
LINE
  5
3FA
330
1E
100
AcDbEntity
  8
0
100
AcDbLine
 10
368.14265
 20
121.5014999999999
 30
0.0
 11
368.14265
 21
123.8054999999999
 31
0.0
  0
LINE
  5
3FB
330
1E
100
AcDbEntity
  8
0
100
AcDbLine
 10
368.14265
 20
119.1975
 30
0.0
 11
368.14265
 21
117.0374999999999
 31
0.0
  0
LINE
  5
3FC
330
1E
100
AcDbEntity
  8
0
100
AcDbLine
 10
368.14265
 20
119.1975
 30
0.0
 11
368.14265
 21
121.5014999999999
 31
0.0
  0
LINE
  5
3FD
330
1E
100
AcDbEntity
  8
0
100
AcDbLine
 10
368.14265
 20
117.0374999999999
 30
0.0
 11
368.14265
 21
115.1294999999999
 31
0.0
  0
LINE
  5
3FE
330
1E
100
AcDbEntity
  8
0
100
AcDbLine
 10
368.14265
 20
117.0374999999999
 30
0.0
 11
368.14265
 21
119.1975
 31
0.0
  0
LINE
  5
3FF
330
1E
100
AcDbEntity
  8
0
100
AcDbLine
 10
368.14265
 20
115.1294999999999
 30
0.0
 11
368.14265
 21
113.6894999999999
 31
0.0
  0
LINE
  5
400
330
1E
100
AcDbEntity
  8
0
100
AcDbLine
 10
368.14265
 20
115.1294999999999
 30
0.0
 11
368.14265
 21
117.0374999999999
 31
0.0
  0
LINE
  5
401
330
1E
100
AcDbEntity
  8
0
100
AcDbLine
 10
368.14265
 20
113.6894999999999
 30
0.0
 11
368.14265
 21
112.8255
 31
0.0
  0
LINE
  5
402
330
1E
100
AcDbEntity
  8
0
100
AcDbLine
 10
368.14265
 20
113.6894999999999
 30
0.0
 11
368.14265
 21
115.1294999999999
 31
0.0
  0
LINE
  5
403
330
1E
100
AcDbEntity
  8
0
100
AcDbLine
 10
370.26265
 20
129.5015
 30
0.0
 11
377.46265
 21
129.5015
 31
0.0
  0
LINE
  5
404
330
1E
100
AcDbEntity
  8
0
100
AcDbLine
 10
368.14265
 20
112.8255
 30
0.0
 11
368.14265
 21
112.5014999999999
 31
0.0
  0
LINE
  5
405
330
1E
100
AcDbEntity
  8
0
100
AcDbLine
 10
368.14265
 20
112.8255
 30
0.0
 11
368.14265
 21
113.6894999999999
 31
0.0
  0
LINE
  5
406
330
1E
100
AcDbEntity
  8
0
100
AcDbLine
 10
368.8586499999999
 20
82.50149999999999
 30
0.0
 11
373.73465
 21
82.50149999999999
 31
0.0
  0
LINE
  5
407
330
1E
100
AcDbEntity
  8
0
100
AcDbLine
 10
372.2466499999999
 20
82.50149999999999
 30
0.0
 11
378.48665
 21
82.50149999999999
 31
0.0
  0
LINE
  5
409
330
1E
100
AcDbEntity
  8
0
100
AcDbLine
 10
373.5666499999999
 20
62.5015
 30
0.0
 11
379.07465
 21
62.5015
 31
0.0
  0
LINE
  5
40A
330
1E
100
AcDbEntity
  8
0
100
AcDbLine
 10
373.5666499999999
 20
37.5015
 30
0.0
 11
379.07465
 21
37.5015
 31
0.0
  0
LINE
  5
40C
330
1E
100
AcDbEntity
  8
0
100
AcDbLine
 10
373.73465
 20
68.50149999999999
 30
0.0
 11
379.25465
 21
68.50149999999999
 31
0.0
  0
LINE
  5
40E
330
1E
100
AcDbEntity
  8
0
100
AcDbLine
 10
379.07465
 20
62.5015
 30
0.0
 11
385.3386499999999
 21
62.5015
 31
0.0
  0
LINE
  5
40F
330
1E
100
AcDbEntity
  8
0
100
AcDbLine
 10
379.07465
 20
37.5015
 30
0.0
 11
385.3386499999999
 21
37.5015
 31
0.0
  0
LINE
  5
411
330
1E
100
AcDbEntity
  8
0
100
AcDbLine
 10
375.2226499999999
 20
68.50149999999999
 30
0.0
 11
380.0226499999999
 21
68.50149999999999
 31
0.0
  0
LINE
  5
412
330
1E
100
AcDbEntity
  8
0
100
AcDbLine
 10
380.0226499999999
 20
68.50149999999999
 30
0.0
 11
385.14265
 21
68.50149999999999
 31
0.0
  0
LINE
  5
413
330
1E
100
AcDbEntity
  8
0
100
AcDbLine
 10
384.14265
 20
68.50149999999999
 30
0.0
 11
384.14265
 21
82.50149999999999
 31
0.0
  0
LINE
  5
414
330
1E
100
AcDbEntity
  8
0
100
AcDbLine
 10
384.14265
 20
68.50149999999999
 30
0.0
 11
386.14265
 21
68.50149999999999
 31
0.0
  0
LINE
  5
415
330
1E
100
AcDbEntity
  8
0
100
AcDbLine
 10
385.14265
 20
68.50149999999999
 30
0.0
 11
391.0306499999999
 21
68.50149999999999
 31
0.0
  0
LINE
  5
416
330
1E
100
AcDbEntity
  8
0
100
AcDbLine
 10
385.14265
 20
68.50149999999999
 30
0.0
 11
390.26265
 21
68.50149999999999
 31
0.0
  0
LINE
  5
417
330
1E
100
AcDbEntity
  8
0
100
AcDbLine
 10
384.14265
 20
82.50149999999999
 30
0.0
 11
384.14265
 21
68.50149999999999
 31
0.0
  0
LINE
  5
418
330
1E
100
AcDbEntity
  8
0
100
AcDbLine
 10
384.14265
 20
82.50149999999999
 30
0.0
 11
386.14265
 21
82.50149999999999
 31
0.0
  0
LINE
  5
419
330
1E
100
AcDbEntity
  8
0
100
AcDbLine
 10
379.25465
 20
68.50149999999999
 30
0.0
 11
385.14265
 21
68.50149999999999
 31
0.0
  0
LINE
  5
41A
330
1E
100
AcDbEntity
  8
0
100
AcDbLine
 10
373.73465
 20
82.50149999999999
 30
0.0
 11
379.25465
 21
82.50149999999999
 31
0.0
  0
LINE
  5
41B
330
1E
100
AcDbEntity
  8
0
100
AcDbLine
 10
379.25465
 20
82.50149999999999
 30
0.0
 11
384.14265
 21
82.50149999999999
 31
0.0
  0
LINE
  5
41C
330
1E
100
AcDbEntity
  8
0
100
AcDbLine
 10
385.3386499999999
 20
62.5015
 30
0.0
 11
392.1426499999999
 21
62.5015
 31
0.0
  0
LINE
  5
41D
330
1E
100
AcDbEntity
  8
0
100
AcDbLine
 10
385.3386499999999
 20
37.5015
 30
0.0
 11
392.1426499999999
 21
37.5015
 31
0.0
  0
LINE
  5
41E
330
1E
100
AcDbEntity
  8
0
100
AcDbLine
 10
386.14265
 20
68.50149999999999
 30
0.0
 11
386.14265
 21
82.50149999999999
 31
0.0
  0
LINE
  5
41F
330
1E
100
AcDbEntity
  8
0
100
AcDbLine
 10
390.26265
 20
68.50149999999999
 30
0.0
 11
395.06265
 21
68.50149999999999
 31
0.0
  0
LINE
  5
420
330
1E
100
AcDbEntity
  8
0
100
AcDbLine
 10
391.0306499999999
 20
68.50149999999999
 30
0.0
 11
396.55065
 21
68.50149999999999
 31
0.0
  0
LINE
  5
421
330
1E
100
AcDbEntity
  8
0
100
AcDbLine
 10
391.0306499999999
 20
82.50149999999999
 30
0.0
 11
396.55065
 21
82.50149999999999
 31
0.0
  0
LINE
  5
422
330
1E
100
AcDbEntity
  8
0
100
AcDbLine
 10
386.14265
 20
82.50149999999999
 30
0.0
 11
391.0306499999999
 21
82.50149999999999
 31
0.0
  0
LINE
  5
423
330
1E
100
AcDbEntity
  8
0
100
AcDbLine
 10
386.14265
 20
82.50149999999999
 30
0.0
 11
386.14265
 21
68.50149999999999
 31
0.0
  0
LINE
  5
424
330
1E
100
AcDbEntity
  8
0
100
AcDbLine
 10
391.7986499999999
 20
82.50149999999999
 30
0.0
 11
398.03865
 21
82.50149999999999
 31
0.0
  0
LINE
  5
425
330
1E
100
AcDbEntity
  8
0
100
AcDbLine
 10
385.14265
 20
82.50149999999999
 30
0.0
 11
391.7986499999999
 21
82.50149999999999
 31
0.0
  0
LINE
  5
426
330
1E
100
AcDbEntity
  8
0
100
AcDbLine
 10
391.7986499999999
 20
84.50149999999998
 30
0.0
 11
398.03865
 21
84.50149999999998
 31
0.0
  0
LINE
  5
427
330
1E
100
AcDbEntity
  8
0
100
AcDbLine
 10
385.14265
 20
84.50149999999998
 30
0.0
 11
391.7986499999999
 21
84.50149999999998
 31
0.0
  0
LINE
  5
428
330
1E
100
AcDbEntity
  8
0
100
AcDbLine
 10
378.48665
 20
82.50149999999999
 30
0.0
 11
385.14265
 21
82.50149999999999
 31
0.0
  0
LINE
  5
429
330
1E
100
AcDbEntity
  8
0
100
AcDbLine
 10
372.2466499999999
 20
84.50149999999998
 30
0.0
 11
378.48665
 21
84.50149999999998
 31
0.0
  0
LINE
  5
42A
330
1E
100
AcDbEntity
  8
0
100
AcDbLine
 10
377.46265
 20
129.5015
 30
0.0
 11
385.14265
 21
129.5015
 31
0.0
  0
LINE
  5
42B
330
1E
100
AcDbEntity
  8
0
100
AcDbLine
 10
378.74265
 20
129.5015
 30
0.0
 11
385.14265
 21
129.5015
 31
0.0
  0
LINE
  5
42C
330
1E
100
AcDbEntity
  8
0
100
AcDbLine
 10
372.74265
 20
129.5015
 30
0.0
 11
378.74265
 21
129.5015
 31
0.0
  0
LINE
  5
42D
330
1E
100
AcDbEntity
  8
0
100
AcDbLine
 10
375.41465
 20
140.5014999999999
 30
0.0
 11
385.14265
 21
140.5014999999999
 31
0.0
  0
LINE
  5
42E
330
1E
100
AcDbEntity
  8
0
100
AcDbLine
 10
385.14265
 20
140.5014999999999
 30
0.0
 11
394.87065
 21
140.5014999999999
 31
0.0
  0
LINE
  5
42F
330
1E
100
AcDbEntity
  8
0
100
AcDbLine
 10
385.14265
 20
136.5014999999999
 30
0.0
 11
394.87065
 21
136.5014999999999
 31
0.0
  0
LINE
  5
430
330
1E
100
AcDbEntity
  8
0
100
AcDbLine
 10
375.41465
 20
136.5014999999999
 30
0.0
 11
385.14265
 21
136.5014999999999
 31
0.0
  0
LINE
  5
431
330
1E
100
AcDbEntity
  8
0
100
AcDbLine
 10
385.14265
 20
129.5015
 30
0.0
 11
391.5426499999999
 21
129.5015
 31
0.0
  0
LINE
  5
432
330
1E
100
AcDbEntity
  8
0
100
AcDbLine
 10
385.14265
 20
129.5015
 30
0.0
 11
392.82265
 21
129.5015
 31
0.0
  0
LINE
  5
433
330
1E
100
AcDbEntity
  8
0
100
AcDbLine
 10
391.5426499999999
 20
129.5015
 30
0.0
 11
397.5426499999999
 21
129.5015
 31
0.0
  0
LINE
  5
434
330
1E
100
AcDbEntity
  8
0
100
AcDbLine
 10
378.48665
 20
84.50149999999998
 30
0.0
 11
385.14265
 21
84.50149999999998
 31
0.0
  0
LINE
  5
435
330
1E
100
AcDbEntity
  8
0
100
AcDbLine
 10
392.82265
 20
129.5015
 30
0.0
 11
400.02265
 21
129.5015
 31
0.0
  0
LINE
  5
436
330
1E
100
AcDbEntity
  8
0
100
AcDbLine
 10
392.1426499999999
 20
62.5015
 30
0.0
 11
458.14265
 21
62.5015
 31
0.0
  0
LINE
  5
437
330
1E
100
AcDbEntity
  8
0
100
AcDbLine
 10
392.1426499999999
 20
37.5015
 30
0.0
 11
458.14265
 21
37.5015
 31
0.0
  0
LINE
  5
438
330
1E
100
AcDbEntity
  8
0
100
AcDbLine
 10
392.05465
 20
150.5015
 30
0.0
 11
398.5346499999999
 21
150.5015
 31
0.0
  0
LINE
  5
439
330
1E
100
AcDbEntity
  8
0
100
AcDbLine
 10
385.14265
 20
150.5015
 30
0.0
 11
394.1026499999999
 21
150.5015
 31
0.0
  0
LINE
  5
43A
330
1E
100
AcDbEntity
  8
0
100
AcDbLine
 10
385.14265
 20
150.5015
 30
0.0
 11
392.05465
 21
150.5015
 31
0.0
  0
LINE
  5
43B
330
1E
100
AcDbEntity
  8
0
100
AcDbLine
 10
395.06265
 20
68.50149999999999
 30
0.0
 11
399.30265
 21
68.50149999999999
 31
0.0
  0
LINE
  5
43C
330
1E
100
AcDbEntity
  8
0
100
AcDbLine
 10
396.55065
 20
68.50149999999999
 30
0.0
 11
401.4266499999999
 21
68.50149999999999
 31
0.0
  0
LINE
  5
43D
330
1E
100
AcDbEntity
  8
0
100
AcDbLine
 10
396.55065
 20
82.50149999999999
 30
0.0
 11
401.4266499999999
 21
82.50149999999999
 31
0.0
  0
LINE
  5
43E
330
1E
100
AcDbEntity
  8
0
100
AcDbLine
 10
394.87065
 20
140.5014999999999
 30
0.0
 11
403.9906499999999
 21
140.5014999999999
 31
0.0
  0
LINE
  5
43F
330
1E
100
AcDbEntity
  8
0
100
AcDbLine
 10
394.87065
 20
136.5014999999999
 30
0.0
 11
403.9906499999999
 21
136.5014999999999
 31
0.0
  0
LINE
  5
440
330
1E
100
AcDbEntity
  8
0
100
AcDbLine
 10
397.5426499999999
 20
129.5015
 30
0.0
 11
402.84265
 21
129.5015
 31
0.0
  0
LINE
  5
441
330
1E
100
AcDbEntity
  8
0
100
AcDbLine
 10
398.03865
 20
82.50149999999999
 30
0.0
 11
403.55065
 21
82.50149999999999
 31
0.0
  0
LINE
  5
442
330
1E
100
AcDbEntity
  8
0
100
AcDbLine
 10
399.30265
 20
68.50149999999999
 30
0.0
 11
402.50265
 21
68.50149999999999
 31
0.0
  0
LINE
  5
443
330
1E
100
AcDbEntity
  8
0
100
AcDbLine
 10
402.50265
 20
68.50149999999999
 30
0.0
 11
404.4226499999999
 21
68.50149999999999
 31
0.0
  0
LINE
  5
444
330
1E
100
AcDbEntity
  8
0
100
AcDbLine
 10
401.4266499999999
 20
68.50149999999999
 30
0.0
 11
405.10665
 21
68.50149999999999
 31
0.0
  0
LINE
  5
445
330
1E
100
AcDbEntity
  8
0
100
AcDbLine
 10
401.4266499999999
 20
82.50149999999999
 30
0.0
 11
404.12865
 21
82.50149999999999
 31
0.0
  0
LINE
  5
446
330
1E
100
AcDbEntity
  8
0
100
AcDbLine
 10
404.12865
 20
82.50149999999999
 30
0.0
 11
406.72665
 21
82.50149999999999
 31
0.0
  0
LINE
  5
447
330
1E
100
AcDbEntity
  8
0
100
AcDbLine
 10
404.12865
 20
68.50149999999999
 30
0.0
 11
406.72665
 21
68.50149999999999
 31
0.0
  0
LINE
  5
448
330
1E
100
AcDbEntity
  8
0
100
AcDbLine
 10
404.12865
 20
68.50149999999999
 30
0.0
 11
405.1286499999999
 21
68.50149999999999
 31
0.0
  0
LINE
  5
449
330
1E
100
AcDbEntity
  8
0
100
AcDbLine
 10
403.55065
 20
82.50149999999999
 30
0.0
 11
407.71065
 21
82.50149999999999
 31
0.0
  0
LINE
  5
44A
330
1E
100
AcDbEntity
  8
0
100
AcDbLine
 10
400.02265
 20
129.5015
 30
0.0
 11
406.38265
 21
129.5015
 31
0.0
  0
LINE
  5
44B
330
1E
100
AcDbEntity
  8
0
100
AcDbLine
 10
403.9906499999999
 20
140.5014999999999
 30
0.0
 11
412.04665
 21
140.5014999999999
 31
0.0
  0
LINE
  5
44C
330
1E
100
AcDbEntity
  8
0
100
AcDbLine
 10
403.9906499999999
 20
136.5014999999999
 30
0.0
 11
412.04665
 21
136.5014999999999
 31
0.0
  0
LINE
  5
44D
330
1E
100
AcDbEntity
  8
0
100
AcDbLine
 10
402.84265
 20
129.5015
 30
0.0
 11
406.84265
 21
129.5015
 31
0.0
  0
LINE
  5
44E
330
1E
100
AcDbEntity
  8
0
100
AcDbLine
 10
403.55065
 20
84.50149999999998
 30
0.0
 11
407.71065
 21
84.50149999999998
 31
0.0
  0
LINE
  5
44F
330
1E
100
AcDbEntity
  8
0
100
AcDbLine
 10
398.03865
 20
84.50149999999998
 30
0.0
 11
403.55065
 21
84.50149999999998
 31
0.0
  0
LINE
  5
450
330
1E
100
AcDbEntity
  8
0
100
AcDbLine
 10
398.5346499999999
 20
150.5015
 30
0.0
 11
404.2586499999999
 21
150.5015
 31
0.0
  0
LINE
  5
451
330
1E
100
AcDbEntity
  8
0
100
AcDbLine
 10
405.1426499999999
 20
62.5015
 30
0.0
 11
405.1426499999999
 21
68.50149999999999
 31
0.0
  0
LINE
  5
452
330
1E
100
AcDbEntity
  8
0
100
AcDbLine
 10
406.72665
 20
68.50149999999999
 30
0.0
 11
407.72665
 21
68.50149999999999
 31
0.0
  0
LINE
  5
453
330
1E
100
AcDbEntity
  8
0
100
AcDbLine
 10
407.31465
 20
68.50149999999999
 30
0.0
 11
408.14265
 21
68.50149999999999
 31
0.0
  0
LINE
  5
454
330
1E
100
AcDbEntity
  8
0
100
AcDbLine
 10
404.4226499999999
 20
68.50149999999999
 30
0.0
 11
405.1426499999999
 21
68.50149999999999
 31
0.0
  0
LINE
  5
455
330
1E
100
AcDbEntity
  8
0
100
AcDbLine
 10
405.1426499999999
 20
68.50149999999999
 30
0.0
 11
405.1426499999999
 21
62.5015
 31
0.0
  0
LINE
  5
456
330
1E
100
AcDbEntity
  8
0
100
AcDbLine
 10
406.72665
 20
68.50149999999999
 30
0.0
 11
406.72665
 21
82.50149999999999
 31
0.0
  0
LINE
  5
457
330
1E
100
AcDbEntity
  8
0
100
AcDbLine
 10
406.72665
 20
68.50149999999999
 30
0.0
 11
407.72665
 21
68.50149999999999
 31
0.0
  0
LINE
  5
458
330
1E
100
AcDbEntity
  8
0
100
AcDbLine
 10
405.1286499999999
 20
68.50149999999999
 30
0.0
 11
407.72665
 21
68.50149999999999
 31
0.0
  0
LINE
  5
459
330
1E
100
AcDbEntity
  8
0
100
AcDbLine
 10
406.72665
 20
82.50149999999999
 30
0.0
 11
407.72665
 21
82.50149999999999
 31
0.0
  0
LINE
  5
45A
330
1E
100
AcDbEntity
  8
0
100
AcDbLine
 10
406.72665
 20
82.50149999999999
 30
0.0
 11
406.72665
 21
68.50149999999999
 31
0.0
  0
LINE
  5
45B
330
1E
100
AcDbEntity
  8
0
100
AcDbLine
 10
407.31465
 20
68.50149999999999
 30
0.0
 11
408.14265
 21
68.50149999999999
 31
0.0
  0
LINE
  5
45C
330
1E
100
AcDbEntity
  8
0
100
AcDbLine
 10
405.10665
 20
68.50149999999999
 30
0.0
 11
407.31465
 21
68.50149999999999
 31
0.0
  0
LINE
  5
45D
330
1E
100
AcDbEntity
  8
0
100
AcDbLine
 10
405.1426499999999
 20
68.50149999999999
 30
0.0
 11
407.31465
 21
68.50149999999999
 31
0.0
  0
LINE
  5
45E
330
1E
100
AcDbEntity
  8
0
100
AcDbLine
 10
405.1426499999999
 20
68.50149999999999
 30
0.0
 11
406.72665
 21
68.50149999999999
 31
0.0
  0
LINE
  5
45F
330
1E
100
AcDbEntity
  8
0
100
AcDbLine
 10
405.1426499999999
 20
68.50149999999999
 30
0.0
 11
407.72665
 21
68.50149999999999
 31
0.0
  0
LINE
  5
460
330
1E
100
AcDbEntity
  8
0
100
AcDbLine
 10
407.72665
 20
68.50149999999999
 30
0.0
 11
407.72665
 21
82.50149999999999
 31
0.0
  0
LINE
  5
461
330
1E
100
AcDbEntity
  8
0
100
AcDbLine
 10
408.14265
 20
68.50149999999999
 30
0.0
 11
408.14265
 21
82.50149999999999
 31
0.0
  0
LINE
  5
462
330
1E
100
AcDbEntity
  8
0
100
AcDbLine
 10
407.72665
 20
82.50149999999999
 30
0.0
 11
408.14265
 21
82.50149999999999
 31
0.0
  0
LINE
  5
463
330
1E
100
AcDbEntity
  8
0
100
AcDbLine
 10
407.72665
 20
82.50149999999999
 30
0.0
 11
407.72665
 21
68.50149999999999
 31
0.0
  0
LINE
  5
464
330
1E
100
AcDbEntity
  8
0
100
AcDbLine
 10
407.71065
 20
82.50149999999999
 30
0.0
 11
410.20665
 21
82.50149999999999
 31
0.0
  0
LINE
  5
465
330
1E
100
AcDbEntity
  8
0
100
AcDbLine
 10
406.38265
 20
129.5015
 30
0.0
 11
411.18265
 21
129.5015
 31
0.0
  0
LINE
  5
466
330
1E
100
AcDbEntity
  8
0
100
AcDbLine
 10
406.84265
 20
129.5015
 30
0.0
 11
409.24265
 21
129.5015
 31
0.0
  0
LINE
  5
467
330
1E
100
AcDbEntity
  8
0
100
AcDbLine
 10
409.24265
 20
129.5015
 30
0.0
 11
410.14265
 21
129.5015
 31
0.0
  0
LINE
  5
468
330
1E
100
AcDbEntity
  8
0
100
AcDbLine
 10
407.71065
 20
84.50149999999998
 30
0.0
 11
410.20665
 21
84.50149999999998
 31
0.0
  0
LINE
  5
469
330
1E
100
AcDbEntity
  8
0
100
AcDbLine
 10
408.14265
 20
82.50149999999999
 30
0.0
 11
410.20665
 21
82.50149999999999
 31
0.0
  0
LINE
  5
46A
330
1E
100
AcDbEntity
  8
0
100
AcDbLine
 10
408.14265
 20
82.50149999999999
 30
0.0
 11
408.14265
 21
68.50149999999999
 31
0.0
  0
LINE
  5
46B
330
1E
100
AcDbEntity
  8
0
100
AcDbLine
 10
404.2586499999999
 20
150.5015
 30
0.0
 11
408.57865
 21
150.5015
 31
0.0
  0
LINE
  5
46C
330
1E
100
AcDbEntity
  8
0
100
AcDbLine
 10
408.57865
 20
150.5015
 30
0.0
 11
411.17065
 21
150.5015
 31
0.0
  0
LINE
  5
46D
330
1E
100
AcDbEntity
  8
0
100
AcDbLine
 10
394.1026499999999
 20
150.5015
 30
0.0
 11
402.50265
 21
150.5015
 31
0.0
  0
LINE
  5
46E
330
1E
100
AcDbEntity
  8
0
100
AcDbLine
 10
402.50265
 20
150.5015
 30
0.0
 11
409.9226499999999
 21
150.5015
 31
0.0
  0
LINE
  5
46F
330
1E
100
AcDbEntity
  8
0
100
AcDbLine
 10
410.14265
 20
84.50149999999998
 30
0.0
 11
410.14265
 21
129.5015
 31
0.0
  0
LINE
  5
470
330
1E
100
AcDbEntity
  8
0
100
AcDbLine
 10
410.14265
 20
129.5015
 30
0.0
 11
410.14265
 21
84.50149999999998
 31
0.0
  0
LINE
  5
471
330
1E
100
AcDbEntity
  8
0
100
AcDbLine
 10
410.14265
 20
129.5015
 30
0.0
 11
411.18265
 21
129.5015
 31
0.0
  0
LINE
  5
472
330
1E
100
AcDbEntity
  8
0
100
AcDbLine
 10
410.20665
 20
84.50149999999998
 30
0.0
 11
411.14265
 21
84.50149999999998
 31
0.0
  0
LINE
  5
473
330
1E
100
AcDbEntity
  8
0
100
AcDbLine
 10
411.14265
 20
82.50149999999999
 30
0.0
 11
411.14265
 21
84.50149999999998
 31
0.0
  0
LINE
  5
474
330
1E
100
AcDbEntity
  8
0
100
AcDbLine
 10
412.04665
 20
140.5014999999999
 30
0.0
 11
418.1266499999999
 21
140.5014999999999
 31
0.0
  0
LINE
  5
475
330
1E
100
AcDbEntity
  8
0
100
AcDbLine
 10
412.04665
 20
136.5014999999999
 30
0.0
 11
418.1266499999999
 21
136.5014999999999
 31
0.0
  0
LINE
  5
476
330
1E
100
AcDbEntity
  8
0
100
AcDbLine
 10
411.18265
 20
129.5015
 30
0.0
 11
414.06265
 21
129.5015
 31
0.0
  0
LINE
  5
477
330
1E
100
AcDbEntity
  8
0
100
AcDbLine
 10
415.14265
 20
136.5014999999999
 30
0.0
 11
418.1266499999999
 21
136.5014999999999
 31
0.0
  0
LINE
  5
478
330
1E
100
AcDbEntity
  8
0
100
AcDbLine
 10
418.1266499999999
 20
136.5014999999999
 30
0.0
 11
421.77465
 21
136.5014999999999
 31
0.0
  0
LINE
  5
479
330
1E
100
AcDbEntity
  8
0
100
AcDbLine
 10
418.1266499999999
 20
136.5014999999999
 30
0.0
 11
421.77465
 21
136.5014999999999
 31
0.0
  0
LINE
  5
47A
330
1E
100
AcDbEntity
  8
0
100
AcDbLine
 10
415.14265
 20
129.5015
 30
0.0
 11
415.14265
 21
136.5014999999999
 31
0.0
  0
LINE
  5
47B
330
1E
100
AcDbEntity
  8
0
100
AcDbLine
 10
418.1266499999999
 20
140.5014999999999
 30
0.0
 11
421.77465
 21
140.5014999999999
 31
0.0
  0
LINE
  5
47C
330
1E
100
AcDbEntity
  8
0
100
AcDbLine
 10
415.14265
 20
136.5014999999999
 30
0.0
 11
415.14265
 21
129.5015
 31
0.0
  0
LINE
  5
47D
330
1E
100
AcDbEntity
  8
0
100
AcDbLine
 10
414.06265
 20
129.5015
 30
0.0
 11
415.14265
 21
129.5015
 31
0.0
  0
LINE
  5
47E
330
1E
100
AcDbEntity
  8
0
100
AcDbLine
 10
411.14265
 20
84.50149999999998
 30
0.0
 11
411.14265
 21
82.50149999999999
 31
0.0
  0
LINE
  5
47F
330
1E
100
AcDbEntity
  8
0
100
AcDbLine
 10
410.20665
 20
82.50149999999999
 30
0.0
 11
411.14265
 21
82.50149999999999
 31
0.0
  0
LINE
  5
480
330
1E
100
AcDbEntity
  8
0
100
AcDbLine
 10
412.14265
 20
150.5015
 30
0.0
 11
412.14265
 21
140.5014999999999
 31
0.0
  0
LINE
  5
481
330
1E
100
AcDbEntity
  8
0
100
AcDbLine
 10
412.14265
 20
150.5015
 30
0.0
 11
415.52265
 21
150.5015
 31
0.0
  0
LINE
  5
482
330
1E
100
AcDbEntity
  8
0
100
AcDbLine
 10
411.17065
 20
150.5015
 30
0.0
 11
412.14265
 21
150.5015
 31
0.0
  0
LINE
  5
483
330
1E
100
AcDbEntity
  8
0
100
AcDbLine
 10
412.14265
 20
140.5014999999999
 30
0.0
 11
412.14265
 21
150.5015
 31
0.0
  0
LINE
  5
484
330
1E
100
AcDbEntity
  8
0
100
AcDbLine
 10
409.9226499999999
 20
150.5015
 30
0.0
 11
415.52265
 21
150.5015
 31
0.0
  0
LINE
  5
485
330
1E
100
AcDbEntity
  8
0
100
AcDbLine
 10
415.52265
 20
150.5015
 30
0.0
 11
418.88265
 21
150.5015
 31
0.0
  0
LINE
  5
486
330
1E
100
AcDbEntity
  8
0
100
AcDbLine
 10
442.55865
 20
64.50149999999999
 30
0.0
 11
442.55865
 21
78.50149999999999
 31
0.0
  0
LINE
  5
487
330
1E
100
AcDbEntity
  8
0
100
AcDbLine
 10
442.55865
 20
64.50149999999999
 30
0.0
 11
445.15665
 21
64.50149999999999
 31
0.0
  0
LINE
  5
488
330
1E
100
AcDbEntity
  8
0
100
AcDbLine
 10
442.55865
 20
64.50149999999999
 30
0.0
 11
443.55865
 21
64.50149999999999
 31
0.0
  0
LINE
  5
489
330
1E
100
AcDbEntity
  8
0
100
AcDbLine
 10
442.55865
 20
64.50149999999999
 30
0.0
 11
445.14265
 21
64.50149999999999
 31
0.0
  0
LINE
  5
48A
330
1E
100
AcDbEntity
  8
0
100
AcDbLine
 10
442.55865
 20
78.50149999999999
 30
0.0
 11
442.55865
 21
64.50149999999999
 31
0.0
  0
LINE
  5
48B
330
1E
100
AcDbEntity
  8
0
100
AcDbLine
 10
442.55865
 20
78.50149999999999
 30
0.0
 11
443.55865
 21
78.50149999999999
 31
0.0
  0
LINE
  5
48C
330
1E
100
AcDbEntity
  8
0
100
AcDbLine
 10
442.1426499999999
 20
78.50149999999999
 30
0.0
 11
442.1426499999999
 21
64.50149999999999
 31
0.0
  0
LINE
  5
48D
330
1E
100
AcDbEntity
  8
0
100
AcDbLine
 10
442.1426499999999
 20
78.50149999999999
 30
0.0
 11
442.55865
 21
78.50149999999999
 31
0.0
  0
LINE
  5
48E
330
1E
100
AcDbEntity
  8
0
100
AcDbLine
 10
442.1426499999999
 20
64.50149999999999
 30
0.0
 11
442.9706499999999
 21
64.50149999999999
 31
0.0
  0
LINE
  5
48F
330
1E
100
AcDbEntity
  8
0
100
AcDbLine
 10
442.1426499999999
 20
64.50149999999999
 30
0.0
 11
442.1426499999999
 21
78.50149999999999
 31
0.0
  0
LINE
  5
490
330
1E
100
AcDbEntity
  8
0
100
AcDbLine
 10
445.14265
 20
62.5015
 30
0.0
 11
445.14265
 21
64.50149999999999
 31
0.0
  0
LINE
  5
491
330
1E
100
AcDbEntity
  8
0
100
AcDbLine
 10
445.14265
 20
64.50149999999999
 30
0.0
 11
445.14265
 21
62.5015
 31
0.0
  0
LINE
  5
492
330
1E
100
AcDbEntity
  8
0
100
AcDbLine
 10
445.15665
 20
64.50149999999999
 30
0.0
 11
446.1566499999999
 21
64.50149999999999
 31
0.0
  0
LINE
  5
493
330
1E
100
AcDbEntity
  8
0
100
AcDbLine
 10
443.55865
 20
64.50149999999999
 30
0.0
 11
443.55865
 21
78.50149999999999
 31
0.0
  0
LINE
  5
494
330
1E
100
AcDbEntity
  8
0
100
AcDbLine
 10
443.55865
 20
64.50149999999999
 30
0.0
 11
446.1566499999999
 21
64.50149999999999
 31
0.0
  0
LINE
  5
495
330
1E
100
AcDbEntity
  8
0
100
AcDbLine
 10
443.55865
 20
64.50149999999999
 30
0.0
 11
445.14265
 21
64.50149999999999
 31
0.0
  0
LINE
  5
496
330
1E
100
AcDbEntity
  8
0
100
AcDbLine
 10
445.1786499999999
 20
64.50149999999999
 30
0.0
 11
448.85865
 21
64.50149999999999
 31
0.0
  0
LINE
  5
497
330
1E
100
AcDbEntity
  8
0
100
AcDbLine
 10
448.85865
 20
64.50149999999999
 30
0.0
 11
453.7346499999999
 21
64.50149999999999
 31
0.0
  0
LINE
  5
498
330
1E
100
AcDbEntity
  8
0
100
AcDbLine
 10
443.55865
 20
78.50149999999999
 30
0.0
 11
443.55865
 21
64.50149999999999
 31
0.0
  0
LINE
  5
499
330
1E
100
AcDbEntity
  8
0
100
AcDbLine
 10
443.55865
 20
78.50149999999999
 30
0.0
 11
446.1566499999999
 21
78.50149999999999
 31
0.0
  0
LINE
  5
49A
330
1E
100
AcDbEntity
  8
0
100
AcDbLine
 10
446.1566499999999
 20
78.50149999999999
 30
0.0
 11
448.85865
 21
78.50149999999999
 31
0.0
  0
LINE
  5
49B
330
1E
100
AcDbEntity
  8
0
100
AcDbLine
 10
448.85865
 20
78.50149999999999
 30
0.0
 11
453.7346499999999
 21
78.50149999999999
 31
0.0
  0
LINE
  5
49C
330
1E
100
AcDbEntity
  8
0
100
AcDbLine
 10
442.9706499999999
 20
64.50149999999999
 30
0.0
 11
445.14265
 21
64.50149999999999
 31
0.0
  0
LINE
  5
49D
330
1E
100
AcDbEntity
  8
0
100
AcDbLine
 10
442.9706499999999
 20
64.50149999999999
 30
0.0
 11
445.1786499999999
 21
64.50149999999999
 31
0.0
  0
LINE
  5
49E
330
1E
100
AcDbEntity
  8
0
100
AcDbLine
 10
442.57465
 20
78.50149999999999
 30
0.0
 11
446.7346499999999
 21
78.50149999999999
 31
0.0
  0
LINE
  5
49F
330
1E
100
AcDbEntity
  8
0
100
AcDbLine
 10
446.7346499999999
 20
78.50149999999999
 30
0.0
 11
452.24665
 21
78.50149999999999
 31
0.0
  0
LINE
  5
4A0
330
1E
100
AcDbEntity
  8
0
100
AcDbLine
 10
458.14265
 20
62.5015
 30
0.0
 11
464.9466499999999
 21
62.5015
 31
0.0
  0
LINE
  5
4A1
330
1E
100
AcDbEntity
  8
0
100
AcDbLine
 10
458.14265
 20
37.5015
 30
0.0
 11
464.9466499999999
 21
37.5015
 31
0.0
  0
LINE
  5
4A2
330
1E
100
AcDbEntity
  8
0
100
AcDbLine
 10
464.9466499999999
 20
62.5015
 30
0.0
 11
471.2106499999999
 21
62.5015
 31
0.0
  0
LINE
  5
4A5
330
1E
100
AcDbEntity
  8
0
100
AcDbLine
 10
464.9466499999999
 20
37.5015
 30
0.0
 11
471.2106499999999
 21
37.5015
 31
0.0
  0
LINE
  5
4A6
330
1E
100
AcDbEntity
  8
0
100
AcDbLine
 10
464.14265
 20
64.50149999999999
 30
0.0
 11
464.14265
 21
78.50149999999999
 31
0.0
  0
LINE
  5
4A7
330
1E
100
AcDbEntity
  8
0
100
AcDbLine
 10
464.14265
 20
64.50149999999999
 30
0.0
 11
466.14265
 21
64.50149999999999
 31
0.0
  0
LINE
  5
4A8
330
1E
100
AcDbEntity
  8
0
100
AcDbLine
 10
466.14265
 20
64.50149999999999
 30
0.0
 11
466.14265
 21
78.50149999999999
 31
0.0
  0
LINE
  5
4A9
330
1E
100
AcDbEntity
  8
0
100
AcDbLine
 10
453.7346499999999
 20
64.50149999999999
 30
0.0
 11
459.25465
 21
64.50149999999999
 31
0.0
  0
LINE
  5
4AA
330
1E
100
AcDbEntity
  8
0
100
AcDbLine
 10
459.25465
 20
64.50149999999999
 30
0.0
 11
465.14265
 21
64.50149999999999
 31
0.0
  0
LINE
  5
4AB
330
1E
100
AcDbEntity
  8
0
100
AcDbLine
 10
471.0306499999999
 20
64.50149999999999
 30
0.0
 11
476.5506499999999
 21
64.50149999999999
 31
0.0
  0
LINE
  5
4AC
330
1E
100
AcDbEntity
  8
0
100
AcDbLine
 10
453.7346499999999
 20
78.50149999999999
 30
0.0
 11
459.25465
 21
78.50149999999999
 31
0.0
  0
LINE
  5
4AD
330
1E
100
AcDbEntity
  8
0
100
AcDbLine
 10
464.14265
 20
78.50149999999999
 30
0.0
 11
466.14265
 21
78.50149999999999
 31
0.0
  0
LINE
  5
4AE
330
1E
100
AcDbEntity
  8
0
100
AcDbLine
 10
464.14265
 20
78.50149999999999
 30
0.0
 11
464.14265
 21
64.50149999999999
 31
0.0
  0
LINE
  5
4AF
330
1E
100
AcDbEntity
  8
0
100
AcDbLine
 10
459.25465
 20
78.50149999999999
 30
0.0
 11
464.14265
 21
78.50149999999999
 31
0.0
  0
LINE
  5
4B0
330
1E
100
AcDbEntity
  8
0
100
AcDbLine
 10
465.14265
 20
64.50149999999999
 30
0.0
 11
471.0306499999999
 21
64.50149999999999
 31
0.0
  0
LINE
  5
4B1
330
1E
100
AcDbEntity
  8
0
100
AcDbLine
 10
471.2106499999999
 20
37.5015
 30
0.0
 11
476.71865
 21
37.5015
 31
0.0
  0
LINE
  5
4B2
330
1E
100
AcDbEntity
  8
0
100
AcDbLine
 10
471.2106499999999
 20
62.5015
 30
0.0
 11
476.71865
 21
62.5015
 31
0.0
  0
LINE
  5
4B5
330
1E
100
AcDbEntity
  8
0
100
AcDbLine
 10
471.0306499999999
 20
78.50149999999999
 30
0.0
 11
476.5506499999999
 21
78.50149999999999
 31
0.0
  0
LINE
  5
4B6
330
1E
100
AcDbEntity
  8
0
100
AcDbLine
 10
466.14265
 20
78.50149999999999
 30
0.0
 11
471.0306499999999
 21
78.50149999999999
 31
0.0
  0
LINE
  5
4B7
330
1E
100
AcDbEntity
  8
0
100
AcDbLine
 10
466.14265
 20
78.50149999999999
 30
0.0
 11
466.14265
 21
64.50149999999999
 31
0.0
  0
LINE
  5
4B8
330
1E
100
AcDbEntity
  8
0
100
AcDbLine
 10
452.24665
 20
78.50149999999999
 30
0.0
 11
458.48665
 21
78.50149999999999
 31
0.0
  0
LINE
  5
4B9
330
1E
100
AcDbEntity
  8
0
100
AcDbLine
 10
458.48665
 20
78.50149999999999
 30
0.0
 11
465.14265
 21
78.50149999999999
 31
0.0
  0
LINE
  5
4BA
330
1E
100
AcDbEntity
  8
0
100
AcDbLine
 10
439.14265
 20
78.50149999999999
 30
0.0
 11
440.0786499999999
 21
78.50149999999999
 31
0.0
  0
LINE
  5
4BB
330
1E
100
AcDbEntity
  8
0
100
AcDbLine
 10
439.14265
 20
78.50149999999999
 30
0.0
 11
439.14265
 21
80.5015
 31
0.0
  0
LINE
  5
4BC
330
1E
100
AcDbEntity
  8
0
100
AcDbLine
 10
440.0786499999999
 20
78.50149999999999
 30
0.0
 11
442.1426499999999
 21
78.50149999999999
 31
0.0
  0
LINE
  5
4BD
330
1E
100
AcDbEntity
  8
0
100
AcDbLine
 10
440.0786499999999
 20
78.50149999999999
 30
0.0
 11
442.57465
 21
78.50149999999999
 31
0.0
  0
LINE
  5
4BE
330
1E
100
AcDbEntity
  8
0
100
AcDbLine
 10
471.79865
 20
78.50149999999999
 30
0.0
 11
478.03865
 21
78.50149999999999
 31
0.0
  0
LINE
  5
4BF
330
1E
100
AcDbEntity
  8
0
100
AcDbLine
 10
440.0786499999999
 20
80.5015
 30
0.0
 11
442.57465
 21
80.5015
 31
0.0
  0
LINE
  5
4C0
330
1E
100
AcDbEntity
  8
0
100
AcDbLine
 10
445.14265
 20
80.5015
 30
0.0
 11
446.88065
 21
93.70130000000001
 31
0.0
  0
LINE
  5
4C1
330
1E
100
AcDbEntity
  8
0
100
AcDbLine
 10
442.57465
 20
80.5015
 30
0.0
 11
446.7346499999999
 21
80.5015
 31
0.0
  0
LINE
  5
4C2
330
1E
100
AcDbEntity
  8
0
100
AcDbLine
 10
446.7346499999999
 20
80.5015
 30
0.0
 11
452.24665
 21
80.5015
 31
0.0
  0
LINE
  5
4C3
330
1E
100
AcDbEntity
  8
0
100
AcDbLine
 10
452.24665
 20
80.5015
 30
0.0
 11
458.48665
 21
80.5015
 31
0.0
  0
LINE
  5
4C4
330
1E
100
AcDbEntity
  8
0
100
AcDbLine
 10
458.48665
 20
80.5015
 30
0.0
 11
465.14265
 21
80.5015
 31
0.0
  0
LINE
  5
4C5
330
1E
100
AcDbEntity
  8
0
100
AcDbLine
 10
439.14265
 20
80.5015
 30
0.0
 11
439.14265
 21
78.50149999999999
 31
0.0
  0
LINE
  5
4C6
330
1E
100
AcDbEntity
  8
0
100
AcDbLine
 10
439.14265
 20
80.5015
 30
0.0
 11
440.0786499999999
 21
80.5015
 31
0.0
  0
LINE
  5
4C7
330
1E
100
AcDbEntity
  8
0
100
AcDbLine
 10
465.14265
 20
78.50149999999999
 30
0.0
 11
471.79865
 21
78.50149999999999
 31
0.0
  0
LINE
  5
4C8
330
1E
100
AcDbEntity
  8
0
100
AcDbLine
 10
476.71865
 20
37.5015
 30
0.0
 11
480.9306499999999
 21
37.5015
 31
0.0
  0
LINE
  5
4C9
330
1E
100
AcDbEntity
  8
0
100
AcDbLine
 10
476.71865
 20
62.5015
 30
0.0
 11
480.9306499999999
 21
62.5015
 31
0.0
  0
LINE
  5
4CB
330
1E
100
AcDbEntity
  8
0
100
AcDbLine
 10
480.9306499999999
 20
62.5015
 30
0.0
 11
485.14265
 21
62.5015
 31
0.0
  0
LINE
  5
4CD
330
1E
100
AcDbEntity
  8
0
100
AcDbLine
 10
480.9306499999999
 20
37.5015
 30
0.0
 11
483.52265
 21
37.5015
 31
0.0
  0
LINE
  5
4CE
330
1E
100
AcDbEntity
  8
0
100
AcDbLine
 10
481.42665
 20
64.50149999999999
 30
0.0
 11
485.1066499999999
 21
64.50149999999999
 31
0.0
  0
LINE
  5
4CF
330
1E
100
AcDbEntity
  8
0
100
AcDbLine
 10
476.5506499999999
 20
64.50149999999999
 30
0.0
 11
481.42665
 21
64.50149999999999
 31
0.0
  0
LINE
  5
4D2
330
1E
100
AcDbEntity
  8
0
100
AcDbLine
 10
483.52265
 20
37.5015
 30
0.0
 11
484.4946499999999
 21
37.5015
 31
0.0
  0
LINE
  5
4D3
330
1E
100
AcDbEntity
  8
0
100
AcDbLine
 10
481.42665
 20
78.50149999999999
 30
0.0
 11
484.1286499999999
 21
78.50149999999999
 31
0.0
  0
LINE
  5
4D4
330
1E
100
AcDbEntity
  8
0
100
AcDbLine
 10
476.5506499999999
 20
78.50149999999999
 30
0.0
 11
481.42665
 21
78.50149999999999
 31
0.0
  0
LINE
  5
4D5
330
1E
100
AcDbEntity
  8
0
100
AcDbLine
 10
483.55065
 20
78.50149999999999
 30
0.0
 11
487.71065
 21
78.50149999999999
 31
0.0
  0
LINE
  5
4D6
330
1E
100
AcDbEntity
  8
0
100
AcDbLine
 10
478.03865
 20
78.50149999999999
 30
0.0
 11
483.55065
 21
78.50149999999999
 31
0.0
  0
LINE
  5
4D7
330
1E
100
AcDbEntity
  8
0
100
AcDbLine
 10
485.14265
 20
38.4635
 30
0.0
 11
485.14265
 21
61.53999999999999
 31
0.0
  0
LINE
  5
4D8
330
1E
100
AcDbEntity
  8
0
100
AcDbLine
 10
484.4946499999999
 20
37.5015
 30
0.0
 11
485.14265
 21
38.4635
 31
0.0
  0
LINE
  5
4DA
330
1E
100
AcDbEntity
  8
0
100
AcDbLine
 10
485.14265
 20
61.53999999999999
 30
0.0
 11
485.14265
 21
38.4635
 31
0.0
  0
LINE
  5
4DB
330
1E
100
AcDbEntity
  8
0
100
AcDbLine
 10
485.14265
 20
55.5015
 30
0.0
 11
485.14265
 21
64.50149999999999
 31
0.0
  0
LINE
  5
4DC
330
1E
100
AcDbEntity
  8
0
100
AcDbLine
 10
484.1286499999999
 20
64.50149999999999
 30
0.0
 11
486.72665
 21
64.50149999999999
 31
0.0
  0
LINE
  5
4DD
330
1E
100
AcDbEntity
  8
0
100
AcDbLine
 10
484.1286499999999
 20
64.50149999999999
 30
0.0
 11
485.1286499999999
 21
64.50149999999999
 31
0.0
  0
LINE
  5
4DE
330
1E
100
AcDbEntity
  8
0
100
AcDbLine
 10
485.1286499999999
 20
64.50149999999999
 30
0.0
 11
487.72665
 21
64.50149999999999
 31
0.0
  0
LINE
  5
4DF
330
1E
100
AcDbEntity
  8
0
100
AcDbLine
 10
486.72665
 20
64.50149999999999
 30
0.0
 11
487.72665
 21
64.50149999999999
 31
0.0
  0
LINE
  5
4E0
330
1E
100
AcDbEntity
  8
0
100
AcDbLine
 10
486.72665
 20
64.50149999999999
 30
0.0
 11
486.72665
 21
78.50149999999999
 31
0.0
  0
LINE
  5
4E1
330
1E
100
AcDbEntity
  8
0
100
AcDbLine
 10
485.14265
 20
64.50149999999999
 30
0.0
 11
487.3146499999999
 21
64.50149999999999
 31
0.0
  0
LINE
  5
4E2
330
1E
100
AcDbEntity
  8
0
100
AcDbLine
 10
485.14265
 20
64.50149999999999
 30
0.0
 11
486.72665
 21
64.50149999999999
 31
0.0
  0
LINE
  5
4E3
330
1E
100
AcDbEntity
  8
0
100
AcDbLine
 10
485.14265
 20
64.50149999999999
 30
0.0
 11
487.72665
 21
64.50149999999999
 31
0.0
  0
LINE
  5
4E4
330
1E
100
AcDbEntity
  8
0
100
AcDbLine
 10
485.14265
 20
64.50149999999999
 30
0.0
 11
485.14265
 21
55.5015
 31
0.0
  0
LINE
  5
4E5
330
1E
100
AcDbEntity
  8
0
100
AcDbLine
 10
487.72665
 20
64.50149999999999
 30
0.0
 11
487.72665
 21
78.50149999999999
 31
0.0
  0
LINE
  5
4E6
330
1E
100
AcDbEntity
  8
0
100
AcDbLine
 10
487.3146499999999
 20
64.50149999999999
 30
0.0
 11
488.1426499999999
 21
64.50149999999999
 31
0.0
  0
LINE
  5
4E7
330
1E
100
AcDbEntity
  8
0
100
AcDbLine
 10
484.1286499999999
 20
78.50149999999999
 30
0.0
 11
486.72665
 21
78.50149999999999
 31
0.0
  0
LINE
  5
4E8
330
1E
100
AcDbEntity
  8
0
100
AcDbLine
 10
486.72665
 20
78.50149999999999
 30
0.0
 11
487.72665
 21
78.50149999999999
 31
0.0
  0
LINE
  5
4E9
330
1E
100
AcDbEntity
  8
0
100
AcDbLine
 10
486.72665
 20
78.50149999999999
 30
0.0
 11
486.72665
 21
64.50149999999999
 31
0.0
  0
LINE
  5
4EA
330
1E
100
AcDbEntity
  8
0
100
AcDbLine
 10
485.1066499999999
 20
64.50149999999999
 30
0.0
 11
487.3146499999999
 21
64.50149999999999
 31
0.0
  0
LINE
  5
4EB
330
1E
100
AcDbEntity
  8
0
100
AcDbLine
 10
488.1426499999999
 20
64.50149999999999
 30
0.0
 11
488.1426499999999
 21
78.50149999999999
 31
0.0
  0
LINE
  5
4EC
330
1E
100
AcDbEntity
  8
0
100
AcDbLine
 10
487.72665
 20
78.50149999999999
 30
0.0
 11
488.1426499999999
 21
78.50149999999999
 31
0.0
  0
LINE
  5
4ED
330
1E
100
AcDbEntity
  8
0
100
AcDbLine
 10
487.72665
 20
78.50149999999999
 30
0.0
 11
487.72665
 21
64.50149999999999
 31
0.0
  0
LINE
  5
4EE
330
1E
100
AcDbEntity
  8
0
100
AcDbLine
 10
488.1426499999999
 20
78.50149999999999
 30
0.0
 11
490.20665
 21
78.50149999999999
 31
0.0
  0
LINE
  5
4EF
330
1E
100
AcDbEntity
  8
0
100
AcDbLine
 10
488.1426499999999
 20
78.50149999999999
 30
0.0
 11
488.1426499999999
 21
64.50149999999999
 31
0.0
  0
LINE
  5
4F0
330
1E
100
AcDbEntity
  8
0
100
AcDbLine
 10
490.20665
 20
78.50149999999999
 30
0.0
 11
491.14265
 21
78.50149999999999
 31
0.0
  0
LINE
  5
4F1
330
1E
100
AcDbEntity
  8
0
100
AcDbLine
 10
485.14265
 20
80.5015
 30
0.0
 11
485.5176499999999
 21
83.34850000000001
 31
0.0
  0
LINE
  5
4F2
330
1E
100
AcDbEntity
  8
0
100
AcDbLine
 10
487.71065
 20
78.50149999999999
 30
0.0
 11
490.20665
 21
78.50149999999999
 31
0.0
  0
LINE
  5
4F3
330
1E
100
AcDbEntity
  8
0
100
AcDbLine
 10
491.14265
 20
78.50149999999999
 30
0.0
 11
491.14265
 21
80.5015
 31
0.0
  0
LINE
  5
4F4
330
1E
100
AcDbEntity
  8
0
100
AcDbLine
 10
491.14265
 20
80.5015
 30
0.0
 11
491.14265
 21
78.50149999999999
 31
0.0
  0
LINE
  5
4F5
330
1E
100
AcDbEntity
  8
0
100
AcDbLine
 10
490.20665
 20
80.5015
 30
0.0
 11
491.14265
 21
80.5015
 31
0.0
  0
LINE
  5
4F6
330
1E
100
AcDbEntity
  8
0
100
AcDbLine
 10
487.71065
 20
80.5015
 30
0.0
 11
490.20665
 21
80.5015
 31
0.0
  0
LINE
  5
4F7
330
1E
100
AcDbEntity
  8
0
100
AcDbLine
 10
483.55065
 20
80.5015
 30
0.0
 11
487.71065
 21
80.5015
 31
0.0
  0
LINE
  5
4F8
330
1E
100
AcDbEntity
  8
0
100
AcDbLine
 10
478.03865
 20
80.5015
 30
0.0
 11
483.55065
 21
80.5015
 31
0.0
  0
LINE
  5
4F9
330
1E
100
AcDbEntity
  8
0
100
AcDbLine
 10
471.79865
 20
80.5015
 30
0.0
 11
478.03865
 21
80.5015
 31
0.0
  0
LINE
  5
4FA
330
1E
100
AcDbEntity
  8
0
100
AcDbLine
 10
486.61665
 20
86.00149999999999
 30
0.0
 11
488.36465
 21
88.2797
 31
0.0
  0
LINE
  5
4FB
330
1E
100
AcDbEntity
  8
0
100
AcDbLine
 10
485.5176499999999
 20
83.34850000000001
 30
0.0
 11
486.61665
 21
86.00149999999999
 31
0.0
  0
LINE
  5
4FC
330
1E
100
AcDbEntity
  8
0
100
AcDbLine
 10
465.14265
 20
80.5015
 30
0.0
 11
471.79865
 21
80.5015
 31
0.0
  0
LINE
  5
4FD
330
1E
100
AcDbEntity
  8
0
100
AcDbLine
 10
510.14265
 20
85.5015
 30
0.0
 11
510.14265
 21
86.4375
 31
0.0
  0
LINE
  5
4FE
330
1E
100
AcDbEntity
  8
0
100
AcDbLine
 10
510.14265
 20
85.5015
 30
0.0
 11
512.14265
 21
85.5015
 31
0.0
  0
LINE
  5
4FF
330
1E
100
AcDbEntity
  8
0
100
AcDbLine
 10
488.36465
 20
88.2797
 30
0.0
 11
490.64265
 21
90.02779999999999
 31
0.0
  0
LINE
  5
500
330
1E
100
AcDbEntity
  8
0
100
AcDbLine
 10
493.29565
 20
91.12669999999999
 30
0.0
 11
496.1426499999999
 21
91.5015
 31
0.0
  0
LINE
  5
501
330
1E
100
AcDbEntity
  8
0
100
AcDbLine
 10
490.64265
 20
90.02779999999999
 30
0.0
 11
493.29565
 21
91.12669999999999
 31
0.0
  0
LINE
  5
502
330
1E
100
AcDbEntity
  8
0
100
AcDbLine
 10
496.1426499999999
 20
91.5015
 30
0.0
 11
510.14265
 21
91.5015
 31
0.0
  0
LINE
  5
503
330
1E
100
AcDbEntity
  8
0
100
AcDbLine
 10
510.14265
 20
88.93349999999999
 30
0.0
 11
510.14265
 21
86.4375
 31
0.0
  0
LINE
  5
504
330
1E
100
AcDbEntity
  8
0
100
AcDbLine
 10
510.14265
 20
88.93349999999999
 30
0.0
 11
510.14265
 21
91.5015
 31
0.0
  0
LINE
  5
505
330
1E
100
AcDbEntity
  8
0
100
AcDbLine
 10
510.14265
 20
91.5015
 30
0.0
 11
510.14265
 21
88.93349999999999
 31
0.0
  0
LINE
  5
506
330
1E
100
AcDbEntity
  8
0
100
AcDbLine
 10
510.14265
 20
86.4375
 30
0.0
 11
510.14265
 21
88.93349999999999
 31
0.0
  0
LINE
  5
507
330
1E
100
AcDbEntity
  8
0
100
AcDbLine
 10
510.14265
 20
86.4375
 30
0.0
 11
510.14265
 21
85.5015
 31
0.0
  0
LINE
  5
508
330
1E
100
AcDbEntity
  8
0
100
AcDbLine
 10
510.14265
 20
86.4375
 30
0.0
 11
510.14265
 21
88.93349999999999
 31
0.0
  0
LINE
  5
509
330
1E
100
AcDbEntity
  8
0
100
AcDbLine
 10
510.14265
 20
88.93349999999999
 30
0.0
 11
510.14265
 21
93.0935
 31
0.0
  0
LINE
  5
50A
330
1E
100
AcDbEntity
  8
0
100
AcDbLine
 10
510.14265
 20
88.93349999999999
 30
0.0
 11
510.14265
 21
86.4375
 31
0.0
  0
LINE
  5
50B
330
1E
100
AcDbEntity
  8
0
100
AcDbLine
 10
446.88065
 20
93.70130000000001
 30
0.0
 11
451.9756499999999
 21
106.0014999999999
 31
0.0
  0
LINE
  5
50C
330
1E
100
AcDbEntity
  8
0
100
AcDbLine
 10
510.14265
 20
93.0935
 30
0.0
 11
510.14265
 21
98.60550000000001
 31
0.0
  0
LINE
  5
50D
330
1E
100
AcDbEntity
  8
0
100
AcDbLine
 10
510.14265
 20
93.0935
 30
0.0
 11
510.14265
 21
88.93349999999999
 31
0.0
  0
LINE
  5
50E
330
1E
100
AcDbEntity
  8
0
100
AcDbLine
 10
512.14265
 20
85.5015
 30
0.0
 11
512.14265
 21
86.4375
 31
0.0
  0
LINE
  5
50F
330
1E
100
AcDbEntity
  8
0
100
AcDbLine
 10
512.14265
 20
89.91789999999999
 30
0.0
 11
526.1426499999999
 21
89.91789999999999
 31
0.0
  0
LINE
  5
510
330
1E
100
AcDbEntity
  8
0
100
AcDbLine
 10
512.14265
 20
88.9179
 30
0.0
 11
526.1426499999999
 21
88.9179
 31
0.0
  0
LINE
  5
511
330
1E
100
AcDbEntity
  8
0
100
AcDbLine
 10
512.14265
 20
88.50149999999999
 30
0.0
 11
526.1426499999999
 21
88.50149999999999
 31
0.0
  0
LINE
  5
512
330
1E
100
AcDbEntity
  8
0
100
AcDbLine
 10
512.14265
 20
86.4375
 30
0.0
 11
512.14265
 21
88.93349999999999
 31
0.0
  0
LINE
  5
513
330
1E
100
AcDbEntity
  8
0
100
AcDbLine
 10
512.14265
 20
86.4375
 30
0.0
 11
512.14265
 21
85.5015
 31
0.0
  0
LINE
  5
514
330
1E
100
AcDbEntity
  8
0
100
AcDbLine
 10
512.14265
 20
88.93349999999999
 30
0.0
 11
512.14265
 21
93.0935
 31
0.0
  0
LINE
  5
515
330
1E
100
AcDbEntity
  8
0
100
AcDbLine
 10
512.14265
 20
88.93349999999999
 30
0.0
 11
512.14265
 21
86.4375
 31
0.0
  0
LINE
  5
516
330
1E
100
AcDbEntity
  8
0
100
AcDbLine
 10
512.14265
 20
93.0935
 30
0.0
 11
512.14265
 21
98.60550000000001
 31
0.0
  0
LINE
  5
517
330
1E
100
AcDbEntity
  8
0
100
AcDbLine
 10
512.14265
 20
93.0935
 30
0.0
 11
512.14265
 21
88.93349999999999
 31
0.0
  0
LINE
  5
518
330
1E
100
AcDbEntity
  8
0
100
AcDbLine
 10
526.1426499999999
 20
91.5015
 30
0.0
 11
548.14265
 21
91.5015
 31
0.0
  0
LINE
  5
519
330
1E
100
AcDbEntity
  8
0
100
AcDbLine
 10
526.1426499999999
 20
89.91789999999999
 30
0.0
 11
526.1426499999999
 21
92.5159
 31
0.0
  0
LINE
  5
51A
330
1E
100
AcDbEntity
  8
0
100
AcDbLine
 10
526.1426499999999
 20
89.91789999999999
 30
0.0
 11
526.1426499999999
 21
88.9179
 31
0.0
  0
LINE
  5
51B
330
1E
100
AcDbEntity
  8
0
100
AcDbLine
 10
526.1426499999999
 20
88.9179
 30
0.0
 11
526.1426499999999
 21
88.50149999999999
 31
0.0
  0
LINE
  5
51C
330
1E
100
AcDbEntity
  8
0
100
AcDbLine
 10
526.1426499999999
 20
88.9179
 30
0.0
 11
526.1426499999999
 21
89.91789999999999
 31
0.0
  0
LINE
  5
51D
330
1E
100
AcDbEntity
  8
0
100
AcDbLine
 10
526.1426499999999
 20
88.50149999999999
 30
0.0
 11
526.1426499999999
 21
88.9179
 31
0.0
  0
LINE
  5
51E
330
1E
100
AcDbEntity
  8
0
100
AcDbLine
 10
526.1426499999999
 20
92.5159
 30
0.0
 11
526.1426499999999
 21
95.2175
 31
0.0
  0
LINE
  5
51F
330
1E
100
AcDbEntity
  8
0
100
AcDbLine
 10
526.1426499999999
 20
92.5159
 30
0.0
 11
526.1426499999999
 21
89.91789999999999
 31
0.0
  0
LINE
  5
520
330
1E
100
AcDbEntity
  8
0
100
AcDbLine
 10
555.92065
 20
88.2797
 30
0.0
 11
602.0806499999999
 21
41.55
 31
0.0
  0
LINE
  5
521
330
1E
100
AcDbEntity
  8
0
100
AcDbLine
 10
553.64265
 20
90.02779999999999
 30
0.0
 11
555.92065
 21
88.2797
 31
0.0
  0
LINE
  5
522
330
1E
100
AcDbEntity
  8
0
100
AcDbLine
 10
548.14265
 20
91.5015
 30
0.0
 11
550.9896499999999
 21
91.12669999999999
 31
0.0
  0
LINE
  5
523
330
1E
100
AcDbEntity
  8
0
100
AcDbLine
 10
550.9896499999999
 20
91.12669999999999
 30
0.0
 11
553.64265
 21
90.02779999999999
 31
0.0
  0
LINE
  5
524
330
1E
100
AcDbEntity
  8
0
100
AcDbLine
 10
526.1426499999999
 20
95.2175
 30
0.0
 11
526.1426499999999
 21
100.0935
 31
0.0
  0
LINE
  5
525
330
1E
100
AcDbEntity
  8
0
100
AcDbLine
 10
526.1426499999999
 20
95.2175
 30
0.0
 11
526.1426499999999
 21
92.5159
 31
0.0
  0
LINE
  5
526
330
1E
100
AcDbEntity
  8
0
100
AcDbLine
 10
526.1426499999999
 20
100.0935
 30
0.0
 11
526.1426499999999
 21
105.6135
 31
0.0
  0
LINE
  5
527
330
1E
100
AcDbEntity
  8
0
100
AcDbLine
 10
526.1426499999999
 20
100.0935
 30
0.0
 11
526.1426499999999
 21
95.2175
 31
0.0
  0
LINE
  5
528
330
1E
100
AcDbEntity
  8
0
100
AcDbLine
 10
512.14265
 20
98.60550000000001
 30
0.0
 11
512.14265
 21
104.8455
 31
0.0
  0
LINE
  5
529
330
1E
100
AcDbEntity
  8
0
100
AcDbLine
 10
512.14265
 20
98.60550000000001
 30
0.0
 11
512.14265
 21
93.0935
 31
0.0
  0
LINE
  5
52A
330
1E
100
AcDbEntity
  8
0
100
AcDbLine
 10
512.14265
 20
104.8455
 30
0.0
 11
512.14265
 21
111.5014999999999
 31
0.0
  0
LINE
  5
52B
330
1E
100
AcDbEntity
  8
0
100
AcDbLine
 10
512.14265
 20
104.8455
 30
0.0
 11
512.14265
 21
98.60550000000001
 31
0.0
  0
LINE
  5
52C
330
1E
100
AcDbEntity
  8
0
100
AcDbLine
 10
510.14265
 20
98.60550000000001
 30
0.0
 11
510.14265
 21
104.8455
 31
0.0
  0
LINE
  5
52D
330
1E
100
AcDbEntity
  8
0
100
AcDbLine
 10
510.14265
 20
98.60550000000001
 30
0.0
 11
510.14265
 21
93.0935
 31
0.0
  0
LINE
  5
52E
330
1E
100
AcDbEntity
  8
0
100
AcDbLine
 10
451.9756499999999
 20
106.0014999999999
 30
0.0
 11
460.08065
 21
116.5639
 31
0.0
  0
LINE
  5
52F
330
1E
100
AcDbEntity
  8
0
100
AcDbLine
 10
460.08065
 20
116.5639
 30
0.0
 11
470.64265
 21
124.6688
 31
0.0
  0
LINE
  5
530
330
1E
100
AcDbEntity
  8
0
100
AcDbLine
 10
482.94265
 20
129.7636999999999
 30
0.0
 11
496.1426499999999
 21
131.5015
 31
0.0
  0
LINE
  5
531
330
1E
100
AcDbEntity
  8
0
100
AcDbLine
 10
470.64265
 20
124.6688
 30
0.0
 11
482.94265
 21
129.7636999999999
 31
0.0
  0
LINE
  5
532
330
1E
100
AcDbEntity
  8
0
100
AcDbLine
 10
496.1426499999999
 20
131.5015
 30
0.0
 11
510.14265
 21
131.5015
 31
0.0
  0
LINE
  5
533
330
1E
100
AcDbEntity
  8
0
100
AcDbLine
 10
510.14265
 20
129.9095
 30
0.0
 11
510.14265
 21
134.0694999999999
 31
0.0
  0
LINE
  5
534
330
1E
100
AcDbEntity
  8
0
100
AcDbLine
 10
510.14265
 20
129.9095
 30
0.0
 11
510.14265
 21
124.3975
 31
0.0
  0
LINE
  5
535
330
1E
100
AcDbEntity
  8
0
100
AcDbLine
 10
510.14265
 20
124.3975
 30
0.0
 11
510.14265
 21
129.9095
 31
0.0
  0
LINE
  5
536
330
1E
100
AcDbEntity
  8
0
100
AcDbLine
 10
510.14265
 20
124.3975
 30
0.0
 11
510.14265
 21
118.1575
 31
0.0
  0
LINE
  5
537
330
1E
100
AcDbEntity
  8
0
100
AcDbLine
 10
510.14265
 20
118.1575
 30
0.0
 11
510.14265
 21
124.3975
 31
0.0
  0
LINE
  5
538
330
1E
100
AcDbEntity
  8
0
100
AcDbLine
 10
510.14265
 20
118.1575
 30
0.0
 11
510.14265
 21
111.5014999999999
 31
0.0
  0
LINE
  5
539
330
1E
100
AcDbEntity
  8
0
100
AcDbLine
 10
510.14265
 20
131.5015
 30
0.0
 11
510.14265
 21
134.0694999999999
 31
0.0
  0
LINE
  5
53A
330
1E
100
AcDbEntity
  8
0
100
AcDbLine
 10
421.77465
 20
136.5014999999999
 30
0.0
 11
423.14265
 21
136.5014999999999
 31
0.0
  0
LINE
  5
53B
330
1E
100
AcDbEntity
  8
0
100
AcDbLine
 10
423.14265
 20
136.5014999999999
 30
0.0
 11
423.14265
 21
140.5014999999999
 31
0.0
  0
LINE
  5
53C
330
1E
100
AcDbEntity
  8
0
100
AcDbLine
 10
421.77465
 20
136.5014999999999
 30
0.0
 11
423.14265
 21
136.5014999999999
 31
0.0
  0
LINE
  5
53D
330
1E
100
AcDbEntity
  8
0
100
AcDbLine
 10
510.14265
 20
134.0694999999999
 30
0.0
 11
510.14265
 21
136.5654999999999
 31
0.0
  0
LINE
  5
53E
330
1E
100
AcDbEntity
  8
0
100
AcDbLine
 10
510.14265
 20
134.0694999999999
 30
0.0
 11
510.14265
 21
129.9095
 31
0.0
  0
LINE
  5
53F
330
1E
100
AcDbEntity
  8
0
100
AcDbLine
 10
423.14265
 20
140.5014999999999
 30
0.0
 11
423.14265
 21
136.5014999999999
 31
0.0
  0
LINE
  5
540
330
1E
100
AcDbEntity
  8
0
100
AcDbLine
 10
421.77465
 20
140.5014999999999
 30
0.0
 11
423.14265
 21
140.5014999999999
 31
0.0
  0
LINE
  5
541
330
1E
100
AcDbEntity
  8
0
100
AcDbLine
 10
510.14265
 20
137.5014999999999
 30
0.0
 11
510.14265
 21
136.5654999999999
 31
0.0
  0
LINE
  5
542
330
1E
100
AcDbEntity
  8
0
100
AcDbLine
 10
510.14265
 20
137.5014999999999
 30
0.0
 11
512.14265
 21
137.5014999999999
 31
0.0
  0
LINE
  5
543
330
1E
100
AcDbEntity
  8
0
100
AcDbLine
 10
510.14265
 20
136.5654999999999
 30
0.0
 11
510.14265
 21
134.0694999999999
 31
0.0
  0
LINE
  5
544
330
1E
100
AcDbEntity
  8
0
100
AcDbLine
 10
510.14265
 20
136.5654999999999
 30
0.0
 11
510.14265
 21
137.5014999999999
 31
0.0
  0
LINE
  5
545
330
1E
100
AcDbEntity
  8
0
100
AcDbLine
 10
510.14265
 20
136.5654999999999
 30
0.0
 11
510.14265
 21
134.0694999999999
 31
0.0
  0
LINE
  5
546
330
1E
100
AcDbEntity
  8
0
100
AcDbLine
 10
510.14265
 20
134.0694999999999
 30
0.0
 11
510.14265
 21
131.5015
 31
0.0
  0
LINE
  5
547
330
1E
100
AcDbEntity
  8
0
100
AcDbLine
 10
510.14265
 20
134.0694999999999
 30
0.0
 11
510.14265
 21
136.5654999999999
 31
0.0
  0
LINE
  5
548
330
1E
100
AcDbEntity
  8
0
100
AcDbLine
 10
512.14265
 20
110.5014999999999
 30
0.0
 11
526.1426499999999
 21
110.5014999999999
 31
0.0
  0
LINE
  5
549
330
1E
100
AcDbEntity
  8
0
100
AcDbLine
 10
526.1426499999999
 20
110.5014999999999
 30
0.0
 11
526.1426499999999
 21
105.6135
 31
0.0
  0
LINE
  5
54A
330
1E
100
AcDbEntity
  8
0
100
AcDbLine
 10
526.1426499999999
 20
110.5014999999999
 30
0.0
 11
526.1426499999999
 21
112.5014999999999
 31
0.0
  0
LINE
  5
54B
330
1E
100
AcDbEntity
  8
0
100
AcDbLine
 10
526.1426499999999
 20
105.6135
 30
0.0
 11
526.1426499999999
 21
110.5014999999999
 31
0.0
  0
LINE
  5
54C
330
1E
100
AcDbEntity
  8
0
100
AcDbLine
 10
526.1426499999999
 20
105.6135
 30
0.0
 11
526.1426499999999
 21
100.0935
 31
0.0
  0
LINE
  5
54D
330
1E
100
AcDbEntity
  8
0
100
AcDbLine
 10
512.14265
 20
112.5014999999999
 30
0.0
 11
526.1426499999999
 21
112.5014999999999
 31
0.0
  0
LINE
  5
54E
330
1E
100
AcDbEntity
  8
0
100
AcDbLine
 10
512.14265
 20
133.0851
 30
0.0
 11
526.1426499999999
 21
133.0851
 31
0.0
  0
LINE
  5
54F
330
1E
100
AcDbEntity
  8
0
100
AcDbLine
 10
512.14265
 20
134.0851
 30
0.0
 11
526.1426499999999
 21
134.0851
 31
0.0
  0
LINE
  5
550
330
1E
100
AcDbEntity
  8
0
100
AcDbLine
 10
512.14265
 20
134.5014999999999
 30
0.0
 11
526.1426499999999
 21
134.5014999999999
 31
0.0
  0
LINE
  5
551
330
1E
100
AcDbEntity
  8
0
100
AcDbLine
 10
512.14265
 20
137.5014999999999
 30
0.0
 11
512.14265
 21
136.5654999999999
 31
0.0
  0
LINE
  5
552
330
1E
100
AcDbEntity
  8
0
100
AcDbLine
 10
512.14265
 20
136.5654999999999
 30
0.0
 11
512.14265
 21
137.5014999999999
 31
0.0
  0
LINE
  5
553
330
1E
100
AcDbEntity
  8
0
100
AcDbLine
 10
512.14265
 20
136.5654999999999
 30
0.0
 11
512.14265
 21
134.0694999999999
 31
0.0
  0
LINE
  5
554
330
1E
100
AcDbEntity
  8
0
100
AcDbLine
 10
512.14265
 20
134.0694999999999
 30
0.0
 11
512.14265
 21
136.5654999999999
 31
0.0
  0
LINE
  5
555
330
1E
100
AcDbEntity
  8
0
100
AcDbLine
 10
512.14265
 20
134.0694999999999
 30
0.0
 11
512.14265
 21
129.9095
 31
0.0
  0
LINE
  5
556
330
1E
100
AcDbEntity
  8
0
100
AcDbLine
 10
512.14265
 20
129.9095
 30
0.0
 11
512.14265
 21
134.0694999999999
 31
0.0
  0
LINE
  5
557
330
1E
100
AcDbEntity
  8
0
100
AcDbLine
 10
512.14265
 20
129.9095
 30
0.0
 11
512.14265
 21
124.3975
 31
0.0
  0
LINE
  5
558
330
1E
100
AcDbEntity
  8
0
100
AcDbLine
 10
512.14265
 20
124.3975
 30
0.0
 11
512.14265
 21
129.9095
 31
0.0
  0
LINE
  5
559
330
1E
100
AcDbEntity
  8
0
100
AcDbLine
 10
512.14265
 20
124.3975
 30
0.0
 11
512.14265
 21
118.1575
 31
0.0
  0
LINE
  5
55A
330
1E
100
AcDbEntity
  8
0
100
AcDbLine
 10
526.1426499999999
 20
131.5015
 30
0.0
 11
548.14265
 21
131.5015
 31
0.0
  0
LINE
  5
55B
330
1E
100
AcDbEntity
  8
0
100
AcDbLine
 10
526.1426499999999
 20
133.0851
 30
0.0
 11
526.1426499999999
 21
130.4871
 31
0.0
  0
LINE
  5
55C
330
1E
100
AcDbEntity
  8
0
100
AcDbLine
 10
526.1426499999999
 20
133.0851
 30
0.0
 11
526.1426499999999
 21
134.0851
 31
0.0
  0
LINE
  5
55D
330
1E
100
AcDbEntity
  8
0
100
AcDbLine
 10
526.1426499999999
 20
130.4871
 30
0.0
 11
526.1426499999999
 21
127.7854999999999
 31
0.0
  0
LINE
  5
55E
330
1E
100
AcDbEntity
  8
0
100
AcDbLine
 10
526.1426499999999
 20
130.4871
 30
0.0
 11
526.1426499999999
 21
133.0851
 31
0.0
  0
LINE
  5
55F
330
1E
100
AcDbEntity
  8
0
100
AcDbLine
 10
526.1426499999999
 20
134.5014999999999
 30
0.0
 11
526.1426499999999
 21
134.0851
 31
0.0
  0
LINE
  5
560
330
1E
100
AcDbEntity
  8
0
100
AcDbLine
 10
526.1426499999999
 20
134.0851
 30
0.0
 11
526.1426499999999
 21
134.5014999999999
 31
0.0
  0
LINE
  5
561
330
1E
100
AcDbEntity
  8
0
100
AcDbLine
 10
526.1426499999999
 20
134.0851
 30
0.0
 11
526.1426499999999
 21
133.0851
 31
0.0
  0
LINE
  5
562
330
1E
100
AcDbEntity
  8
0
100
AcDbLine
 10
526.1426499999999
 20
127.7854999999999
 30
0.0
 11
526.1426499999999
 21
130.4871
 31
0.0
  0
LINE
  5
563
330
1E
100
AcDbEntity
  8
0
100
AcDbLine
 10
526.1426499999999
 20
127.7854999999999
 30
0.0
 11
526.1426499999999
 21
122.9095
 31
0.0
  0
LINE
  5
564
330
1E
100
AcDbEntity
  8
0
100
AcDbLine
 10
526.1426499999999
 20
122.9095
 30
0.0
 11
526.1426499999999
 21
127.7854999999999
 31
0.0
  0
LINE
  5
565
330
1E
100
AcDbEntity
  8
0
100
AcDbLine
 10
526.1426499999999
 20
122.9095
 30
0.0
 11
526.1426499999999
 21
117.3894999999999
 31
0.0
  0
LINE
  5
566
330
1E
100
AcDbEntity
  8
0
100
AcDbLine
 10
584.20465
 20
116.5639
 30
0.0
 11
630.36465
 21
69.83419999999999
 31
0.0
  0
LINE
  5
567
330
1E
100
AcDbEntity
  8
0
100
AcDbLine
 10
573.64265
 20
124.6688
 30
0.0
 11
584.20465
 21
116.5639
 31
0.0
  0
LINE
  5
568
330
1E
100
AcDbEntity
  8
0
100
AcDbLine
 10
548.14265
 20
131.5015
 30
0.0
 11
561.34265
 21
129.7636999999999
 31
0.0
  0
LINE
  5
569
330
1E
100
AcDbEntity
  8
0
100
AcDbLine
 10
561.34265
 20
129.7636999999999
 30
0.0
 11
573.64265
 21
124.6688
 31
0.0
  0
LINE
  5
56A
330
1E
100
AcDbEntity
  8
0
100
AcDbLine
 10
526.1426499999999
 20
117.3894999999999
 30
0.0
 11
526.1426499999999
 21
122.9095
 31
0.0
  0
LINE
  5
56B
330
1E
100
AcDbEntity
  8
0
100
AcDbLine
 10
526.1426499999999
 20
117.3894999999999
 30
0.0
 11
526.1426499999999
 21
112.5014999999999
 31
0.0
  0
LINE
  5
56C
330
1E
100
AcDbEntity
  8
0
100
AcDbLine
 10
526.1426499999999
 20
112.5014999999999
 30
0.0
 11
526.1426499999999
 21
117.3894999999999
 31
0.0
  0
LINE
  5
56D
330
1E
100
AcDbEntity
  8
0
100
AcDbLine
 10
526.1426499999999
 20
112.5014999999999
 30
0.0
 11
526.1426499999999
 21
110.5014999999999
 31
0.0
  0
LINE
  5
56E
330
1E
100
AcDbEntity
  8
0
100
AcDbLine
 10
512.14265
 20
118.1575
 30
0.0
 11
512.14265
 21
124.3975
 31
0.0
  0
LINE
  5
56F
330
1E
100
AcDbEntity
  8
0
100
AcDbLine
 10
512.14265
 20
118.1575
 30
0.0
 11
512.14265
 21
111.5014999999999
 31
0.0
  0
LINE
  5
570
330
1E
100
AcDbEntity
  8
0
100
AcDbLine
 10
512.14265
 20
111.5014999999999
 30
0.0
 11
512.14265
 21
104.8455
 31
0.0
  0
LINE
  5
571
330
1E
100
AcDbEntity
  8
0
100
AcDbLine
 10
512.14265
 20
111.5014999999999
 30
0.0
 11
512.14265
 21
118.1575
 31
0.0
  0
LINE
  5
572
330
1E
100
AcDbEntity
  8
0
100
AcDbLine
 10
510.14265
 20
111.5014999999999
 30
0.0
 11
510.14265
 21
104.8455
 31
0.0
  0
LINE
  5
573
330
1E
100
AcDbEntity
  8
0
100
AcDbLine
 10
510.14265
 20
111.5014999999999
 30
0.0
 11
510.14265
 21
118.1575
 31
0.0
  0
LINE
  5
574
330
1E
100
AcDbEntity
  8
0
100
AcDbLine
 10
510.14265
 20
104.8455
 30
0.0
 11
510.14265
 21
111.5014999999999
 31
0.0
  0
LINE
  5
575
330
1E
100
AcDbEntity
  8
0
100
AcDbLine
 10
510.14265
 20
104.8455
 30
0.0
 11
510.14265
 21
98.60550000000001
 31
0.0
  0
LINE
  5
576
330
1E
100
AcDbEntity
  8
0
100
AcDbLine
 10
602.0806499999999
 20
41.55
 30
0.0
 11
605.280427060522
 21
38.3497703543206
 31
0.0
  0
LINE
  5
577
330
1E
100
AcDbEntity
  8
0
100
AcDbLine
 10
602.06465
 20
35.13349999999999
 30
0.0
 11
603.82965
 21
36.89849999999999
 31
0.0
  0
LINE
  5
578
330
1E
100
AcDbEntity
  8
0
100
AcDbLine
 10
601.4026499999999
 20
34.47249999999999
 30
0.0
 11
602.1096499999999
 21
33.7645
 31
0.0
  0
LINE
  5
579
330
1E
100
AcDbEntity
  8
0
100
AcDbLine
 10
601.4026499999999
 20
34.47249999999999
 30
0.0
 11
602.06465
 21
35.13349999999999
 31
0.0
  0
LINE
  5
57A
330
1E
100
AcDbEntity
  8
0
100
AcDbLine
 10
638.1016499999999
 20
0.4604999999999711
 30
0.0
 11
639.79865
 21
2.157499999999969
 31
0.0
  0
LINE
  5
57B
330
1E
100
AcDbEntity
  8
0
100
AcDbLine
 10
639.79865
 20
2.157499999999969
 30
0.0
 11
639.99065
 21
2.34949999999997
 31
0.0
  0
LINE
  5
57C
330
1E
100
AcDbEntity
  8
0
100
AcDbLine
 10
639.79865
 20
2.157499999999969
 30
0.0
 11
639.99065
 21
2.34949999999997
 31
0.0
  0
LINE
  5
57D
330
1E
100
AcDbEntity
  8
0
100
AcDbLine
 10
642.62665
 20
4.98549999999998
 30
0.0
 11
644.41465
 21
6.77349999999999
 31
0.0
  0
LINE
  5
57E
330
1E
100
AcDbEntity
  8
0
100
AcDbLine
 10
642.62665
 20
4.9855
 30
0.0
 11
644.41465
 21
6.773499999999959
 31
0.0
  0
LINE
  5
57F
330
1E
100
AcDbEntity
  8
0
100
AcDbLine
 10
644.41465
 20
6.773499999999959
 30
0.0
 11
647.62665
 21
9.98549999999998
 31
0.0
  0
LINE
  5
580
330
1E
100
AcDbEntity
  8
0
100
AcDbLine
 10
644.41465
 20
6.773499999999959
 30
0.0
 11
647.62665
 21
9.98549999999998
 31
0.0
  0
LINE
  5
581
330
1E
100
AcDbEntity
  8
0
100
AcDbLine
 10
642.62665
 20
4.9855
 30
0.0
 11
644.41465
 21
6.773499999999959
 31
0.0
  0
LINE
  5
582
330
1E
100
AcDbEntity
  8
0
100
AcDbLine
 10
647.62665
 20
9.98549999999998
 30
0.0
 11
651.26365
 21
13.6225
 31
0.0
  0
LINE
  5
583
330
1E
100
AcDbEntity
  8
0
100
AcDbLine
 10
647.62665
 20
9.98549999999998
 30
0.0
 11
651.26365
 21
13.6225
 31
0.0
  0
LINE
  5
584
330
1E
100
AcDbEntity
  8
0
100
AcDbLine
 10
651.26365
 20
13.6225
 30
0.0
 11
655.1426499999999
 21
17.5015
 31
0.0
  0
LINE
  5
585
330
1E
100
AcDbEntity
  8
0
100
AcDbLine
 10
659.6686499999999
 20
22.02649999999999
 30
0.0
 11
663.91065
 21
26.2695
 31
0.0
  0
LINE
  5
586
330
1E
100
AcDbEntity
  8
0
100
AcDbLine
 10
655.1426499999999
 20
17.5015
 30
0.0
 11
659.6686499999999
 21
22.02649999999999
 31
0.0
  0
LINE
  5
587
330
1E
100
AcDbEntity
  8
0
100
AcDbLine
 10
659.6686499999999
 20
22.02649999999999
 30
0.0
 11
663.91065
 21
26.2695
 31
0.0
  0
LINE
  5
588
330
1E
100
AcDbEntity
  8
0
100
AcDbLine
 10
663.91065
 20
26.2695
 30
0.0
 11
667.6586499999999
 21
30.01749999999999
 31
0.0
  0
LINE
  5
589
330
1E
100
AcDbEntity
  8
0
100
AcDbLine
 10
663.91065
 20
26.2695
 30
0.0
 11
665.87065
 21
28.2295
 31
0.0
  0
LINE
  5
58A
330
1E
100
AcDbEntity
  8
0
100
AcDbLine
 10
667.6586499999999
 20
30.01749999999999
 30
0.0
 11
670.48665
 21
32.8455
 31
0.0
  0
LINE
  5
58B
330
1E
100
AcDbEntity
  8
0
100
AcDbLine
 10
665.87065
 20
28.2295
 30
0.0
 11
668.29465
 21
30.6535
 31
0.0
  0
LINE
  5
58C
330
1E
100
AcDbEntity
  8
0
100
AcDbLine
 10
668.29465
 20
30.6535
 30
0.0
 11
669.7496499999999
 21
32.1085
 31
0.0
  0
LINE
  5
58D
330
1E
100
AcDbEntity
  8
0
100
AcDbLine
 10
668.29465
 20
30.6535
 30
0.0
 11
669.7496499999999
 21
32.1085
 31
0.0
  0
LINE
  5
58E
330
1E
100
AcDbEntity
  8
0
100
AcDbLine
 10
670.29465
 20
32.6535
 30
0.0
 11
670.48665
 21
32.8455
 31
0.0
  0
LINE
  5
58F
330
1E
100
AcDbEntity
  8
0
100
AcDbLine
 10
670.48665
 20
32.8455
 30
0.0
 11
672.1836499999999
 21
34.5425
 31
0.0
  0
LINE
  5
590
330
1E
100
AcDbEntity
  8
0
100
AcDbLine
 10
670.48665
 20
32.8455
 30
0.0
 11
672.1836499999999
 21
34.5425
 31
0.0
  0
LINE
  5
591
330
1E
100
AcDbEntity
  8
0
100
AcDbLine
 10
669.7496499999999
 20
32.1085
 30
0.0
 11
670.29465
 21
32.6535
 31
0.0
  0
LINE
  5
592
330
1E
100
AcDbEntity
  8
0
100
AcDbLine
 10
651.26365
 20
13.6225
 30
0.0
 11
655.1426499999999
 21
17.5015
 31
0.0
  0
LINE
  5
593
330
1E
100
AcDbEntity
  8
0
100
AcDbLine
 10
650.61665
 20
12.97649999999999
 30
0.0
 11
655.1426499999999
 21
17.5015
 31
0.0
  0
LINE
  5
594
330
1E
100
AcDbEntity
  8
0
100
AcDbLine
 10
646.37465
 20
8.73349999999997
 30
0.0
 11
650.61665
 21
12.97649999999999
 31
0.0
  0
LINE
  5
595
330
1E
100
AcDbEntity
  8
0
100
AcDbLine
 10
642.62665
 20
4.98549999999998
 30
0.0
 11
646.37465
 21
8.73349999999997
 31
0.0
  0
LINE
  5
596
330
1E
100
AcDbEntity
  8
0
100
AcDbLine
 10
639.79865
 20
2.15749999999998
 30
0.0
 11
642.62665
 21
4.98549999999998
 31
0.0
  0
LINE
  5
597
330
1E
100
AcDbEntity
  8
0
100
AcDbLine
 10
638.1016499999999
 20
0.4604999999999721
 30
0.0
 11
639.79865
 21
2.15749999999998
 31
0.0
  0
LINE
  5
598
330
1E
100
AcDbEntity
  8
0
100
AcDbLine
 10
637.4646499999999
 20
-0.176500000000029
 30
0.0
 11
638.1016499999999
 21
0.4604999999999721
 31
0.0
  0
LINE
  5
599
330
1E
100
AcDbEntity
  8
0
100
AcDbLine
 10
637.4646499999999
 20
-0.176500000000029
 30
0.0
 11
638.1016499999999
 21
0.4604999999999711
 31
0.0
  0
LINE
  5
59A
330
1E
100
AcDbEntity
  8
0
100
AcDbLine
 10
602.817149992785
 20
34.4719999927847
 30
0.0
 11
637.4646499999999
 21
-0.176500000000031
 31
0.0
  0
LINE
  5
59B
330
1E
100
AcDbEntity
  8
0
100
AcDbLine
 10
602.817149992785
 20
34.4719999927847
 30
0.0
 11
637.4646499999999
 21
-0.176500000000029
 31
0.0
  0
LINE
  5
59C
330
1E
100
AcDbEntity
  8
0
100
AcDbLine
 10
603.82965
 20
36.89849999999999
 30
0.0
 11
606.77065
 21
39.84049999999999
 31
0.0
  0
LINE
  5
59D
330
1E
100
AcDbEntity
  8
0
100
AcDbLine
 10
604.925909323152
 20
36.5808916792637
 30
0.0
 11
605.15065
 21
36.8055
 31
0.0
  0
LINE
  5
59E
330
1E
100
AcDbEntity
  8
0
100
AcDbLine
 10
672.1836499999999
 20
34.5425
 30
0.0
 11
672.8206499999999
 21
35.17949999999999
 31
0.0
  0
LINE
  5
59F
330
1E
100
AcDbEntity
  8
0
100
AcDbLine
 10
605.6761082735739
 20
37.3313457126335
 30
0.0
 11
605.8876499999899
 21
37.54249999999039
 31
0.0
  0
LINE
  5
5A0
330
1E
100
AcDbEntity
  8
0
100
AcDbLine
 10
605.15065
 20
36.8055
 30
0.0
 11
607.9786499999999
 21
39.6335
 31
0.0
  0
LINE
  5
5A1
330
1E
100
AcDbEntity
  8
0
100
AcDbLine
 10
607.342650000699
 20
38.99750000069889
 30
0.0
 11
609.76665
 21
41.4219
 31
0.0
  0
LINE
  5
5A2
330
1E
100
AcDbEntity
  8
0
100
AcDbLine
 10
605.6761082735749
 20
37.3313457126349
 30
0.0
 11
607.47765
 21
39.13349999999999
 31
0.0
  0
LINE
  5
5A3
330
1E
100
AcDbEntity
  8
0
100
AcDbLine
 10
604.9259093231539
 20
36.58089167926479
 30
0.0
 11
605.3420130852999
 21
36.9971369251792
 31
0.0
  0
LINE
  5
5A4
330
1E
100
AcDbEntity
  8
0
100
AcDbLine
 10
607.9786499999999
 20
39.6335
 30
0.0
 11
611.7266499999999
 21
43.3816
 31
0.0
  0
LINE
  5
5A5
330
1E
100
AcDbEntity
  8
0
100
AcDbLine
 10
609.76665
 20
41.4219
 30
0.0
 11
610.768027252246
 21
42.42337078063229
 31
0.0
  0
LINE
  5
5A6
330
1E
100
AcDbEntity
  8
0
100
AcDbLine
 10
610.6686499999999
 20
43.738
 30
0.0
 11
615.0806499999999
 21
48.1503
 31
0.0
  0
LINE
  5
5A7
330
1E
100
AcDbEntity
  8
0
100
AcDbLine
 10
606.77065
 20
39.84049999999999
 30
0.0
 11
610.6686499999999
 21
43.738
 31
0.0
  0
LINE
  5
5A8
330
1E
100
AcDbEntity
  8
0
100
AcDbLine
 10
614.660727339345
 20
46.316092343212
 30
0.0
 11
615.8910189635289
 21
47.5465579831843
 31
0.0
  0
LINE
  5
5A9
330
1E
100
AcDbEntity
  8
0
100
AcDbLine
 10
614.051831799474
 20
45.707263770131
 30
0.0
 11
614.660727339345
 21
46.316092343212
 31
0.0
  0
LINE
  5
5AA
330
1E
100
AcDbEntity
  8
0
100
AcDbLine
 10
611.7266499999999
 20
43.3816
 30
0.0
 11
615.8910189635289
 21
47.5465579831843
 31
0.0
  0
LINE
  5
5AB
330
1E
100
AcDbEntity
  8
0
100
AcDbLine
 10
619.7876499999999
 20
52.8568
 30
0.0
 11
624.49365
 21
57.5633
 31
0.0
  0
LINE
  5
5AC
330
1E
100
AcDbEntity
  8
0
100
AcDbLine
 10
625.128327865204
 20
56.7838701811689
 30
0.0
 11
625.396759255217
 21
57.0522825918246
 31
0.0
  0
LINE
  5
5AD
330
1E
100
AcDbEntity
  8
0
100
AcDbLine
 10
625.1283278652469
 20
56.7838701812125
 30
0.0
 11
625.3967592551069
 21
57.0522825917142
 31
0.0
  0
LINE
  5
5AE
330
1E
100
AcDbEntity
  8
0
100
AcDbLine
 10
625.20065
 20
56.8562
 30
0.0
 11
625.396759254991
 21
57.0522825915984
 31
0.0
  0
LINE
  5
5AF
330
1E
100
AcDbEntity
  8
0
100
AcDbLine
 10
625.20065
 20
56.8562
 30
0.0
 11
625.396759254991
 21
57.0522825915984
 31
0.0
  0
LINE
  5
5B0
330
1E
100
AcDbEntity
  8
0
100
AcDbLine
 10
620.49465
 20
52.1497
 30
0.0
 11
625.20065
 21
56.8562
 31
0.0
  0
LINE
  5
5B1
330
1E
100
AcDbEntity
  8
0
100
AcDbLine
 10
624.49365
 20
57.5633
 30
0.0
 11
628.90565
 21
61.9757
 31
0.0
  0
LINE
  5
5B2
330
1E
100
AcDbEntity
  8
0
100
AcDbLine
 10
628.90565
 20
61.9757
 30
0.0
 11
632.8036499999999
 21
65.8733
 31
0.0
  0
LINE
  5
5B3
330
1E
100
AcDbEntity
  8
0
100
AcDbLine
 10
625.20065
 20
56.8562
 30
0.0
 11
629.61365
 21
61.2686
 31
0.0
  0
LINE
  5
5B4
330
1E
100
AcDbEntity
  8
0
100
AcDbLine
 10
630.620753687473
 20
62.2758587457774
 30
0.0
 11
633.01065
 21
64.66549999999999
 31
0.0
  0
LINE
  5
5B5
330
1E
100
AcDbEntity
  8
0
100
AcDbLine
 10
630.620753687473
 20
62.2758587457774
 30
0.0
 11
631.924871646493
 21
63.5798375246523
 31
0.0
  0
LINE
  5
5B6
330
1E
100
AcDbEntity
  8
0
100
AcDbLine
 10
633.01065
 20
64.66549999999999
 30
0.0
 11
635.531486498542
 21
67.18669305250229
 31
0.0
  0
LINE
  5
5B7
330
1E
100
AcDbEntity
  8
0
100
AcDbLine
 10
631.924871646493
 20
63.5798375246523
 30
0.0
 11
633.64665
 21
65.30190000000001
 31
0.0
  0
LINE
  5
5B8
330
1E
100
AcDbEntity
  8
0
100
AcDbLine
 10
629.61365
 20
61.2686
 30
0.0
 11
633.5106500000001
 21
65.1662
 31
0.0
  0
LINE
  5
5B9
330
1E
100
AcDbEntity
  8
0
100
AcDbLine
 10
633.64665
 20
65.30190000000001
 30
0.0
 11
634.391305615177
 21
66.0463508988562
 31
0.0
  0
LINE
  5
5BA
330
1E
100
AcDbEntity
  8
0
100
AcDbLine
 10
630.36465
 20
69.83419999999999
 30
0.0
 11
633.564890948747
 21
66.63441157401109
 31
0.0
  0
LINE
  5
5BB
330
1E
100
AcDbEntity
  8
0
100
AcDbLine
 10
634.391305615177
 20
66.0463508988562
 30
0.0
 11
635.482785451482
 21
67.13798511703361
 31
0.0
  0
LINE
  5
5BC
330
1E
100
AcDbEntity
  8
0
100
AcDbLine
 10
633.564890948747
 20
66.63441157401109
 30
0.0
 11
635.7456499999999
 21
68.8148
 31
0.0
  0
LINE
  5
5BD
330
1E
100
AcDbEntity
  8
0
100
AcDbLine
 10
632.8036499999999
 20
65.8733
 30
0.0
 11
635.7456499999999
 21
68.8148
 31
0.0
  0
LINE
  5
5BE
330
1E
100
AcDbEntity
  8
0
100
AcDbLine
 10
635.7456499999999
 20
68.8148
 30
0.0
 11
637.5106500000001
 21
70.5798
 31
0.0
  0
LINE
  5
5BF
330
1E
100
AcDbEntity
  8
0
100
AcDbLine
 10
633.5106500000001
 20
65.1662
 30
0.0
 11
636.4526499999999
 21
68.10769999999999
 31
0.0
  0
LINE
  5
5C0
330
1E
100
AcDbEntity
  8
0
100
AcDbLine
 10
638.172000005556
 20
69.8270500055557
 30
0.0
 11
672.8206499999999
 21
35.17949999999999
 31
0.0
  0
LINE
  5
5C1
330
1E
100
AcDbEntity
  8
0
100
AcDbLine
 10
636.4526499999999
 20
68.10769999999999
 30
0.0
 11
638.21765
 21
69.87269999999999
 31
0.0
  0
LINE
  5
5C2
330
1E
100
AcDbEntity
  8
0
100
AcDbLine
 10
638.17165
 20
71.2416
 30
0.0
 11
638.8796499999999
 21
70.53449999999999
 31
0.0
  0
LINE
  5
5C3
330
1E
100
AcDbEntity
  8
0
100
AcDbLine
 10
637.5106500000001
 20
70.5798
 30
0.0
 11
638.17165
 21
71.2416
 31
0.0
  0
LINE
  5
5C4
330
1E
100
AcDbEntity
  8
0
100
AcDbLine
 10
638.21765
 20
69.87269999999999
 30
0.0
 11
638.8796499999999
 21
70.53449999999999
 31
0.0
  0
LINE
  5
5C5
330
1E
100
AcDbEntity
  8
0
100
AcDbLine
 10
615.0806499999999
 20
48.1503
 30
0.0
 11
619.7876499999999
 21
52.8568
 31
0.0
  0
LINE
  5
5C6
330
1E
100
AcDbEntity
  8
0
100
AcDbLine
 10
615.78765
 20
47.4432
 30
0.0
 11
620.49465
 21
52.1497
 31
0.0
  0
LINE
  5
5C7
330
1E
100
AcDbEntity
  8
0
100
AcDbLine
 10
615.78765
 20
47.4432
 30
0.0
 11
615.891018963528
 21
47.5465579831836
 31
0.0
  0
LINE
  5
5C8
330
1E
100
AcDbEntity
  8
0
100
AcDbLine
 10
615.78765
 20
47.4432
 30
0.0
 11
615.891018963528
 21
47.5465579831836
 31
0.0
  0
LINE
  5
5C9
330
1E
100
AcDbEntity
  8
0
100
AcDbLine
 10
611.37565
 20
43.0309
 30
0.0
 11
615.78765
 21
47.4432
 31
0.0
  0
LINE
  5
5CA
330
1E
100
AcDbEntity
  8
0
100
AcDbLine
 10
607.47765
 20
39.13349999999999
 30
0.0
 11
611.37565
 21
43.0309
 31
0.0
  0
LINE
  5
5CB
330
1E
100
AcDbEntity
  8
0
100
AcDbLine
 10
604.53665
 20
36.19149999999999
 30
0.0
 11
607.47765
 21
39.13349999999999
 31
0.0
  0
LINE
  5
5CC
330
1E
100
AcDbEntity
  8
0
100
AcDbLine
 10
602.77165
 20
34.42649999999999
 30
0.0
 11
604.53665
 21
36.19149999999999
 31
0.0
  0
LINE
  5
5CD
330
1E
100
AcDbEntity
  8
0
100
AcDbLine
 10
602.77165
 20
34.42649999999999
 30
0.0
 11
602.817149992785
 21
34.4719999927847
 31
0.0
  0
LINE
  5
5CE
330
1E
100
AcDbEntity
  8
0
100
AcDbLine
 10
602.1096499999999
 20
33.7645
 30
0.0
 11
602.77165
 21
34.42649999999999
 31
0.0
  0
LINE
  5
5CF
330
1E
100
AcDbEntity
  8
0
100
AcDbLine
 10
420.14265
 20
150.5015
 30
0.0
 11
420.14265
 21
152.5014999999999
 31
0.0
  0
LINE
  5
5D0
330
1E
100
AcDbEntity
  8
0
100
AcDbLine
 10
418.88265
 20
150.5015
 30
0.0
 11
420.14265
 21
150.5015
 31
0.0
  0
LINE
  5
5D1
330
1E
100
AcDbEntity
  8
0
100
AcDbLine
 10
378.23065
 20
150.5015
 30
0.0
 11
385.14265
 21
150.5015
 31
0.0
  0
LINE
  5
5D2
330
1E
100
AcDbEntity
  8
0
100
AcDbLine
 10
371.75065
 20
150.5015
 30
0.0
 11
378.23065
 21
150.5015
 31
0.0
  0
LINE
  5
5D3
330
1E
100
AcDbEntity
  8
0
100
AcDbLine
 10
376.18265
 20
150.5015
 30
0.0
 11
385.14265
 21
150.5015
 31
0.0
  0
LINE
  5
5D4
330
1E
100
AcDbEntity
  8
0
100
AcDbLine
 10
367.78265
 20
150.5015
 30
0.0
 11
376.18265
 21
150.5015
 31
0.0
  0
LINE
  5
5D5
330
1E
100
AcDbEntity
  8
0
100
AcDbLine
 10
360.3626499999999
 20
150.5015
 30
0.0
 11
367.78265
 21
150.5015
 31
0.0
  0
LINE
  5
5D6
330
1E
100
AcDbEntity
  8
0
100
AcDbLine
 10
354.76265
 20
150.5015
 30
0.0
 11
360.3626499999999
 21
150.5015
 31
0.0
  0
LINE
  5
5D7
330
1E
100
AcDbEntity
  8
0
100
AcDbLine
 10
354.76265
 20
150.5015
 30
0.0
 11
358.14265
 21
150.5015
 31
0.0
  0
LINE
  5
5D8
330
1E
100
AcDbEntity
  8
0
100
AcDbLine
 10
385.14265
 20
152.5014999999999
 30
0.0
 11
394.1026499999999
 21
152.5014999999999
 31
0.0
  0
LINE
  5
5D9
330
1E
100
AcDbEntity
  8
0
100
AcDbLine
 10
394.1026499999999
 20
152.5014999999999
 30
0.0
 11
402.50265
 21
152.5014999999999
 31
0.0
  0
LINE
  5
5DA
330
1E
100
AcDbEntity
  8
0
100
AcDbLine
 10
402.50265
 20
152.5014999999999
 30
0.0
 11
409.9226499999999
 21
152.5014999999999
 31
0.0
  0
LINE
  5
5DB
330
1E
100
AcDbEntity
  8
0
100
AcDbLine
 10
409.9226499999999
 20
152.5014999999999
 30
0.0
 11
415.52265
 21
152.5014999999999
 31
0.0
  0
LINE
  5
5DC
330
1E
100
AcDbEntity
  8
0
100
AcDbLine
 10
420.14265
 20
152.5014999999999
 30
0.0
 11
420.14265
 21
150.5015
 31
0.0
  0
LINE
  5
5DD
330
1E
100
AcDbEntity
  8
0
100
AcDbLine
 10
415.52265
 20
152.5014999999999
 30
0.0
 11
418.88265
 21
152.5014999999999
 31
0.0
  0
LINE
  5
5DE
330
1E
100
AcDbEntity
  8
0
100
AcDbLine
 10
418.88265
 20
152.5014999999999
 30
0.0
 11
420.14265
 21
152.5014999999999
 31
0.0
  0
LINE
  5
5DF
330
1E
100
AcDbEntity
  8
0
100
AcDbLine
 10
376.18265
 20
152.5014999999999
 30
0.0
 11
385.14265
 21
152.5014999999999
 31
0.0
  0
LINE
  5
5E0
330
1E
100
AcDbEntity
  8
0
100
AcDbLine
 10
367.78265
 20
152.5014999999999
 30
0.0
 11
376.18265
 21
152.5014999999999
 31
0.0
  0
LINE
  5
5E1
330
1E
100
AcDbEntity
  8
0
100
AcDbLine
 10
360.3626499999999
 20
152.5014999999999
 30
0.0
 11
367.78265
 21
152.5014999999999
 31
0.0
  0
LINE
  5
5E2
330
1E
100
AcDbEntity
  8
0
100
AcDbLine
 10
354.76265
 20
152.5014999999999
 30
0.0
 11
360.3626499999999
 21
152.5014999999999
 31
0.0
  0
LINE
  5
5E3
330
1E
100
AcDbEntity
  8
0
100
AcDbLine
 10
351.4026499999999
 20
152.5014999999999
 30
0.0
 11
354.76265
 21
152.5014999999999
 31
0.0
  0
LINE
  5
5E4
330
1E
100
AcDbEntity
  8
0
100
AcDbLine
 10
351.4026499999999
 20
150.5015
 30
0.0
 11
354.76265
 21
150.5015
 31
0.0
  0
LINE
  5
5E5
330
1E
100
AcDbEntity
  8
0
100
AcDbLine
 10
350.1426499999999
 20
150.5015
 30
0.0
 11
351.4026499999999
 21
150.5015
 31
0.0
  0
LINE
  5
5E6
330
1E
100
AcDbEntity
  8
0
100
AcDbLine
 10
350.1426499999999
 20
150.5015
 30
0.0
 11
350.1426499999999
 21
152.5014999999999
 31
0.0
  0
LINE
  5
5EB
330
1E
100
AcDbEntity
  8
0
100
AcDbLine
 10
48.29265
 20
521.9755
 30
0.0
 11
44.96694999999999
 21
540.8364999999999
 31
0.0
  0
ENDSEC
  0
SECTION
  2
OBJECTS
  0
DICTIONARY
  5
C
330
0
100
AcDbDictionary
281
     1
  3
ACAD_GROUP
350
D
  3
ACAD_LAYOUT
350
19
  3
ACAD_MLINESTYLE
350
16
  3
ACAD_PLOTSETTINGS
350
18
  3
ACAD_PLOTSTYLENAME
350
E
  3
AcDbVariableDictionary
350
5EC
  0
DICTIONARY
  5
D
102
{ACAD_REACTORS
330
C
102
}
330
C
100
AcDbDictionary
281
     1
  0
DICTIONARY
  5
19
102
{ACAD_REACTORS
330
C
102
}
330
C
100
AcDbDictionary
281
     1
  3
Layout1
350
1D
  3
Model
350
21
  0
DICTIONARY
  5
16
102
{ACAD_REACTORS
330
C
102
}
330
C
100
AcDbDictionary
281
     1
  3
Standard
350
17
  0
DICTIONARY
  5
18
102
{ACAD_REACTORS
330
C
102
}
330
C
100
AcDbDictionary
281
     1
  0
ACDBDICTIONARYWDFLT
  5
E
102
{ACAD_REACTORS
330
C
102
}
330
C
100
AcDbDictionary
281
     1
  3
Normal
350
F
100
AcDbDictionaryWithDefault
340
F
  0
DICTIONARY
  5
5EC
102
{ACAD_REACTORS
330
C
102
}
330
C
100
AcDbDictionary
281
     1
  3
DIMASSOC
350
5ED
  0
LAYOUT
  5
1D
102
{ACAD_REACTORS
330
19
102
}
330
19
100
AcDbPlotSettings
  1

  2
hp deskjet 980c series
  4

  6

 40
0.0
 41
0.0
 42
0.0
 43
0.0
 44
0.0
 45
0.0
 46
0.0
 47
0.0
 48
0.0
 49
0.0
140
0.0
141
0.0
142
1.0
143
1.0
 70
   688
 72
     0
 73
     0
 74
     5
  7

 75
    16
147
1.0
148
0.0
149
0.0
100
AcDbLayout
  1
Layout1
 70
     1
 71
     1
 10
0.0
 20
0.0
 11
12.0
 21
9.0
 12
0.0
 22
0.0
 32
0.0
 14
1.000000000000000E+20
 24
1.000000000000000E+20
 34
1.000000000000000E+20
 15
-1.000000000000000E+20
 25
-1.000000000000000E+20
 35
-1.000000000000000E+20
146
0.0
 13
0.0
 23
0.0
 33
0.0
 16
1.0
 26
0.0
 36
0.0
 17
0.0
 27
1.0
 37
0.0
 76
     0
330
1A
  0
LAYOUT
  5
21
102
{ACAD_REACTORS
330
19
102
}
330
19
100
AcDbPlotSettings
  1

  2
hp deskjet 980c series
  4

  6

 40
0.0
 41
0.0
 42
0.0
 43
0.0
 44
0.0
 45
0.0
 46
0.0
 47
0.0
 48
0.0
 49
0.0
140
0.0
141
0.0
142
1.0
143
1.0
 70
  1712
 72
     0
 73
     0
 74
     0
  7

 75
     0
147
1.0
148
0.0
149
0.0
100
AcDbLayout
  1
Model
 70
     1
 71
     0
 10
0.0
 20
0.0
 11
12.0
 21
9.0
 12
0.0
 22
0.0
 32
0.0
 14
0.0
 24
0.0
 34
0.0
 15
0.0
 25
0.0
 35
0.0
146
0.0
 13
0.0
 23
0.0
 33
0.0
 16
1.0
 26
0.0
 36
0.0
 17
0.0
 27
1.0
 37
0.0
 76
     0
330
1E
  0
MLINESTYLE
  5
17
102
{ACAD_REACTORS
330
16
102
}
330
16
100
AcDbMlineStyle
  2
STANDARD
 70
     0
  3

 62
   256
 51
90.0
 52
90.0
 71
     2
 49
0.5
 62
   256
  6
BYLAYER
 49
-0.5
 62
   256
  6
BYLAYER
  0
ACDBPLACEHOLDER
  5
F
102
{ACAD_REACTORS
330
E
102
}
330
E
  0
DICTIONARYVAR
  5
5ED
102
{ACAD_REACTORS
330
5EC
102
}
330
5EC
100
DictionaryVariables
280
     0
  1
1
  0
ENDSEC
  0
EOF
