  0
SECTION
  2
HEADER
  9
$ACADVER
  1
AC1015
  9
$ACADMAINTVER
 70
    13
  9
$DWGCODEPAGE
  3
ANSI_1252
  9
$INSBASE
 10
0.0
 20
0.0
 30
0.0
  9
$EXTMIN
 10
0.25
 20
-0.029000000000007
 30
0.0
  9
$EXTMAX
 10
102.75
 20
578.0289999999999
 30
0.0
  9
$LIMMIN
 10
0.0
 20
0.0
  9
$LIMMAX
 10
12.0
 20
9.0
  9
$ORTHOMODE
 70
     0
  9
$REGENMODE
 70
     1
  9
$FILLMODE
 70
     1
  9
$QTEXTMODE
 70
     0
  9
$MIRRTEXT
 70
     1
  9
$LTSCALE
 40
1.0
  9
$ATTMODE
 70
     1
  9
$TEXTSIZE
 40
0.2
  9
$TRACEWID
 40
0.05
  9
$TEXTSTYLE
  7
Standard
  9
$CLAYER
  8
0
  9
$CELTYPE
  6
Continuous
  9
$CECOLOR
 62
   256
  9
$CELTSCALE
 40
1.0
  9
$DISPSILH
 70
     0
  9
$DIMSCALE
 40
1.0
  9
$DIMASZ
 40
0.18
  9
$DIMEXO
 40
0.0625
  9
$DIMDLI
 40
0.38
  9
$DIMRND
 40
0.0
  9
$DIMDLE
 40
0.0
  9
$DIMEXE
 40
0.18
  9
$DIMTP
 40
0.0
  9
$DIMTM
 40
0.0
  9
$DIMTXT
 40
0.18
  9
$DIMCEN
 40
0.09
  9
$DIMTSZ
 40
0.0
  9
$DIMTOL
 70
     0
  9
$DIMLIM
 70
     0
  9
$DIMTIH
 70
     1
  9
$DIMTOH
 70
     1
  9
$DIMSE1
 70
     0
  9
$DIMSE2
 70
     0
  9
$DIMTAD
 70
     0
  9
$DIMZIN
 70
     0
  9
$DIMBLK
  1

  9
$DIMASO
 70
     1
  9
$DIMSHO
 70
     1
  9
$DIMPOST
  1

  9
$DIMAPOST
  1

  9
$DIMALT
 70
     0
  9
$DIMALTD
 70
     2
  9
$DIMALTF
 40
25.4
  9
$DIMLFAC
 40
1.0
  9
$DIMTOFL
 70
     0
  9
$DIMTVP
 40
0.0
  9
$DIMTIX
 70
     0
  9
$DIMSOXD
 70
     0
  9
$DIMSAH
 70
     0
  9
$DIMBLK1
  1

  9
$DIMBLK2
  1

  9
$DIMSTYLE
  2
Standard
  9
$DIMCLRD
 70
     0
  9
$DIMCLRE
 70
     0
  9
$DIMCLRT
 70
     0
  9
$DIMTFAC
 40
1.0
  9
$DIMGAP
 40
0.09
  9
$DIMJUST
 70
     0
  9
$DIMSD1
 70
     0
  9
$DIMSD2
 70
     0
  9
$DIMTOLJ
 70
     1
  9
$DIMTZIN
 70
     0
  9
$DIMALTZ
 70
     0
  9
$DIMALTTZ
 70
     0
  9
$DIMUPT
 70
     0
  9
$DIMDEC
 70
     4
  9
$DIMTDEC
 70
     4
  9
$DIMALTU
 70
     2
  9
$DIMALTTD
 70
     2
  9
$DIMTXSTY
  7
Standard
  9
$DIMAUNIT
 70
     0
  9
$DIMADEC
 70
     0
  9
$DIMALTRND
 40
0.0
  9
$DIMAZIN
 70
     0
  9
$DIMDSEP
 70
    46
  9
$DIMATFIT
 70
     3
  9
$DIMFRAC
 70
     0
  9
$DIMLDRBLK
  1

  9
$DIMLUNIT
 70
     2
  9
$DIMLWD
 70
    -2
  9
$DIMLWE
 70
    -2
  9
$DIMTMOVE
 70
     0
  9
$LUNITS
 70
     2
  9
$LUPREC
 70
     4
  9
$SKETCHINC
 40
0.1
  9
$FILLETRAD
 40
0.0
  9
$AUNITS
 70
     0
  9
$AUPREC
 70
     0
  9
$MENU
  1
.
  9
$ELEVATION
 40
0.0
  9
$PELEVATION
 40
0.0
  9
$THICKNESS
 40
0.0
  9
$LIMCHECK
 70
     0
  9
$CHAMFERA
 40
0.0
  9
$CHAMFERB
 40
0.0
  9
$CHAMFERC
 40
0.0
  9
$CHAMFERD
 40
0.0
  9
$SKPOLY
 70
     0
  9
$TDCREATE
 40
2454781.444630347
  9
$TDUCREATE
 40
2454781.402963680
  9
$TDUPDATE
 40
2454781.452207569
  9
$TDUUPDATE
 40
2454781.410540903
  9
$TDINDWG
 40
0.0075775926
  9
$TDUSRTIMER
 40
0.0075775926
  9
$USRTIMER
 70
     1
  9
$ANGBASE
 50
0.0
  9
$ANGDIR
 70
     0
  9
$PDMODE
 70
     0
  9
$PDSIZE
 40
0.0
  9
$PLINEWID
 40
0.0
  9
$SPLFRAME
 70
     0
  9
$SPLINETYPE
 70
     6
  9
$SPLINESEGS
 70
     8
  9
$HANDSEED
  5
36B
  9
$SURFTAB1
 70
     6
  9
$SURFTAB2
 70
     6
  9
$SURFTYPE
 70
     6
  9
$SURFU
 70
     6
  9
$SURFV
 70
     6
  9
$UCSBASE
  2

  9
$UCSNAME
  2

  9
$UCSORG
 10
0.0
 20
0.0
 30
0.0
  9
$UCSXDIR
 10
1.0
 20
0.0
 30
0.0
  9
$UCSYDIR
 10
0.0
 20
1.0
 30
0.0
  9
$UCSORTHOREF
  2

  9
$UCSORTHOVIEW
 70
     1
  9
$UCSORGTOP
 10
0.0
 20
0.0
 30
0.0
  9
$UCSORGBOTTOM
 10
0.0
 20
0.0
 30
0.0
  9
$UCSORGLEFT
 10
0.0
 20
0.0
 30
0.0
  9
$UCSORGRIGHT
 10
0.0
 20
0.0
 30
0.0
  9
$UCSORGFRONT
 10
0.0
 20
0.0
 30
0.0
  9
$UCSORGBACK
 10
0.0
 20
0.0
 30
0.0
  9
$PUCSBASE
  2

  9
$PUCSNAME
  2

  9
$PUCSORG
 10
0.0
 20
0.0
 30
0.0
  9
$PUCSXDIR
 10
1.0
 20
0.0
 30
0.0
  9
$PUCSYDIR
 10
0.0
 20
1.0
 30
0.0
  9
$PUCSORTHOREF
  2

  9
$PUCSORTHOVIEW
 70
     0
  9
$PUCSORGTOP
 10
0.0
 20
0.0
 30
0.0
  9
$PUCSORGBOTTOM
 10
0.0
 20
0.0
 30
0.0
  9
$PUCSORGLEFT
 10
0.0
 20
0.0
 30
0.0
  9
$PUCSORGRIGHT
 10
0.0
 20
0.0
 30
0.0
  9
$PUCSORGFRONT
 10
0.0
 20
0.0
 30
0.0
  9
$PUCSORGBACK
 10
0.0
 20
0.0
 30
0.0
  9
$USERI1
 70
     0
  9
$USERI2
 70
     0
  9
$USERI3
 70
     0
  9
$USERI4
 70
     0
  9
$USERI5
 70
     0
  9
$USERR1
 40
0.0
  9
$USERR2
 40
0.0
  9
$USERR3
 40
0.0
  9
$USERR4
 40
0.0
  9
$USERR5
 40
0.0
  9
$WORLDVIEW
 70
     1
  9
$SHADEDGE
 70
     3
  9
$SHADEDIF
 70
    70
  9
$TILEMODE
 70
     1
  9
$MAXACTVP
 70
    64
  9
$PINSBASE
 10
0.0
 20
0.0
 30
0.0
  9
$PLIMCHECK
 70
     0
  9
$PEXTMIN
 10
1.000000000000000E+20
 20
1.000000000000000E+20
 30
1.000000000000000E+20
  9
$PEXTMAX
 10
-1.000000000000000E+20
 20
-1.000000000000000E+20
 30
-1.000000000000000E+20
  9
$PLIMMIN
 10
0.0
 20
0.0
  9
$PLIMMAX
 10
12.0
 20
9.0
  9
$UNITMODE
 70
     0
  9
$VISRETAIN
 70
     1
  9
$PLINEGEN
 70
     0
  9
$PSLTSCALE
 70
     1
  9
$TREEDEPTH
 70
  3020
  9
$CMLSTYLE
  2
Standard
  9
$CMLJUST
 70
     0
  9
$CMLSCALE
 40
1.0
  9
$PROXYGRAPHICS
 70
     1
  9
$MEASUREMENT
 70
     0
  9
$CELWEIGHT
370
    -1
  9
$ENDCAPS
280
     0
  9
$JOINSTYLE
280
     0
  9
$LWDISPLAY
290
     0
  9
$INSUNITS
 70
     0
  9
$HYPERLINKBASE
  1

  9
$STYLESHEET
  1

  9
$XEDIT
290
     1
  9
$CEPSNTYPE
380
     0
  9
$PSTYLEMODE
290
     1
  9
$FINGERPRINTGUID
  2
{2E3DFD1D-D53E-4A09-9ECC-BF5716232896}
  9
$VERSIONGUID
  2
{9BB24566-2A26-4F26-9ABD-5A37548F0DD1}
  9
$EXTNAMES
290
     1
  9
$PSVPSCALE
 40
0.0
  9
$OLESTARTUP
290
     0
  0
ENDSEC
  0
SECTION
  2
CLASSES
  0
CLASS
  1
ACDBDICTIONARYWDFLT
  2
AcDbDictionaryWithDefault
  3
AutoCAD 2000
 90
        0
280
     0
281
     0
  0
CLASS
  1
ACDBPLACEHOLDER
  2
AcDbPlaceHolder
  3
AutoCAD 2000
 90
        0
280
     0
281
     0
  0
CLASS
  1
LAYOUT
  2
AcDbLayout
  3
AutoCAD 2000
 90
        0
280
     0
281
     0
  0
CLASS
  1
DICTIONARYVAR
  2
AcDbDictionaryVar
  3
AutoCAD 2000
 90
        0
280
     0
281
     0
  0
ENDSEC
  0
SECTION
  2
TABLES
  0
TABLE
  2
VPORT
  5
8
330
0
100
AcDbSymbolTable
 70
     2
  0
VPORT
  5
36A
330
8
100
AcDbSymbolTableRecord
100
AcDbViewportTableRecord
  2
*Active
 70
     0
 10
0.0
 20
0.0
 11
1.0
 21
1.0
 12
51.5
 22
289.0
 13
0.0
 23
0.0
 14
1.0
 24
1.0
 15
0.0
 25
0.0
 16
0.0
 26
0.0
 36
1.0
 17
0.0
 27
0.0
 37
0.0
 40
582.4932276214833
 41
2.078104993597951
 42
50.0
 43
0.0
 44
0.0
 50
0.0
 51
0.0
 71
     0
 72
   100
 73
     1
 74
     3
 75
     0
 76
     0
 77
     0
 78
     0
281
     0
 65
     1
110
0.0
120
0.0
130
0.0
111
1.0
121
0.0
131
0.0
112
0.0
122
1.0
132
0.0
 79
     1
146
0.0
  0
ENDTAB
  0
TABLE
  2
LTYPE
  5
5
330
0
100
AcDbSymbolTable
 70
     1
  0
LTYPE
  5
13
330
5
100
AcDbSymbolTableRecord
100
AcDbLinetypeTableRecord
  2
ByBlock
 70
     0
  3

 72
    65
 73
     0
 40
0.0
  0
LTYPE
  5
14
330
5
100
AcDbSymbolTableRecord
100
AcDbLinetypeTableRecord
  2
ByLayer
 70
     0
  3

 72
    65
 73
     0
 40
0.0
  0
LTYPE
  5
15
330
5
100
AcDbSymbolTableRecord
100
AcDbLinetypeTableRecord
  2
Continuous
 70
     0
  3
Solid line
 72
    65
 73
     0
 40
0.0
  0
ENDTAB
  0
TABLE
  2
LAYER
  5
2
330
0
100
AcDbSymbolTable
 70
     1
  0
LAYER
  5
10
330
2
100
AcDbSymbolTableRecord
100
AcDbLayerTableRecord
  2
0
 70
     0
 62
     7
  6
Continuous
370
    -3
390
F
  0
ENDTAB
  0
TABLE
  2
STYLE
  5
3
330
0
100
AcDbSymbolTable
 70
     1
  0
STYLE
  5
11
330
3
100
AcDbSymbolTableRecord
100
AcDbTextStyleTableRecord
  2
Standard
 70
     0
 40
0.0
 41
1.0
 50
0.0
 71
     0
 42
0.2
  3
txt
  4

  0
ENDTAB
  0
TABLE
  2
VIEW
  5
6
330
0
100
AcDbSymbolTable
 70
     0
  0
ENDTAB
  0
TABLE
  2
UCS
  5
7
330
0
100
AcDbSymbolTable
 70
     0
  0
ENDTAB
  0
TABLE
  2
APPID
  5
9
330
0
100
AcDbSymbolTable
 70
     1
  0
APPID
  5
12
330
9
100
AcDbSymbolTableRecord
100
AcDbRegAppTableRecord
  2
ACAD
 70
     0
  0
ENDTAB
  0
TABLE
  2
DIMSTYLE
  5
A
330
0
100
AcDbSymbolTable
 70
     1
100
AcDbDimStyleTable
 71
     0
  0
DIMSTYLE
105
363
330
A
100
AcDbSymbolTableRecord
100
AcDbDimStyleTableRecord
  2
Standard
 70
     0
340
11
  0
ENDTAB
  0
TABLE
  2
BLOCK_RECORD
  5
1
330
0
100
AcDbSymbolTable
 70
     0
  0
BLOCK_RECORD
  5
1E
330
1
100
AcDbSymbolTableRecord
100
AcDbBlockTableRecord
  2
*Model_Space
340
21
  0
BLOCK_RECORD
  5
1A
330
1
100
AcDbSymbolTableRecord
100
AcDbBlockTableRecord
  2
*Paper_Space
340
1D
  0
ENDTAB
  0
ENDSEC
  0
SECTION
  2
BLOCKS
  0
BLOCK
  5
1F
330
1E
100
AcDbEntity
  8
0
100
AcDbBlockBegin
  2
*Model_Space
 70
     0
 10
0.0
 20
0.0
 30
0.0
  3
*Model_Space
  1

  0
ENDBLK
  5
20
330
1E
100
AcDbEntity
  8
0
100
AcDbBlockEnd
  0
BLOCK
  5
1B
330
1A
100
AcDbEntity
 67
     1
  8
0
100
AcDbBlockBegin
  2
*Paper_Space
 70
     0
 10
0.0
 20
0.0
 30
0.0
  3
*Paper_Space
  1

  0
ENDBLK
  5
1C
330
1A
100
AcDbEntity
 67
     1
  8
0
100
AcDbBlockEnd
  0
ENDSEC
  0
SECTION
  2
ENTITIES
  0
LINE
  5
22
330
1E
100
AcDbEntity
  8
0
100
AcDbLine
 10
25.75
 20
96.64900000000001
 30
0.0
 11
37.75
 21
96.64900000000001
 31
0.0
  0
LINE
  5
23
330
1E
100
AcDbEntity
  8
0
100
AcDbLine
 10
25.75
 20
96.64900000000001
 30
0.0
 11
25.75
 21
131.6489999999999
 31
0.0
  0
LINE
  5
24
330
1E
100
AcDbEntity
  8
0
100
AcDbLine
 10
25.75
 20
131.6489999999999
 30
0.0
 11
32.75
 21
131.6489999999999
 31
0.0
  0
LINE
  5
25
330
1E
100
AcDbEntity
  8
0
100
AcDbLine
 10
24.75
 20
140.6489999999999
 30
0.0
 11
24.75
 21
136.6489999999999
 31
0.0
  0
LINE
  5
26
330
1E
100
AcDbEntity
  8
0
100
AcDbLine
 10
24.75
 20
140.6489999999999
 30
0.0
 11
26.118
 21
140.6489999999999
 31
0.0
  0
LINE
  5
27
330
1E
100
AcDbEntity
  8
0
100
AcDbLine
 10
24.75
 20
136.6489999999999
 30
0.0
 11
26.118
 21
136.6489999999999
 31
0.0
  0
LINE
  5
28
330
1E
100
AcDbEntity
  8
0
100
AcDbLine
 10
24.75
 20
136.6489999999999
 30
0.0
 11
24.75
 21
140.6489999999999
 31
0.0
  0
LINE
  5
29
330
1E
100
AcDbEntity
  8
0
100
AcDbLine
 10
25.75
 20
131.6489999999999
 30
0.0
 11
32.75
 21
131.6489999999999
 31
0.0
  0
LINE
  5
2A
330
1E
100
AcDbEntity
  8
0
100
AcDbLine
 10
26.074
 20
123.953
 30
0.0
 11
26.938
 21
126.113
 31
0.0
  0
LINE
  5
2B
330
1E
100
AcDbEntity
  8
0
100
AcDbLine
 10
25.75
 20
121.649
 30
0.0
 11
26.074
 21
119.345
 31
0.0
  0
LINE
  5
2C
330
1E
100
AcDbEntity
  8
0
100
AcDbLine
 10
25.75
 20
121.649
 30
0.0
 11
26.074
 21
123.953
 31
0.0
  0
LINE
  5
2D
330
1E
100
AcDbEntity
  8
0
100
AcDbLine
 10
26.118
 20
140.6489999999999
 30
0.0
 11
29.76599999999999
 21
140.6489999999999
 31
0.0
  0
LINE
  5
2E
330
1E
100
AcDbEntity
  8
0
100
AcDbLine
 10
26.118
 20
136.6489999999999
 30
0.0
 11
29.76599999999999
 21
136.6489999999999
 31
0.0
  0
LINE
  5
2F
330
1E
100
AcDbEntity
  8
0
100
AcDbLine
 10
26.938
 20
126.113
 30
0.0
 11
28.378
 21
128.021
 31
0.0
  0
LINE
  5
30
330
1E
100
AcDbEntity
  8
0
100
AcDbLine
 10
26.074
 20
119.345
 30
0.0
 11
26.938
 21
117.185
 31
0.0
  0
LINE
  5
31
330
1E
100
AcDbEntity
  8
0
100
AcDbLine
 10
26.938
 20
117.185
 30
0.0
 11
28.378
 21
115.277
 31
0.0
  0
LINE
  5
32
330
1E
100
AcDbEntity
  8
0
100
AcDbLine
 10
28.378
 20
128.021
 30
0.0
 11
30.28599999999999
 21
129.461
 31
0.0
  0
LINE
  5
33
330
1E
100
AcDbEntity
  8
0
100
AcDbLine
 10
29.76599999999999
 20
140.6489999999999
 30
0.0
 11
35.846
 21
140.6489999999999
 31
0.0
  0
LINE
  5
34
330
1E
100
AcDbEntity
  8
0
100
AcDbLine
 10
29.76599999999999
 20
136.6489999999999
 30
0.0
 11
32.75
 21
136.6489999999999
 31
0.0
  0
LINE
  5
35
330
1E
100
AcDbEntity
  8
0
100
AcDbLine
 10
29.76599999999999
 20
136.6489999999999
 30
0.0
 11
35.846
 21
136.6489999999999
 31
0.0
  0
LINE
  5
36
330
1E
100
AcDbEntity
  8
0
100
AcDbLine
 10
30.28599999999999
 20
129.461
 30
0.0
 11
32.446
 21
130.325
 31
0.0
  0
LINE
  5
37
330
1E
100
AcDbEntity
  8
0
100
AcDbLine
 10
28.378
 20
115.277
 30
0.0
 11
30.28599999999999
 21
113.837
 31
0.0
  0
LINE
  5
38
330
1E
100
AcDbEntity
  8
0
100
AcDbLine
 10
30.28599999999999
 20
113.837
 30
0.0
 11
32.446
 21
112.973
 31
0.0
  0
LINE
  5
39
330
1E
100
AcDbEntity
  8
0
100
AcDbLine
 10
27.75
 20
150.649
 30
0.0
 11
27.75
 21
152.649
 31
0.0
  0
LINE
  5
3A
330
1E
100
AcDbEntity
  8
0
100
AcDbLine
 10
27.75
 20
150.649
 30
0.0
 11
29.01
 21
150.649
 31
0.0
  0
LINE
  5
3B
330
1E
100
AcDbEntity
  8
0
100
AcDbLine
 10
27.75
 20
152.649
 30
0.0
 11
27.75
 21
150.649
 31
0.0
  0
LINE
  5
3C
330
1E
100
AcDbEntity
  8
0
100
AcDbLine
 10
27.75
 20
152.649
 30
0.0
 11
29.01
 21
152.649
 31
0.0
  0
LINE
  5
3D
330
1E
100
AcDbEntity
  8
0
100
AcDbLine
 10
0.25
 20
517.1429999999999
 30
0.0
 11
28.3518776194468
 21
517.1429999999999
 31
0.0
  0
LINE
  5
3E
330
1E
100
AcDbEntity
  8
0
100
AcDbLine
 10
0.250000000000001
 20
517.1429999999999
 30
0.0
 11
28.3518776194468
 21
517.1429999999999
 31
0.0
  0
LINE
  5
3F
330
1E
100
AcDbEntity
  8
0
100
AcDbLine
 10
0.250000000000001
 20
517.1429999999999
 30
0.0
 11
0.250000000000001
 21
517.307
 31
0.0
  0
LINE
  5
40
330
1E
100
AcDbEntity
  8
0
100
AcDbLine
 10
0.250000000000001
 20
518.1049999999999
 30
0.0
 11
0.250000000000001
 21
518.653
 31
0.0
  0
LINE
  5
41
330
1E
100
AcDbEntity
  8
0
100
AcDbLine
 10
0.250000000000001
 20
523.1749999999999
 30
0.0
 11
0.250000000000001
 21
524.315
 31
0.0
  0
LINE
  5
42
330
1E
100
AcDbEntity
  8
0
100
AcDbLine
 10
0.250000000000001
 20
521.0399999999999
 30
0.0
 11
0.250000000000001
 21
524.315
 31
0.0
  0
LINE
  5
43
330
1E
100
AcDbEntity
  8
0
100
AcDbLine
 10
0.250000000000001
 20
518.653
 30
0.0
 11
0.250000000000001
 21
521.0399999999999
 31
0.0
  0
LINE
  5
44
330
1E
100
AcDbEntity
  8
0
100
AcDbLine
 10
0.250000000000001
 20
517.307
 30
0.0
 11
0.250000000000001
 21
518.653
 31
0.0
  0
LINE
  5
45
330
1E
100
AcDbEntity
  8
0
100
AcDbLine
 10
0.250000000000001
 20
517.307
 30
0.0
 11
0.250000000000001
 21
517.1429999999999
 31
0.0
  0
LINE
  5
46
330
1E
100
AcDbEntity
  8
0
100
AcDbLine
 10
0.250000000000001
 20
524.315
 30
0.0
 11
0.250000000000001
 21
528.2799999999999
 31
0.0
  0
LINE
  5
47
330
1E
100
AcDbEntity
  8
0
100
AcDbLine
 10
28.03
 20
517.5629999999999
 30
0.0
 11
34.43
 21
509.212
 31
0.0
  0
LINE
  5
48
330
1E
100
AcDbEntity
  8
0
100
AcDbLine
 10
24.19
 20
527.0169999999999
 30
0.0
 11
28.03
 21
517.5629999999999
 31
0.0
  0
LINE
  5
49
330
1E
100
AcDbEntity
  8
0
100
AcDbLine
 10
24.19
 20
528.5519999999999
 30
0.0
 11
28.03
 21
519.098
 31
0.0
  0
LINE
  5
4A
330
1E
100
AcDbEntity
  8
0
100
AcDbLine
 10
28.03
 20
519.098
 30
0.0
 11
34.43
 21
510.7469999999999
 31
0.0
  0
LINE
  5
4B
330
1E
100
AcDbEntity
  8
0
100
AcDbLine
 10
0.250000000000001
 20
528.2799999999999
 30
0.0
 11
0.250000000000002
 21
532.613
 31
0.0
  0
LINE
  5
4C
330
1E
100
AcDbEntity
  8
0
100
AcDbLine
 10
26.118
 20
529.1569999999999
 30
0.0
 11
29.76599999999999
 21
520.1759999999999
 31
0.0
  0
LINE
  5
4D
330
1E
100
AcDbEntity
  8
0
100
AcDbLine
 10
29.76599999999999
 20
520.1759999999999
 30
0.0
 11
35.846
 21
512.2419999999999
 31
0.0
  0
LINE
  5
4E
330
1E
100
AcDbEntity
  8
0
100
AcDbLine
 10
22.74999999999999
 20
537.1019999999999
 30
0.0
 11
24.19
 21
527.0169999999999
 31
0.0
  0
LINE
  5
4F
330
1E
100
AcDbEntity
  8
0
100
AcDbLine
 10
22.74999999999999
 20
537.1019999999999
 30
0.0
 11
22.74999999999999
 21
538.6369999999999
 31
0.0
  0
LINE
  5
50
330
1E
100
AcDbEntity
  8
0
100
AcDbLine
 10
22.74999999999999
 20
538.6369999999999
 30
0.0
 11
24.19
 21
528.5519999999999
 31
0.0
  0
LINE
  5
51
330
1E
100
AcDbEntity
  8
0
100
AcDbLine
 10
22.74999999999999
 20
538.6369999999999
 30
0.0
 11
24.19
 21
548.721
 31
0.0
  0
LINE
  5
52
330
1E
100
AcDbEntity
  8
0
100
AcDbLine
 10
0.250000000000002
 20
537.0009999999999
 30
0.0
 11
0.250000000000002
 21
541.181
 31
0.0
  0
LINE
  5
53
330
1E
100
AcDbEntity
  8
0
100
AcDbLine
 10
0.250000000000002
 20
537.0009999999999
 30
0.0
 11
0.250000000000002
 21
539.8179999999999
 31
0.0
  0
LINE
  5
54
330
1E
100
AcDbEntity
  8
0
100
AcDbLine
 10
0.250000000000002
 20
532.613
 30
0.0
 11
0.250000000000002
 21
537.0009999999999
 31
0.0
  0
LINE
  5
55
330
1E
100
AcDbEntity
  8
0
100
AcDbLine
 10
0.250000000000002
 20
539.8179999999999
 30
0.0
 11
0.250000000000002
 21
541.181
 31
0.0
  0
LINE
  5
56
330
1E
100
AcDbEntity
  8
0
100
AcDbLine
 10
0.250000000000002
 20
544.923
 30
0.0
 11
0.250000000000003
 21
547.95
 31
0.0
  0
LINE
  5
57
330
1E
100
AcDbEntity
  8
0
100
AcDbLine
 10
0.250000000000002
 20
541.181
 30
0.0
 11
0.250000000000002
 21
544.923
 31
0.0
  0
LINE
  5
58
330
1E
100
AcDbEntity
  8
0
100
AcDbLine
 10
0.25
 20
550.955
 30
0.0
 11
25.0974000423101
 21
550.955
 31
0.0
  0
LINE
  5
59
330
1E
100
AcDbEntity
  8
0
100
AcDbLine
 10
0.250000000000003
 20
547.95
 30
0.0
 11
0.250000000000003
 21
549.4439999999999
 31
0.0
  0
LINE
  5
5A
330
1E
100
AcDbEntity
  8
0
100
AcDbLine
 10
0.250000000000003
 20
547.95
 30
0.0
 11
0.250000000000003
 21
549.993
 31
0.0
  0
LINE
  5
5B
330
1E
100
AcDbEntity
  8
0
100
AcDbLine
 10
24.19
 20
548.721
 30
0.0
 11
28.03
 21
558.1749999999999
 31
0.0
  0
LINE
  5
5C
330
1E
100
AcDbEntity
  8
0
100
AcDbLine
 10
0.250000000000003
 20
549.993
 30
0.0
 11
0.250000000000003
 21
550.955
 31
0.0
  0
LINE
  5
5D
330
1E
100
AcDbEntity
  8
0
100
AcDbLine
 10
0.250000000000003
 20
550.955
 30
0.0
 11
25.0974000423101
 21
550.955
 31
0.0
  0
LINE
  5
5E
330
1E
100
AcDbEntity
  8
0
100
AcDbLine
 10
0.250000000000003
 20
549.4439999999999
 30
0.0
 11
0.250000000000003
 21
550.7909999999999
 31
0.0
  0
LINE
  5
5F
330
1E
100
AcDbEntity
  8
0
100
AcDbLine
 10
24.75
 20
538.7369999999999
 30
0.0
 11
26.118
 21
529.1569999999999
 31
0.0
  0
LINE
  5
60
330
1E
100
AcDbEntity
  8
0
100
AcDbLine
 10
24.75
 20
538.7369999999999
 30
0.0
 11
24.75
 21
539.158
 31
0.0
  0
LINE
  5
61
330
1E
100
AcDbEntity
  8
0
100
AcDbLine
 10
28.03
 20
558.1749999999999
 30
0.0
 11
34.43
 21
566.5259999999999
 31
0.0
  0
LINE
  5
62
330
1E
100
AcDbEntity
  8
0
100
AcDbLine
 10
26.118
 20
548.738
 30
0.0
 11
29.76599999999999
 21
557.719
 31
0.0
  0
LINE
  5
63
330
1E
100
AcDbEntity
  8
0
100
AcDbLine
 10
24.75
 20
539.158
 30
0.0
 11
26.118
 21
529.577
 31
0.0
  0
LINE
  5
64
330
1E
100
AcDbEntity
  8
0
100
AcDbLine
 10
24.75
 20
539.158
 30
0.0
 11
24.75
 21
538.7369999999999
 31
0.0
  0
LINE
  5
65
330
1E
100
AcDbEntity
  8
0
100
AcDbLine
 10
24.75
 20
539.158
 30
0.0
 11
26.118
 21
548.738
 31
0.0
  0
LINE
  5
66
330
1E
100
AcDbEntity
  8
0
100
AcDbLine
 10
26.118
 20
529.577
 30
0.0
 11
29.76599999999999
 21
520.596
 31
0.0
  0
LINE
  5
67
330
1E
100
AcDbEntity
  8
0
100
AcDbLine
 10
29.76599999999999
 20
557.719
 30
0.0
 11
35.846
 21
565.653
 31
0.0
  0
LINE
  5
68
330
1E
100
AcDbEntity
  8
0
100
AcDbLine
 10
29.76599999999999
 20
520.596
 30
0.0
 11
35.846
 21
512.6619999999999
 31
0.0
  0
LINE
  5
69
330
1E
100
AcDbEntity
  8
0
100
AcDbLine
 10
29.01
 20
152.649
 30
0.0
 11
32.37
 21
152.649
 31
0.0
  0
LINE
  5
6A
330
1E
100
AcDbEntity
  8
0
100
AcDbLine
 10
32.37
 20
152.649
 30
0.0
 11
37.97
 21
152.649
 31
0.0
  0
LINE
  5
6B
330
1E
100
AcDbEntity
  8
0
100
AcDbLine
 10
29.01
 20
150.649
 30
0.0
 11
32.37
 21
150.649
 31
0.0
  0
LINE
  5
6C
330
1E
100
AcDbEntity
  8
0
100
AcDbLine
 10
62.75
 20
-0.029000000000007
 30
0.0
 11
69.15
 21
0.6079999999999929
 31
0.0
  0
LINE
  5
6D
330
1E
100
AcDbEntity
  8
0
100
AcDbLine
 10
69.15
 20
0.6079999999999929
 30
0.0
 11
75.15
 21
2.305
 31
0.0
  0
LINE
  5
6E
330
1E
100
AcDbEntity
  8
0
100
AcDbLine
 10
69.15
 20
0.6079999999999929
 30
0.0
 11
75.15
 21
2.305
 31
0.0
  0
LINE
  5
6F
330
1E
100
AcDbEntity
  8
0
100
AcDbLine
 10
62.75
 20
-0.029000000000007
 30
0.0
 11
69.15
 21
0.6079999999999929
 31
0.0
  0
LINE
  5
70
330
1E
100
AcDbEntity
  8
0
100
AcDbLine
 10
36.398
 20
30.649
 30
0.0
 11
37.37
 21
30.649
 31
0.0
  0
LINE
  5
72
330
1E
100
AcDbEntity
  8
0
100
AcDbLine
 10
35.75
 20
31.611
 30
0.0
 11
36.398
 21
30.649
 31
0.0
  0
LINE
  5
73
330
1E
100
AcDbEntity
  8
0
100
AcDbLine
 10
35.75
 20
31.611
 30
0.0
 11
35.75
 21
54.6875
 31
0.0
  0
LINE
  5
74
330
1E
100
AcDbEntity
  8
0
100
AcDbLine
 10
37.37
 20
30.649
 30
0.0
 11
37.75
 21
30.649
 31
0.0
  0
LINE
  5
75
330
1E
100
AcDbEntity
  8
0
100
AcDbLine
 10
38.65
 20
22.174
 30
0.0
 11
41.04999999999999
 21
26.417
 31
0.0
  0
LINE
  5
76
330
1E
100
AcDbEntity
  8
0
100
AcDbLine
 10
41.04999999999999
 20
26.417
 30
0.0
 11
45.04999999999999
 21
30.165
 31
0.0
  0
LINE
  5
77
330
1E
100
AcDbEntity
  8
0
100
AcDbLine
 10
37.75
 20
17.649
 30
0.0
 11
38.65
 21
13.124
 31
0.0
  0
LINE
  5
78
330
1E
100
AcDbEntity
  8
0
100
AcDbLine
 10
37.75
 20
17.649
 30
0.0
 11
37.75
 21
52.2972
 31
0.0
  0
LINE
  5
79
330
1E
100
AcDbEntity
  8
0
100
AcDbLine
 10
37.75
 20
17.649
 30
0.0
 11
38.65
 21
22.174
 31
0.0
  0
LINE
  5
7A
330
1E
100
AcDbEntity
  8
0
100
AcDbLine
 10
38.65
 20
13.124
 30
0.0
 11
41.04999999999999
 21
8.880999999999991
 31
0.0
  0
LINE
  5
7B
330
1E
100
AcDbEntity
  8
0
100
AcDbLine
 10
42.0929
 20
21.528
 30
0.0
 11
44.15
 21
25.165
 31
0.0
  0
LINE
  5
7C
330
1E
100
AcDbEntity
  8
0
100
AcDbLine
 10
44.15
 20
25.165
 30
0.0
 11
47.57859999999999
 21
28.37699999999999
 31
0.0
  0
LINE
  5
7D
330
1E
100
AcDbEntity
  8
0
100
AcDbLine
 10
41.32139999999999
 20
17.649
 30
0.0
 11
42.0929
 21
13.77
 31
0.0
  0
LINE
  5
7E
330
1E
100
AcDbEntity
  8
0
100
AcDbLine
 10
41.32139999999999
 20
17.649
 30
0.0
 11
42.0929
 21
21.528
 31
0.0
  0
LINE
  5
7F
330
1E
100
AcDbEntity
  8
0
100
AcDbLine
 10
42.0929
 20
13.77
 30
0.0
 11
44.15
 21
10.13299999999999
 31
0.0
  0
LINE
  5
80
330
1E
100
AcDbEntity
  8
0
100
AcDbLine
 10
47.57859999999999
 20
28.37699999999999
 30
0.0
 11
52.1214
 21
30.80099999999999
 31
0.0
  0
LINE
  5
81
330
1E
100
AcDbEntity
  8
0
100
AcDbLine
 10
45.04999999999999
 20
30.165
 30
0.0
 11
50.35
 21
32.993
 31
0.0
  0
LINE
  5
82
330
1E
100
AcDbEntity
  8
0
100
AcDbLine
 10
50.35
 20
32.993
 30
0.0
 11
56.35
 21
34.68999999999999
 31
0.0
  0
LINE
  5
83
330
1E
100
AcDbEntity
  8
0
100
AcDbLine
 10
44.15
 20
10.13299999999999
 30
0.0
 11
47.57859999999999
 21
6.92099999999998
 31
0.0
  0
LINE
  5
84
330
1E
100
AcDbEntity
  8
0
100
AcDbLine
 10
47.57859999999999
 20
6.92099999999998
 30
0.0
 11
52.1214
 21
4.49699999999998
 31
0.0
  0
LINE
  5
85
330
1E
100
AcDbEntity
  8
0
100
AcDbLine
 10
41.04999999999999
 20
8.880999999999991
 30
0.0
 11
45.04999999999999
 21
5.132999999999999
 31
0.0
  0
LINE
  5
86
330
1E
100
AcDbEntity
  8
0
100
AcDbLine
 10
45.04999999999999
 20
5.132999999999999
 30
0.0
 11
50.35
 21
2.305
 31
0.0
  0
LINE
  5
87
330
1E
100
AcDbEntity
  8
0
100
AcDbLine
 10
75.15
 20
2.305
 30
0.0
 11
80.44999999999999
 21
5.132999999999999
 31
0.0
  0
LINE
  5
88
330
1E
100
AcDbEntity
  8
0
100
AcDbLine
 10
68.2357
 20
3.04199999999999
 30
0.0
 11
73.3786
 21
4.496999999999969
 31
0.0
  0
LINE
  5
89
330
1E
100
AcDbEntity
  8
0
100
AcDbLine
 10
62.75
 20
2.496999999999979
 30
0.0
 11
68.2357
 21
3.04199999999999
 31
0.0
  0
LINE
  5
8A
330
1E
100
AcDbEntity
  8
0
100
AcDbLine
 10
52.1214
 20
30.80099999999999
 30
0.0
 11
57.2643
 21
32.256
 31
0.0
  0
LINE
  5
8B
330
1E
100
AcDbEntity
  8
0
100
AcDbLine
 10
73.3786
 20
4.496999999999969
 30
0.0
 11
77.9214
 21
6.92099999999998
 31
0.0
  0
LINE
  5
8C
330
1E
100
AcDbEntity
  8
0
100
AcDbLine
 10
73.3786
 20
30.80099999999999
 30
0.0
 11
77.9214
 21
28.37699999999999
 31
0.0
  0
LINE
  5
8D
330
1E
100
AcDbEntity
  8
0
100
AcDbLine
 10
68.2357
 20
32.256
 30
0.0
 11
73.3786
 21
30.80099999999999
 31
0.0
  0
LINE
  5
8E
330
1E
100
AcDbEntity
  8
0
100
AcDbLine
 10
62.75
 20
32.801
 30
0.0
 11
68.2357
 21
32.256
 31
0.0
  0
LINE
  5
8F
330
1E
100
AcDbEntity
  8
0
100
AcDbLine
 10
80.44999999999999
 20
5.132999999999999
 30
0.0
 11
84.45
 21
8.880999999999991
 31
0.0
  0
LINE
  5
90
330
1E
100
AcDbEntity
  8
0
100
AcDbLine
 10
81.34999999999999
 20
10.13299999999999
 30
0.0
 11
83.40709999999999
 21
13.77
 31
0.0
  0
LINE
  5
91
330
1E
100
AcDbEntity
  8
0
100
AcDbLine
 10
77.9214
 20
6.92099999999998
 30
0.0
 11
81.34999999999999
 21
10.13299999999999
 31
0.0
  0
LINE
  5
92
330
1E
100
AcDbEntity
  8
0
100
AcDbLine
 10
83.40709999999999
 20
13.77
 30
0.0
 11
84.17860000000001
 21
17.649
 31
0.0
  0
LINE
  5
93
330
1E
100
AcDbEntity
  8
0
100
AcDbLine
 10
84.45
 20
8.880999999999991
 30
0.0
 11
86.85
 21
13.124
 31
0.0
  0
LINE
  5
94
330
1E
100
AcDbEntity
  8
0
100
AcDbLine
 10
83.40709999999999
 20
21.528
 30
0.0
 11
84.17860000000001
 21
17.649
 31
0.0
  0
LINE
  5
95
330
1E
100
AcDbEntity
  8
0
100
AcDbLine
 10
81.34999999999999
 20
25.165
 30
0.0
 11
83.40709999999999
 21
21.528
 31
0.0
  0
LINE
  5
96
330
1E
100
AcDbEntity
  8
0
100
AcDbLine
 10
77.9214
 20
28.37699999999999
 30
0.0
 11
81.34999999999999
 21
25.165
 31
0.0
  0
LINE
  5
97
330
1E
100
AcDbEntity
  8
0
100
AcDbLine
 10
86.85
 20
13.124
 30
0.0
 11
87.75
 21
17.649
 31
0.0
  0
LINE
  5
98
330
1E
100
AcDbEntity
  8
0
100
AcDbLine
 10
86.85
 20
22.174
 30
0.0
 11
87.75
 21
17.649
 31
0.0
  0
LINE
  5
99
330
1E
100
AcDbEntity
  8
0
100
AcDbLine
 10
87.75
 20
17.649
 30
0.0
 11
87.75
 21
52.2972
 31
0.0
  0
LINE
  5
9A
330
1E
100
AcDbEntity
  8
0
100
AcDbLine
 10
84.45
 20
26.417
 30
0.0
 11
86.85
 21
22.174
 31
0.0
  0
LINE
  5
9C
330
1E
100
AcDbEntity
  8
0
100
AcDbLine
 10
87.75
 20
30.649
 30
0.0
 11
88.13
 21
30.649
 31
0.0
  0
LINE
  5
9D
330
1E
100
AcDbEntity
  8
0
100
AcDbLine
 10
80.44999999999999
 20
30.165
 30
0.0
 11
84.45
 21
26.417
 31
0.0
  0
LINE
  5
9E
330
1E
100
AcDbEntity
  8
0
100
AcDbLine
 10
75.15
 20
32.993
 30
0.0
 11
80.44999999999999
 21
30.165
 31
0.0
  0
LINE
  5
9F
330
1E
100
AcDbEntity
  8
0
100
AcDbLine
 10
69.15
 20
34.68999999999999
 30
0.0
 11
75.15
 21
32.993
 31
0.0
  0
LINE
  5
A0
330
1E
100
AcDbEntity
  8
0
100
AcDbLine
 10
57.2643
 20
32.256
 30
0.0
 11
62.75
 21
32.801
 31
0.0
  0
LINE
  5
A1
330
1E
100
AcDbEntity
  8
0
100
AcDbLine
 10
62.75
 20
35.327
 30
0.0
 11
69.15
 21
34.68999999999999
 31
0.0
  0
LINE
  5
A2
330
1E
100
AcDbEntity
  8
0
100
AcDbLine
 10
56.35
 20
34.68999999999999
 30
0.0
 11
62.75
 21
35.327
 31
0.0
  0
LINE
  5
A3
330
1E
100
AcDbEntity
  8
0
100
AcDbLine
 10
52.1214
 20
4.49699999999998
 30
0.0
 11
57.2643
 21
3.04199999999999
 31
0.0
  0
LINE
  5
A4
330
1E
100
AcDbEntity
  8
0
100
AcDbLine
 10
57.2643
 20
3.04199999999999
 30
0.0
 11
62.75
 21
2.496999999999979
 31
0.0
  0
LINE
  5
A5
330
1E
100
AcDbEntity
  8
0
100
AcDbLine
 10
50.35
 20
2.305
 30
0.0
 11
56.35
 21
0.607999999999994
 31
0.0
  0
LINE
  5
A6
330
1E
100
AcDbEntity
  8
0
100
AcDbLine
 10
50.35
 20
2.305
 30
0.0
 11
56.35
 21
0.607999999999994
 31
0.0
  0
LINE
  5
A7
330
1E
100
AcDbEntity
  8
0
100
AcDbLine
 10
56.35
 20
0.607999999999994
 30
0.0
 11
62.75
 21
-0.029000000000007
 31
0.0
  0
LINE
  5
A8
330
1E
100
AcDbEntity
  8
0
100
AcDbLine
 10
56.35
 20
0.607999999999994
 30
0.0
 11
62.75
 21
-0.029000000000007
 31
0.0
  0
LINE
  5
A9
330
1E
100
AcDbEntity
  8
0
100
AcDbLine
 10
89.74999999999999
 20
31.611
 30
0.0
 11
89.74999999999999
 21
54.6875
 31
0.0
  0
LINE
  5
AA
330
1E
100
AcDbEntity
  8
0
100
AcDbLine
 10
88.13
 20
30.649
 30
0.0
 11
89.10200000000001
 21
30.649
 31
0.0
  0
LINE
  5
AB
330
1E
100
AcDbEntity
  8
0
100
AcDbLine
 10
87.81399999999999
 20
47.5907
 30
0.0
 11
88.75
 21
52.2972
 31
0.0
  0
LINE
  5
AC
330
1E
100
AcDbEntity
  8
0
100
AcDbLine
 10
87.75
 20
47.4775641025641
 30
0.0
 11
87.81399999999999
 21
47.5907
 31
0.0
  0
LINE
  5
AD
330
1E
100
AcDbEntity
  8
0
100
AcDbLine
 10
32.75
 20
129.649
 30
0.0
 11
33.83
 21
129.649
 31
0.0
  0
LINE
  5
AE
330
1E
100
AcDbEntity
  8
0
100
AcDbLine
 10
32.75
 20
129.649
 30
0.0
 11
32.75
 21
136.6489999999999
 31
0.0
  0
LINE
  5
AF
330
1E
100
AcDbEntity
  8
0
100
AcDbLine
 10
33.83
 20
129.649
 30
0.0
 11
36.71
 21
129.649
 31
0.0
  0
LINE
  5
B0
330
1E
100
AcDbEntity
  8
0
100
AcDbLine
 10
32.75
 20
136.6489999999999
 30
0.0
 11
32.75
 21
129.649
 31
0.0
  0
LINE
  5
B1
330
1E
100
AcDbEntity
  8
0
100
AcDbLine
 10
32.446
 20
130.325
 30
0.0
 11
32.75
 21
130.36775
 31
0.0
  0
LINE
  5
B2
330
1E
100
AcDbEntity
  8
0
100
AcDbLine
 10
32.446
 20
112.973
 30
0.0
 11
34.75
 21
112.6489999999999
 31
0.0
  0
LINE
  5
B3
330
1E
100
AcDbEntity
  8
0
100
AcDbLine
 10
34.75
 20
112.6489999999999
 30
0.0
 11
36.93381070983809
 21
112.956098381071
 31
0.0
  0
LINE
  5
B4
330
1E
100
AcDbEntity
  8
0
100
AcDbLine
 10
35.846
 20
140.6489999999999
 30
0.0
 11
43.902
 21
140.6489999999999
 31
0.0
  0
LINE
  5
B5
330
1E
100
AcDbEntity
  8
0
100
AcDbLine
 10
35.846
 20
136.6489999999999
 30
0.0
 11
43.902
 21
136.6489999999999
 31
0.0
  0
LINE
  5
B6
330
1E
100
AcDbEntity
  8
0
100
AcDbLine
 10
36.71
 20
129.649
 30
0.0
 11
41.50999999999999
 21
129.649
 31
0.0
  0
LINE
  5
B7
330
1E
100
AcDbEntity
  8
0
100
AcDbLine
 10
36.71
 20
129.649
 30
0.0
 11
37.75
 21
129.649
 31
0.0
  0
LINE
  5
B8
330
1E
100
AcDbEntity
  8
0
100
AcDbLine
 10
36.398
 20
55.64899999999999
 30
0.0
 11
37.275961797514
 21
55.64899999999999
 31
0.0
  0
LINE
  5
BB
330
1E
100
AcDbEntity
  8
0
100
AcDbLine
 10
35.75
 20
54.6875
 30
0.0
 11
36.398
 21
55.64899999999999
 31
0.0
  0
LINE
  5
BC
330
1E
100
AcDbEntity
  8
0
100
AcDbLine
 10
35.75
 20
54.6875
 30
0.0
 11
35.75
 21
31.611
 31
0.0
  0
LINE
  5
BD
330
1E
100
AcDbEntity
  8
0
100
AcDbLine
 10
36.75
 20
53.0043
 30
0.0
 11
36.75
 21
52.2972
 31
0.0
  0
LINE
  5
BE
330
1E
100
AcDbEntity
  8
0
100
AcDbLine
 10
36.75
 20
53.0043
 30
0.0
 11
37.686
 21
57.7108
 31
0.0
  0
LINE
  5
BF
330
1E
100
AcDbEntity
  8
0
100
AcDbLine
 10
37.75
 20
52.2972
 30
0.0
 11
38.65
 21
56.82269999999999
 31
0.0
  0
LINE
  5
C0
330
1E
100
AcDbEntity
  8
0
100
AcDbLine
 10
37.75
 20
52.2972
 30
0.0
 11
37.75
 21
17.649
 31
0.0
  0
LINE
  5
C1
330
1E
100
AcDbEntity
  8
0
100
AcDbLine
 10
38.65
 20
56.82269999999999
 30
0.0
 11
41.04999999999999
 21
61.06539999999999
 31
0.0
  0
LINE
  5
C2
330
1E
100
AcDbEntity
  8
0
100
AcDbLine
 10
37.25
 20
64.649
 30
0.0
 11
37.25
 21
78.649
 31
0.0
  0
LINE
  5
C3
330
1E
100
AcDbEntity
  8
0
100
AcDbLine
 10
37.25
 20
64.649
 30
0.0
 11
40.25
 21
64.649
 31
0.0
  0
LINE
  5
C4
330
1E
100
AcDbEntity
  8
0
100
AcDbLine
 10
39.75
 20
64.649
 30
0.0
 11
40.578
 21
64.649
 31
0.0
  0
LINE
  5
C5
330
1E
100
AcDbEntity
  8
0
100
AcDbLine
 10
37.686
 20
57.7108
 30
0.0
 11
40.18199999999999
 21
62.1232
 31
0.0
  0
LINE
  5
C6
330
1E
100
AcDbEntity
  8
0
100
AcDbLine
 10
40.18199999999999
 20
62.1232
 30
0.0
 11
44.34199999999999
 21
66.02079999999999
 31
0.0
  0
LINE
  5
C7
330
1E
100
AcDbEntity
  8
0
100
AcDbLine
 10
37.686
 20
57.0037
 30
0.0
 11
40.18199999999999
 21
61.4161
 31
0.0
  0
LINE
  5
C8
330
1E
100
AcDbEntity
  8
0
100
AcDbLine
 10
40.578
 20
64.649
 30
0.0
 11
42.75
 21
64.649
 31
0.0
  0
LINE
  5
C9
330
1E
100
AcDbEntity
  8
0
100
AcDbLine
 10
42.75
 20
64.649
 30
0.0
 11
42.75
 21
64.52921846153849
 31
0.0
  0
LINE
  5
CA
330
1E
100
AcDbEntity
  8
0
100
AcDbLine
 10
42.75
 20
64.52921846153849
 30
0.0
 11
42.75
 21
102.5692999999999
 31
0.0
  0
LINE
  5
CB
330
1E
100
AcDbEntity
  8
0
100
AcDbLine
 10
42.75
 20
64.52921846153849
 30
0.0
 11
42.75
 21
64.649
 31
0.0
  0
LINE
  5
CC
330
1E
100
AcDbEntity
  8
0
100
AcDbLine
 10
41.04999999999999
 20
61.06539999999999
 30
0.0
 11
45.04999999999999
 21
64.813
 31
0.0
  0
LINE
  5
CD
330
1E
100
AcDbEntity
  8
0
100
AcDbLine
 10
45.04999999999999
 20
64.813
 30
0.0
 11
50.35
 21
67.64140000000001
 31
0.0
  0
LINE
  5
CE
330
1E
100
AcDbEntity
  8
0
100
AcDbLine
 10
40.18199999999999
 20
61.4161
 30
0.0
 11
44.34199999999999
 21
65.31369999999999
 31
0.0
  0
LINE
  5
CF
330
1E
100
AcDbEntity
  8
0
100
AcDbLine
 10
37.25
 20
68.649
 30
0.0
 11
37.25
 21
78.649
 31
0.0
  0
LINE
  5
D0
330
1E
100
AcDbEntity
  8
0
100
AcDbLine
 10
44.34199999999999
 20
66.02079999999999
 30
0.0
 11
49.854
 21
68.9623
 31
0.0
  0
LINE
  5
D1
330
1E
100
AcDbEntity
  8
0
100
AcDbLine
 10
49.854
 20
68.9623
 30
0.0
 11
56.09399999999999
 21
70.72729999999999
 31
0.0
  0
LINE
  5
D2
330
1E
100
AcDbEntity
  8
0
100
AcDbLine
 10
44.34199999999999
 20
65.31369999999999
 30
0.0
 11
49.854
 21
68.2552
 31
0.0
  0
LINE
  5
D3
330
1E
100
AcDbEntity
  8
0
100
AcDbLine
 10
75.15
 20
67.64140000000001
 30
0.0
 11
80.44999999999999
 21
64.813
 31
0.0
  0
LINE
  5
D4
330
1E
100
AcDbEntity
  8
0
100
AcDbLine
 10
50.35
 20
67.64140000000001
 30
0.0
 11
56.35
 21
69.33849999999999
 31
0.0
  0
LINE
  5
D5
330
1E
100
AcDbEntity
  8
0
100
AcDbLine
 10
69.15
 20
69.33849999999999
 30
0.0
 11
75.15
 21
67.64140000000001
 31
0.0
  0
LINE
  5
D6
330
1E
100
AcDbEntity
  8
0
100
AcDbLine
 10
62.75
 20
69.9749
 30
0.0
 11
69.15
 21
69.33849999999999
 31
0.0
  0
LINE
  5
D7
330
1E
100
AcDbEntity
  8
0
100
AcDbLine
 10
56.35
 20
69.33849999999999
 30
0.0
 11
62.75
 21
69.9749
 31
0.0
  0
LINE
  5
D8
330
1E
100
AcDbEntity
  8
0
100
AcDbLine
 10
75.646
 20
68.9623
 30
0.0
 11
81.158
 21
66.02079999999999
 31
0.0
  0
LINE
  5
D9
330
1E
100
AcDbEntity
  8
0
100
AcDbLine
 10
84.45
 20
61.06539999999999
 30
0.0
 11
86.85
 21
56.82269999999999
 31
0.0
  0
LINE
  5
DA
330
1E
100
AcDbEntity
  8
0
100
AcDbLine
 10
82.75
 20
64.52921846153849
 30
0.0
 11
82.75
 21
102.5692999999999
 31
0.0
  0
LINE
  5
DB
330
1E
100
AcDbEntity
  8
0
100
AcDbLine
 10
85.25
 20
64.649
 30
0.0
 11
88.25000000000001
 21
64.649
 31
0.0
  0
LINE
  5
DC
330
1E
100
AcDbEntity
  8
0
100
AcDbLine
 10
82.75
 20
64.649
 30
0.0
 11
84.92200000000002
 21
64.649
 31
0.0
  0
LINE
  5
DD
330
1E
100
AcDbEntity
  8
0
100
AcDbLine
 10
84.92200000000002
 20
64.649
 30
0.0
 11
85.75000000000001
 21
64.649
 31
0.0
  0
LINE
  5
DE
330
1E
100
AcDbEntity
  8
0
100
AcDbLine
 10
80.44999999999999
 20
64.813
 30
0.0
 11
84.45
 21
61.06539999999999
 31
0.0
  0
LINE
  5
DF
330
1E
100
AcDbEntity
  8
0
100
AcDbLine
 10
85.318
 20
62.1232
 30
0.0
 11
87.81399999999999
 21
57.7108
 31
0.0
  0
LINE
  5
E0
330
1E
100
AcDbEntity
  8
0
100
AcDbLine
 10
87.75
 20
52.2972
 30
0.0
 11
87.75
 21
17.649
 31
0.0
  0
LINE
  5
E1
330
1E
100
AcDbEntity
  8
0
100
AcDbLine
 10
88.2240382024859
 20
55.64899999999999
 30
0.0
 11
89.10200000000001
 21
55.64899999999999
 31
0.0
  0
LINE
  5
E3
330
1E
100
AcDbEntity
  8
0
100
AcDbLine
 10
86.85
 20
56.82269999999999
 30
0.0
 11
87.75
 21
52.2972
 31
0.0
  0
LINE
  5
E4
330
1E
100
AcDbEntity
  8
0
100
AcDbLine
 10
88.75
 20
53.0043
 30
0.0
 11
88.75
 21
52.2972
 31
0.0
  0
LINE
  5
E5
330
1E
100
AcDbEntity
  8
0
100
AcDbLine
 10
89.74999999999999
 20
54.6875
 30
0.0
 11
89.74999999999999
 21
31.611
 31
0.0
  0
LINE
  5
E6
330
1E
100
AcDbEntity
  8
0
100
AcDbLine
 10
89.10200000000001
 20
55.64899999999999
 30
0.0
 11
89.74999999999999
 21
54.6875
 31
0.0
  0
LINE
  5
E7
330
1E
100
AcDbEntity
  8
0
100
AcDbLine
 10
88.75
 20
52.2972
 30
0.0
 11
88.75
 21
53.0043
 31
0.0
  0
LINE
  5
E8
330
1E
100
AcDbEntity
  8
0
100
AcDbLine
 10
88.25000000000001
 20
64.649
 30
0.0
 11
88.25000000000001
 21
78.649
 31
0.0
  0
LINE
  5
E9
330
1E
100
AcDbEntity
  8
0
100
AcDbLine
 10
87.81399999999999
 20
57.7108
 30
0.0
 11
88.75
 21
53.0043
 31
0.0
  0
LINE
  5
EA
330
1E
100
AcDbEntity
  8
0
100
AcDbLine
 10
87.81399999999999
 20
57.0037
 30
0.0
 11
88.75
 21
52.2972
 31
0.0
  0
LINE
  5
EB
330
1E
100
AcDbEntity
  8
0
100
AcDbLine
 10
85.318
 20
61.4161
 30
0.0
 11
87.81399999999999
 21
57.0037
 31
0.0
  0
LINE
  5
EC
330
1E
100
AcDbEntity
  8
0
100
AcDbLine
 10
81.158
 20
66.02079999999999
 30
0.0
 11
85.318
 21
62.1232
 31
0.0
  0
LINE
  5
ED
330
1E
100
AcDbEntity
  8
0
100
AcDbLine
 10
81.158
 20
65.31369999999999
 30
0.0
 11
85.318
 21
61.4161
 31
0.0
  0
LINE
  5
EE
330
1E
100
AcDbEntity
  8
0
100
AcDbLine
 10
75.646
 20
68.2552
 30
0.0
 11
81.158
 21
65.31369999999999
 31
0.0
  0
LINE
  5
EF
330
1E
100
AcDbEntity
  8
0
100
AcDbLine
 10
69.406
 20
70.0202
 30
0.0
 11
75.646
 21
68.2552
 31
0.0
  0
LINE
  5
F0
330
1E
100
AcDbEntity
  8
0
100
AcDbLine
 10
49.854
 20
68.2552
 30
0.0
 11
56.09399999999999
 21
70.0202
 31
0.0
  0
LINE
  5
F1
330
1E
100
AcDbEntity
  8
0
100
AcDbLine
 10
36.75
 20
78.649
 30
0.0
 11
36.75
 21
80.64899999999999
 31
0.0
  0
LINE
  5
F2
330
1E
100
AcDbEntity
  8
0
100
AcDbLine
 10
36.75
 20
78.649
 30
0.0
 11
37.686
 21
78.649
 31
0.0
  0
LINE
  5
F3
330
1E
100
AcDbEntity
  8
0
100
AcDbLine
 10
36.75
 20
78.649
 30
0.0
 11
37.25
 21
78.649
 31
0.0
  0
LINE
  5
F4
330
1E
100
AcDbEntity
  8
0
100
AcDbLine
 10
36.75
 20
80.64899999999999
 30
0.0
 11
37.686
 21
80.64899999999999
 31
0.0
  0
LINE
  5
F5
330
1E
100
AcDbEntity
  8
0
100
AcDbLine
 10
36.75
 20
80.64899999999999
 30
0.0
 11
36.75
 21
78.649
 31
0.0
  0
LINE
  5
F6
330
1E
100
AcDbEntity
  8
0
100
AcDbLine
 10
37.686
 20
78.649
 30
0.0
 11
40.18199999999999
 21
78.649
 31
0.0
  0
LINE
  5
F7
330
1E
100
AcDbEntity
  8
0
100
AcDbLine
 10
37.686
 20
80.64899999999999
 30
0.0
 11
40.18199999999999
 21
80.64899999999999
 31
0.0
  0
LINE
  5
F8
330
1E
100
AcDbEntity
  8
0
100
AcDbLine
 10
37.25
 20
78.649
 30
0.0
 11
37.25
 21
68.649
 31
0.0
  0
LINE
  5
F9
330
1E
100
AcDbEntity
  8
0
100
AcDbLine
 10
37.25
 20
78.649
 30
0.0
 11
39.75
 21
78.649
 31
0.0
  0
LINE
  5
FA
330
1E
100
AcDbEntity
  8
0
100
AcDbLine
 10
37.25
 20
78.649
 30
0.0
 11
37.25
 21
64.649
 31
0.0
  0
LINE
  5
FB
330
1E
100
AcDbEntity
  8
0
100
AcDbLine
 10
37.25
 20
82.649
 30
0.0
 11
37.25
 21
80.64899999999999
 31
0.0
  0
LINE
  5
FC
330
1E
100
AcDbEntity
  8
0
100
AcDbLine
 10
37.25
 20
82.649
 30
0.0
 11
39.75
 21
82.649
 31
0.0
  0
LINE
  5
FD
330
1E
100
AcDbEntity
  8
0
100
AcDbLine
 10
37.25
 20
80.64899999999999
 30
0.0
 11
37.25
 21
82.649
 31
0.0
  0
LINE
  5
FE
330
1E
100
AcDbEntity
  8
0
100
AcDbLine
 10
39.75
 20
78.649
 30
0.0
 11
40.578
 21
78.649
 31
0.0
  0
LINE
  5
FF
330
1E
100
AcDbEntity
  8
0
100
AcDbLine
 10
40.18199999999999
 20
78.649
 30
0.0
 11
42.75
 21
78.649
 31
0.0
  0
LINE
  5
100
330
1E
100
AcDbEntity
  8
0
100
AcDbLine
 10
40.18199999999999
 20
80.64899999999999
 30
0.0
 11
42.75
 21
80.64899999999999
 31
0.0
  0
LINE
  5
101
330
1E
100
AcDbEntity
  8
0
100
AcDbLine
 10
39.75
 20
82.649
 30
0.0
 11
40.578
 21
82.649
 31
0.0
  0
LINE
  5
102
330
1E
100
AcDbEntity
  8
0
100
AcDbLine
 10
40.18199999999999
 20
82.649
 30
0.0
 11
42.75
 21
82.649
 31
0.0
  0
LINE
  5
103
330
1E
100
AcDbEntity
  8
0
100
AcDbLine
 10
37.686
 20
82.649
 30
0.0
 11
40.18199999999999
 21
82.649
 31
0.0
  0
LINE
  5
104
330
1E
100
AcDbEntity
  8
0
100
AcDbLine
 10
37.75
 20
84.649
 30
0.0
 11
37.75
 21
104.8329999999999
 31
0.0
  0
LINE
  5
105
330
1E
100
AcDbEntity
  8
0
100
AcDbLine
 10
40.18199999999999
 20
84.649
 30
0.0
 11
42.75
 21
84.649
 31
0.0
  0
LINE
  5
106
330
1E
100
AcDbEntity
  8
0
100
AcDbLine
 10
37.75
 20
104.8329999999999
 30
0.0
 11
37.75
 21
84.649
 31
0.0
  0
LINE
  5
107
330
1E
100
AcDbEntity
  8
0
100
AcDbLine
 10
37.686
 20
84.649
 30
0.0
 11
40.18199999999999
 21
84.649
 31
0.0
  0
LINE
  5
108
330
1E
100
AcDbEntity
  8
0
100
AcDbLine
 10
36.75
 20
84.649
 30
0.0
 11
37.686
 21
84.649
 31
0.0
  0
LINE
  5
109
330
1E
100
AcDbEntity
  8
0
100
AcDbLine
 10
36.75
 20
84.649
 30
0.0
 11
36.75
 21
82.649
 31
0.0
  0
LINE
  5
10A
330
1E
100
AcDbEntity
  8
0
100
AcDbLine
 10
36.75
 20
82.649
 30
0.0
 11
36.75
 21
84.649
 31
0.0
  0
LINE
  5
10B
330
1E
100
AcDbEntity
  8
0
100
AcDbLine
 10
36.75
 20
82.649
 30
0.0
 11
37.25
 21
82.649
 31
0.0
  0
LINE
  5
10C
330
1E
100
AcDbEntity
  8
0
100
AcDbLine
 10
36.75
 20
82.649
 30
0.0
 11
37.686
 21
82.649
 31
0.0
  0
LINE
  5
10D
330
1E
100
AcDbEntity
  8
0
100
AcDbLine
 10
42.75
 20
80.64899999999999
 30
0.0
 11
42.75
 21
88.6724
 31
0.0
  0
LINE
  5
10E
330
1E
100
AcDbEntity
  8
0
100
AcDbLine
 10
40.578
 20
78.649
 30
0.0
 11
42.75
 21
78.649
 31
0.0
  0
LINE
  5
10F
330
1E
100
AcDbEntity
  8
0
100
AcDbLine
 10
42.75
 20
95.3504
 30
0.0
 11
42.75
 21
88.6724
 31
0.0
  0
LINE
  5
110
330
1E
100
AcDbEntity
  8
0
100
AcDbLine
 10
42.75
 20
88.6724
 30
0.0
 11
42.75
 21
80.64899999999999
 31
0.0
  0
LINE
  5
111
330
1E
100
AcDbEntity
  8
0
100
AcDbLine
 10
42.75
 20
88.6724
 30
0.0
 11
42.75
 21
95.3504
 31
0.0
  0
LINE
  5
112
330
1E
100
AcDbEntity
  8
0
100
AcDbLine
 10
42.75
 20
102.5692999999999
 30
0.0
 11
42.75
 21
107.4958
 31
0.0
  0
LINE
  5
113
330
1E
100
AcDbEntity
  8
0
100
AcDbLine
 10
42.75
 20
102.5692999999999
 30
0.0
 11
42.75
 21
64.52921846153849
 31
0.0
  0
LINE
  5
114
330
1E
100
AcDbEntity
  8
0
100
AcDbLine
 10
40.578
 20
82.649
 30
0.0
 11
42.75
 21
82.649
 31
0.0
  0
LINE
  5
115
330
1E
100
AcDbEntity
  8
0
100
AcDbLine
 10
40.18199999999999
 20
98.75299999999999
 30
0.0
 11
42.75
 21
95.3504
 31
0.0
  0
LINE
  5
116
330
1E
100
AcDbEntity
  8
0
100
AcDbLine
 10
37.25
 20
110.6489999999999
 30
0.0
 11
40.25
 21
110.6489999999999
 31
0.0
  0
LINE
  5
117
330
1E
100
AcDbEntity
  8
0
100
AcDbLine
 10
37.25
 20
110.6489999999999
 30
0.0
 11
39.890625
 21
110.6489999999999
 31
0.0
  0
LINE
  5
118
330
1E
100
AcDbEntity
  8
0
100
AcDbLine
 10
37.25
 20
110.6489999999999
 30
0.0
 11
37.25
 21
112.6489999999999
 31
0.0
  0
LINE
  5
119
330
1E
100
AcDbEntity
  8
0
100
AcDbLine
 10
37.25
 20
112.6489999999999
 30
0.0
 11
37.25
 21
110.6489999999999
 31
0.0
  0
LINE
  5
11A
330
1E
100
AcDbEntity
  8
0
100
AcDbLine
 10
37.25
 20
112.6489999999999
 30
0.0
 11
40.25
 21
112.6489999999999
 31
0.0
  0
LINE
  5
11B
330
1E
100
AcDbEntity
  8
0
100
AcDbLine
 10
39.890625
 20
112.6489999999999
 30
0.0
 11
40.578
 21
117.537
 31
0.0
  0
LINE
  5
11E
330
1E
100
AcDbEntity
  8
0
100
AcDbLine
 10
40.25
 20
110.6489999999999
 30
0.0
 11
40.25
 21
112.6489999999999
 31
0.0
  0
LINE
  5
11F
330
1E
100
AcDbEntity
  8
0
100
AcDbLine
 10
40.25
 20
112.6489999999999
 30
0.0
 11
40.25
 21
110.6489999999999
 31
0.0
  0
LINE
  5
120
330
1E
100
AcDbEntity
  8
0
100
AcDbLine
 10
42.75
 20
107.4958
 30
0.0
 11
42.75
 21
110.5926999999999
 31
0.0
  0
LINE
  5
121
330
1E
100
AcDbEntity
  8
0
100
AcDbLine
 10
42.75
 20
107.4958
 30
0.0
 11
42.75
 21
102.5692999999999
 31
0.0
  0
LINE
  5
122
330
1E
100
AcDbEntity
  8
0
100
AcDbLine
 10
43.47
 20
116.7689999999999
 30
0.0
 11
45.39
 21
121.569
 31
0.0
  0
LINE
  5
123
330
1E
100
AcDbEntity
  8
0
100
AcDbLine
 10
42.75
 20
111.6489999999999
 30
0.0
 11
42.75
 21
110.5926999999999
 31
0.0
  0
LINE
  5
124
330
1E
100
AcDbEntity
  8
0
100
AcDbLine
 10
42.75
 20
111.6489999999999
 30
0.0
 11
43.47
 21
116.7689999999999
 31
0.0
  0
LINE
  5
125
330
1E
100
AcDbEntity
  8
0
100
AcDbLine
 10
42.75
 20
110.5926999999999
 30
0.0
 11
42.75
 21
107.4958
 31
0.0
  0
LINE
  5
126
330
1E
100
AcDbEntity
  8
0
100
AcDbLine
 10
42.75
 20
110.5926999999999
 30
0.0
 11
42.75
 21
111.6489999999999
 31
0.0
  0
LINE
  5
127
330
1E
100
AcDbEntity
  8
0
100
AcDbLine
 10
40.578
 20
117.537
 30
0.0
 11
42.78599999999999
 21
123.0569999999999
 31
0.0
  0
LINE
  5
128
330
1E
100
AcDbEntity
  8
0
100
AcDbLine
 10
40.578
 20
105.761
 30
0.0
 11
42.75
 21
100.331
 31
0.0
  0
LINE
  5
129
330
1E
100
AcDbEntity
  8
0
100
AcDbLine
 10
39.890625
 20
110.6489999999999
 30
0.0
 11
40.578
 21
105.761
 31
0.0
  0
LINE
  5
12A
330
1E
100
AcDbEntity
  8
0
100
AcDbLine
 10
37.75
 20
118.4649999999999
 30
0.0
 11
37.75
 21
129.649
 31
0.0
  0
LINE
  5
12B
330
1E
100
AcDbEntity
  8
0
100
AcDbLine
 10
37.75
 20
129.649
 30
0.0
 11
38.65
 21
129.649
 31
0.0
  0
LINE
  5
12C
330
1E
100
AcDbEntity
  8
0
100
AcDbLine
 10
37.75
 20
129.649
 30
0.0
 11
37.75
 21
118.4649999999999
 31
0.0
  0
LINE
  5
12D
330
1E
100
AcDbEntity
  8
0
100
AcDbLine
 10
38.65
 20
129.649
 30
0.0
 11
41.04999999999999
 21
129.649
 31
0.0
  0
LINE
  5
12E
330
1E
100
AcDbEntity
  8
0
100
AcDbLine
 10
41.50999999999999
 20
129.649
 30
0.0
 11
44.0340754716981
 21
129.649
 31
0.0
  0
LINE
  5
12F
330
1E
100
AcDbEntity
  8
0
100
AcDbLine
 10
41.04999999999999
 20
129.649
 30
0.0
 11
44.0340754716981
 21
129.649
 31
0.0
  0
LINE
  5
130
330
1E
100
AcDbEntity
  8
0
100
AcDbLine
 10
42.78599999999999
 20
123.0569999999999
 30
0.0
 11
46.466
 21
127.9329999999999
 31
0.0
  0
LINE
  5
131
330
1E
100
AcDbEntity
  8
0
100
AcDbLine
 10
48.59
 20
125.8089999999999
 30
0.0
 11
52.83
 21
129.0089999999999
 31
0.0
  0
LINE
  5
132
330
1E
100
AcDbEntity
  8
0
100
AcDbLine
 10
45.39
 20
121.569
 30
0.0
 11
48.59
 21
125.8089999999999
 31
0.0
  0
LINE
  5
133
330
1E
100
AcDbEntity
  8
0
100
AcDbLine
 10
50.63399999999999
 20
130.6346
 30
0.0
 11
52.36600000000001
 21
131.6346
 31
0.0
  0
LINE
  5
134
330
1E
100
AcDbEntity
  8
0
100
AcDbLine
 10
49.13399999999999
 20
133.2325999999999
 30
0.0
 11
50.866
 21
134.2325999999999
 31
0.0
  0
LINE
  5
135
330
1E
100
AcDbEntity
  8
0
100
AcDbLine
 10
49.13399999999999
 20
133.2325999999999
 30
0.0
 11
50.63399999999999
 21
130.6346
 31
0.0
  0
LINE
  5
136
330
1E
100
AcDbEntity
  8
0
100
AcDbLine
 10
49.13399999999999
 20
133.2325999999999
 30
0.0
 11
50.4554270539318
 21
130.9438883425899
 31
0.0
  0
LINE
  5
137
330
1E
100
AcDbEntity
  8
0
100
AcDbLine
 10
52.83
 20
129.0089999999999
 30
0.0
 11
57.63
 21
130.929
 31
0.0
  0
LINE
  5
138
330
1E
100
AcDbEntity
  8
0
100
AcDbLine
 10
52.18401125703548
 20
131.9498045028142
 30
0.0
 11
56.86199999999999
 21
133.8209999999999
 31
0.0
  0
LINE
  5
139
330
1E
100
AcDbEntity
  8
0
100
AcDbLine
 10
46.466
 20
127.9329999999999
 30
0.0
 11
50.45542705393183
 21
130.94388834259
 31
0.0
  0
LINE
  5
13A
330
1E
100
AcDbEntity
  8
0
100
AcDbLine
 10
44.34199999999999
 20
130.057
 30
0.0
 11
49.854
 21
134.217
 31
0.0
  0
LINE
  5
13B
330
1E
100
AcDbEntity
  8
0
100
AcDbLine
 10
43.902
 20
140.6489999999999
 30
0.0
 11
53.022
 21
140.6489999999999
 31
0.0
  0
LINE
  5
13C
330
1E
100
AcDbEntity
  8
0
100
AcDbLine
 10
43.902
 20
136.6489999999999
 30
0.0
 11
53.022
 21
136.6489999999999
 31
0.0
  0
LINE
  5
13D
330
1E
100
AcDbEntity
  8
0
100
AcDbLine
 10
53.022
 20
140.6489999999999
 30
0.0
 11
62.75
 21
140.6489999999999
 31
0.0
  0
LINE
  5
13E
330
1E
100
AcDbEntity
  8
0
100
AcDbLine
 10
53.022
 20
136.6489999999999
 30
0.0
 11
55.93399999999999
 21
136.6489999999999
 31
0.0
  0
LINE
  5
13F
330
1E
100
AcDbEntity
  8
0
100
AcDbLine
 10
50.866
 20
134.2325999999999
 30
0.0
 11
52.36600000000001
 21
131.6346
 31
0.0
  0
LINE
  5
140
330
1E
100
AcDbEntity
  8
0
100
AcDbLine
 10
50.866
 20
134.2325999999999
 30
0.0
 11
52.1840112570356
 21
131.949804502814
 31
0.0
  0
LINE
  5
141
330
1E
100
AcDbEntity
  8
0
100
AcDbLine
 10
49.854
 20
134.217
 30
0.0
 11
56.09399999999999
 21
136.7129999999999
 31
0.0
  0
LINE
  5
142
330
1E
100
AcDbEntity
  8
0
100
AcDbLine
 10
40.18199999999999
 20
124.5449999999999
 30
0.0
 11
44.34199999999999
 21
130.057
 31
0.0
  0
LINE
  5
143
330
1E
100
AcDbEntity
  8
0
100
AcDbLine
 10
37.686
 20
118.305
 30
0.0
 11
40.18199999999999
 21
124.5449999999999
 31
0.0
  0
LINE
  5
144
330
1E
100
AcDbEntity
  8
0
100
AcDbLine
 10
36.75
 20
111.6489999999999
 30
0.0
 11
37.686
 21
104.993
 31
0.0
  0
LINE
  5
145
330
1E
100
AcDbEntity
  8
0
100
AcDbLine
 10
36.75
 20
111.6489999999999
 30
0.0
 11
37.686
 21
118.305
 31
0.0
  0
LINE
  5
146
330
1E
100
AcDbEntity
  8
0
100
AcDbLine
 10
37.686
 20
104.993
 30
0.0
 11
40.18199999999999
 21
98.75299999999999
 31
0.0
  0
LINE
  5
147
330
1E
100
AcDbEntity
  8
0
100
AcDbLine
 10
62.75
 20
131.6489999999999
 30
0.0
 11
67.87
 21
130.929
 31
0.0
  0
LINE
  5
148
330
1E
100
AcDbEntity
  8
0
100
AcDbLine
 10
57.63
 20
130.929
 30
0.0
 11
62.75
 21
131.6489999999999
 31
0.0
  0
LINE
  5
149
330
1E
100
AcDbEntity
  8
0
100
AcDbLine
 10
56.86199999999999
 20
133.8209999999999
 30
0.0
 11
62.75
 21
134.6489999999999
 31
0.0
  0
LINE
  5
14A
330
1E
100
AcDbEntity
  8
0
100
AcDbLine
 10
62.75
 20
134.6489999999999
 30
0.0
 11
68.63800000000001
 21
133.8209999999999
 31
0.0
  0
LINE
  5
14B
330
1E
100
AcDbEntity
  8
0
100
AcDbLine
 10
56.09399999999999
 20
136.7129999999999
 30
0.0
 11
62.75
 21
137.6489999999999
 31
0.0
  0
LINE
  5
14C
330
1E
100
AcDbEntity
  8
0
100
AcDbLine
 10
62.75
 20
140.6489999999999
 30
0.0
 11
72.47800000000001
 21
140.6489999999999
 31
0.0
  0
LINE
  5
14D
330
1E
100
AcDbEntity
  8
0
100
AcDbLine
 10
62.75
 20
137.6489999999999
 30
0.0
 11
69.406
 21
136.7129999999999
 31
0.0
  0
LINE
  5
14E
330
1E
100
AcDbEntity
  8
0
100
AcDbLine
 10
82.75
 20
78.649
 30
0.0
 11
85.318
 21
78.649
 31
0.0
  0
LINE
  5
14F
330
1E
100
AcDbEntity
  8
0
100
AcDbLine
 10
82.75
 20
78.649
 30
0.0
 11
84.92200000000002
 21
78.649
 31
0.0
  0
LINE
  5
150
330
1E
100
AcDbEntity
  8
0
100
AcDbLine
 10
82.75
 20
80.64899999999999
 30
0.0
 11
85.318
 21
80.64899999999999
 31
0.0
  0
LINE
  5
151
330
1E
100
AcDbEntity
  8
0
100
AcDbLine
 10
82.75
 20
82.649
 30
0.0
 11
85.318
 21
82.649
 31
0.0
  0
LINE
  5
152
330
1E
100
AcDbEntity
  8
0
100
AcDbLine
 10
82.75
 20
82.649
 30
0.0
 11
84.92200000000002
 21
82.649
 31
0.0
  0
LINE
  5
153
330
1E
100
AcDbEntity
  8
0
100
AcDbLine
 10
84.92200000000002
 20
78.649
 30
0.0
 11
85.75000000000001
 21
78.649
 31
0.0
  0
LINE
  5
154
330
1E
100
AcDbEntity
  8
0
100
AcDbLine
 10
85.318
 20
78.649
 30
0.0
 11
87.81399999999999
 21
78.649
 31
0.0
  0
LINE
  5
155
330
1E
100
AcDbEntity
  8
0
100
AcDbLine
 10
85.318
 20
80.64899999999999
 30
0.0
 11
87.81399999999999
 21
80.64899999999999
 31
0.0
  0
LINE
  5
156
330
1E
100
AcDbEntity
  8
0
100
AcDbLine
 10
84.92200000000002
 20
82.649
 30
0.0
 11
85.75000000000001
 21
82.649
 31
0.0
  0
LINE
  5
157
330
1E
100
AcDbEntity
  8
0
100
AcDbLine
 10
85.75000000000001
 20
78.649
 30
0.0
 11
88.25000000000001
 21
78.649
 31
0.0
  0
LINE
  5
158
330
1E
100
AcDbEntity
  8
0
100
AcDbLine
 10
87.81399999999999
 20
78.649
 30
0.0
 11
88.75
 21
78.649
 31
0.0
  0
LINE
  5
159
330
1E
100
AcDbEntity
  8
0
100
AcDbLine
 10
87.81399999999999
 20
80.64899999999999
 30
0.0
 11
88.75
 21
80.64899999999999
 31
0.0
  0
LINE
  5
15A
330
1E
100
AcDbEntity
  8
0
100
AcDbLine
 10
85.75000000000001
 20
82.649
 30
0.0
 11
88.25000000000001
 21
82.649
 31
0.0
  0
LINE
  5
15B
330
1E
100
AcDbEntity
  8
0
100
AcDbLine
 10
85.318
 20
82.649
 30
0.0
 11
87.81399999999999
 21
82.649
 31
0.0
  0
LINE
  5
15C
330
1E
100
AcDbEntity
  8
0
100
AcDbLine
 10
87.75
 20
84.649
 30
0.0
 11
87.75
 21
104.8329999999999
 31
0.0
  0
LINE
  5
15D
330
1E
100
AcDbEntity
  8
0
100
AcDbLine
 10
87.81399999999999
 20
82.649
 30
0.0
 11
88.75
 21
82.649
 31
0.0
  0
LINE
  5
15E
330
1E
100
AcDbEntity
  8
0
100
AcDbLine
 10
82.75
 20
84.649
 30
0.0
 11
85.318
 21
84.649
 31
0.0
  0
LINE
  5
15F
330
1E
100
AcDbEntity
  8
0
100
AcDbLine
 10
85.318
 20
84.649
 30
0.0
 11
87.81399999999999
 21
84.649
 31
0.0
  0
LINE
  5
160
330
1E
100
AcDbEntity
  8
0
100
AcDbLine
 10
87.81399999999999
 20
84.649
 30
0.0
 11
88.75
 21
84.649
 31
0.0
  0
LINE
  5
161
330
1E
100
AcDbEntity
  8
0
100
AcDbLine
 10
82.75
 20
111.6489999999999
 30
0.0
 11
82.75
 21
110.5926999999999
 31
0.0
  0
LINE
  5
162
330
1E
100
AcDbEntity
  8
0
100
AcDbLine
 10
80.11000000000001
 20
121.569
 30
0.0
 11
82.03000000000001
 21
116.7689999999999
 31
0.0
  0
LINE
  5
163
330
1E
100
AcDbEntity
  8
0
100
AcDbLine
 10
82.03000000000001
 20
116.7689999999999
 30
0.0
 11
82.75
 21
111.6489999999999
 31
0.0
  0
LINE
  5
164
330
1E
100
AcDbEntity
  8
0
100
AcDbLine
 10
82.75
 20
110.5926999999999
 30
0.0
 11
82.75
 21
107.4958
 31
0.0
  0
LINE
  5
165
330
1E
100
AcDbEntity
  8
0
100
AcDbLine
 10
82.75
 20
110.5926999999999
 30
0.0
 11
82.75
 21
111.6489999999999
 31
0.0
  0
LINE
  5
166
330
1E
100
AcDbEntity
  8
0
100
AcDbLine
 10
82.75
 20
107.4958
 30
0.0
 11
82.75
 21
110.5926999999999
 31
0.0
  0
LINE
  5
167
330
1E
100
AcDbEntity
  8
0
100
AcDbLine
 10
82.75
 20
107.4958
 30
0.0
 11
82.75
 21
102.5692999999999
 31
0.0
  0
LINE
  5
168
330
1E
100
AcDbEntity
  8
0
100
AcDbLine
 10
82.75
 20
102.5692999999999
 30
0.0
 11
82.75
 21
64.52921846153849
 31
0.0
  0
LINE
  5
169
330
1E
100
AcDbEntity
  8
0
100
AcDbLine
 10
82.75
 20
102.5692999999999
 30
0.0
 11
82.75
 21
107.4958
 31
0.0
  0
LINE
  5
16A
330
1E
100
AcDbEntity
  8
0
100
AcDbLine
 10
72.67
 20
129.0089999999999
 30
0.0
 11
76.90999999999999
 21
125.8089999999999
 31
0.0
  0
LINE
  5
16B
330
1E
100
AcDbEntity
  8
0
100
AcDbLine
 10
76.90999999999999
 20
125.8089999999999
 30
0.0
 11
80.11000000000001
 21
121.569
 31
0.0
  0
LINE
  5
16C
330
1E
100
AcDbEntity
  8
0
100
AcDbLine
 10
81.46592452830191
 20
129.649
 30
0.0
 11
84.45
 21
129.649
 31
0.0
  0
LINE
  5
16D
330
1E
100
AcDbEntity
  8
0
100
AcDbLine
 10
81.46592452830191
 20
129.649
 30
0.0
 11
83.98999999999999
 21
129.649
 31
0.0
  0
LINE
  5
16E
330
1E
100
AcDbEntity
  8
0
100
AcDbLine
 10
79.03399999999999
 20
127.9329999999999
 30
0.0
 11
82.71399999999999
 21
123.0569999999999
 31
0.0
  0
LINE
  5
16F
330
1E
100
AcDbEntity
  8
0
100
AcDbLine
 10
82.71399999999999
 20
123.0569999999999
 30
0.0
 11
84.92200000000002
 21
117.537
 31
0.0
  0
LINE
  5
170
330
1E
100
AcDbEntity
  8
0
100
AcDbLine
 10
83.98999999999999
 20
129.649
 30
0.0
 11
88.79000000000001
 21
129.649
 31
0.0
  0
LINE
  5
171
330
1E
100
AcDbEntity
  8
0
100
AcDbLine
 10
84.45
 20
129.649
 30
0.0
 11
86.85
 21
129.649
 31
0.0
  0
LINE
  5
172
330
1E
100
AcDbEntity
  8
0
100
AcDbLine
 10
85.25
 20
112.6489999999999
 30
0.0
 11
88.25000000000001
 21
112.6489999999999
 31
0.0
  0
LINE
  5
173
330
1E
100
AcDbEntity
  8
0
100
AcDbLine
 10
85.25
 20
112.6489999999999
 30
0.0
 11
85.25
 21
110.6489999999999
 31
0.0
  0
LINE
  5
174
330
1E
100
AcDbEntity
  8
0
100
AcDbLine
 10
85.25
 20
110.6489999999999
 30
0.0
 11
88.25000000000001
 21
110.6489999999999
 31
0.0
  0
LINE
  5
175
330
1E
100
AcDbEntity
  8
0
100
AcDbLine
 10
85.25
 20
110.6489999999999
 30
0.0
 11
85.25
 21
112.6489999999999
 31
0.0
  0
LINE
  5
176
330
1E
100
AcDbEntity
  8
0
100
AcDbLine
 10
84.92200000000002
 20
117.537
 30
0.0
 11
85.60937499999999
 21
112.6489999999999
 31
0.0
  0
LINE
  5
177
330
1E
100
AcDbEntity
  8
0
100
AcDbLine
 10
84.92200000000002
 20
105.761
 30
0.0
 11
85.60937499999999
 21
110.6489999999999
 31
0.0
  0
LINE
  5
178
330
1E
100
AcDbEntity
  8
0
100
AcDbLine
 10
82.75
 20
100.331
 30
0.0
 11
84.92200000000002
 21
105.761
 31
0.0
  0
LINE
  5
179
330
1E
100
AcDbEntity
  8
0
100
AcDbLine
 10
67.87
 20
130.929
 30
0.0
 11
72.67
 21
129.0089999999999
 31
0.0
  0
LINE
  5
17A
330
1E
100
AcDbEntity
  8
0
100
AcDbLine
 10
73.31598874296429
 20
131.949804502814
 30
0.0
 11
74.634
 21
134.2325999999999
 31
0.0
  0
LINE
  5
17B
330
1E
100
AcDbEntity
  8
0
100
AcDbLine
 10
73.134
 20
131.6346
 30
0.0
 11
74.634
 21
134.2325999999999
 31
0.0
  0
LINE
  5
17C
330
1E
100
AcDbEntity
  8
0
100
AcDbLine
 10
73.134
 20
131.6346
 30
0.0
 11
74.866
 21
130.6346
 31
0.0
  0
LINE
  5
17D
330
1E
100
AcDbEntity
  8
0
100
AcDbLine
 10
72.47800000000001
 20
136.6489999999999
 30
0.0
 11
81.598
 21
136.6489999999999
 31
0.0
  0
LINE
  5
17E
330
1E
100
AcDbEntity
  8
0
100
AcDbLine
 10
69.566
 20
136.6489999999999
 30
0.0
 11
72.47800000000001
 21
136.6489999999999
 31
0.0
  0
LINE
  5
17F
330
1E
100
AcDbEntity
  8
0
100
AcDbLine
 10
68.63800000000001
 20
133.8209999999999
 30
0.0
 11
73.31598874296442
 21
131.9498045028142
 31
0.0
  0
LINE
  5
180
330
1E
100
AcDbEntity
  8
0
100
AcDbLine
 10
74.634
 20
134.2325999999999
 30
0.0
 11
76.366
 21
133.2325999999999
 31
0.0
  0
LINE
  5
181
330
1E
100
AcDbEntity
  8
0
100
AcDbLine
 10
75.0445729460681
 20
130.9438883425899
 30
0.0
 11
76.366
 21
133.2325999999999
 31
0.0
  0
LINE
  5
182
330
1E
100
AcDbEntity
  8
0
100
AcDbLine
 10
74.866
 20
130.6346
 30
0.0
 11
76.366
 21
133.2325999999999
 31
0.0
  0
LINE
  5
183
330
1E
100
AcDbEntity
  8
0
100
AcDbLine
 10
75.04457294606815
 20
130.94388834259
 30
0.0
 11
79.03399999999999
 21
127.9329999999999
 31
0.0
  0
LINE
  5
184
330
1E
100
AcDbEntity
  8
0
100
AcDbLine
 10
72.47800000000001
 20
140.6489999999999
 30
0.0
 11
81.598
 21
140.6489999999999
 31
0.0
  0
LINE
  5
185
330
1E
100
AcDbEntity
  8
0
100
AcDbLine
 10
69.406
 20
136.7129999999999
 30
0.0
 11
75.646
 21
134.217
 31
0.0
  0
LINE
  5
186
330
1E
100
AcDbEntity
  8
0
100
AcDbLine
 10
81.598
 20
140.6489999999999
 30
0.0
 11
89.654
 21
140.6489999999999
 31
0.0
  0
LINE
  5
187
330
1E
100
AcDbEntity
  8
0
100
AcDbLine
 10
81.598
 20
136.6489999999999
 30
0.0
 11
89.654
 21
136.6489999999999
 31
0.0
  0
LINE
  5
188
330
1E
100
AcDbEntity
  8
0
100
AcDbLine
 10
75.646
 20
134.217
 30
0.0
 11
81.158
 21
130.057
 31
0.0
  0
LINE
  5
189
330
1E
100
AcDbEntity
  8
0
100
AcDbLine
 10
81.158
 20
130.057
 30
0.0
 11
85.318
 21
124.5449999999999
 31
0.0
  0
LINE
  5
18A
330
1E
100
AcDbEntity
  8
0
100
AcDbLine
 10
85.60937499999999
 20
110.6489999999999
 30
0.0
 11
88.25000000000001
 21
110.6489999999999
 31
0.0
  0
LINE
  5
18B
330
1E
100
AcDbEntity
  8
0
100
AcDbLine
 10
87.75
 20
129.649
 30
0.0
 11
88.79000000000001
 21
129.649
 31
0.0
  0
LINE
  5
18C
330
1E
100
AcDbEntity
  8
0
100
AcDbLine
 10
86.85
 20
129.649
 30
0.0
 11
87.75
 21
129.649
 31
0.0
  0
LINE
  5
18D
330
1E
100
AcDbEntity
  8
0
100
AcDbLine
 10
87.75
 20
118.4649999999999
 30
0.0
 11
87.81399999999999
 21
118.305
 31
0.0
  0
LINE
  5
18E
330
1E
100
AcDbEntity
  8
0
100
AcDbLine
 10
87.75
 20
118.4649999999999
 30
0.0
 11
87.75
 21
129.649
 31
0.0
  0
LINE
  5
18F
330
1E
100
AcDbEntity
  8
0
100
AcDbLine
 10
85.318
 20
124.5449999999999
 30
0.0
 11
87.81399999999999
 21
118.305
 31
0.0
  0
LINE
  5
190
330
1E
100
AcDbEntity
  8
0
100
AcDbLine
 10
87.81399999999999
 20
118.305
 30
0.0
 11
88.75
 21
111.6489999999999
 31
0.0
  0
LINE
  5
191
330
1E
100
AcDbEntity
  8
0
100
AcDbLine
 10
85.318
 20
98.75299999999999
 30
0.0
 11
87.81399999999999
 21
104.993
 31
0.0
  0
LINE
  5
192
330
1E
100
AcDbEntity
  8
0
100
AcDbLine
 10
82.75
 20
95.3504
 30
0.0
 11
85.318
 21
98.75299999999999
 31
0.0
  0
LINE
  5
193
330
1E
100
AcDbEntity
  8
0
100
AcDbLine
 10
88.25000000000001
 20
78.649
 30
0.0
 11
88.75
 21
78.649
 31
0.0
  0
LINE
  5
194
330
1E
100
AcDbEntity
  8
0
100
AcDbLine
 10
88.25000000000001
 20
78.649
 30
0.0
 11
88.25000000000001
 21
64.649
 31
0.0
  0
LINE
  5
195
330
1E
100
AcDbEntity
  8
0
100
AcDbLine
 10
88.25000000000001
 20
80.64899999999999
 30
0.0
 11
88.25000000000001
 21
82.649
 31
0.0
  0
LINE
  5
196
330
1E
100
AcDbEntity
  8
0
100
AcDbLine
 10
88.75
 20
78.649
 30
0.0
 11
88.75
 21
80.64899999999999
 31
0.0
  0
LINE
  5
197
330
1E
100
AcDbEntity
  8
0
100
AcDbLine
 10
88.75
 20
80.64899999999999
 30
0.0
 11
88.75
 21
78.649
 31
0.0
  0
LINE
  5
198
330
1E
100
AcDbEntity
  8
0
100
AcDbLine
 10
88.75
 20
82.649
 30
0.0
 11
88.75
 21
84.649
 31
0.0
  0
LINE
  5
199
330
1E
100
AcDbEntity
  8
0
100
AcDbLine
 10
88.75
 20
84.649
 30
0.0
 11
88.75
 21
82.649
 31
0.0
  0
LINE
  5
19A
330
1E
100
AcDbEntity
  8
0
100
AcDbLine
 10
88.25000000000001
 20
82.649
 30
0.0
 11
88.75
 21
82.649
 31
0.0
  0
LINE
  5
19B
330
1E
100
AcDbEntity
  8
0
100
AcDbLine
 10
88.25000000000001
 20
82.649
 30
0.0
 11
88.25000000000001
 21
80.64899999999999
 31
0.0
  0
LINE
  5
19C
330
1E
100
AcDbEntity
  8
0
100
AcDbLine
 10
89.654
 20
140.6489999999999
 30
0.0
 11
95.73399999999999
 21
140.6489999999999
 31
0.0
  0
LINE
  5
19D
330
1E
100
AcDbEntity
  8
0
100
AcDbLine
 10
89.654
 20
136.6489999999999
 30
0.0
 11
95.73399999999999
 21
136.6489999999999
 31
0.0
  0
LINE
  5
19E
330
1E
100
AcDbEntity
  8
0
100
AcDbLine
 10
88.79000000000001
 20
129.649
 30
0.0
 11
91.66999999999999
 21
129.649
 31
0.0
  0
LINE
  5
19F
330
1E
100
AcDbEntity
  8
0
100
AcDbLine
 10
88.25000000000001
 20
112.6489999999999
 30
0.0
 11
88.25000000000001
 21
110.6489999999999
 31
0.0
  0
LINE
  5
1A0
330
1E
100
AcDbEntity
  8
0
100
AcDbLine
 10
88.25000000000001
 20
110.6489999999999
 30
0.0
 11
88.25000000000001
 21
112.6489999999999
 31
0.0
  0
LINE
  5
1A1
330
1E
100
AcDbEntity
  8
0
100
AcDbLine
 10
87.81399999999999
 20
104.993
 30
0.0
 11
88.75
 21
111.6489999999999
 31
0.0
  0
LINE
  5
1A2
330
1E
100
AcDbEntity
  8
0
100
AcDbLine
 10
69.406
 20
70.72729999999999
 30
0.0
 11
75.646
 21
68.9623
 31
0.0
  0
LINE
  5
1A3
330
1E
100
AcDbEntity
  8
0
100
AcDbLine
 10
62.75
 20
71.3891
 30
0.0
 11
69.406
 21
70.72729999999999
 31
0.0
  0
LINE
  5
1A4
330
1E
100
AcDbEntity
  8
0
100
AcDbLine
 10
62.75
 20
70.682
 30
0.0
 11
69.406
 21
70.0202
 31
0.0
  0
LINE
  5
1A5
330
1E
100
AcDbEntity
  8
0
100
AcDbLine
 10
56.09399999999999
 20
70.72729999999999
 30
0.0
 11
62.75
 21
71.3891
 31
0.0
  0
LINE
  5
1A6
330
1E
100
AcDbEntity
  8
0
100
AcDbLine
 10
56.09399999999999
 20
70.0202
 30
0.0
 11
62.75
 21
70.682
 31
0.0
  0
LINE
  5
1A7
330
1E
100
AcDbEntity
  8
0
100
AcDbLine
 10
36.75
 20
52.2972
 30
0.0
 11
37.686
 21
47.5907
 31
0.0
  0
LINE
  5
1A8
330
1E
100
AcDbEntity
  8
0
100
AcDbLine
 10
36.75
 20
52.2972
 30
0.0
 11
36.75
 21
53.0043
 31
0.0
  0
LINE
  5
1A9
330
1E
100
AcDbEntity
  8
0
100
AcDbLine
 10
36.75
 20
52.2972
 30
0.0
 11
37.686
 21
57.0037
 31
0.0
  0
LINE
  5
1AA
330
1E
100
AcDbEntity
  8
0
100
AcDbLine
 10
37.686
 20
47.5907
 30
0.0
 11
37.75
 21
47.4775641025641
 31
0.0
  0
LINE
  5
1AB
330
1E
100
AcDbEntity
  8
0
100
AcDbLine
 10
92.75
 20
129.649
 30
0.0
 11
92.75
 21
136.6489999999999
 31
0.0
  0
LINE
  5
1AC
330
1E
100
AcDbEntity
  8
0
100
AcDbLine
 10
100.75
 20
136.6489999999999
 30
0.0
 11
100.75
 21
140.6489999999999
 31
0.0
  0
LINE
  5
1AD
330
1E
100
AcDbEntity
  8
0
100
AcDbLine
 10
99.38200000000001
 20
136.6489999999999
 30
0.0
 11
100.75
 21
136.6489999999999
 31
0.0
  0
LINE
  5
1AE
330
1E
100
AcDbEntity
  8
0
100
AcDbLine
 10
100.75
 20
140.6489999999999
 30
0.0
 11
100.75
 21
136.6489999999999
 31
0.0
  0
LINE
  5
1AF
330
1E
100
AcDbEntity
  8
0
100
AcDbLine
 10
99.38200000000001
 20
140.6489999999999
 30
0.0
 11
100.75
 21
140.6489999999999
 31
0.0
  0
LINE
  5
1B0
330
1E
100
AcDbEntity
  8
0
100
AcDbLine
 10
95.73399999999999
 20
140.6489999999999
 30
0.0
 11
99.38200000000001
 21
140.6489999999999
 31
0.0
  0
LINE
  5
1B1
330
1E
100
AcDbEntity
  8
0
100
AcDbLine
 10
95.73399999999999
 20
136.6489999999999
 30
0.0
 11
99.38200000000001
 21
136.6489999999999
 31
0.0
  0
LINE
  5
1B2
330
1E
100
AcDbEntity
  8
0
100
AcDbLine
 10
92.75
 20
136.6489999999999
 30
0.0
 11
92.75
 21
129.649
 31
0.0
  0
LINE
  5
1B3
330
1E
100
AcDbEntity
  8
0
100
AcDbLine
 10
92.75
 20
136.6489999999999
 30
0.0
 11
95.73399999999999
 21
136.6489999999999
 31
0.0
  0
LINE
  5
1B4
330
1E
100
AcDbEntity
  8
0
100
AcDbLine
 10
91.66999999999999
 20
129.649
 30
0.0
 11
92.75
 21
129.649
 31
0.0
  0
LINE
  5
1B5
330
1E
100
AcDbEntity
  8
0
100
AcDbLine
 10
89.74999999999999
 20
140.6489999999999
 30
0.0
 11
89.74999999999999
 21
150.649
 31
0.0
  0
LINE
  5
1B6
330
1E
100
AcDbEntity
  8
0
100
AcDbLine
 10
35.75
 20
150.649
 30
0.0
 11
35.75
 21
140.6489999999999
 31
0.0
  0
LINE
  5
1B7
330
1E
100
AcDbEntity
  8
0
100
AcDbLine
 10
35.75
 20
150.649
 30
0.0
 11
36.722
 21
150.649
 31
0.0
  0
LINE
  5
1B8
330
1E
100
AcDbEntity
  8
0
100
AcDbLine
 10
36.722
 20
150.649
 30
0.0
 11
39.314
 21
150.649
 31
0.0
  0
LINE
  5
1B9
330
1E
100
AcDbEntity
  8
0
100
AcDbLine
 10
39.314
 20
150.649
 30
0.0
 11
43.63399999999999
 21
150.649
 31
0.0
  0
LINE
  5
1BA
330
1E
100
AcDbEntity
  8
0
100
AcDbLine
 10
43.63399999999999
 20
150.649
 30
0.0
 11
49.358
 21
150.649
 31
0.0
  0
LINE
  5
1BB
330
1E
100
AcDbEntity
  8
0
100
AcDbLine
 10
49.358
 20
150.649
 30
0.0
 11
55.838
 21
150.649
 31
0.0
  0
LINE
  5
1BC
330
1E
100
AcDbEntity
  8
0
100
AcDbLine
 10
37.97
 20
150.649
 30
0.0
 11
45.39
 21
150.649
 31
0.0
  0
LINE
  5
1BD
330
1E
100
AcDbEntity
  8
0
100
AcDbLine
 10
42.75
 20
152.649
 30
0.0
 11
42.75
 21
250.8779999999999
 31
0.0
  0
LINE
  5
1BE
330
1E
100
AcDbEntity
  8
0
100
AcDbLine
 10
37.97
 20
152.649
 30
0.0
 11
45.39
 21
152.649
 31
0.0
  0
LINE
  5
1BF
330
1E
100
AcDbEntity
  8
0
100
AcDbLine
 10
39.75
 20
250.8779999999999
 30
0.0
 11
40.578
 21
251.9009999999999
 31
0.0
  0
LINE
  5
1C1
330
1E
100
AcDbEntity
  8
0
100
AcDbLine
 10
39.75
 20
250.8779999999999
 30
0.0
 11
40.578
 21
249.8559999999999
 31
0.0
  0
LINE
  5
1C2
330
1E
100
AcDbEntity
  8
0
100
AcDbLine
 10
39.75
 20
250.8779999999999
 30
0.0
 11
39.75
 21
280.423
 31
0.0
  0
LINE
  5
1C3
330
1E
100
AcDbEntity
  8
0
100
AcDbLine
 10
40.578
 20
249.8559999999999
 30
0.0
 11
42.75
 21
248.912635869565
 31
0.0
  0
LINE
  5
1C5
330
1E
100
AcDbEntity
  8
0
100
AcDbLine
 10
40.578
 20
251.9009999999999
 30
0.0
 11
42.78599999999999
 21
252.859
 31
0.0
  0
LINE
  5
1C9
330
1E
100
AcDbEntity
  8
0
100
AcDbLine
 10
39.75
 20
280.423
 30
0.0
 11
40.578
 21
281.4449999999999
 31
0.0
  0
LINE
  5
1CA
330
1E
100
AcDbEntity
  8
0
100
AcDbLine
 10
39.75
 20
280.423
 30
0.0
 11
39.75
 21
250.8779999999999
 31
0.0
  0
LINE
  5
1CB
330
1E
100
AcDbEntity
  8
0
100
AcDbLine
 10
41.74999999999999
 20
281.9540344202899
 30
0.0
 11
41.74999999999999
 21
300.119
 31
0.0
  0
LINE
  5
1CD
330
1E
100
AcDbEntity
  8
0
100
AcDbLine
 10
41.74999999999999
 20
300.119
 30
0.0
 11
42.506
 21
301.052
 31
0.0
  0
LINE
  5
1CE
330
1E
100
AcDbEntity
  8
0
100
AcDbLine
 10
41.74999999999999
 20
300.119
 30
0.0
 11
41.74999999999999
 21
281.9540344202899
 31
0.0
  0
LINE
  5
1CF
330
1E
100
AcDbEntity
  8
0
100
AcDbLine
 10
42.506
 20
301.052
 30
0.0
 11
44.522
 21
301.928
 31
0.0
  0
LINE
  5
1D1
330
1E
100
AcDbEntity
  8
0
100
AcDbLine
 10
40.578
 20
281.4449999999999
 30
0.0
 11
42.78599999999999
 21
282.404
 31
0.0
  0
LINE
  5
1D3
330
1E
100
AcDbEntity
  8
0
100
AcDbLine
 10
42.506
 20
418.209
 30
0.0
 11
44.522
 21
417.334
 31
0.0
  0
LINE
  5
1D4
330
1E
100
AcDbEntity
  8
0
100
AcDbLine
 10
41.74999999999999
 20
419.143
 30
0.0
 11
42.506
 21
420.0759999999999
 31
0.0
  0
LINE
  5
1D5
330
1E
100
AcDbEntity
  8
0
100
AcDbLine
 10
41.74999999999999
 20
419.143
 30
0.0
 11
41.74999999999999
 21
497.9269999999999
 31
0.0
  0
LINE
  5
1D6
330
1E
100
AcDbEntity
  8
0
100
AcDbLine
 10
41.74999999999999
 20
419.143
 30
0.0
 11
42.506
 21
418.209
 31
0.0
  0
LINE
  5
1D7
330
1E
100
AcDbEntity
  8
0
100
AcDbLine
 10
42.506
 20
420.0759999999999
 30
0.0
 11
44.522
 21
420.952
 31
0.0
  0
LINE
  5
1D8
330
1E
100
AcDbEntity
  8
0
100
AcDbLine
 10
34.43
 20
509.212
 30
0.0
 11
42.90999999999999
 21
502.909
 31
0.0
  0
LINE
  5
1D9
330
1E
100
AcDbEntity
  8
0
100
AcDbLine
 10
34.43
 20
510.7469999999999
 30
0.0
 11
42.90999999999999
 21
504.444
 31
0.0
  0
LINE
  5
1DA
330
1E
100
AcDbEntity
  8
0
100
AcDbLine
 10
41.74999999999999
 20
497.9269999999999
 30
0.0
 11
42.506
 21
498.861
 31
0.0
  0
LINE
  5
1DB
330
1E
100
AcDbEntity
  8
0
100
AcDbLine
 10
42.78599999999999
 20
252.859
 30
0.0
 11
46.466
 21
253.7059999999999
 31
0.0
  0
LINE
  5
1DE
330
1E
100
AcDbEntity
  8
0
100
AcDbLine
 10
42.78599999999999
 20
282.404
 30
0.0
 11
46.466
 21
283.2499999999999
 31
0.0
  0
LINE
  5
1E0
330
1E
100
AcDbEntity
  8
0
100
AcDbLine
 10
42.90999999999999
 20
502.909
 30
0.0
 11
48.72223896206101
 21
500.619220025571
 31
0.0
  0
LINE
  5
1E1
330
1E
100
AcDbEntity
  8
0
100
AcDbLine
 10
42.90999999999999
 20
502.909
 30
0.0
 11
48.72223896206101
 21
500.619220025571
 31
0.0
  0
LINE
  5
1E2
330
1E
100
AcDbEntity
  8
0
100
AcDbLine
 10
42.90999999999999
 20
504.444
 30
0.0
 11
52.51
 21
500.663
 31
0.0
  0
LINE
  5
1E3
330
1E
100
AcDbEntity
  8
0
100
AcDbLine
 10
42.506
 20
498.861
 30
0.0
 11
44.522
 21
499.7359999999999
 31
0.0
  0
LINE
  5
1E4
330
1E
100
AcDbEntity
  8
0
100
AcDbLine
 10
35.846
 20
512.2419999999999
 30
0.0
 11
43.902
 21
506.254
 31
0.0
  0
LINE
  5
1E5
330
1E
100
AcDbEntity
  8
0
100
AcDbLine
 10
43.902
 20
506.254
 30
0.0
 11
53.02202
 21
502.662
 31
0.0
  0
LINE
  5
1E6
330
1E
100
AcDbEntity
  8
0
100
AcDbLine
 10
35.846
 20
512.6619999999999
 30
0.0
 11
43.902
 21
506.6749999999999
 31
0.0
  0
LINE
  5
1E8
330
1E
100
AcDbEntity
  8
0
100
AcDbLine
 10
44.522
 20
301.928
 30
0.0
 11
47.88199999999999
 21
302.7009999999999
 31
0.0
  0
LINE
  5
1EA
330
1E
100
AcDbEntity
  8
0
100
AcDbLine
 10
44.522
 20
417.334
 30
0.0
 11
44.75
 21
417.281546428571
 31
0.0
  0
LINE
  5
1EB
330
1E
100
AcDbEntity
  8
0
100
AcDbLine
 10
46.466
 20
253.7059999999999
 30
0.0
 11
51.34199999999999
 21
254.3449999999999
 31
0.0
  0
LINE
  5
1EF
330
1E
100
AcDbEntity
  8
0
100
AcDbLine
 10
46.466
 20
283.2499999999999
 30
0.0
 11
51.34199999999999
 21
283.889
 31
0.0
  0
LINE
  5
1F0
330
1E
100
AcDbEntity
  8
0
100
AcDbLine
 10
44.75
 20
301.9804535714289
 30
0.0
 11
44.75
 21
419.143
 31
0.0
  0
LINE
  5
1F1
330
1E
100
AcDbEntity
  8
0
100
AcDbLine
 10
44.522
 20
420.952
 30
0.0
 11
47.88199999999999
 21
421.7249999999999
 31
0.0
  0
LINE
  5
1F2
330
1E
100
AcDbEntity
  8
0
100
AcDbLine
 10
44.522
 20
499.7359999999999
 30
0.0
 11
47.88199999999999
 21
500.509
 31
0.0
  0
LINE
  5
1F4
330
1E
100
AcDbEntity
  8
0
100
AcDbLine
 10
47.88199999999999
 20
302.7009999999999
 30
0.0
 11
52.33399999999999
 21
303.284
 31
0.0
  0
LINE
  5
1F6
330
1E
100
AcDbEntity
  8
0
100
AcDbLine
 10
47.88199999999999
 20
421.7249999999999
 30
0.0
 11
52.33399999999999
 21
422.308
 31
0.0
  0
LINE
  5
1F7
330
1E
100
AcDbEntity
  8
0
100
AcDbLine
 10
47.88199999999999
 20
500.509
 30
0.0
 11
49.60635524449259
 21
500.735195746358
 31
0.0
  0
LINE
  5
1F8
330
1E
100
AcDbEntity
  8
0
100
AcDbLine
 10
47.75
 20
500.4786321428569
 30
0.0
 11
47.75
 21
501.002241666667
 31
0.0
  0
LINE
  5
1F9
330
1E
100
AcDbEntity
  8
0
100
AcDbLine
 10
47.75
 20
501.002241666667
 30
0.0
 11
47.75
 21
500.4786321428569
 31
0.0
  0
LINE
  5
1FA
330
1E
100
AcDbEntity
  8
0
100
AcDbLine
 10
43.902
 20
506.6749999999999
 30
0.0
 11
53.02202
 21
503.082
 31
0.0
  0
LINE
  5
1FC
330
1E
100
AcDbEntity
  8
0
100
AcDbLine
 10
48.668
 20
532.957
 30
0.0
 11
49.0283
 21
532.538
 31
0.0
  0
LINE
  5
1FD
330
1E
100
AcDbEntity
  8
0
100
AcDbLine
 10
48.668
 20
532.957
 30
0.0
 11
48.668
 21
533.929
 31
0.0
  0
LINE
  5
203
330
1E
100
AcDbEntity
  8
0
100
AcDbLine
 10
34.43
 20
566.5259999999999
 30
0.0
 11
42.90999999999999
 21
572.829
 31
0.0
  0
LINE
  5
204
330
1E
100
AcDbEntity
  8
0
100
AcDbLine
 10
42.90999999999999
 20
572.829
 30
0.0
 11
52.51
 21
576.611
 31
0.0
  0
LINE
  5
205
330
1E
100
AcDbEntity
  8
0
100
AcDbLine
 10
35.846
 20
565.653
 30
0.0
 11
43.902
 21
571.6409999999999
 31
0.0
  0
LINE
  5
206
330
1E
100
AcDbEntity
  8
0
100
AcDbLine
 10
43.902
 20
571.6409999999999
 30
0.0
 11
53.02202
 21
575.233
 31
0.0
  0
LINE
  5
207
330
1E
100
AcDbEntity
  8
0
100
AcDbLine
 10
48.668
 20
546.898
 30
0.0
 11
48.668
 21
547.7669999999999
 31
0.0
  0
LINE
  5
208
330
1E
100
AcDbEntity
  8
0
100
AcDbLine
 10
48.668
 20
546.898
 30
0.0
 11
48.668
 21
545.9259999999999
 31
0.0
  0
LINE
  5
209
330
1E
100
AcDbEntity
  8
0
100
AcDbLine
 10
48.668
 20
547.7669999999999
 30
0.0
 11
48.668
 21
546.9680000000001
 31
0.0
  0
LINE
  5
20A
330
1E
100
AcDbEntity
  8
0
100
AcDbLine
 10
48.668
 20
547.7669999999999
 30
0.0
 11
48.668
 21
546.898
 31
0.0
  0
LINE
  5
20B
330
1E
100
AcDbEntity
  8
0
100
AcDbLine
 10
48.668
 20
547.7669999999999
 30
0.0
 11
49.0283
 21
548.186
 31
0.0
  0
LINE
  5
20C
330
1E
100
AcDbEntity
  8
0
100
AcDbLine
 10
48.668
 20
545.9259999999999
 30
0.0
 11
48.668
 21
546.898
 31
0.0
  0
LINE
  5
20D
330
1E
100
AcDbEntity
  8
0
100
AcDbLine
 10
48.668
 20
545.9259999999999
 30
0.0
 11
48.668
 21
542.976013253298
 31
0.0
  0
LINE
  5
20E
330
1E
100
AcDbEntity
  8
0
100
AcDbLine
 10
48.668
 20
546.9680000000001
 30
0.0
 11
48.668
 21
543.899
 31
0.0
  0
LINE
  5
210
330
1E
100
AcDbEntity
  8
0
100
AcDbLine
 10
48.668
 20
546.9680000000001
 30
0.0
 11
48.668
 21
547.7669999999999
 31
0.0
  0
LINE
  5
211
330
1E
100
AcDbEntity
  8
0
100
AcDbLine
 10
48.668
 20
542.976013253298
 30
0.0
 11
48.668
 21
545.9259999999999
 31
0.0
  0
LINE
  5
212
330
1E
100
AcDbEntity
  8
0
100
AcDbLine
 10
48.668
 20
543.899
 30
0.0
 11
48.668
 21
540.5269999999999
 31
0.0
  0
LINE
  5
213
330
1E
100
AcDbEntity
  8
0
100
AcDbLine
 10
48.668
 20
543.899
 30
0.0
 11
48.668
 21
546.9680000000001
 31
0.0
  0
LINE
  5
214
330
1E
100
AcDbEntity
  8
0
100
AcDbLine
 10
48.668
 20
537.131
 30
0.0
 11
48.668
 21
533.929
 31
0.0
  0
LINE
  5
215
330
1E
100
AcDbEntity
  8
0
100
AcDbLine
 10
48.668
 20
537.131
 30
0.0
 11
48.668
 21
540.5269999999999
 31
0.0
  0
LINE
  5
216
330
1E
100
AcDbEntity
  8
0
100
AcDbLine
 10
48.668
 20
540.5269999999999
 30
0.0
 11
48.668
 21
537.131
 31
0.0
  0
LINE
  5
217
330
1E
100
AcDbEntity
  8
0
100
AcDbLine
 10
48.668
 20
540.5269999999999
 30
0.0
 11
48.668
 21
543.899
 31
0.0
  0
LINE
  5
218
330
1E
100
AcDbEntity
  8
0
100
AcDbLine
 10
48.668
 20
533.929
 30
0.0
 11
48.668
 21
537.131
 31
0.0
  0
LINE
  5
21A
330
1E
100
AcDbEntity
  8
0
100
AcDbLine
 10
48.668
 20
533.929
 30
0.0
 11
48.668
 21
532.957
 31
0.0
  0
LINE
  5
21F
330
1E
100
AcDbEntity
  8
0
100
AcDbLine
 10
48.668
 20
535.540380979897
 30
0.0
 11
48.668
 21
532.957
 31
0.0
  0
LINE
  5
221
330
1E
100
AcDbEntity
  8
0
100
AcDbLine
 10
51.34199999999999
 20
254.3449999999999
 30
0.0
 11
56.86199999999999
 21
254.729
 31
0.0
  0
LINE
  5
225
330
1E
100
AcDbEntity
  8
0
100
AcDbLine
 10
52.33399999999999
 20
303.284
 30
0.0
 11
57.374
 21
303.634
 31
0.0
  0
LINE
  5
227
330
1E
100
AcDbEntity
  8
0
100
AcDbLine
 10
51.34199999999999
 20
283.889
 30
0.0
 11
56.86199999999999
 21
284.2729999999999
 31
0.0
  0
LINE
  5
229
330
1E
100
AcDbEntity
  8
0
100
AcDbLine
 10
52.51
 20
500.663
 30
0.0
 11
62.750016
 21
499.244
 31
0.0
  0
LINE
  5
22A
330
1E
100
AcDbEntity
  8
0
100
AcDbLine
 10
52.33399999999999
 20
422.308
 30
0.0
 11
57.374
 21
422.658
 31
0.0
  0
LINE
  5
22B
330
1E
100
AcDbEntity
  8
0
100
AcDbLine
 10
53.02202
 20
502.662
 30
0.0
 11
62.750016
 21
501.315
 31
0.0
  0
LINE
  5
22C
330
1E
100
AcDbEntity
  8
0
100
AcDbLine
 10
53.02202
 20
503.082
 30
0.0
 11
62.750016
 21
501.735
 31
0.0
  0
LINE
  5
22D
330
1E
100
AcDbEntity
  8
0
100
AcDbLine
 10
52.2048
 20
530.969
 30
0.0
 11
55.54161999999999
 21
529.186
 31
0.0
  0
LINE
  5
22F
330
1E
100
AcDbEntity
  8
0
100
AcDbLine
 10
52.0071
 20
537.86
 30
0.0
 11
53.02071999999999
 21
535.4630000000001
 31
0.0
  0
LINE
  5
230
330
1E
100
AcDbEntity
  8
0
100
AcDbLine
 10
51.68849999999999
 20
540.4279999999999
 30
0.0
 11
52.0071
 21
537.86
 31
0.0
  0
LINE
  5
231
330
1E
100
AcDbEntity
  8
0
100
AcDbLine
 10
51.68849999999999
 20
540.4279999999999
 30
0.0
 11
52.0071
 21
542.9109999999999
 31
0.0
  0
LINE
  5
232
330
1E
100
AcDbEntity
  8
0
100
AcDbLine
 10
52.81801999999999
 20
545.3079999999999
 30
0.0
 11
54.52671999999999
 21
547.734
 31
0.0
  0
LINE
  5
233
330
1E
100
AcDbEntity
  8
0
100
AcDbLine
 10
52.0071
 20
542.9109999999999
 30
0.0
 11
52.81801999999999
 21
545.3079999999999
 31
0.0
  0
LINE
  5
234
330
1E
100
AcDbEntity
  8
0
100
AcDbLine
 10
53.02071999999999
 20
535.4630000000001
 30
0.0
 11
54.67151999999999
 21
533.009
 31
0.0
  0
LINE
  5
235
330
1E
100
AcDbEntity
  8
0
100
AcDbLine
 10
52.51
 20
576.611
 30
0.0
 11
62.750016
 21
578.0289999999999
 31
0.0
  0
LINE
  5
236
330
1E
100
AcDbEntity
  8
0
100
AcDbLine
 10
53.02202
 20
575.233
 30
0.0
 11
62.750016
 21
576.58
 31
0.0
  0
LINE
  5
238
330
1E
100
AcDbEntity
  8
0
100
AcDbLine
 10
52.2048
 20
550.039
 30
0.0
 11
55.54161999999999
 21
551.849
 31
0.0
  0
LINE
  5
239
330
1E
100
AcDbEntity
  8
0
100
AcDbLine
 10
49.8679
 20
548.725
 30
0.0
 11
52.2048
 21
550.039
 31
0.0
  0
LINE
  5
23B
330
1E
100
AcDbEntity
  8
0
100
AcDbLine
 10
49.0283
 20
548.186
 30
0.0
 11
49.8679
 21
548.725
 31
0.0
  0
LINE
  5
23C
330
1E
100
AcDbEntity
  8
0
100
AcDbLine
 10
49.8679
 20
532.172
 30
0.0
 11
52.2048
 21
530.969
 31
0.0
  0
LINE
  5
23E
330
1E
100
AcDbEntity
  8
0
100
AcDbLine
 10
49.0283
 20
532.538
 30
0.0
 11
49.8679
 21
532.172
 31
0.0
  0
LINE
  5
23F
330
1E
100
AcDbEntity
  8
0
100
AcDbLine
 10
45.39
 20
152.649
 30
0.0
 11
53.79
 21
152.649
 31
0.0
  0
LINE
  5
240
330
1E
100
AcDbEntity
  8
0
100
AcDbLine
 10
53.79
 20
152.649
 30
0.0
 11
62.75
 21
152.649
 31
0.0
  0
LINE
  5
241
330
1E
100
AcDbEntity
  8
0
100
AcDbLine
 10
45.39
 20
150.649
 30
0.0
 11
53.79
 21
150.649
 31
0.0
  0
LINE
  5
242
330
1E
100
AcDbEntity
  8
0
100
AcDbLine
 10
71.70999999999999
 20
150.649
 30
0.0
 11
80.11000000000001
 21
150.649
 31
0.0
  0
LINE
  5
243
330
1E
100
AcDbEntity
  8
0
100
AcDbLine
 10
80.11000000000001
 20
150.649
 30
0.0
 11
87.53
 21
150.649
 31
0.0
  0
LINE
  5
244
330
1E
100
AcDbEntity
  8
0
100
AcDbLine
 10
89.74999999999999
 20
150.649
 30
0.0
 11
89.74999999999999
 21
140.6489999999999
 31
0.0
  0
LINE
  5
245
330
1E
100
AcDbEntity
  8
0
100
AcDbLine
 10
89.74999999999999
 20
150.649
 30
0.0
 11
93.13
 21
150.649
 31
0.0
  0
LINE
  5
246
330
1E
100
AcDbEntity
  8
0
100
AcDbLine
 10
96.49
 20
150.649
 30
0.0
 11
97.75
 21
150.649
 31
0.0
  0
LINE
  5
247
330
1E
100
AcDbEntity
  8
0
100
AcDbLine
 10
97.75
 20
150.649
 30
0.0
 11
97.75
 21
152.649
 31
0.0
  0
LINE
  5
248
330
1E
100
AcDbEntity
  8
0
100
AcDbLine
 10
93.13
 20
150.649
 30
0.0
 11
96.49
 21
150.649
 31
0.0
  0
LINE
  5
249
330
1E
100
AcDbEntity
  8
0
100
AcDbLine
 10
87.53
 20
150.649
 30
0.0
 11
93.13
 21
150.649
 31
0.0
  0
LINE
  5
24A
330
1E
100
AcDbEntity
  8
0
100
AcDbLine
 10
88.77799999999998
 20
150.649
 30
0.0
 11
89.74999999999999
 21
150.649
 31
0.0
  0
LINE
  5
24B
330
1E
100
AcDbEntity
  8
0
100
AcDbLine
 10
86.186
 20
150.649
 30
0.0
 11
88.77799999999998
 21
150.649
 31
0.0
  0
LINE
  5
24C
330
1E
100
AcDbEntity
  8
0
100
AcDbLine
 10
81.866
 20
150.649
 30
0.0
 11
86.186
 21
150.649
 31
0.0
  0
LINE
  5
24D
330
1E
100
AcDbEntity
  8
0
100
AcDbLine
 10
76.142
 20
150.649
 30
0.0
 11
81.866
 21
150.649
 31
0.0
  0
LINE
  5
24E
330
1E
100
AcDbEntity
  8
0
100
AcDbLine
 10
69.66199999999999
 20
150.649
 30
0.0
 11
76.142
 21
150.649
 31
0.0
  0
LINE
  5
24F
330
1E
100
AcDbEntity
  8
0
100
AcDbLine
 10
62.75
 20
150.649
 30
0.0
 11
69.66199999999999
 21
150.649
 31
0.0
  0
LINE
  5
250
330
1E
100
AcDbEntity
  8
0
100
AcDbLine
 10
62.75
 20
150.649
 30
0.0
 11
71.70999999999999
 21
150.649
 31
0.0
  0
LINE
  5
251
330
1E
100
AcDbEntity
  8
0
100
AcDbLine
 10
56.86199999999999
 20
254.729
 30
0.0
 11
62.75
 21
254.872
 31
0.0
  0
LINE
  5
255
330
1E
100
AcDbEntity
  8
0
100
AcDbLine
 10
57.374
 20
303.634
 30
0.0
 11
62.75
 21
303.7649999999999
 31
0.0
  0
LINE
  5
257
330
1E
100
AcDbEntity
  8
0
100
AcDbLine
 10
56.86199999999999
 20
284.2729999999999
 30
0.0
 11
62.75
 21
284.417
 31
0.0
  0
LINE
  5
25C
330
1E
100
AcDbEntity
  8
0
100
AcDbLine
 10
57.374
 20
422.658
 30
0.0
 11
62.75
 21
422.789
 31
0.0
  0
LINE
  5
25D
330
1E
100
AcDbEntity
  8
0
100
AcDbLine
 10
54.52671999999999
 20
547.734
 30
0.0
 11
57.08382
 21
549.874
 31
0.0
  0
LINE
  5
25E
330
1E
100
AcDbEntity
  8
0
100
AcDbLine
 10
54.67151999999999
 20
533.009
 30
0.0
 11
57.10422
 21
531.1829999999999
 31
0.0
  0
LINE
  5
25F
330
1E
100
AcDbEntity
  8
0
100
AcDbLine
 10
57.10422
 20
531.1829999999999
 30
0.0
 11
59.82662
 21
530.098
 31
0.0
  0
LINE
  5
260
330
1E
100
AcDbEntity
  8
0
100
AcDbLine
 10
57.08382
 20
549.874
 30
0.0
 11
59.83521999999999
 21
550.958
 31
0.0
  0
LINE
  5
262
330
1E
100
AcDbEntity
  8
0
100
AcDbLine
 10
58.86012
 20
553.618
 30
0.0
 11
60.93772
 21
554.6559999999999
 31
0.0
  0
LINE
  5
264
330
1E
100
AcDbEntity
  8
0
100
AcDbLine
 10
55.54161999999999
 20
551.849
 30
0.0
 11
58.86012
 21
553.618
 31
0.0
  0
LINE
  5
267
330
1E
100
AcDbEntity
  8
0
100
AcDbLine
 10
55.54161999999999
 20
529.186
 30
0.0
 11
58.86012
 21
527.381
 31
0.0
  0
LINE
  5
26A
330
1E
100
AcDbEntity
  8
0
100
AcDbLine
 10
59.83521999999999
 20
550.958
 30
0.0
 11
62.76021599999999
 21
551.386
 31
0.0
  0
LINE
  5
26B
330
1E
100
AcDbEntity
  8
0
100
AcDbLine
 10
59.82662
 20
530.098
 30
0.0
 11
62.612616
 21
529.727
 31
0.0
  0
LINE
  5
26C
330
1E
100
AcDbEntity
  8
0
100
AcDbLine
 10
60.93772
 20
526.2419999999999
 30
0.0
 11
62.668016
 21
526.0119999999999
 31
0.0
  0
LINE
  5
271
330
1E
100
AcDbEntity
  8
0
100
AcDbLine
 10
58.86012
 20
527.381
 30
0.0
 11
60.93772
 21
526.2419999999999
 31
0.0
  0
LINE
  5
276
330
1E
100
AcDbEntity
  8
0
100
AcDbLine
 10
62.668016
 20
526.0119999999999
 30
0.0
 11
64.39832
 21
526.2419999999999
 31
0.0
  0
LINE
  5
27E
330
1E
100
AcDbEntity
  8
0
100
AcDbLine
 10
62.612616
 20
529.727
 30
0.0
 11
65.42182
 21
530.098
 31
0.0
  0
LINE
  5
27F
330
1E
100
AcDbEntity
  8
0
100
AcDbLine
 10
61.858616
 20
555.0309999999999
 30
0.0
 11
62.668016
 21
555.134
 31
0.0
  0
LINE
  5
280
330
1E
100
AcDbEntity
  8
0
100
AcDbLine
 10
60.93772
 20
554.6559999999999
 30
0.0
 11
61.858616
 21
555.0309999999999
 31
0.0
  0
LINE
  5
287
330
1E
100
AcDbEntity
  8
0
100
AcDbLine
 10
62.668016
 20
555.134
 30
0.0
 11
63.477416
 21
555.0309999999999
 31
0.0
  0
LINE
  5
288
330
1E
100
AcDbEntity
  8
0
100
AcDbLine
 10
82.75
 20
152.649
 30
0.0
 11
82.75
 21
250.8779999999999
 31
0.0
  0
LINE
  5
289
330
1E
100
AcDbEntity
  8
0
100
AcDbLine
 10
97.75
 20
152.649
 30
0.0
 11
97.75
 21
150.649
 31
0.0
  0
LINE
  5
28A
330
1E
100
AcDbEntity
  8
0
100
AcDbLine
 10
96.49
 20
152.649
 30
0.0
 11
97.75
 21
152.649
 31
0.0
  0
LINE
  5
28B
330
1E
100
AcDbEntity
  8
0
100
AcDbLine
 10
93.13
 20
152.649
 30
0.0
 11
96.49
 21
152.649
 31
0.0
  0
LINE
  5
28C
330
1E
100
AcDbEntity
  8
0
100
AcDbLine
 10
87.53
 20
152.649
 30
0.0
 11
93.13
 21
152.649
 31
0.0
  0
LINE
  5
28D
330
1E
100
AcDbEntity
  8
0
100
AcDbLine
 10
80.11000000000001
 20
152.649
 30
0.0
 11
87.53
 21
152.649
 31
0.0
  0
LINE
  5
28E
330
1E
100
AcDbEntity
  8
0
100
AcDbLine
 10
62.75
 20
254.872
 30
0.0
 11
68.63800000000001
 21
254.729
 31
0.0
  0
LINE
  5
290
330
1E
100
AcDbEntity
  8
0
100
AcDbLine
 10
62.75
 20
303.7649999999999
 30
0.0
 11
68.126
 21
303.634
 31
0.0
  0
LINE
  5
292
330
1E
100
AcDbEntity
  8
0
100
AcDbLine
 10
62.75
 20
284.417
 30
0.0
 11
68.63800000000001
 21
284.2729999999999
 31
0.0
  0
LINE
  5
296
330
1E
100
AcDbEntity
  8
0
100
AcDbLine
 10
62.750016
 20
499.244
 30
0.0
 11
72.98999999999999
 21
500.663
 31
0.0
  0
LINE
  5
297
330
1E
100
AcDbEntity
  8
0
100
AcDbLine
 10
62.75
 20
422.789
 30
0.0
 11
68.126
 21
422.658
 31
0.0
  0
LINE
  5
299
330
1E
100
AcDbEntity
  8
0
100
AcDbLine
 10
62.750016
 20
501.315
 30
0.0
 11
72.47802
 21
502.662
 31
0.0
  0
LINE
  5
29A
330
1E
100
AcDbEntity
  8
0
100
AcDbLine
 10
62.750016
 20
501.735
 30
0.0
 11
72.47802
 21
503.082
 31
0.0
  0
LINE
  5
2A1
330
1E
100
AcDbEntity
  8
0
100
AcDbLine
 10
64.39832
 20
526.2419999999999
 30
0.0
 11
66.47592
 21
527.381
 31
0.0
  0
LINE
  5
2A4
330
1E
100
AcDbEntity
  8
0
100
AcDbLine
 10
68.63800000000001
 20
254.729
 30
0.0
 11
74.158
 21
254.3449999999999
 31
0.0
  0
LINE
  5
2A6
330
1E
100
AcDbEntity
  8
0
100
AcDbLine
 10
68.126
 20
303.634
 30
0.0
 11
73.166
 21
303.284
 31
0.0
  0
LINE
  5
2A8
330
1E
100
AcDbEntity
  8
0
100
AcDbLine
 10
68.63800000000001
 20
284.2729999999999
 30
0.0
 11
74.158
 21
283.889
 31
0.0
  0
LINE
  5
2AC
330
1E
100
AcDbEntity
  8
0
100
AcDbLine
 10
68.126
 20
422.658
 30
0.0
 11
73.166
 21
422.308
 31
0.0
  0
LINE
  5
2AE
330
1E
100
AcDbEntity
  8
0
100
AcDbLine
 10
72.98999999999999
 20
500.663
 30
0.0
 11
82.59
 21
504.444
 31
0.0
  0
LINE
  5
2AF
330
1E
100
AcDbEntity
  8
0
100
AcDbLine
 10
72.47802
 20
502.662
 30
0.0
 11
81.598
 21
506.254
 31
0.0
  0
LINE
  5
2B0
330
1E
100
AcDbEntity
  8
0
100
AcDbLine
 10
72.47802
 20
503.082
 30
0.0
 11
81.598
 21
506.6749999999999
 31
0.0
  0
LINE
  5
2B1
330
1E
100
AcDbEntity
  8
0
100
AcDbLine
 10
66.47592
 20
527.381
 30
0.0
 11
69.79442
 21
529.186
 31
0.0
  0
LINE
  5
2B3
330
1E
100
AcDbEntity
  8
0
100
AcDbLine
 10
65.42182
 20
530.098
 30
0.0
 11
68.17312
 21
531.1539999999999
 31
0.0
  0
LINE
  5
2B4
330
1E
100
AcDbEntity
  8
0
100
AcDbLine
 10
69.79442
 20
529.186
 30
0.0
 11
73.13120000000001
 21
530.969
 31
0.0
  0
LINE
  5
2B7
330
1E
100
AcDbEntity
  8
0
100
AcDbLine
 10
73.166
 20
303.284
 30
0.0
 11
77.618
 21
302.7009999999999
 31
0.0
  0
LINE
  5
2B9
330
1E
100
AcDbEntity
  8
0
100
AcDbLine
 10
73.166
 20
422.308
 30
0.0
 11
77.618
 21
421.7249999999999
 31
0.0
  0
LINE
  5
2BB
330
1E
100
AcDbEntity
  8
0
100
AcDbLine
 10
68.17312
 20
531.1539999999999
 30
0.0
 11
70.60582
 21
532.98
 31
0.0
  0
LINE
  5
2BC
330
1E
100
AcDbEntity
  8
0
100
AcDbLine
 10
70.60582
 20
532.98
 30
0.0
 11
72.34631999999999
 21
535.4349999999999
 31
0.0
  0
LINE
  5
2BD
330
1E
100
AcDbEntity
  8
0
100
AcDbLine
 10
73.3021
 20
537.889
 30
0.0
 11
73.6785
 21
540.371
 31
0.0
  0
LINE
  5
2BE
330
1E
100
AcDbEntity
  8
0
100
AcDbLine
 10
72.34631999999999
 20
535.4349999999999
 30
0.0
 11
73.3021
 21
537.889
 31
0.0
  0
LINE
  5
2BF
330
1E
100
AcDbEntity
  8
0
100
AcDbLine
 10
73.13120000000001
 20
530.969
 30
0.0
 11
75.4681
 21
532.172
 31
0.0
  0
LINE
  5
2C1
330
1E
100
AcDbEntity
  8
0
100
AcDbLine
 10
74.158
 20
254.3449999999999
 30
0.0
 11
79.03399999999999
 21
253.7059999999999
 31
0.0
  0
LINE
  5
2C2
330
1E
100
AcDbEntity
  8
0
100
AcDbLine
 10
74.158
 20
283.889
 30
0.0
 11
79.03399999999999
 21
283.2499999999999
 31
0.0
  0
LINE
  5
2C4
330
1E
100
AcDbEntity
  8
0
100
AcDbLine
 10
75.89364475550739
 20
500.735195746358
 30
0.0
 11
77.618
 21
500.509
 31
0.0
  0
LINE
  5
2C8
330
1E
100
AcDbEntity
  8
0
100
AcDbLine
 10
76.3077
 20
532.538
 30
0.0
 11
76.66800000000001
 21
532.957
 31
0.0
  0
LINE
  5
2CC
330
1E
100
AcDbEntity
  8
0
100
AcDbLine
 10
76.66800000000001
 20
532.957
 30
0.0
 11
76.66800000000001
 21
533.929
 31
0.0
  0
LINE
  5
2CE
330
1E
100
AcDbEntity
  8
0
100
AcDbLine
 10
76.66800000000001
 20
533.929
 30
0.0
 11
76.66800000000001
 21
537.131
 31
0.0
  0
LINE
  5
2CF
330
1E
100
AcDbEntity
  8
0
100
AcDbLine
 10
76.66800000000001
 20
533.929
 30
0.0
 11
76.66800000000001
 21
532.957
 31
0.0
  0
LINE
  5
2D0
330
1E
100
AcDbEntity
  8
0
100
AcDbLine
 10
76.66800000000001
 20
537.131
 30
0.0
 11
76.66800000000001
 21
540.5269999999999
 31
0.0
  0
LINE
  5
2D1
330
1E
100
AcDbEntity
  8
0
100
AcDbLine
 10
76.66800000000001
 20
537.131
 30
0.0
 11
76.66800000000001
 21
533.929
 31
0.0
  0
LINE
  5
2D2
330
1E
100
AcDbEntity
  8
0
100
AcDbLine
 10
75.4681
 20
532.172
 30
0.0
 11
76.3077
 21
532.538
 31
0.0
  0
LINE
  5
2D4
330
1E
100
AcDbEntity
  8
0
100
AcDbLine
 10
73.38890000000001
 20
542.9109999999999
 30
0.0
 11
73.6785
 21
540.371
 31
0.0
  0
LINE
  5
2D5
330
1E
100
AcDbEntity
  8
0
100
AcDbLine
 10
62.76021599999999
 20
551.386
 30
0.0
 11
65.85911999999999
 21
550.873
 31
0.0
  0
LINE
  5
2D6
330
1E
100
AcDbEntity
  8
0
100
AcDbLine
 10
65.85911999999999
 20
550.873
 30
0.0
 11
68.43371999999999
 21
549.788
 31
0.0
  0
LINE
  5
2D9
330
1E
100
AcDbEntity
  8
0
100
AcDbLine
 10
72.51722
 20
545.3369999999999
 30
0.0
 11
73.38890000000001
 21
542.9109999999999
 31
0.0
  0
LINE
  5
2DA
330
1E
100
AcDbEntity
  8
0
100
AcDbLine
 10
70.80852
 20
547.8189999999999
 30
0.0
 11
72.51722
 21
545.3369999999999
 31
0.0
  0
LINE
  5
2DB
330
1E
100
AcDbEntity
  8
0
100
AcDbLine
 10
76.66800000000001
 20
547.7669999999999
 30
0.0
 11
76.66800000000001
 21
546.9680000000001
 31
0.0
  0
LINE
  5
2DD
330
1E
100
AcDbEntity
  8
0
100
AcDbLine
 10
76.3077
 20
548.186
 30
0.0
 11
76.66800000000001
 21
547.7669999999999
 31
0.0
  0
LINE
  5
2DE
330
1E
100
AcDbEntity
  8
0
100
AcDbLine
 10
75.4681
 20
548.725
 30
0.0
 11
76.3077
 21
548.186
 31
0.0
  0
LINE
  5
2E0
330
1E
100
AcDbEntity
  8
0
100
AcDbLine
 10
69.79442
 20
551.849
 30
0.0
 11
73.13120000000001
 21
550.039
 31
0.0
  0
LINE
  5
2E1
330
1E
100
AcDbEntity
  8
0
100
AcDbLine
 10
73.13120000000001
 20
550.039
 30
0.0
 11
75.4681
 21
548.725
 31
0.0
  0
LINE
  5
2E2
330
1E
100
AcDbEntity
  8
0
100
AcDbLine
 10
68.43371999999999
 20
549.788
 30
0.0
 11
70.80852
 21
547.8189999999999
 31
0.0
  0
LINE
  5
2E5
330
1E
100
AcDbEntity
  8
0
100
AcDbLine
 10
62.750016
 20
578.0289999999999
 30
0.0
 11
72.98999999999999
 21
576.611
 31
0.0
  0
LINE
  5
2E6
330
1E
100
AcDbEntity
  8
0
100
AcDbLine
 10
62.750016
 20
576.58
 30
0.0
 11
72.47802
 21
575.233
 31
0.0
  0
LINE
  5
2E7
330
1E
100
AcDbEntity
  8
0
100
AcDbLine
 10
63.477416
 20
555.0309999999999
 30
0.0
 11
64.39832
 21
554.6559999999999
 31
0.0
  0
LINE
  5
2E8
330
1E
100
AcDbEntity
  8
0
100
AcDbLine
 10
72.98999999999999
 20
576.611
 30
0.0
 11
82.59
 21
572.829
 31
0.0
  0
LINE
  5
2E9
330
1E
100
AcDbEntity
  8
0
100
AcDbLine
 10
72.47802
 20
575.233
 30
0.0
 11
81.598
 21
571.6409999999999
 31
0.0
  0
LINE
  5
2EA
330
1E
100
AcDbEntity
  8
0
100
AcDbLine
 10
64.39832
 20
554.6559999999999
 30
0.0
 11
66.47592
 21
553.618
 31
0.0
  0
LINE
  5
2EB
330
1E
100
AcDbEntity
  8
0
100
AcDbLine
 10
66.47592
 20
553.618
 30
0.0
 11
69.79442
 21
551.849
 31
0.0
  0
LINE
  5
2EC
330
1E
100
AcDbEntity
  8
0
100
AcDbLine
 10
76.66800000000001
 20
546.9680000000001
 30
0.0
 11
76.66800000000001
 21
547.7669999999999
 31
0.0
  0
LINE
  5
2ED
330
1E
100
AcDbEntity
  8
0
100
AcDbLine
 10
76.66800000000001
 20
546.9680000000001
 30
0.0
 11
76.66800000000001
 21
543.899
 31
0.0
  0
LINE
  5
2EE
330
1E
100
AcDbEntity
  8
0
100
AcDbLine
 10
76.66800000000001
 20
543.899
 30
0.0
 11
76.66800000000001
 21
546.9680000000001
 31
0.0
  0
LINE
  5
2EF
330
1E
100
AcDbEntity
  8
0
100
AcDbLine
 10
76.66800000000001
 20
543.899
 30
0.0
 11
76.66800000000001
 21
540.5269999999999
 31
0.0
  0
LINE
  5
2F3
330
1E
100
AcDbEntity
  8
0
100
AcDbLine
 10
79.03399999999999
 20
253.7059999999999
 30
0.0
 11
82.71399999999999
 21
252.859
 31
0.0
  0
LINE
  5
2F5
330
1E
100
AcDbEntity
  8
0
100
AcDbLine
 10
77.618
 20
302.7009999999999
 30
0.0
 11
80.97800000000001
 21
301.928
 31
0.0
  0
LINE
  5
2F7
330
1E
100
AcDbEntity
  8
0
100
AcDbLine
 10
79.03399999999999
 20
283.2499999999999
 30
0.0
 11
82.71399999999999
 21
282.404
 31
0.0
  0
LINE
  5
2FA
330
1E
100
AcDbEntity
  8
0
100
AcDbLine
 10
80.97800000000001
 20
301.928
 30
0.0
 11
82.994
 21
301.052
 31
0.0
  0
LINE
  5
2FC
330
1E
100
AcDbEntity
  8
0
100
AcDbLine
 10
80.75000000000001
 20
301.9804535714289
 30
0.0
 11
80.75000000000001
 21
419.143
 31
0.0
  0
LINE
  5
2FD
330
1E
100
AcDbEntity
  8
0
100
AcDbLine
 10
77.618
 20
421.7249999999999
 30
0.0
 11
80.97800000000001
 21
420.952
 31
0.0
  0
LINE
  5
2FE
330
1E
100
AcDbEntity
  8
0
100
AcDbLine
 10
80.75000000000001
 20
417.281546428571
 30
0.0
 11
80.97800000000001
 21
417.334
 31
0.0
  0
LINE
  5
2FF
330
1E
100
AcDbEntity
  8
0
100
AcDbLine
 10
76.777761037939
 20
500.619220025571
 30
0.0
 11
82.59
 21
502.909
 31
0.0
  0
LINE
  5
300
330
1E
100
AcDbEntity
  8
0
100
AcDbLine
 10
77.618
 20
500.509
 30
0.0
 11
80.97800000000001
 21
499.7359999999999
 31
0.0
  0
LINE
  5
301
330
1E
100
AcDbEntity
  8
0
100
AcDbLine
 10
77.75
 20
500.4786321428569
 30
0.0
 11
77.75
 21
501.002241666667
 31
0.0
  0
LINE
  5
302
330
1E
100
AcDbEntity
  8
0
100
AcDbLine
 10
80.97800000000001
 20
420.952
 30
0.0
 11
82.994
 21
420.0759999999999
 31
0.0
  0
LINE
  5
303
330
1E
100
AcDbEntity
  8
0
100
AcDbLine
 10
80.97800000000001
 20
499.7359999999999
 30
0.0
 11
82.994
 21
498.861
 31
0.0
  0
LINE
  5
304
330
1E
100
AcDbEntity
  8
0
100
AcDbLine
 10
80.97800000000001
 20
417.334
 30
0.0
 11
82.994
 21
418.209
 31
0.0
  0
LINE
  5
305
330
1E
100
AcDbEntity
  8
0
100
AcDbLine
 10
81.3194209020302
 20
502.408444776196
 30
0.0
 11
81.87879999999999
 21
502.415
 31
0.0
  0
LINE
  5
306
330
1E
100
AcDbEntity
  8
0
100
AcDbLine
 10
80.75000000000001
 20
413.28604875
 30
0.0
 11
81.87879999999999
 21
413.3759999999999
 31
0.0
  0
LINE
  5
307
330
1E
100
AcDbEntity
  8
0
100
AcDbLine
 10
80.75000000000001
 20
407.7858331249999
 30
0.0
 11
81.87879999999999
 21
407.695
 31
0.0
  0
LINE
  5
30A
330
1E
100
AcDbEntity
  8
0
100
AcDbLine
 10
82.71399999999999
 20
252.859
 30
0.0
 11
84.92200000000002
 21
251.9009999999999
 31
0.0
  0
LINE
  5
30B
330
1E
100
AcDbEntity
  8
0
100
AcDbLine
 10
82.71399999999999
 20
282.404
 30
0.0
 11
84.92200000000002
 21
281.4449999999999
 31
0.0
  0
LINE
  5
30D
330
1E
100
AcDbEntity
  8
0
100
AcDbLine
 10
82.75
 20
248.912635869565
 30
0.0
 11
84.92200000000002
 21
249.8559999999999
 31
0.0
  0
LINE
  5
30F
330
1E
100
AcDbEntity
  8
0
100
AcDbLine
 10
82.994
 20
301.052
 30
0.0
 11
83.75
 21
300.119
 31
0.0
  0
LINE
  5
311
330
1E
100
AcDbEntity
  8
0
100
AcDbLine
 10
82.75
 20
250.8779999999999
 30
0.0
 11
82.75
 21
152.649
 31
0.0
  0
LINE
  5
313
330
1E
100
AcDbEntity
  8
0
100
AcDbLine
 10
83.15879999999999
 20
407.798
 30
0.0
 11
84.3588
 21
408.0709999999999
 31
0.0
  0
LINE
  5
314
330
1E
100
AcDbEntity
  8
0
100
AcDbLine
 10
81.87879999999999
 20
407.695
 30
0.0
 11
83.15879999999999
 21
407.798
 31
0.0
  0
LINE
  5
316
330
1E
100
AcDbEntity
  8
0
100
AcDbLine
 10
84.92200000000002
 20
251.9009999999999
 30
0.0
 11
85.75000000000001
 21
250.8779999999999
 31
0.0
  0
LINE
  5
317
330
1E
100
AcDbEntity
  8
0
100
AcDbLine
 10
83.75
 20
281.9540344202899
 30
0.0
 11
83.75
 21
300.119
 31
0.0
  0
LINE
  5
318
330
1E
100
AcDbEntity
  8
0
100
AcDbLine
 10
84.92200000000002
 20
281.4449999999999
 30
0.0
 11
85.75000000000001
 21
280.423
 31
0.0
  0
LINE
  5
31A
330
1E
100
AcDbEntity
  8
0
100
AcDbLine
 10
84.92200000000002
 20
249.8559999999999
 30
0.0
 11
85.75000000000001
 21
250.8779999999999
 31
0.0
  0
LINE
  5
31B
330
1E
100
AcDbEntity
  8
0
100
AcDbLine
 10
85.4188
 20
408.525
 30
0.0
 11
86.2188
 21
409.1269999999999
 31
0.0
  0
LINE
  5
31C
330
1E
100
AcDbEntity
  8
0
100
AcDbLine
 10
84.3588
 20
408.0709999999999
 30
0.0
 11
85.4188
 21
408.525
 31
0.0
  0
LINE
  5
31D
330
1E
100
AcDbEntity
  8
0
100
AcDbLine
 10
85.75000000000001
 20
250.8779999999999
 30
0.0
 11
85.75000000000001
 21
280.423
 31
0.0
  0
LINE
  5
31E
330
1E
100
AcDbEntity
  8
0
100
AcDbLine
 10
85.75000000000001
 20
280.423
 30
0.0
 11
85.75000000000001
 21
250.8779999999999
 31
0.0
  0
LINE
  5
31F
330
1E
100
AcDbEntity
  8
0
100
AcDbLine
 10
86.6988
 20
409.809
 30
0.0
 11
86.87879999999999
 21
410.536
 31
0.0
  0
LINE
  5
320
330
1E
100
AcDbEntity
  8
0
100
AcDbLine
 10
86.2188
 20
409.1269999999999
 30
0.0
 11
86.6988
 21
409.809
 31
0.0
  0
LINE
  5
321
330
1E
100
AcDbEntity
  8
0
100
AcDbLine
 10
86.6988
 20
411.263
 30
0.0
 11
86.87879999999999
 21
410.536
 31
0.0
  0
LINE
  5
322
330
1E
100
AcDbEntity
  8
0
100
AcDbLine
 10
86.87879999999999
 20
410.536
 30
0.0
 11
86.87879999999999
 21
501.979
 31
0.0
  0
LINE
  5
323
330
1E
100
AcDbEntity
  8
0
100
AcDbLine
 10
86.2188
 20
411.9439999999999
 30
0.0
 11
86.6988
 21
411.263
 31
0.0
  0
LINE
  5
324
330
1E
100
AcDbEntity
  8
0
100
AcDbLine
 10
85.4188
 20
412.5469999999999
 30
0.0
 11
86.2188
 21
411.9439999999999
 31
0.0
  0
LINE
  5
325
330
1E
100
AcDbEntity
  8
0
100
AcDbLine
 10
84.3588
 20
413.0009999999999
 30
0.0
 11
85.4188
 21
412.5469999999999
 31
0.0
  0
LINE
  5
326
330
1E
100
AcDbEntity
  8
0
100
AcDbLine
 10
83.15879999999999
 20
413.274
 30
0.0
 11
84.3588
 21
413.0009999999999
 31
0.0
  0
LINE
  5
327
330
1E
100
AcDbEntity
  8
0
100
AcDbLine
 10
82.994
 20
420.0759999999999
 30
0.0
 11
83.75
 21
419.143
 31
0.0
  0
LINE
  5
328
330
1E
100
AcDbEntity
  8
0
100
AcDbLine
 10
82.994
 20
498.861
 30
0.0
 11
83.75
 21
497.9269999999999
 31
0.0
  0
LINE
  5
329
330
1E
100
AcDbEntity
  8
0
100
AcDbLine
 10
83.75
 20
419.143
 30
0.0
 11
83.75
 21
497.9269999999999
 31
0.0
  0
LINE
  5
32A
330
1E
100
AcDbEntity
  8
0
100
AcDbLine
 10
82.994
 20
418.209
 30
0.0
 11
83.75
 21
419.143
 31
0.0
  0
LINE
  5
32B
330
1E
100
AcDbEntity
  8
0
100
AcDbLine
 10
90.55480000000001
 20
501.7789999999999
 30
0.0
 11
90.8788
 21
501.979
 31
0.0
  0
LINE
  5
32C
330
1E
100
AcDbEntity
  8
0
100
AcDbLine
 10
89.69079999999999
 20
501.59
 30
0.0
 11
90.55480000000001
 21
501.7789999999999
 31
0.0
  0
LINE
  5
32D
330
1E
100
AcDbEntity
  8
0
100
AcDbLine
 10
88.25079999999999
 20
501.424
 30
0.0
 11
89.69079999999999
 21
501.59
 31
0.0
  0
LINE
  5
32E
330
1E
100
AcDbEntity
  8
0
100
AcDbLine
 10
86.87879999999999
 20
501.334115303983
 30
0.0
 11
88.25079999999999
 21
501.424
 31
0.0
  0
LINE
  5
32F
330
1E
100
AcDbEntity
  8
0
100
AcDbLine
 10
90.8788
 20
501.979
 30
0.0
 11
90.8788
 21
509.069885188679
 31
0.0
  0
LINE
  5
330
330
1E
100
AcDbEntity
  8
0
100
AcDbLine
 10
90.55480000000001
 20
502.1799999999999
 30
0.0
 11
90.8788
 21
501.979
 31
0.0
  0
LINE
  5
331
330
1E
100
AcDbEntity
  8
0
100
AcDbLine
 10
86.6988
 20
502.0909999999999
 30
0.0
 11
86.87879999999999
 21
501.979
 31
0.0
  0
LINE
  5
332
330
1E
100
AcDbEntity
  8
0
100
AcDbLine
 10
86.2188
 20
502.1959999999999
 30
0.0
 11
86.6988
 21
502.0909999999999
 31
0.0
  0
LINE
  5
333
330
1E
100
AcDbEntity
  8
0
100
AcDbLine
 10
89.69079999999999
 20
502.369
 30
0.0
 11
90.55480000000001
 21
502.1799999999999
 31
0.0
  0
LINE
  5
334
330
1E
100
AcDbEntity
  8
0
100
AcDbLine
 10
85.4188
 20
502.2879999999999
 30
0.0
 11
86.2188
 21
502.1959999999999
 31
0.0
  0
LINE
  5
335
330
1E
100
AcDbEntity
  8
0
100
AcDbLine
 10
84.3588
 20
502.3579999999999
 30
0.0
 11
85.4188
 21
502.2879999999999
 31
0.0
  0
LINE
  5
336
330
1E
100
AcDbEntity
  8
0
100
AcDbLine
 10
88.25079999999999
 20
502.535
 30
0.0
 11
89.69079999999999
 21
502.369
 31
0.0
  0
LINE
  5
337
330
1E
100
AcDbEntity
  8
0
100
AcDbLine
 10
86.3428
 20
502.66
 30
0.0
 11
88.25079999999999
 21
502.535
 31
0.0
  0
LINE
  5
338
330
1E
100
AcDbEntity
  8
0
100
AcDbLine
 10
82.59
 20
502.909
 30
0.0
 11
91.06999999999999
 21
509.212
 31
0.0
  0
LINE
  5
339
330
1E
100
AcDbEntity
  8
0
100
AcDbLine
 10
82.59
 20
504.444
 30
0.0
 11
91.06999999999999
 21
510.7469999999999
 31
0.0
  0
LINE
  5
33A
330
1E
100
AcDbEntity
  8
0
100
AcDbLine
 10
84.18280000000001
 20
502.7359999999999
 30
0.0
 11
86.3428
 21
502.66
 31
0.0
  0
LINE
  5
33B
330
1E
100
AcDbEntity
  8
0
100
AcDbLine
 10
82.21167236662109
 20
502.7599546761
 30
0.0
 11
84.18280000000001
 21
502.7359999999999
 31
0.0
  0
LINE
  5
33C
330
1E
100
AcDbEntity
  8
0
100
AcDbLine
 10
83.15879999999999
 20
502.4
 30
0.0
 11
84.3588
 21
502.3579999999999
 31
0.0
  0
LINE
  5
33D
330
1E
100
AcDbEntity
  8
0
100
AcDbLine
 10
81.87879999999999
 20
502.415
 30
0.0
 11
83.15879999999999
 21
502.4
 31
0.0
  0
LINE
  5
33E
330
1E
100
AcDbEntity
  8
0
100
AcDbLine
 10
81.87879999999999
 20
413.3759999999999
 30
0.0
 11
83.15879999999999
 21
413.274
 31
0.0
  0
LINE
  5
33F
330
1E
100
AcDbEntity
  8
0
100
AcDbLine
 10
81.598
 20
506.254
 30
0.0
 11
89.654
 21
512.2419999999999
 31
0.0
  0
LINE
  5
340
330
1E
100
AcDbEntity
  8
0
100
AcDbLine
 10
82.59
 20
572.829
 30
0.0
 11
91.06999999999999
 21
566.5259999999999
 31
0.0
  0
LINE
  5
341
330
1E
100
AcDbEntity
  8
0
100
AcDbLine
 10
81.598
 20
571.6409999999999
 30
0.0
 11
89.654
 21
565.653
 31
0.0
  0
LINE
  5
342
330
1E
100
AcDbEntity
  8
0
100
AcDbLine
 10
89.654
 20
512.2419999999999
 30
0.0
 11
95.73399999999999
 21
520.1759999999999
 31
0.0
  0
LINE
  5
343
330
1E
100
AcDbEntity
  8
0
100
AcDbLine
 10
91.06999999999999
 20
509.212
 30
0.0
 11
97.46999999999999
 21
517.5629999999999
 31
0.0
  0
LINE
  5
344
330
1E
100
AcDbEntity
  8
0
100
AcDbLine
 10
91.06999999999999
 20
510.7469999999999
 30
0.0
 11
97.46999999999999
 21
519.098
 31
0.0
  0
LINE
  5
345
330
1E
100
AcDbEntity
  8
0
100
AcDbLine
 10
90.8788
 20
509.069885188679
 30
0.0
 11
90.8788
 21
501.979
 31
0.0
  0
LINE
  5
346
330
1E
100
AcDbEntity
  8
0
100
AcDbLine
 10
97.46999999999999
 20
517.5629999999999
 30
0.0
 11
101.31
 21
527.0169999999999
 31
0.0
  0
LINE
  5
347
330
1E
100
AcDbEntity
  8
0
100
AcDbLine
 10
97.46999999999999
 20
519.098
 30
0.0
 11
101.31
 21
528.5519999999999
 31
0.0
  0
LINE
  5
348
330
1E
100
AcDbEntity
  8
0
100
AcDbLine
 10
95.73399999999999
 20
520.1759999999999
 30
0.0
 11
99.38200000000001
 21
529.1569999999999
 31
0.0
  0
LINE
  5
349
330
1E
100
AcDbEntity
  8
0
100
AcDbLine
 10
99.38200000000001
 20
548.738
 30
0.0
 11
100.75
 21
539.158
 31
0.0
  0
LINE
  5
34A
330
1E
100
AcDbEntity
  8
0
100
AcDbLine
 10
97.46999999999999
 20
558.1749999999999
 30
0.0
 11
101.31
 21
548.721
 31
0.0
  0
LINE
  5
34B
330
1E
100
AcDbEntity
  8
0
100
AcDbLine
 10
91.06999999999999
 20
566.5259999999999
 30
0.0
 11
97.46999999999999
 21
558.1749999999999
 31
0.0
  0
LINE
  5
34C
330
1E
100
AcDbEntity
  8
0
100
AcDbLine
 10
95.73399999999999
 20
557.719
 30
0.0
 11
99.38200000000001
 21
548.738
 31
0.0
  0
LINE
  5
34D
330
1E
100
AcDbEntity
  8
0
100
AcDbLine
 10
89.654
 20
565.653
 30
0.0
 11
95.73399999999999
 21
557.719
 31
0.0
  0
LINE
  5
34E
330
1E
100
AcDbEntity
  8
0
100
AcDbLine
 10
99.38200000000001
 20
529.1569999999999
 30
0.0
 11
100.75
 21
538.7369999999999
 31
0.0
  0
LINE
  5
34F
330
1E
100
AcDbEntity
  8
0
100
AcDbLine
 10
101.31
 20
527.0169999999999
 30
0.0
 11
102.75
 21
537.1019999999999
 31
0.0
  0
LINE
  5
350
330
1E
100
AcDbEntity
  8
0
100
AcDbLine
 10
102.75
 20
538.6369999999999
 30
0.0
 11
102.75
 21
537.1019999999999
 31
0.0
  0
LINE
  5
351
330
1E
100
AcDbEntity
  8
0
100
AcDbLine
 10
102.75
 20
537.1019999999999
 30
0.0
 11
102.75
 21
538.6369999999999
 31
0.0
  0
LINE
  5
352
330
1E
100
AcDbEntity
  8
0
100
AcDbLine
 10
101.31
 20
528.5519999999999
 30
0.0
 11
102.75
 21
538.6369999999999
 31
0.0
  0
LINE
  5
353
330
1E
100
AcDbEntity
  8
0
100
AcDbLine
 10
100.75
 20
538.7369999999999
 30
0.0
 11
100.75
 21
539.158
 31
0.0
  0
LINE
  5
354
330
1E
100
AcDbEntity
  8
0
100
AcDbLine
 10
101.31
 20
548.721
 30
0.0
 11
102.75
 21
538.6369999999999
 31
0.0
  0
LINE
  5
355
330
1E
100
AcDbEntity
  8
0
100
AcDbLine
 10
100.75
 20
539.158
 30
0.0
 11
100.75
 21
538.7369999999999
 31
0.0
  0
LINE
  5
356
330
1E
100
AcDbEntity
  8
0
100
AcDbLine
 10
99.38200000000001
 20
529.577
 30
0.0
 11
100.75
 21
539.158
 31
0.0
  0
LINE
  5
357
330
1E
100
AcDbEntity
  8
0
100
AcDbLine
 10
95.73399999999999
 20
520.596
 30
0.0
 11
99.38200000000001
 21
529.577
 31
0.0
  0
LINE
  5
358
330
1E
100
AcDbEntity
  8
0
100
AcDbLine
 10
89.654
 20
512.6619999999999
 30
0.0
 11
95.73399999999999
 21
520.596
 31
0.0
  0
LINE
  5
359
330
1E
100
AcDbEntity
  8
0
100
AcDbLine
 10
81.598
 20
506.6749999999999
 30
0.0
 11
89.654
 21
512.6619999999999
 31
0.0
  0
LINE
  5
35A
330
1E
100
AcDbEntity
  8
0
100
AcDbLine
 10
76.66800000000001
 20
540.5269999999999
 30
0.0
 11
76.66800000000001
 21
543.899
 31
0.0
  0
LINE
  5
35B
330
1E
100
AcDbEntity
  8
0
100
AcDbLine
 10
76.66800000000001
 20
540.5269999999999
 30
0.0
 11
76.66800000000001
 21
537.131
 31
0.0
  0
LINE
  5
35C
330
1E
100
AcDbEntity
  8
0
100
AcDbLine
 10
71.70999999999999
 20
152.649
 30
0.0
 11
80.11000000000001
 21
152.649
 31
0.0
  0
LINE
  5
35D
330
1E
100
AcDbEntity
  8
0
100
AcDbLine
 10
62.75
 20
152.649
 30
0.0
 11
71.70999999999999
 21
152.649
 31
0.0
  0
LINE
  5
35E
330
1E
100
AcDbEntity
  8
0
100
AcDbLine
 10
55.838
 20
150.649
 30
0.0
 11
62.75
 21
150.649
 31
0.0
  0
LINE
  5
35F
330
1E
100
AcDbEntity
  8
0
100
AcDbLine
 10
53.79
 20
150.649
 30
0.0
 11
62.75
 21
150.649
 31
0.0
  0
LINE
  5
360
330
1E
100
AcDbEntity
  8
0
100
AcDbLine
 10
35.75
 20
140.6489999999999
 30
0.0
 11
35.75
 21
150.649
 31
0.0
  0
LINE
  5
361
330
1E
100
AcDbEntity
  8
0
100
AcDbLine
 10
32.37
 20
150.649
 30
0.0
 11
35.75
 21
150.649
 31
0.0
  0
LINE
  5
362
330
1E
100
AcDbEntity
  8
0
100
AcDbLine
 10
32.37
 20
150.649
 30
0.0
 11
37.97
 21
150.649
 31
0.0
  0
LINE
  5
367
330
1E
100
AcDbEntity
  8
0
100
AcDbLine
 10
89.74999999999999
 20
31.611
 30
0.0
 11
89.10200000000001
 21
30.649
 31
0.0
  0
ENDSEC
  0
SECTION
  2
OBJECTS
  0
DICTIONARY
  5
C
330
0
100
AcDbDictionary
281
     1
  3
ACAD_GROUP
350
D
  3
ACAD_LAYOUT
350
19
  3
ACAD_MLINESTYLE
350
16
  3
ACAD_PLOTSETTINGS
350
18
  3
ACAD_PLOTSTYLENAME
350
E
  3
AcDbVariableDictionary
350
368
  0
DICTIONARY
  5
D
102
{ACAD_REACTORS
330
C
102
}
330
C
100
AcDbDictionary
281
     1
  0
DICTIONARY
  5
19
102
{ACAD_REACTORS
330
C
102
}
330
C
100
AcDbDictionary
281
     1
  3
Layout1
350
1D
  3
Model
350
21
  0
DICTIONARY
  5
16
102
{ACAD_REACTORS
330
C
102
}
330
C
100
AcDbDictionary
281
     1
  3
Standard
350
17
  0
DICTIONARY
  5
18
102
{ACAD_REACTORS
330
C
102
}
330
C
100
AcDbDictionary
281
     1
  0
ACDBDICTIONARYWDFLT
  5
E
102
{ACAD_REACTORS
330
C
102
}
330
C
100
AcDbDictionary
281
     1
  3
Normal
350
F
100
AcDbDictionaryWithDefault
340
F
  0
DICTIONARY
  5
368
102
{ACAD_REACTORS
330
C
102
}
330
C
100
AcDbDictionary
281
     1
  3
DIMASSOC
350
369
  0
LAYOUT
  5
1D
102
{ACAD_REACTORS
330
19
102
}
330
19
100
AcDbPlotSettings
  1

  2
hp deskjet 980c series
  4

  6

 40
0.0
 41
0.0
 42
0.0
 43
0.0
 44
0.0
 45
0.0
 46
0.0
 47
0.0
 48
0.0
 49
0.0
140
0.0
141
0.0
142
1.0
143
1.0
 70
   688
 72
     0
 73
     0
 74
     5
  7

 75
    16
147
1.0
148
0.0
149
0.0
100
AcDbLayout
  1
Layout1
 70
     1
 71
     1
 10
0.0
 20
0.0
 11
12.0
 21
9.0
 12
0.0
 22
0.0
 32
0.0
 14
1.000000000000000E+20
 24
1.000000000000000E+20
 34
1.000000000000000E+20
 15
-1.000000000000000E+20
 25
-1.000000000000000E+20
 35
-1.000000000000000E+20
146
0.0
 13
0.0
 23
0.0
 33
0.0
 16
1.0
 26
0.0
 36
0.0
 17
0.0
 27
1.0
 37
0.0
 76
     0
330
1A
  0
LAYOUT
  5
21
102
{ACAD_REACTORS
330
19
102
}
330
19
100
AcDbPlotSettings
  1

  2
hp deskjet 980c series
  4

  6

 40
0.0
 41
0.0
 42
0.0
 43
0.0
 44
0.0
 45
0.0
 46
0.0
 47
0.0
 48
0.0
 49
0.0
140
0.0
141
0.0
142
1.0
143
1.0
 70
  1712
 72
     0
 73
     0
 74
     0
  7

 75
     0
147
1.0
148
0.0
149
0.0
100
AcDbLayout
  1
Model
 70
     1
 71
     0
 10
0.0
 20
0.0
 11
12.0
 21
9.0
 12
0.0
 22
0.0
 32
0.0
 14
0.0
 24
0.0
 34
0.0
 15
0.0
 25
0.0
 35
0.0
146
0.0
 13
0.0
 23
0.0
 33
0.0
 16
1.0
 26
0.0
 36
0.0
 17
0.0
 27
1.0
 37
0.0
 76
     0
330
1E
  0
MLINESTYLE
  5
17
102
{ACAD_REACTORS
330
16
102
}
330
16
100
AcDbMlineStyle
  2
STANDARD
 70
     0
  3

 62
   256
 51
90.0
 52
90.0
 71
     2
 49
0.5
 62
   256
  6
BYLAYER
 49
-0.5
 62
   256
  6
BYLAYER
  0
ACDBPLACEHOLDER
  5
F
102
{ACAD_REACTORS
330
E
102
}
330
E
  0
DICTIONARYVAR
  5
369
102
{ACAD_REACTORS
330
368
102
}
330
368
100
DictionaryVariables
280
     0
  1
1
  0
ENDSEC
  0
EOF
