  0
SECTION
  2
HEADER
  9
$ACADVER
  1
AC1015
  9
$ACADMAINTVER
 70
    13
  9
$DWGCODEPAGE
  3
ANSI_1252
  9
$INSBASE
 10
0.0
 20
0.0
 30
0.0
  9
$EXTMIN
 10
0.188749999999908
 20
-0.029000000000007
 30
0.0
  9
$EXTMAX
 10
574.8112499999999
 20
578.0289999999999
 30
0.0
  9
$LIMMIN
 10
0.0
 20
0.0
  9
$LIMMAX
 10
12.0
 20
9.0
  9
$ORTHOMODE
 70
     0
  9
$REGENMODE
 70
     1
  9
$FILLMODE
 70
     1
  9
$QTEXTMODE
 70
     0
  9
$MIRRTEXT
 70
     1
  9
$LTSCALE
 40
1.0
  9
$ATTMODE
 70
     1
  9
$TEXTSIZE
 40
0.2
  9
$TRACEWID
 40
0.05
  9
$TEXTSTYLE
  7
Standard
  9
$CLAYER
  8
0
  9
$CELTYPE
  6
Continuous
  9
$CECOLOR
 62
   256
  9
$CELTSCALE
 40
1.0
  9
$DISPSILH
 70
     0
  9
$DIMSCALE
 40
1.0
  9
$DIMASZ
 40
0.18
  9
$DIMEXO
 40
0.0625
  9
$DIMDLI
 40
0.38
  9
$DIMRND
 40
0.0
  9
$DIMDLE
 40
0.0
  9
$DIMEXE
 40
0.18
  9
$DIMTP
 40
0.0
  9
$DIMTM
 40
0.0
  9
$DIMTXT
 40
0.18
  9
$DIMCEN
 40
0.09
  9
$DIMTSZ
 40
0.0
  9
$DIMTOL
 70
     0
  9
$DIMLIM
 70
     0
  9
$DIMTIH
 70
     1
  9
$DIMTOH
 70
     1
  9
$DIMSE1
 70
     0
  9
$DIMSE2
 70
     0
  9
$DIMTAD
 70
     0
  9
$DIMZIN
 70
     0
  9
$DIMBLK
  1

  9
$DIMASO
 70
     1
  9
$DIMSHO
 70
     1
  9
$DIMPOST
  1

  9
$DIMAPOST
  1

  9
$DIMALT
 70
     0
  9
$DIMALTD
 70
     2
  9
$DIMALTF
 40
25.4
  9
$DIMLFAC
 40
1.0
  9
$DIMTOFL
 70
     0
  9
$DIMTVP
 40
0.0
  9
$DIMTIX
 70
     0
  9
$DIMSOXD
 70
     0
  9
$DIMSAH
 70
     0
  9
$DIMBLK1
  1

  9
$DIMBLK2
  1

  9
$DIMSTYLE
  2
Standard
  9
$DIMCLRD
 70
     0
  9
$DIMCLRE
 70
     0
  9
$DIMCLRT
 70
     0
  9
$DIMTFAC
 40
1.0
  9
$DIMGAP
 40
0.09
  9
$DIMJUST
 70
     0
  9
$DIMSD1
 70
     0
  9
$DIMSD2
 70
     0
  9
$DIMTOLJ
 70
     1
  9
$DIMTZIN
 70
     0
  9
$DIMALTZ
 70
     0
  9
$DIMALTTZ
 70
     0
  9
$DIMUPT
 70
     0
  9
$DIMDEC
 70
     4
  9
$DIMTDEC
 70
     4
  9
$DIMALTU
 70
     2
  9
$DIMALTTD
 70
     2
  9
$DIMTXSTY
  7
Standard
  9
$DIMAUNIT
 70
     0
  9
$DIMADEC
 70
     0
  9
$DIMALTRND
 40
0.0
  9
$DIMAZIN
 70
     0
  9
$DIMDSEP
 70
    46
  9
$DIMATFIT
 70
     3
  9
$DIMFRAC
 70
     0
  9
$DIMLDRBLK
  1

  9
$DIMLUNIT
 70
     2
  9
$DIMLWD
 70
    -2
  9
$DIMLWE
 70
    -2
  9
$DIMTMOVE
 70
     0
  9
$LUNITS
 70
     2
  9
$LUPREC
 70
     4
  9
$SKETCHINC
 40
0.1
  9
$FILLETRAD
 40
0.0
  9
$AUNITS
 70
     0
  9
$AUPREC
 70
     0
  9
$MENU
  1
.
  9
$ELEVATION
 40
0.0
  9
$PELEVATION
 40
0.0
  9
$THICKNESS
 40
0.0
  9
$LIMCHECK
 70
     0
  9
$CHAMFERA
 40
0.0
  9
$CHAMFERB
 40
0.0
  9
$CHAMFERC
 40
0.0
  9
$CHAMFERD
 40
0.0
  9
$SKPOLY
 70
     0
  9
$TDCREATE
 40
2454781.444627812
  9
$TDUCREATE
 40
2454781.402961145
  9
$TDUPDATE
 40
2454781.454164491
  9
$TDUUPDATE
 40
2454781.412497824
  9
$TDINDWG
 40
0.0095368634
  9
$TDUSRTIMER
 40
0.0095368634
  9
$USRTIMER
 70
     1
  9
$ANGBASE
 50
0.0
  9
$ANGDIR
 70
     0
  9
$PDMODE
 70
     0
  9
$PDSIZE
 40
0.0
  9
$PLINEWID
 40
0.0
  9
$SPLFRAME
 70
     0
  9
$SPLINETYPE
 70
     6
  9
$SPLINESEGS
 70
     8
  9
$HANDSEED
  5
56E
  9
$SURFTAB1
 70
     6
  9
$SURFTAB2
 70
     6
  9
$SURFTYPE
 70
     6
  9
$SURFU
 70
     6
  9
$SURFV
 70
     6
  9
$UCSBASE
  2

  9
$UCSNAME
  2

  9
$UCSORG
 10
0.0
 20
0.0
 30
0.0
  9
$UCSXDIR
 10
1.0
 20
0.0
 30
0.0
  9
$UCSYDIR
 10
0.0
 20
1.0
 30
0.0
  9
$UCSORTHOREF
  2

  9
$UCSORTHOVIEW
 70
     1
  9
$UCSORGTOP
 10
0.0
 20
0.0
 30
0.0
  9
$UCSORGBOTTOM
 10
0.0
 20
0.0
 30
0.0
  9
$UCSORGLEFT
 10
0.0
 20
0.0
 30
0.0
  9
$UCSORGRIGHT
 10
0.0
 20
0.0
 30
0.0
  9
$UCSORGFRONT
 10
0.0
 20
0.0
 30
0.0
  9
$UCSORGBACK
 10
0.0
 20
0.0
 30
0.0
  9
$PUCSBASE
  2

  9
$PUCSNAME
  2

  9
$PUCSORG
 10
0.0
 20
0.0
 30
0.0
  9
$PUCSXDIR
 10
1.0
 20
0.0
 30
0.0
  9
$PUCSYDIR
 10
0.0
 20
1.0
 30
0.0
  9
$PUCSORTHOREF
  2

  9
$PUCSORTHOVIEW
 70
     0
  9
$PUCSORGTOP
 10
0.0
 20
0.0
 30
0.0
  9
$PUCSORGBOTTOM
 10
0.0
 20
0.0
 30
0.0
  9
$PUCSORGLEFT
 10
0.0
 20
0.0
 30
0.0
  9
$PUCSORGRIGHT
 10
0.0
 20
0.0
 30
0.0
  9
$PUCSORGFRONT
 10
0.0
 20
0.0
 30
0.0
  9
$PUCSORGBACK
 10
0.0
 20
0.0
 30
0.0
  9
$USERI1
 70
     0
  9
$USERI2
 70
     0
  9
$USERI3
 70
     0
  9
$USERI4
 70
     0
  9
$USERI5
 70
     0
  9
$USERR1
 40
0.0
  9
$USERR2
 40
0.0
  9
$USERR3
 40
0.0
  9
$USERR4
 40
0.0
  9
$USERR5
 40
0.0
  9
$WORLDVIEW
 70
     1
  9
$SHADEDGE
 70
     3
  9
$SHADEDIF
 70
    70
  9
$TILEMODE
 70
     1
  9
$MAXACTVP
 70
    64
  9
$PINSBASE
 10
0.0
 20
0.0
 30
0.0
  9
$PLIMCHECK
 70
     0
  9
$PEXTMIN
 10
1.000000000000000E+20
 20
1.000000000000000E+20
 30
1.000000000000000E+20
  9
$PEXTMAX
 10
-1.000000000000000E+20
 20
-1.000000000000000E+20
 30
-1.000000000000000E+20
  9
$PLIMMIN
 10
0.0
 20
0.0
  9
$PLIMMAX
 10
12.0
 20
9.0
  9
$UNITMODE
 70
     0
  9
$VISRETAIN
 70
     1
  9
$PLINEGEN
 70
     0
  9
$PSLTSCALE
 70
     1
  9
$TREEDEPTH
 70
  3020
  9
$CMLSTYLE
  2
Standard
  9
$CMLJUST
 70
     0
  9
$CMLSCALE
 40
1.0
  9
$PROXYGRAPHICS
 70
     1
  9
$MEASUREMENT
 70
     0
  9
$CELWEIGHT
370
    -1
  9
$ENDCAPS
280
     0
  9
$JOINSTYLE
280
     0
  9
$LWDISPLAY
290
     0
  9
$INSUNITS
 70
     0
  9
$HYPERLINKBASE
  1

  9
$STYLESHEET
  1

  9
$XEDIT
290
     1
  9
$CEPSNTYPE
380
     0
  9
$PSTYLEMODE
290
     1
  9
$FINGERPRINTGUID
  2
{B346BED2-A32A-420F-82A4-35102829E324}
  9
$VERSIONGUID
  2
{E5B20A48-D0AD-44D5-A53D-413D80425671}
  9
$EXTNAMES
290
     1
  9
$PSVPSCALE
 40
0.0
  9
$OLESTARTUP
290
     0
  0
ENDSEC
  0
SECTION
  2
CLASSES
  0
CLASS
  1
ACDBDICTIONARYWDFLT
  2
AcDbDictionaryWithDefault
  3
AutoCAD 2000
 90
        0
280
     0
281
     0
  0
CLASS
  1
ACDBPLACEHOLDER
  2
AcDbPlaceHolder
  3
AutoCAD 2000
 90
        0
280
     0
281
     0
  0
CLASS
  1
LAYOUT
  2
AcDbLayout
  3
AutoCAD 2000
 90
        0
280
     0
281
     0
  0
CLASS
  1
DICTIONARYVAR
  2
AcDbDictionaryVar
  3
AutoCAD 2000
 90
        0
280
     0
281
     0
  0
ENDSEC
  0
SECTION
  2
TABLES
  0
TABLE
  2
VPORT
  5
8
330
0
100
AcDbSymbolTable
 70
     2
  0
VPORT
  5
56D
330
8
100
AcDbSymbolTableRecord
100
AcDbViewportTableRecord
  2
*Active
 70
     0
 10
0.0
 20
0.0
 11
1.0
 21
1.0
 12
287.4999999999999
 22
289.0
 13
0.0
 23
0.0
 14
1.0
 24
1.0
 15
0.0
 25
0.0
 16
0.0
 26
0.0
 36
1.0
 17
0.0
 27
0.0
 37
0.0
 40
582.4932276214833
 41
2.078104993597951
 42
50.0
 43
0.0
 44
0.0
 50
0.0
 51
0.0
 71
     0
 72
   100
 73
     1
 74
     3
 75
     0
 76
     0
 77
     0
 78
     0
281
     0
 65
     1
110
0.0
120
0.0
130
0.0
111
1.0
121
0.0
131
0.0
112
0.0
122
1.0
132
0.0
 79
     1
146
0.0
  0
ENDTAB
  0
TABLE
  2
LTYPE
  5
5
330
0
100
AcDbSymbolTable
 70
     1
  0
LTYPE
  5
13
330
5
100
AcDbSymbolTableRecord
100
AcDbLinetypeTableRecord
  2
ByBlock
 70
     0
  3

 72
    65
 73
     0
 40
0.0
  0
LTYPE
  5
14
330
5
100
AcDbSymbolTableRecord
100
AcDbLinetypeTableRecord
  2
ByLayer
 70
     0
  3

 72
    65
 73
     0
 40
0.0
  0
LTYPE
  5
15
330
5
100
AcDbSymbolTableRecord
100
AcDbLinetypeTableRecord
  2
Continuous
 70
     0
  3
Solid line
 72
    65
 73
     0
 40
0.0
  0
ENDTAB
  0
TABLE
  2
LAYER
  5
2
330
0
100
AcDbSymbolTable
 70
     1
  0
LAYER
  5
10
330
2
100
AcDbSymbolTableRecord
100
AcDbLayerTableRecord
  2
0
 70
     0
 62
     7
  6
Continuous
370
    -3
390
F
  0
ENDTAB
  0
TABLE
  2
STYLE
  5
3
330
0
100
AcDbSymbolTable
 70
     1
  0
STYLE
  5
11
330
3
100
AcDbSymbolTableRecord
100
AcDbTextStyleTableRecord
  2
Standard
 70
     0
 40
0.0
 41
1.0
 50
0.0
 71
     0
 42
0.2
  3
txt
  4

  0
ENDTAB
  0
TABLE
  2
VIEW
  5
6
330
0
100
AcDbSymbolTable
 70
     0
  0
ENDTAB
  0
TABLE
  2
UCS
  5
7
330
0
100
AcDbSymbolTable
 70
     0
  0
ENDTAB
  0
TABLE
  2
APPID
  5
9
330
0
100
AcDbSymbolTable
 70
     1
  0
APPID
  5
12
330
9
100
AcDbSymbolTableRecord
100
AcDbRegAppTableRecord
  2
ACAD
 70
     0
  0
ENDTAB
  0
TABLE
  2
DIMSTYLE
  5
A
330
0
100
AcDbSymbolTable
 70
     1
100
AcDbDimStyleTable
 71
     0
  0
DIMSTYLE
105
567
330
A
100
AcDbSymbolTableRecord
100
AcDbDimStyleTableRecord
  2
Standard
 70
     0
340
11
  0
ENDTAB
  0
TABLE
  2
BLOCK_RECORD
  5
1
330
0
100
AcDbSymbolTable
 70
     0
  0
BLOCK_RECORD
  5
1E
330
1
100
AcDbSymbolTableRecord
100
AcDbBlockTableRecord
  2
*Model_Space
340
21
  0
BLOCK_RECORD
  5
1A
330
1
100
AcDbSymbolTableRecord
100
AcDbBlockTableRecord
  2
*Paper_Space
340
1D
  0
ENDTAB
  0
ENDSEC
  0
SECTION
  2
BLOCKS
  0
BLOCK
  5
1F
330
1E
100
AcDbEntity
  8
0
100
AcDbBlockBegin
  2
*Model_Space
 70
     0
 10
0.0
 20
0.0
 30
0.0
  3
*Model_Space
  1

  0
ENDBLK
  5
20
330
1E
100
AcDbEntity
  8
0
100
AcDbBlockEnd
  0
BLOCK
  5
1B
330
1A
100
AcDbEntity
 67
     1
  8
0
100
AcDbBlockBegin
  2
*Paper_Space
 70
     0
 10
0.0
 20
0.0
 30
0.0
  3
*Paper_Space
  1

  0
ENDBLK
  5
1C
330
1A
100
AcDbEntity
 67
     1
  8
0
100
AcDbBlockEnd
  0
ENDSEC
  0
SECTION
  2
ENTITIES
  0
LINE
  5
22
330
1E
100
AcDbEntity
  8
0
100
AcDbLine
 10
216.1332499999999
 20
85.64899999999999
 30
0.0
 11
216.1332499999999
 21
86.585
 31
0.0
  0
LINE
  5
23
330
1E
100
AcDbEntity
  8
0
100
AcDbLine
 10
216.1332499999999
 20
85.64899999999999
 30
0.0
 11
218.1332499999999
 21
85.64899999999999
 31
0.0
  0
LINE
  5
24
330
1E
100
AcDbEntity
  8
0
100
AcDbLine
 10
202.13325
 20
89.06539999999999
 30
0.0
 11
202.13325
 21
91.64900000000001
 31
0.0
  0
LINE
  5
25
330
1E
100
AcDbEntity
  8
0
100
AcDbLine
 10
202.13325
 20
89.06539999999999
 30
0.0
 11
202.13325
 21
90.06539999999999
 31
0.0
  0
LINE
  5
26
330
1E
100
AcDbEntity
  8
0
100
AcDbLine
 10
202.13325
 20
89.06539999999999
 30
0.0
 11
216.1332499999999
 21
89.06539999999999
 31
0.0
  0
LINE
  5
27
330
1E
100
AcDbEntity
  8
0
100
AcDbLine
 10
202.13325
 20
89.06539999999999
 30
0.0
 11
202.13325
 21
91.66339999999999
 31
0.0
  0
LINE
  5
28
330
1E
100
AcDbEntity
  8
0
100
AcDbLine
 10
202.13325
 20
88.649
 30
0.0
 11
202.13325
 21
89.47700000000001
 31
0.0
  0
LINE
  5
29
330
1E
100
AcDbEntity
  8
0
100
AcDbLine
 10
202.13325
 20
88.649
 30
0.0
 11
216.1332499999999
 21
88.649
 31
0.0
  0
LINE
  5
2A
330
1E
100
AcDbEntity
  8
0
100
AcDbLine
 10
216.1332499999999
 20
89.06539999999999
 30
0.0
 11
216.1332499999999
 21
88.649
 31
0.0
  0
LINE
  5
2B
330
1E
100
AcDbEntity
  8
0
100
AcDbLine
 10
216.1332499999999
 20
89.06539999999999
 30
0.0
 11
216.1332499999999
 21
90.06539999999999
 31
0.0
  0
LINE
  5
2C
330
1E
100
AcDbEntity
  8
0
100
AcDbLine
 10
216.1332499999999
 20
88.649
 30
0.0
 11
216.1332499999999
 21
86.585
 31
0.0
  0
LINE
  5
2D
330
1E
100
AcDbEntity
  8
0
100
AcDbLine
 10
216.1332499999999
 20
88.649
 30
0.0
 11
216.1332499999999
 21
89.06539999999999
 31
0.0
  0
LINE
  5
2E
330
1E
100
AcDbEntity
  8
0
100
AcDbLine
 10
216.1332499999999
 20
86.585
 30
0.0
 11
216.1332499999999
 21
89.08100000000001
 31
0.0
  0
LINE
  5
2F
330
1E
100
AcDbEntity
  8
0
100
AcDbLine
 10
216.1332499999999
 20
86.585
 30
0.0
 11
216.1332499999999
 21
85.64899999999999
 31
0.0
  0
LINE
  5
30
330
1E
100
AcDbEntity
  8
0
100
AcDbLine
 10
216.1332499999999
 20
86.585
 30
0.0
 11
216.1332499999999
 21
88.649
 31
0.0
  0
LINE
  5
31
330
1E
100
AcDbEntity
  8
0
100
AcDbLine
 10
216.1332499999999
 20
89.08100000000001
 30
0.0
 11
216.1332499999999
 21
93.24099999999999
 31
0.0
  0
LINE
  5
32
330
1E
100
AcDbEntity
  8
0
100
AcDbLine
 10
216.1332499999999
 20
89.08100000000001
 30
0.0
 11
216.1332499999999
 21
86.585
 31
0.0
  0
LINE
  5
33
330
1E
100
AcDbEntity
  8
0
100
AcDbLine
 10
218.1332499999999
 20
85.64899999999999
 30
0.0
 11
218.1332499999999
 21
86.585
 31
0.0
  0
LINE
  5
34
330
1E
100
AcDbEntity
  8
0
100
AcDbLine
 10
218.1332499999999
 20
86.585
 30
0.0
 11
218.1332499999999
 21
89.08100000000001
 31
0.0
  0
LINE
  5
35
330
1E
100
AcDbEntity
  8
0
100
AcDbLine
 10
218.1332499999999
 20
86.585
 30
0.0
 11
218.1332499999999
 21
85.64899999999999
 31
0.0
  0
LINE
  5
36
330
1E
100
AcDbEntity
  8
0
100
AcDbLine
 10
123.13325
 20
91.64900000000001
 30
0.0
 11
202.13325
 21
91.64900000000001
 31
0.0
  0
LINE
  5
37
330
1E
100
AcDbEntity
  8
0
100
AcDbLine
 10
180.13325
 20
91.64900000000001
 30
0.0
 11
180.13325
 21
92.369
 31
0.0
  0
LINE
  5
38
330
1E
100
AcDbEntity
  8
0
100
AcDbLine
 10
180.13325
 20
91.64900000000001
 30
0.0
 11
202.13325
 21
91.64900000000001
 31
0.0
  0
LINE
  5
39
330
1E
100
AcDbEntity
  8
0
100
AcDbLine
 10
202.13325
 20
90.06539999999999
 30
0.0
 11
202.13325
 21
89.06539999999999
 31
0.0
  0
LINE
  5
3A
330
1E
100
AcDbEntity
  8
0
100
AcDbLine
 10
202.13325
 20
90.06539999999999
 30
0.0
 11
202.13325
 21
91.64900000000001
 31
0.0
  0
LINE
  5
3B
330
1E
100
AcDbEntity
  8
0
100
AcDbLine
 10
202.13325
 20
90.06539999999999
 30
0.0
 11
216.1332499999999
 21
90.06539999999999
 31
0.0
  0
LINE
  5
3C
330
1E
100
AcDbEntity
  8
0
100
AcDbLine
 10
202.13325
 20
90.06539999999999
 30
0.0
 11
202.13325
 21
92.66339999999999
 31
0.0
  0
LINE
  5
3D
330
1E
100
AcDbEntity
  8
0
100
AcDbLine
 10
202.13325
 20
91.66339999999999
 30
0.0
 11
202.13325
 21
89.06539999999999
 31
0.0
  0
LINE
  5
3E
330
1E
100
AcDbEntity
  8
0
100
AcDbLine
 10
202.13325
 20
91.66339999999999
 30
0.0
 11
202.13325
 21
92.66339999999999
 31
0.0
  0
LINE
  5
3F
330
1E
100
AcDbEntity
  8
0
100
AcDbLine
 10
202.13325
 20
91.64900000000001
 30
0.0
 11
202.13325
 21
89.47700000000001
 31
0.0
  0
LINE
  5
40
330
1E
100
AcDbEntity
  8
0
100
AcDbLine
 10
202.13325
 20
91.64900000000001
 30
0.0
 11
202.13325
 21
90.06539999999999
 31
0.0
  0
LINE
  5
41
330
1E
100
AcDbEntity
  8
0
100
AcDbLine
 10
202.13325
 20
91.64900000000001
 30
0.0
 11
202.13325
 21
89.06539999999999
 31
0.0
  0
LINE
  5
42
330
1E
100
AcDbEntity
  8
0
100
AcDbLine
 10
216.1332499999999
 20
90.06539999999999
 30
0.0
 11
216.1332499999999
 21
89.06539999999999
 31
0.0
  0
LINE
  5
43
330
1E
100
AcDbEntity
  8
0
100
AcDbLine
 10
216.1332499999999
 20
90.06539999999999
 30
0.0
 11
216.1332499999999
 21
92.66339999999999
 31
0.0
  0
LINE
  5
44
330
1E
100
AcDbEntity
  8
0
100
AcDbLine
 10
202.13325
 20
89.47700000000001
 30
0.0
 11
202.13325
 21
91.68499999999999
 31
0.0
  0
LINE
  5
45
330
1E
100
AcDbEntity
  8
0
100
AcDbLine
 10
202.13325
 20
89.47700000000001
 30
0.0
 11
202.13325
 21
88.649
 31
0.0
  0
LINE
  5
46
330
1E
100
AcDbEntity
  8
0
100
AcDbLine
 10
202.13325
 20
89.47700000000001
 30
0.0
 11
202.13325
 21
91.64900000000001
 31
0.0
  0
LINE
  5
47
330
1E
100
AcDbEntity
  8
0
100
AcDbLine
 10
202.13325
 20
92.369
 30
0.0
 11
202.13325
 21
91.64900000000001
 31
0.0
  0
LINE
  5
48
330
1E
100
AcDbEntity
  8
0
100
AcDbLine
 10
180.13325
 20
92.369
 30
0.0
 11
180.13325
 21
94.289
 31
0.0
  0
LINE
  5
49
330
1E
100
AcDbEntity
  8
0
100
AcDbLine
 10
202.13325
 20
92.66339999999999
 30
0.0
 11
202.13325
 21
91.66339999999999
 31
0.0
  0
LINE
  5
4A
330
1E
100
AcDbEntity
  8
0
100
AcDbLine
 10
202.13325
 20
92.66339999999999
 30
0.0
 11
202.13325
 21
90.06539999999999
 31
0.0
  0
LINE
  5
4B
330
1E
100
AcDbEntity
  8
0
100
AcDbLine
 10
202.13325
 20
91.68499999999999
 30
0.0
 11
202.13325
 21
95.365
 31
0.0
  0
LINE
  5
4C
330
1E
100
AcDbEntity
  8
0
100
AcDbLine
 10
202.13325
 20
91.68499999999999
 30
0.0
 11
202.13325
 21
89.47700000000001
 31
0.0
  0
LINE
  5
4D
330
1E
100
AcDbEntity
  8
0
100
AcDbLine
 10
216.1332499999999
 20
92.66339999999999
 30
0.0
 11
216.1332499999999
 21
95.365
 31
0.0
  0
LINE
  5
4E
330
1E
100
AcDbEntity
  8
0
100
AcDbLine
 10
216.1332499999999
 20
92.66339999999999
 30
0.0
 11
216.1332499999999
 21
90.06539999999999
 31
0.0
  0
LINE
  5
4F
330
1E
100
AcDbEntity
  8
0
100
AcDbLine
 10
109.9334499999999
 20
93.3868
 30
0.0
 11
123.13325
 21
91.64900000000001
 31
0.0
  0
LINE
  5
50
330
1E
100
AcDbEntity
  8
0
100
AcDbLine
 10
202.13325
 20
94.289
 30
0.0
 11
202.13325
 21
92.369
 31
0.0
  0
LINE
  5
51
330
1E
100
AcDbEntity
  8
0
100
AcDbLine
 10
180.13325
 20
94.289
 30
0.0
 11
180.13325
 21
97.48899999999999
 31
0.0
  0
LINE
  5
52
330
1E
100
AcDbEntity
  8
0
100
AcDbLine
 10
97.63324999999991
 20
98.48170000000001
 30
0.0
 11
109.9334499999999
 21
93.3868
 31
0.0
  0
LINE
  5
53
330
1E
100
AcDbEntity
  8
0
100
AcDbLine
 10
202.13325
 20
97.48899999999999
 30
0.0
 11
202.13325
 21
94.289
 31
0.0
  0
LINE
  5
54
330
1E
100
AcDbEntity
  8
0
100
AcDbLine
 10
180.13325
 20
97.48899999999999
 30
0.0
 11
180.13325
 21
101.729
 31
0.0
  0
LINE
  5
55
330
1E
100
AcDbEntity
  8
0
100
AcDbLine
 10
202.13325
 20
95.365
 30
0.0
 11
202.13325
 21
100.241
 31
0.0
  0
LINE
  5
56
330
1E
100
AcDbEntity
  8
0
100
AcDbLine
 10
202.13325
 20
95.365
 30
0.0
 11
202.13325
 21
91.68499999999999
 31
0.0
  0
LINE
  5
57
330
1E
100
AcDbEntity
  8
0
100
AcDbLine
 10
216.1332499999999
 20
95.365
 30
0.0
 11
216.1332499999999
 21
100.241
 31
0.0
  0
LINE
  5
58
330
1E
100
AcDbEntity
  8
0
100
AcDbLine
 10
216.1332499999999
 20
95.365
 30
0.0
 11
216.1332499999999
 21
92.66339999999999
 31
0.0
  0
LINE
  5
59
330
1E
100
AcDbEntity
  8
0
100
AcDbLine
 10
216.1332499999999
 20
93.24099999999999
 30
0.0
 11
216.1332499999999
 21
98.75299999999999
 31
0.0
  0
LINE
  5
5A
330
1E
100
AcDbEntity
  8
0
100
AcDbLine
 10
216.1332499999999
 20
93.24099999999999
 30
0.0
 11
216.1332499999999
 21
89.08100000000001
 31
0.0
  0
LINE
  5
5B
330
1E
100
AcDbEntity
  8
0
100
AcDbLine
 10
218.1332499999999
 20
91.64900000000001
 30
0.0
 11
262.1332499999999
 21
91.64900000000001
 31
0.0
  0
LINE
  5
5C
330
1E
100
AcDbEntity
  8
0
100
AcDbLine
 10
216.1332499999999
 20
98.75299999999999
 30
0.0
 11
216.1332499999999
 21
104.993
 31
0.0
  0
LINE
  5
5D
330
1E
100
AcDbEntity
  8
0
100
AcDbLine
 10
216.1332499999999
 20
98.75299999999999
 30
0.0
 11
216.1332499999999
 21
93.24099999999999
 31
0.0
  0
LINE
  5
5E
330
1E
100
AcDbEntity
  8
0
100
AcDbLine
 10
218.1332499999999
 20
89.08100000000001
 30
0.0
 11
218.1332499999999
 21
93.24099999999999
 31
0.0
  0
LINE
  5
5F
330
1E
100
AcDbEntity
  8
0
100
AcDbLine
 10
218.1332499999999
 20
89.08100000000001
 30
0.0
 11
218.1332499999999
 21
86.585
 31
0.0
  0
LINE
  5
60
330
1E
100
AcDbEntity
  8
0
100
AcDbLine
 10
218.1332499999999
 20
93.24099999999999
 30
0.0
 11
218.1332499999999
 21
98.75299999999999
 31
0.0
  0
LINE
  5
61
330
1E
100
AcDbEntity
  8
0
100
AcDbLine
 10
218.1332499999999
 20
93.24099999999999
 30
0.0
 11
218.1332499999999
 21
89.08100000000001
 31
0.0
  0
LINE
  5
62
330
1E
100
AcDbEntity
  8
0
100
AcDbLine
 10
202.13325
 20
100.241
 30
0.0
 11
202.13325
 21
105.761
 31
0.0
  0
LINE
  5
63
330
1E
100
AcDbEntity
  8
0
100
AcDbLine
 10
202.13325
 20
100.241
 30
0.0
 11
202.13325
 21
95.365
 31
0.0
  0
LINE
  5
64
330
1E
100
AcDbEntity
  8
0
100
AcDbLine
 10
87.0708499999999
 20
106.5865999999999
 30
0.0
 11
97.63324999999991
 21
98.48170000000001
 31
0.0
  0
LINE
  5
65
330
1E
100
AcDbEntity
  8
0
100
AcDbLine
 10
180.13325
 20
101.729
 30
0.0
 11
180.13325
 21
106.529
 31
0.0
  0
LINE
  5
66
330
1E
100
AcDbEntity
  8
0
100
AcDbLine
 10
202.13325
 20
101.729
 30
0.0
 11
202.13325
 21
97.48899999999999
 31
0.0
  0
LINE
  5
67
330
1E
100
AcDbEntity
  8
0
100
AcDbLine
 10
202.13325
 20
106.529
 30
0.0
 11
202.13325
 21
101.729
 31
0.0
  0
LINE
  5
68
330
1E
100
AcDbEntity
  8
0
100
AcDbLine
 10
180.13325
 20
106.529
 30
0.0
 11
180.13325
 21
111.6489999999999
 31
0.0
  0
LINE
  5
69
330
1E
100
AcDbEntity
  8
0
100
AcDbLine
 10
180.13325
 20
111.6489999999999
 30
0.0
 11
180.13325
 21
116.649
 31
0.0
  0
LINE
  5
6A
330
1E
100
AcDbEntity
  8
0
100
AcDbLine
 10
202.13325
 20
110.6489999999999
 30
0.0
 11
216.1332499999999
 21
110.6489999999999
 31
0.0
  0
LINE
  5
6B
330
1E
100
AcDbEntity
  8
0
100
AcDbLine
 10
202.13325
 20
110.6489999999999
 30
0.0
 11
202.13325
 21
112.6489999999999
 31
0.0
  0
LINE
  5
6C
330
1E
100
AcDbEntity
  8
0
100
AcDbLine
 10
202.13325
 20
111.6489999999999
 30
0.0
 11
202.13325
 21
105.761
 31
0.0
  0
LINE
  5
6D
330
1E
100
AcDbEntity
  8
0
100
AcDbLine
 10
202.13325
 20
111.6489999999999
 30
0.0
 11
202.13325
 21
114.649
 31
0.0
  0
LINE
  5
6E
330
1E
100
AcDbEntity
  8
0
100
AcDbLine
 10
202.13325
 20
111.6489999999999
 30
0.0
 11
202.13325
 21
106.529
 31
0.0
  0
LINE
  5
6F
330
1E
100
AcDbEntity
  8
0
100
AcDbLine
 10
216.1332499999999
 20
110.6489999999999
 30
0.0
 11
216.1332499999999
 21
105.761
 31
0.0
  0
LINE
  5
70
330
1E
100
AcDbEntity
  8
0
100
AcDbLine
 10
216.1332499999999
 20
110.6489999999999
 30
0.0
 11
216.1332499999999
 21
112.6489999999999
 31
0.0
  0
LINE
  5
71
330
1E
100
AcDbEntity
  8
0
100
AcDbLine
 10
202.13325
 20
105.761
 30
0.0
 11
202.13325
 21
111.6489999999999
 31
0.0
  0
LINE
  5
72
330
1E
100
AcDbEntity
  8
0
100
AcDbLine
 10
202.13325
 20
105.761
 30
0.0
 11
202.13325
 21
100.241
 31
0.0
  0
LINE
  5
73
330
1E
100
AcDbEntity
  8
0
100
AcDbLine
 10
216.1332499999999
 20
100.241
 30
0.0
 11
216.1332499999999
 21
105.761
 31
0.0
  0
LINE
  5
74
330
1E
100
AcDbEntity
  8
0
100
AcDbLine
 10
216.1332499999999
 20
100.241
 30
0.0
 11
216.1332499999999
 21
95.365
 31
0.0
  0
LINE
  5
75
330
1E
100
AcDbEntity
  8
0
100
AcDbLine
 10
216.1332499999999
 20
105.761
 30
0.0
 11
216.1332499999999
 21
110.6489999999999
 31
0.0
  0
LINE
  5
76
330
1E
100
AcDbEntity
  8
0
100
AcDbLine
 10
216.1332499999999
 20
105.761
 30
0.0
 11
216.1332499999999
 21
100.241
 31
0.0
  0
LINE
  5
77
330
1E
100
AcDbEntity
  8
0
100
AcDbLine
 10
202.13325
 20
112.6489999999999
 30
0.0
 11
216.1332499999999
 21
112.6489999999999
 31
0.0
  0
LINE
  5
78
330
1E
100
AcDbEntity
  8
0
100
AcDbLine
 10
202.13325
 20
112.6489999999999
 30
0.0
 11
202.13325
 21
110.6489999999999
 31
0.0
  0
LINE
  5
79
330
1E
100
AcDbEntity
  8
0
100
AcDbLine
 10
198.13325
 20
114.649
 30
0.0
 11
198.13325
 21
114.901
 31
0.0
  0
LINE
  5
7A
330
1E
100
AcDbEntity
  8
0
100
AcDbLine
 10
198.13325
 20
114.649
 30
0.0
 11
218.1332499999999
 21
114.649
 31
0.0
  0
LINE
  5
7B
330
1E
100
AcDbEntity
  8
0
100
AcDbLine
 10
78.9659499999999
 20
117.149
 30
0.0
 11
87.0708499999999
 21
106.5865999999999
 31
0.0
  0
LINE
  5
7C
330
1E
100
AcDbEntity
  8
0
100
AcDbLine
 10
152.9162499999999
 20
117.3089999999999
 30
0.0
 11
153.12325
 21
118.1089999999999
 31
0.0
  0
LINE
  5
7D
330
1E
100
AcDbEntity
  8
0
100
AcDbLine
 10
153.70625
 20
120.3689999999999
 30
0.0
 11
154.03625
 21
121.649
 31
0.0
  0
LINE
  5
7E
330
1E
100
AcDbEntity
  8
0
100
AcDbLine
 10
153.39625
 20
119.1689999999999
 30
0.0
 11
153.70625
 21
120.3689999999999
 31
0.0
  0
LINE
  5
7F
330
1E
100
AcDbEntity
  8
0
100
AcDbLine
 10
153.12325
 20
118.1089999999999
 30
0.0
 11
153.39625
 21
119.1689999999999
 31
0.0
  0
LINE
  5
80
330
1E
100
AcDbEntity
  8
0
100
AcDbLine
 10
152.79225
 20
116.829
 30
0.0
 11
152.9162499999999
 21
117.3089999999999
 31
0.0
  0
LINE
  5
81
330
1E
100
AcDbEntity
  8
0
100
AcDbLine
 10
152.74625
 20
116.649
 30
0.0
 11
152.79225
 21
116.829
 31
0.0
  0
LINE
  5
82
330
1E
100
AcDbEntity
  8
0
100
AcDbLine
 10
152.74625
 20
116.649
 30
0.0
 11
198.13325
 21
116.649
 31
0.0
  0
LINE
  5
83
330
1E
100
AcDbEntity
  8
0
100
AcDbLine
 10
154.03625
 20
121.649
 30
0.0
 11
154.36725
 21
122.9289999999999
 31
0.0
  0
LINE
  5
84
330
1E
100
AcDbEntity
  8
0
100
AcDbLine
 10
154.6762499999999
 20
124.129
 30
0.0
 11
154.95025
 21
125.1889999999999
 31
0.0
  0
LINE
  5
85
330
1E
100
AcDbEntity
  8
0
100
AcDbLine
 10
154.95025
 20
125.1889999999999
 30
0.0
 11
155.15625
 21
125.9889999999999
 31
0.0
  0
LINE
  5
86
330
1E
100
AcDbEntity
  8
0
100
AcDbLine
 10
154.36725
 20
122.9289999999999
 30
0.0
 11
154.6762499999999
 21
124.129
 31
0.0
  0
LINE
  5
87
330
1E
100
AcDbEntity
  8
0
100
AcDbLine
 10
155.28025
 20
126.4689999999999
 30
0.0
 11
155.32725
 21
126.649
 31
0.0
  0
LINE
  5
88
330
1E
100
AcDbEntity
  8
0
100
AcDbLine
 10
155.15625
 20
125.9889999999999
 30
0.0
 11
155.28025
 21
126.4689999999999
 31
0.0
  0
LINE
  5
89
330
1E
100
AcDbEntity
  8
0
100
AcDbLine
 10
155.32725
 20
126.649
 30
0.0
 11
198.13325
 21
126.649
 31
0.0
  0
LINE
  5
8A
330
1E
100
AcDbEntity
  8
0
100
AcDbLine
 10
198.13325
 20
116.693
 30
0.0
 11
198.13325
 21
115.5729999999999
 31
0.0
  0
LINE
  5
8B
330
1E
100
AcDbEntity
  8
0
100
AcDbLine
 10
198.13325
 20
116.693
 30
0.0
 11
198.13325
 21
118.1769999999999
 31
0.0
  0
LINE
  5
8C
330
1E
100
AcDbEntity
  8
0
100
AcDbLine
 10
198.13325
 20
115.5729999999999
 30
0.0
 11
198.13325
 21
116.649
 31
0.0
  0
LINE
  5
8D
330
1E
100
AcDbEntity
  8
0
100
AcDbLine
 10
198.13325
 20
115.5729999999999
 30
0.0
 11
198.13325
 21
114.901
 31
0.0
  0
LINE
  5
8E
330
1E
100
AcDbEntity
  8
0
100
AcDbLine
 10
198.13325
 20
115.5729999999999
 30
0.0
 11
198.13325
 21
116.693
 31
0.0
  0
LINE
  5
8F
330
1E
100
AcDbEntity
  8
0
100
AcDbLine
 10
198.13325
 20
114.901
 30
0.0
 11
198.13325
 21
115.5729999999999
 31
0.0
  0
LINE
  5
90
330
1E
100
AcDbEntity
  8
0
100
AcDbLine
 10
198.13325
 20
114.901
 30
0.0
 11
198.13325
 21
114.649
 31
0.0
  0
LINE
  5
91
330
1E
100
AcDbEntity
  8
0
100
AcDbLine
 10
198.13325
 20
116.649
 30
0.0
 11
198.13325
 21
116.829
 31
0.0
  0
LINE
  5
92
330
1E
100
AcDbEntity
  8
0
100
AcDbLine
 10
198.13325
 20
116.649
 30
0.0
 11
198.13325
 21
115.5729999999999
 31
0.0
  0
LINE
  5
93
330
1E
100
AcDbEntity
  8
0
100
AcDbLine
 10
198.13325
 20
119.857
 30
0.0
 11
198.13325
 21
118.1769999999999
 31
0.0
  0
LINE
  5
94
330
1E
100
AcDbEntity
  8
0
100
AcDbLine
 10
198.13325
 20
119.857
 30
0.0
 11
198.13325
 21
121.649
 31
0.0
  0
LINE
  5
95
330
1E
100
AcDbEntity
  8
0
100
AcDbLine
 10
198.13325
 20
118.1769999999999
 30
0.0
 11
198.13325
 21
116.693
 31
0.0
  0
LINE
  5
96
330
1E
100
AcDbEntity
  8
0
100
AcDbLine
 10
198.13325
 20
118.1769999999999
 30
0.0
 11
198.13325
 21
119.857
 31
0.0
  0
LINE
  5
97
330
1E
100
AcDbEntity
  8
0
100
AcDbLine
 10
198.13325
 20
123.441
 30
0.0
 11
198.13325
 21
121.649
 31
0.0
  0
LINE
  5
98
330
1E
100
AcDbEntity
  8
0
100
AcDbLine
 10
198.13325
 20
123.441
 30
0.0
 11
198.13325
 21
125.121
 31
0.0
  0
LINE
  5
99
330
1E
100
AcDbEntity
  8
0
100
AcDbLine
 10
198.13325
 20
122.9289999999999
 30
0.0
 11
198.13325
 21
121.649
 31
0.0
  0
LINE
  5
9A
330
1E
100
AcDbEntity
  8
0
100
AcDbLine
 10
198.13325
 20
122.9289999999999
 30
0.0
 11
198.13325
 21
124.129
 31
0.0
  0
LINE
  5
9B
330
1E
100
AcDbEntity
  8
0
100
AcDbLine
 10
198.13325
 20
125.121
 30
0.0
 11
198.13325
 21
123.441
 31
0.0
  0
LINE
  5
9C
330
1E
100
AcDbEntity
  8
0
100
AcDbLine
 10
198.13325
 20
125.121
 30
0.0
 11
198.13325
 21
126.605
 31
0.0
  0
LINE
  5
9D
330
1E
100
AcDbEntity
  8
0
100
AcDbLine
 10
198.13325
 20
124.129
 30
0.0
 11
198.13325
 21
122.9289999999999
 31
0.0
  0
LINE
  5
9E
330
1E
100
AcDbEntity
  8
0
100
AcDbLine
 10
198.13325
 20
124.129
 30
0.0
 11
198.13325
 21
125.1889999999999
 31
0.0
  0
LINE
  5
9F
330
1E
100
AcDbEntity
  8
0
100
AcDbLine
 10
198.13325
 20
125.1889999999999
 30
0.0
 11
198.13325
 21
124.129
 31
0.0
  0
LINE
  5
A0
330
1E
100
AcDbEntity
  8
0
100
AcDbLine
 10
198.13325
 20
125.1889999999999
 30
0.0
 11
198.13325
 21
125.9889999999999
 31
0.0
  0
LINE
  5
A1
330
1E
100
AcDbEntity
  8
0
100
AcDbLine
 10
198.13325
 20
126.605
 30
0.0
 11
198.13325
 21
125.121
 31
0.0
  0
LINE
  5
A2
330
1E
100
AcDbEntity
  8
0
100
AcDbLine
 10
198.13325
 20
126.605
 30
0.0
 11
198.13325
 21
127.7249999999999
 31
0.0
  0
LINE
  5
A3
330
1E
100
AcDbEntity
  8
0
100
AcDbLine
 10
198.13325
 20
125.9889999999999
 30
0.0
 11
198.13325
 21
125.1889999999999
 31
0.0
  0
LINE
  5
A4
330
1E
100
AcDbEntity
  8
0
100
AcDbLine
 10
198.13325
 20
125.9889999999999
 30
0.0
 11
198.13325
 21
126.4689999999999
 31
0.0
  0
LINE
  5
A5
330
1E
100
AcDbEntity
  8
0
100
AcDbLine
 10
198.13325
 20
126.4689999999999
 30
0.0
 11
198.13325
 21
125.9889999999999
 31
0.0
  0
LINE
  5
A6
330
1E
100
AcDbEntity
  8
0
100
AcDbLine
 10
198.13325
 20
126.4689999999999
 30
0.0
 11
198.13325
 21
126.649
 31
0.0
  0
LINE
  5
A7
330
1E
100
AcDbEntity
  8
0
100
AcDbLine
 10
198.13325
 20
127.7249999999999
 30
0.0
 11
198.13325
 21
128.397
 31
0.0
  0
LINE
  5
A8
330
1E
100
AcDbEntity
  8
0
100
AcDbLine
 10
198.13325
 20
127.7249999999999
 30
0.0
 11
198.13325
 21
126.649
 31
0.0
  0
LINE
  5
A9
330
1E
100
AcDbEntity
  8
0
100
AcDbLine
 10
198.13325
 20
127.7249999999999
 30
0.0
 11
198.13325
 21
126.605
 31
0.0
  0
LINE
  5
AA
330
1E
100
AcDbEntity
  8
0
100
AcDbLine
 10
198.13325
 20
128.397
 30
0.0
 11
198.13325
 21
128.649
 31
0.0
  0
LINE
  5
AB
330
1E
100
AcDbEntity
  8
0
100
AcDbLine
 10
198.13325
 20
128.397
 30
0.0
 11
198.13325
 21
127.7249999999999
 31
0.0
  0
LINE
  5
AC
330
1E
100
AcDbEntity
  8
0
100
AcDbLine
 10
198.13325
 20
128.649
 30
0.0
 11
218.1332499999999
 21
128.649
 31
0.0
  0
LINE
  5
AD
330
1E
100
AcDbEntity
  8
0
100
AcDbLine
 10
198.13325
 20
128.649
 30
0.0
 11
198.13325
 21
128.397
 31
0.0
  0
LINE
  5
AE
330
1E
100
AcDbEntity
  8
0
100
AcDbLine
 10
198.13325
 20
126.649
 30
0.0
 11
198.13325
 21
126.4689999999999
 31
0.0
  0
LINE
  5
AF
330
1E
100
AcDbEntity
  8
0
100
AcDbLine
 10
198.13325
 20
126.649
 30
0.0
 11
198.13325
 21
127.7249999999999
 31
0.0
  0
LINE
  5
B0
330
1E
100
AcDbEntity
  8
0
100
AcDbLine
 10
198.13325
 20
121.649
 30
0.0
 11
198.13325
 21
120.3689999999999
 31
0.0
  0
LINE
  5
B1
330
1E
100
AcDbEntity
  8
0
100
AcDbLine
 10
198.13325
 20
121.649
 30
0.0
 11
198.13325
 21
122.9289999999999
 31
0.0
  0
LINE
  5
B2
330
1E
100
AcDbEntity
  8
0
100
AcDbLine
 10
198.13325
 20
121.649
 30
0.0
 11
198.13325
 21
119.857
 31
0.0
  0
LINE
  5
B3
330
1E
100
AcDbEntity
  8
0
100
AcDbLine
 10
198.13325
 20
121.649
 30
0.0
 11
198.13325
 21
123.441
 31
0.0
  0
LINE
  5
B4
330
1E
100
AcDbEntity
  8
0
100
AcDbLine
 10
198.13325
 20
120.3689999999999
 30
0.0
 11
198.13325
 21
119.1689999999999
 31
0.0
  0
LINE
  5
B5
330
1E
100
AcDbEntity
  8
0
100
AcDbLine
 10
198.13325
 20
120.3689999999999
 30
0.0
 11
198.13325
 21
121.649
 31
0.0
  0
LINE
  5
B6
330
1E
100
AcDbEntity
  8
0
100
AcDbLine
 10
198.13325
 20
119.1689999999999
 30
0.0
 11
198.13325
 21
118.1089999999999
 31
0.0
  0
LINE
  5
B7
330
1E
100
AcDbEntity
  8
0
100
AcDbLine
 10
198.13325
 20
119.1689999999999
 30
0.0
 11
198.13325
 21
120.3689999999999
 31
0.0
  0
LINE
  5
B8
330
1E
100
AcDbEntity
  8
0
100
AcDbLine
 10
198.13325
 20
118.1089999999999
 30
0.0
 11
198.13325
 21
117.3089999999999
 31
0.0
  0
LINE
  5
B9
330
1E
100
AcDbEntity
  8
0
100
AcDbLine
 10
198.13325
 20
118.1089999999999
 30
0.0
 11
198.13325
 21
119.1689999999999
 31
0.0
  0
LINE
  5
BA
330
1E
100
AcDbEntity
  8
0
100
AcDbLine
 10
198.13325
 20
117.3089999999999
 30
0.0
 11
198.13325
 21
116.829
 31
0.0
  0
LINE
  5
BB
330
1E
100
AcDbEntity
  8
0
100
AcDbLine
 10
198.13325
 20
117.3089999999999
 30
0.0
 11
198.13325
 21
118.1089999999999
 31
0.0
  0
LINE
  5
BC
330
1E
100
AcDbEntity
  8
0
100
AcDbLine
 10
198.13325
 20
116.829
 30
0.0
 11
198.13325
 21
116.649
 31
0.0
  0
LINE
  5
BD
330
1E
100
AcDbEntity
  8
0
100
AcDbLine
 10
198.13325
 20
116.829
 30
0.0
 11
198.13325
 21
117.3089999999999
 31
0.0
  0
LINE
  5
BE
330
1E
100
AcDbEntity
  8
0
100
AcDbLine
 10
180.13325
 20
126.649
 30
0.0
 11
180.13325
 21
129.0089999999999
 31
0.0
  0
LINE
  5
BF
330
1E
100
AcDbEntity
  8
0
100
AcDbLine
 10
202.13325
 20
114.649
 30
0.0
 11
202.13325
 21
111.6489999999999
 31
0.0
  0
LINE
  5
C0
330
1E
100
AcDbEntity
  8
0
100
AcDbLine
 10
202.13325
 20
128.649
 30
0.0
 11
202.13325
 21
131.613
 31
0.0
  0
LINE
  5
C1
330
1E
100
AcDbEntity
  8
0
100
AcDbLine
 10
216.1332499999999
 20
112.6489999999999
 30
0.0
 11
216.1332499999999
 21
114.649
 31
0.0
  0
LINE
  5
C2
330
1E
100
AcDbEntity
  8
0
100
AcDbLine
 10
216.1332499999999
 20
112.6489999999999
 30
0.0
 11
216.1332499999999
 21
110.6489999999999
 31
0.0
  0
LINE
  5
C3
330
1E
100
AcDbEntity
  8
0
100
AcDbLine
 10
216.1332499999999
 20
114.649
 30
0.0
 11
216.1332499999999
 21
111.6489999999999
 31
0.0
  0
LINE
  5
C4
330
1E
100
AcDbEntity
  8
0
100
AcDbLine
 10
216.1332499999999
 20
114.649
 30
0.0
 11
216.1332499999999
 21
112.6489999999999
 31
0.0
  0
LINE
  5
C5
330
1E
100
AcDbEntity
  8
0
100
AcDbLine
 10
180.13325
 20
129.0089999999999
 30
0.0
 11
180.13325
 21
130.929
 31
0.0
  0
LINE
  5
C6
330
1E
100
AcDbEntity
  8
0
100
AcDbLine
 10
73.87104999999991
 20
129.4491999999999
 30
0.0
 11
78.9659499999999
 21
117.149
 31
0.0
  0
LINE
  5
C7
330
1E
100
AcDbEntity
  8
0
100
AcDbLine
 10
180.13325
 20
130.929
 30
0.0
 11
180.13325
 21
131.6489999999999
 31
0.0
  0
LINE
  5
C8
330
1E
100
AcDbEntity
  8
0
100
AcDbLine
 10
202.13325
 20
130.929
 30
0.0
 11
202.13325
 21
129.0089999999999
 31
0.0
  0
LINE
  5
C9
330
1E
100
AcDbEntity
  8
0
100
AcDbLine
 10
202.13325
 20
129.0089999999999
 30
0.0
 11
202.13325
 21
128.649
 31
0.0
  0
LINE
  5
CA
330
1E
100
AcDbEntity
  8
0
100
AcDbLine
 10
202.13325
 20
130.6346
 30
0.0
 11
202.13325
 21
131.6346
 31
0.0
  0
LINE
  5
CB
330
1E
100
AcDbEntity
  8
0
100
AcDbLine
 10
202.13325
 20
130.6346
 30
0.0
 11
202.13325
 21
133.2325999999999
 31
0.0
  0
LINE
  5
CC
330
1E
100
AcDbEntity
  8
0
100
AcDbLine
 10
123.13325
 20
131.6489999999999
 30
0.0
 11
202.13325
 21
131.6489999999999
 31
0.0
  0
LINE
  5
CD
330
1E
100
AcDbEntity
  8
0
100
AcDbLine
 10
180.13325
 20
131.6489999999999
 30
0.0
 11
202.13325
 21
131.6489999999999
 31
0.0
  0
LINE
  5
CE
330
1E
100
AcDbEntity
  8
0
100
AcDbLine
 10
202.13325
 20
131.6346
 30
0.0
 11
202.13325
 21
134.2325999999999
 31
0.0
  0
LINE
  5
CF
330
1E
100
AcDbEntity
  8
0
100
AcDbLine
 10
202.13325
 20
131.6346
 30
0.0
 11
202.13325
 21
130.6346
 31
0.0
  0
LINE
  5
D0
330
1E
100
AcDbEntity
  8
0
100
AcDbLine
 10
202.13325
 20
131.613
 30
0.0
 11
202.13325
 21
133.8209999999999
 31
0.0
  0
LINE
  5
D1
330
1E
100
AcDbEntity
  8
0
100
AcDbLine
 10
202.13325
 20
131.613
 30
0.0
 11
202.13325
 21
128.649
 31
0.0
  0
LINE
  5
D2
330
1E
100
AcDbEntity
  8
0
100
AcDbLine
 10
117.63325
 20
133.1227199999999
 30
0.0
 11
120.2862499999999
 21
132.02382
 31
0.0
  0
LINE
  5
D3
330
1E
100
AcDbEntity
  8
0
100
AcDbLine
 10
120.2862499999999
 20
132.02382
 30
0.0
 11
123.13325
 21
131.6489999999999
 31
0.0
  0
LINE
  5
D4
330
1E
100
AcDbEntity
  8
0
100
AcDbLine
 10
202.13325
 20
133.2325999999999
 30
0.0
 11
216.1332499999999
 21
133.2325999999999
 31
0.0
  0
LINE
  5
D5
330
1E
100
AcDbEntity
  8
0
100
AcDbLine
 10
202.13325
 20
133.2325999999999
 30
0.0
 11
202.13325
 21
130.6346
 31
0.0
  0
LINE
  5
D6
330
1E
100
AcDbEntity
  8
0
100
AcDbLine
 10
202.13325
 20
133.2325999999999
 30
0.0
 11
202.13325
 21
134.2325999999999
 31
0.0
  0
LINE
  5
D7
330
1E
100
AcDbEntity
  8
0
100
AcDbLine
 10
202.13325
 20
133.2325999999999
 30
0.0
 11
202.13325
 21
131.6489999999999
 31
0.0
  0
LINE
  5
D8
330
1E
100
AcDbEntity
  8
0
100
AcDbLine
 10
202.13325
 20
131.6489999999999
 30
0.0
 11
202.13325
 21
133.8209999999999
 31
0.0
  0
LINE
  5
D9
330
1E
100
AcDbEntity
  8
0
100
AcDbLine
 10
202.13325
 20
131.6489999999999
 30
0.0
 11
202.13325
 21
133.2325999999999
 31
0.0
  0
LINE
  5
DA
330
1E
100
AcDbEntity
  8
0
100
AcDbLine
 10
202.13325
 20
131.6489999999999
 30
0.0
 11
202.13325
 21
134.2325999999999
 31
0.0
  0
LINE
  5
DB
330
1E
100
AcDbEntity
  8
0
100
AcDbLine
 10
202.13325
 20
131.6489999999999
 30
0.0
 11
202.13325
 21
130.929
 31
0.0
  0
LINE
  5
DC
330
1E
100
AcDbEntity
  8
0
100
AcDbLine
 10
216.1332499999999
 20
133.2325999999999
 30
0.0
 11
216.1332499999999
 21
134.2325999999999
 31
0.0
  0
LINE
  5
DD
330
1E
100
AcDbEntity
  8
0
100
AcDbLine
 10
216.1332499999999
 20
133.2325999999999
 30
0.0
 11
216.1332499999999
 21
130.6346
 31
0.0
  0
LINE
  5
DE
330
1E
100
AcDbEntity
  8
0
100
AcDbLine
 10
216.1332499999999
 20
130.6346
 30
0.0
 11
216.1332499999999
 21
128.649
 31
0.0
  0
LINE
  5
DF
330
1E
100
AcDbEntity
  8
0
100
AcDbLine
 10
216.1332499999999
 20
130.6346
 30
0.0
 11
216.1332499999999
 21
133.2325999999999
 31
0.0
  0
LINE
  5
E0
330
1E
100
AcDbEntity
  8
0
100
AcDbLine
 10
202.13325
 20
133.8209999999999
 30
0.0
 11
202.13325
 21
131.6489999999999
 31
0.0
  0
LINE
  5
E1
330
1E
100
AcDbEntity
  8
0
100
AcDbLine
 10
202.13325
 20
133.8209999999999
 30
0.0
 11
202.13325
 21
134.6489999999999
 31
0.0
  0
LINE
  5
E2
330
1E
100
AcDbEntity
  8
0
100
AcDbLine
 10
202.13325
 20
133.8209999999999
 30
0.0
 11
202.13325
 21
131.613
 31
0.0
  0
LINE
  5
E3
330
1E
100
AcDbEntity
  8
0
100
AcDbLine
 10
113.60695
 20
137.149
 30
0.0
 11
115.35505
 21
134.87083
 31
0.0
  0
LINE
  5
E4
330
1E
100
AcDbEntity
  8
0
100
AcDbLine
 10
115.35505
 20
134.87083
 30
0.0
 11
117.63325
 21
133.1227199999999
 31
0.0
  0
LINE
  5
E5
330
1E
100
AcDbEntity
  8
0
100
AcDbLine
 10
202.13325
 20
134.2325999999999
 30
0.0
 11
216.1332499999999
 21
134.2325999999999
 31
0.0
  0
LINE
  5
E6
330
1E
100
AcDbEntity
  8
0
100
AcDbLine
 10
202.13325
 20
134.2325999999999
 30
0.0
 11
202.13325
 21
133.2325999999999
 31
0.0
  0
LINE
  5
E7
330
1E
100
AcDbEntity
  8
0
100
AcDbLine
 10
202.13325
 20
134.2325999999999
 30
0.0
 11
202.13325
 21
131.6346
 31
0.0
  0
LINE
  5
E8
330
1E
100
AcDbEntity
  8
0
100
AcDbLine
 10
202.13325
 20
134.2325999999999
 30
0.0
 11
202.13325
 21
131.6489999999999
 31
0.0
  0
LINE
  5
E9
330
1E
100
AcDbEntity
  8
0
100
AcDbLine
 10
216.1332499999999
 20
134.2325999999999
 30
0.0
 11
216.1332499999999
 21
134.6489999999999
 31
0.0
  0
LINE
  5
EA
330
1E
100
AcDbEntity
  8
0
100
AcDbLine
 10
216.1332499999999
 20
134.2325999999999
 30
0.0
 11
216.1332499999999
 21
133.2325999999999
 31
0.0
  0
LINE
  5
EB
330
1E
100
AcDbEntity
  8
0
100
AcDbLine
 10
202.13325
 20
134.6489999999999
 30
0.0
 11
202.13325
 21
133.8209999999999
 31
0.0
  0
LINE
  5
EC
330
1E
100
AcDbEntity
  8
0
100
AcDbLine
 10
202.13325
 20
134.6489999999999
 30
0.0
 11
216.1332499999999
 21
134.6489999999999
 31
0.0
  0
LINE
  5
ED
330
1E
100
AcDbEntity
  8
0
100
AcDbLine
 10
216.1332499999999
 20
134.217
 30
0.0
 11
216.1332499999999
 21
136.7129999999999
 31
0.0
  0
LINE
  5
EE
330
1E
100
AcDbEntity
  8
0
100
AcDbLine
 10
216.1332499999999
 20
134.217
 30
0.0
 11
216.1332499999999
 21
130.057
 31
0.0
  0
LINE
  5
EF
330
1E
100
AcDbEntity
  8
0
100
AcDbLine
 10
216.1332499999999
 20
130.057
 30
0.0
 11
216.1332499999999
 21
134.217
 31
0.0
  0
LINE
  5
F0
330
1E
100
AcDbEntity
  8
0
100
AcDbLine
 10
216.1332499999999
 20
130.057
 30
0.0
 11
216.1332499999999
 21
128.649
 31
0.0
  0
LINE
  5
F1
330
1E
100
AcDbEntity
  8
0
100
AcDbLine
 10
216.1332499999999
 20
128.649
 30
0.0
 11
216.1332499999999
 21
130.057
 31
0.0
  0
LINE
  5
F2
330
1E
100
AcDbEntity
  8
0
100
AcDbLine
 10
216.1332499999999
 20
128.649
 30
0.0
 11
216.1332499999999
 21
130.6346
 31
0.0
  0
LINE
  5
F3
330
1E
100
AcDbEntity
  8
0
100
AcDbLine
 10
216.1332499999999
 20
134.6489999999999
 30
0.0
 11
216.1332499999999
 21
136.7129999999999
 31
0.0
  0
LINE
  5
F4
330
1E
100
AcDbEntity
  8
0
100
AcDbLine
 10
216.1332499999999
 20
134.6489999999999
 30
0.0
 11
216.1332499999999
 21
134.2325999999999
 31
0.0
  0
LINE
  5
F5
330
1E
100
AcDbEntity
  8
0
100
AcDbLine
 10
112.5080499999999
 20
139.8019909999999
 30
0.0
 11
113.60695
 21
137.149
 31
0.0
  0
LINE
  5
F6
330
1E
100
AcDbEntity
  8
0
100
AcDbLine
 10
216.1332499999999
 20
137.6489999999999
 30
0.0
 11
216.1332499999999
 21
136.7129999999999
 31
0.0
  0
LINE
  5
F7
330
1E
100
AcDbEntity
  8
0
100
AcDbLine
 10
216.1332499999999
 20
137.6489999999999
 30
0.0
 11
218.1332499999999
 21
137.6489999999999
 31
0.0
  0
LINE
  5
F8
330
1E
100
AcDbEntity
  8
0
100
AcDbLine
 10
216.1332499999999
 20
136.7129999999999
 30
0.0
 11
216.1332499999999
 21
134.6489999999999
 31
0.0
  0
LINE
  5
F9
330
1E
100
AcDbEntity
  8
0
100
AcDbLine
 10
216.1332499999999
 20
136.7129999999999
 30
0.0
 11
216.1332499999999
 21
137.6489999999999
 31
0.0
  0
LINE
  5
FA
330
1E
100
AcDbEntity
  8
0
100
AcDbLine
 10
216.1332499999999
 20
136.7129999999999
 30
0.0
 11
216.1332499999999
 21
134.217
 31
0.0
  0
LINE
  5
FB
330
1E
100
AcDbEntity
  8
0
100
AcDbLine
 10
216.1332499999999
 20
111.6489999999999
 30
0.0
 11
216.1332499999999
 21
104.993
 31
0.0
  0
LINE
  5
FC
330
1E
100
AcDbEntity
  8
0
100
AcDbLine
 10
216.1332499999999
 20
111.6489999999999
 30
0.0
 11
216.1332499999999
 21
114.649
 31
0.0
  0
LINE
  5
FD
330
1E
100
AcDbEntity
  8
0
100
AcDbLine
 10
218.1332499999999
 20
113.837
 30
0.0
 11
218.1332499999999
 21
112.973
 31
0.0
  0
LINE
  5
FE
330
1E
100
AcDbEntity
  8
0
100
AcDbLine
 10
218.1332499999999
 20
113.837
 30
0.0
 11
218.1332499999999
 21
115.277
 31
0.0
  0
LINE
  5
FF
330
1E
100
AcDbEntity
  8
0
100
AcDbLine
 10
218.1332499999999
 20
112.973
 30
0.0
 11
218.1332499999999
 21
112.6489999999999
 31
0.0
  0
LINE
  5
100
330
1E
100
AcDbEntity
  8
0
100
AcDbLine
 10
218.1332499999999
 20
112.973
 30
0.0
 11
218.1332499999999
 21
113.837
 31
0.0
  0
LINE
  5
101
330
1E
100
AcDbEntity
  8
0
100
AcDbLine
 10
218.1332499999999
 20
112.6489999999999
 30
0.0
 11
218.1332499999999
 21
112.973
 31
0.0
  0
LINE
  5
102
330
1E
100
AcDbEntity
  8
0
100
AcDbLine
 10
218.1332499999999
 20
112.6489999999999
 30
0.0
 11
228.1332499999999
 21
112.6489999999999
 31
0.0
  0
LINE
  5
103
330
1E
100
AcDbEntity
  8
0
100
AcDbLine
 10
218.1332499999999
 20
115.277
 30
0.0
 11
218.1332499999999
 21
113.837
 31
0.0
  0
LINE
  5
104
330
1E
100
AcDbEntity
  8
0
100
AcDbLine
 10
218.1332499999999
 20
115.277
 30
0.0
 11
218.1332499999999
 21
117.185
 31
0.0
  0
LINE
  5
105
330
1E
100
AcDbEntity
  8
0
100
AcDbLine
 10
218.1332499999999
 20
119.345
 30
0.0
 11
218.1332499999999
 21
117.185
 31
0.0
  0
LINE
  5
106
330
1E
100
AcDbEntity
  8
0
100
AcDbLine
 10
218.1332499999999
 20
119.345
 30
0.0
 11
218.1332499999999
 21
121.649
 31
0.0
  0
LINE
  5
107
330
1E
100
AcDbEntity
  8
0
100
AcDbLine
 10
218.1332499999999
 20
117.185
 30
0.0
 11
218.1332499999999
 21
115.277
 31
0.0
  0
LINE
  5
108
330
1E
100
AcDbEntity
  8
0
100
AcDbLine
 10
218.1332499999999
 20
117.185
 30
0.0
 11
218.1332499999999
 21
119.345
 31
0.0
  0
LINE
  5
109
330
1E
100
AcDbEntity
  8
0
100
AcDbLine
 10
218.1332499999999
 20
123.953
 30
0.0
 11
218.1332499999999
 21
121.649
 31
0.0
  0
LINE
  5
10A
330
1E
100
AcDbEntity
  8
0
100
AcDbLine
 10
218.1332499999999
 20
123.953
 30
0.0
 11
218.1332499999999
 21
126.113
 31
0.0
  0
LINE
  5
10B
330
1E
100
AcDbEntity
  8
0
100
AcDbLine
 10
218.1332499999999
 20
126.113
 30
0.0
 11
218.1332499999999
 21
123.953
 31
0.0
  0
LINE
  5
10C
330
1E
100
AcDbEntity
  8
0
100
AcDbLine
 10
218.1332499999999
 20
126.113
 30
0.0
 11
218.1332499999999
 21
128.021
 31
0.0
  0
LINE
  5
10D
330
1E
100
AcDbEntity
  8
0
100
AcDbLine
 10
218.1332499999999
 20
123.441
 30
0.0
 11
218.1332499999999
 21
121.649
 31
0.0
  0
LINE
  5
10E
330
1E
100
AcDbEntity
  8
0
100
AcDbLine
 10
218.1332499999999
 20
123.441
 30
0.0
 11
218.1332499999999
 21
125.121
 31
0.0
  0
LINE
  5
10F
330
1E
100
AcDbEntity
  8
0
100
AcDbLine
 10
218.1332499999999
 20
125.121
 30
0.0
 11
218.1332499999999
 21
123.441
 31
0.0
  0
LINE
  5
110
330
1E
100
AcDbEntity
  8
0
100
AcDbLine
 10
218.1332499999999
 20
125.121
 30
0.0
 11
218.1332499999999
 21
126.605
 31
0.0
  0
LINE
  5
111
330
1E
100
AcDbEntity
  8
0
100
AcDbLine
 10
218.1332499999999
 20
128.021
 30
0.0
 11
218.1332499999999
 21
126.113
 31
0.0
  0
LINE
  5
112
330
1E
100
AcDbEntity
  8
0
100
AcDbLine
 10
218.1332499999999
 20
128.021
 30
0.0
 11
218.1332499999999
 21
129.461
 31
0.0
  0
LINE
  5
113
330
1E
100
AcDbEntity
  8
0
100
AcDbLine
 10
218.1332499999999
 20
126.605
 30
0.0
 11
218.1332499999999
 21
125.121
 31
0.0
  0
LINE
  5
114
330
1E
100
AcDbEntity
  8
0
100
AcDbLine
 10
218.1332499999999
 20
126.605
 30
0.0
 11
218.1332499999999
 21
127.7249999999999
 31
0.0
  0
LINE
  5
115
330
1E
100
AcDbEntity
  8
0
100
AcDbLine
 10
218.1332499999999
 20
127.7249999999999
 30
0.0
 11
218.1332499999999
 21
126.605
 31
0.0
  0
LINE
  5
116
330
1E
100
AcDbEntity
  8
0
100
AcDbLine
 10
218.1332499999999
 20
127.7249999999999
 30
0.0
 11
218.1332499999999
 21
128.397
 31
0.0
  0
LINE
  5
117
330
1E
100
AcDbEntity
  8
0
100
AcDbLine
 10
218.1332499999999
 20
129.461
 30
0.0
 11
218.1332499999999
 21
130.325
 31
0.0
  0
LINE
  5
118
330
1E
100
AcDbEntity
  8
0
100
AcDbLine
 10
218.1332499999999
 20
129.461
 30
0.0
 11
218.1332499999999
 21
128.649
 31
0.0
  0
LINE
  5
119
330
1E
100
AcDbEntity
  8
0
100
AcDbLine
 10
218.1332499999999
 20
129.461
 30
0.0
 11
218.1332499999999
 21
128.021
 31
0.0
  0
LINE
  5
11A
330
1E
100
AcDbEntity
  8
0
100
AcDbLine
 10
218.1332499999999
 20
128.397
 30
0.0
 11
218.1332499999999
 21
127.7249999999999
 31
0.0
  0
LINE
  5
11B
330
1E
100
AcDbEntity
  8
0
100
AcDbLine
 10
218.1332499999999
 20
128.397
 30
0.0
 11
218.1332499999999
 21
128.649
 31
0.0
  0
LINE
  5
11C
330
1E
100
AcDbEntity
  8
0
100
AcDbLine
 10
218.1332499999999
 20
121.649
 30
0.0
 11
218.1332499999999
 21
119.857
 31
0.0
  0
LINE
  5
11D
330
1E
100
AcDbEntity
  8
0
100
AcDbLine
 10
218.1332499999999
 20
121.649
 30
0.0
 11
218.1332499999999
 21
123.441
 31
0.0
  0
LINE
  5
11E
330
1E
100
AcDbEntity
  8
0
100
AcDbLine
 10
218.1332499999999
 20
121.649
 30
0.0
 11
218.1332499999999
 21
119.345
 31
0.0
  0
LINE
  5
11F
330
1E
100
AcDbEntity
  8
0
100
AcDbLine
 10
218.1332499999999
 20
121.649
 30
0.0
 11
218.1332499999999
 21
123.953
 31
0.0
  0
LINE
  5
120
330
1E
100
AcDbEntity
  8
0
100
AcDbLine
 10
218.1332499999999
 20
119.857
 30
0.0
 11
218.1332499999999
 21
118.1769999999999
 31
0.0
  0
LINE
  5
121
330
1E
100
AcDbEntity
  8
0
100
AcDbLine
 10
218.1332499999999
 20
119.857
 30
0.0
 11
218.1332499999999
 21
121.649
 31
0.0
  0
LINE
  5
122
330
1E
100
AcDbEntity
  8
0
100
AcDbLine
 10
218.1332499999999
 20
118.1769999999999
 30
0.0
 11
218.1332499999999
 21
116.693
 31
0.0
  0
LINE
  5
123
330
1E
100
AcDbEntity
  8
0
100
AcDbLine
 10
218.1332499999999
 20
118.1769999999999
 30
0.0
 11
218.1332499999999
 21
119.857
 31
0.0
  0
LINE
  5
124
330
1E
100
AcDbEntity
  8
0
100
AcDbLine
 10
218.1332499999999
 20
116.693
 30
0.0
 11
218.1332499999999
 21
115.5729999999999
 31
0.0
  0
LINE
  5
125
330
1E
100
AcDbEntity
  8
0
100
AcDbLine
 10
218.1332499999999
 20
116.693
 30
0.0
 11
218.1332499999999
 21
118.1769999999999
 31
0.0
  0
LINE
  5
126
330
1E
100
AcDbEntity
  8
0
100
AcDbLine
 10
218.1332499999999
 20
115.5729999999999
 30
0.0
 11
218.1332499999999
 21
114.901
 31
0.0
  0
LINE
  5
127
330
1E
100
AcDbEntity
  8
0
100
AcDbLine
 10
218.1332499999999
 20
115.5729999999999
 30
0.0
 11
218.1332499999999
 21
116.693
 31
0.0
  0
LINE
  5
128
330
1E
100
AcDbEntity
  8
0
100
AcDbLine
 10
218.1332499999999
 20
114.901
 30
0.0
 11
218.1332499999999
 21
114.649
 31
0.0
  0
LINE
  5
129
330
1E
100
AcDbEntity
  8
0
100
AcDbLine
 10
218.1332499999999
 20
114.901
 30
0.0
 11
218.1332499999999
 21
115.5729999999999
 31
0.0
  0
LINE
  5
12A
330
1E
100
AcDbEntity
  8
0
100
AcDbLine
 10
218.1332499999999
 20
114.649
 30
0.0
 11
218.1332499999999
 21
111.6489999999999
 31
0.0
  0
LINE
  5
12B
330
1E
100
AcDbEntity
  8
0
100
AcDbLine
 10
218.1332499999999
 20
114.649
 30
0.0
 11
218.1332499999999
 21
114.901
 31
0.0
  0
LINE
  5
12C
330
1E
100
AcDbEntity
  8
0
100
AcDbLine
 10
218.1332499999999
 20
130.325
 30
0.0
 11
218.1332499999999
 21
130.6489999999999
 31
0.0
  0
LINE
  5
12D
330
1E
100
AcDbEntity
  8
0
100
AcDbLine
 10
218.1332499999999
 20
130.325
 30
0.0
 11
218.1332499999999
 21
129.461
 31
0.0
  0
LINE
  5
12E
330
1E
100
AcDbEntity
  8
0
100
AcDbLine
 10
218.1332499999999
 20
130.6489999999999
 30
0.0
 11
228.1332499999999
 21
130.6489999999999
 31
0.0
  0
LINE
  5
12F
330
1E
100
AcDbEntity
  8
0
100
AcDbLine
 10
218.1332499999999
 20
130.6489999999999
 30
0.0
 11
218.1332499999999
 21
130.325
 31
0.0
  0
LINE
  5
130
330
1E
100
AcDbEntity
  8
0
100
AcDbLine
 10
218.1332499999999
 20
131.6489999999999
 30
0.0
 11
238.13325
 21
131.6489999999999
 31
0.0
  0
LINE
  5
131
330
1E
100
AcDbEntity
  8
0
100
AcDbLine
 10
218.1332499999999
 20
137.6489999999999
 30
0.0
 11
218.1332499999999
 21
136.7129999999999
 31
0.0
  0
LINE
  5
132
330
1E
100
AcDbEntity
  8
0
100
AcDbLine
 10
218.1332499999999
 20
136.7129999999999
 30
0.0
 11
218.1332499999999
 21
137.6489999999999
 31
0.0
  0
LINE
  5
133
330
1E
100
AcDbEntity
  8
0
100
AcDbLine
 10
218.1332499999999
 20
136.7129999999999
 30
0.0
 11
218.1332499999999
 21
134.217
 31
0.0
  0
LINE
  5
134
330
1E
100
AcDbEntity
  8
0
100
AcDbLine
 10
218.1332499999999
 20
134.217
 30
0.0
 11
218.1332499999999
 21
136.7129999999999
 31
0.0
  0
LINE
  5
135
330
1E
100
AcDbEntity
  8
0
100
AcDbLine
 10
218.1332499999999
 20
134.217
 30
0.0
 11
218.1332499999999
 21
130.057
 31
0.0
  0
LINE
  5
136
330
1E
100
AcDbEntity
  8
0
100
AcDbLine
 10
218.1332499999999
 20
130.057
 30
0.0
 11
218.1332499999999
 21
134.217
 31
0.0
  0
LINE
  5
137
330
1E
100
AcDbEntity
  8
0
100
AcDbLine
 10
218.1332499999999
 20
130.057
 30
0.0
 11
218.1332499999999
 21
128.649
 31
0.0
  0
LINE
  5
138
330
1E
100
AcDbEntity
  8
0
100
AcDbLine
 10
218.1332499999999
 20
128.649
 30
0.0
 11
218.1332499999999
 21
130.057
 31
0.0
  0
LINE
  5
139
330
1E
100
AcDbEntity
  8
0
100
AcDbLine
 10
218.1332499999999
 20
128.649
 30
0.0
 11
218.1332499999999
 21
128.397
 31
0.0
  0
LINE
  5
13A
330
1E
100
AcDbEntity
  8
0
100
AcDbLine
 10
218.1332499999999
 20
128.649
 30
0.0
 11
218.1332499999999
 21
129.461
 31
0.0
  0
LINE
  5
13B
330
1E
100
AcDbEntity
  8
0
100
AcDbLine
 10
218.1332499999999
 20
111.6489999999999
 30
0.0
 11
218.1332499999999
 21
104.993
 31
0.0
  0
LINE
  5
13C
330
1E
100
AcDbEntity
  8
0
100
AcDbLine
 10
218.1332499999999
 20
111.6489999999999
 30
0.0
 11
218.1332499999999
 21
114.649
 31
0.0
  0
LINE
  5
13D
330
1E
100
AcDbEntity
  8
0
100
AcDbLine
 10
216.1332499999999
 20
104.993
 30
0.0
 11
216.1332499999999
 21
111.6489999999999
 31
0.0
  0
LINE
  5
13E
330
1E
100
AcDbEntity
  8
0
100
AcDbLine
 10
216.1332499999999
 20
104.993
 30
0.0
 11
216.1332499999999
 21
98.75299999999999
 31
0.0
  0
LINE
  5
13F
330
1E
100
AcDbEntity
  8
0
100
AcDbLine
 10
218.1332499999999
 20
98.75299999999999
 30
0.0
 11
218.1332499999999
 21
104.993
 31
0.0
  0
LINE
  5
140
330
1E
100
AcDbEntity
  8
0
100
AcDbLine
 10
218.1332499999999
 20
98.75299999999999
 30
0.0
 11
218.1332499999999
 21
93.24099999999999
 31
0.0
  0
LINE
  5
141
330
1E
100
AcDbEntity
  8
0
100
AcDbLine
 10
228.1332499999999
 20
112.6489999999999
 30
0.0
 11
228.1332499999999
 21
112.973
 31
0.0
  0
LINE
  5
142
330
1E
100
AcDbEntity
  8
0
100
AcDbLine
 10
228.1332499999999
 20
123.953
 30
0.0
 11
228.1332499999999
 21
121.649
 31
0.0
  0
LINE
  5
143
330
1E
100
AcDbEntity
  8
0
100
AcDbLine
 10
228.1332499999999
 20
123.953
 30
0.0
 11
228.1332499999999
 21
126.113
 31
0.0
  0
LINE
  5
144
330
1E
100
AcDbEntity
  8
0
100
AcDbLine
 10
228.1332499999999
 20
126.113
 30
0.0
 11
228.1332499999999
 21
123.953
 31
0.0
  0
LINE
  5
145
330
1E
100
AcDbEntity
  8
0
100
AcDbLine
 10
228.1332499999999
 20
126.113
 30
0.0
 11
228.1332499999999
 21
128.021
 31
0.0
  0
LINE
  5
146
330
1E
100
AcDbEntity
  8
0
100
AcDbLine
 10
228.1332499999999
 20
128.021
 30
0.0
 11
228.1332499999999
 21
126.113
 31
0.0
  0
LINE
  5
147
330
1E
100
AcDbEntity
  8
0
100
AcDbLine
 10
228.1332499999999
 20
128.021
 30
0.0
 11
228.1332499999999
 21
129.461
 31
0.0
  0
LINE
  5
148
330
1E
100
AcDbEntity
  8
0
100
AcDbLine
 10
228.1332499999999
 20
121.649
 30
0.0
 11
228.1332499999999
 21
119.345
 31
0.0
  0
LINE
  5
149
330
1E
100
AcDbEntity
  8
0
100
AcDbLine
 10
228.1332499999999
 20
121.649
 30
0.0
 11
228.1332499999999
 21
123.953
 31
0.0
  0
LINE
  5
14A
330
1E
100
AcDbEntity
  8
0
100
AcDbLine
 10
228.1332499999999
 20
119.345
 30
0.0
 11
228.1332499999999
 21
117.185
 31
0.0
  0
LINE
  5
14B
330
1E
100
AcDbEntity
  8
0
100
AcDbLine
 10
228.1332499999999
 20
119.345
 30
0.0
 11
228.1332499999999
 21
121.649
 31
0.0
  0
LINE
  5
14C
330
1E
100
AcDbEntity
  8
0
100
AcDbLine
 10
228.1332499999999
 20
117.185
 30
0.0
 11
228.1332499999999
 21
115.277
 31
0.0
  0
LINE
  5
14D
330
1E
100
AcDbEntity
  8
0
100
AcDbLine
 10
228.1332499999999
 20
117.185
 30
0.0
 11
228.1332499999999
 21
119.345
 31
0.0
  0
LINE
  5
14E
330
1E
100
AcDbEntity
  8
0
100
AcDbLine
 10
228.1332499999999
 20
115.277
 30
0.0
 11
228.1332499999999
 21
113.837
 31
0.0
  0
LINE
  5
14F
330
1E
100
AcDbEntity
  8
0
100
AcDbLine
 10
228.1332499999999
 20
115.277
 30
0.0
 11
228.1332499999999
 21
117.185
 31
0.0
  0
LINE
  5
150
330
1E
100
AcDbEntity
  8
0
100
AcDbLine
 10
228.1332499999999
 20
113.837
 30
0.0
 11
228.1332499999999
 21
112.973
 31
0.0
  0
LINE
  5
151
330
1E
100
AcDbEntity
  8
0
100
AcDbLine
 10
228.1332499999999
 20
113.837
 30
0.0
 11
228.1332499999999
 21
115.277
 31
0.0
  0
LINE
  5
152
330
1E
100
AcDbEntity
  8
0
100
AcDbLine
 10
228.1332499999999
 20
112.973
 30
0.0
 11
228.1332499999999
 21
112.6489999999999
 31
0.0
  0
LINE
  5
153
330
1E
100
AcDbEntity
  8
0
100
AcDbLine
 10
228.1332499999999
 20
112.973
 30
0.0
 11
228.1332499999999
 21
113.837
 31
0.0
  0
LINE
  5
154
330
1E
100
AcDbEntity
  8
0
100
AcDbLine
 10
238.13325
 20
96.64900000000001
 30
0.0
 11
268.1332499999999
 21
96.64900000000001
 31
0.0
  0
LINE
  5
155
330
1E
100
AcDbEntity
  8
0
100
AcDbLine
 10
238.13325
 20
96.64900000000001
 30
0.0
 11
238.13325
 21
131.6489999999999
 31
0.0
  0
LINE
  5
156
330
1E
100
AcDbEntity
  8
0
100
AcDbLine
 10
228.1332499999999
 20
114.649
 30
0.0
 11
238.13325
 21
114.649
 31
0.0
  0
LINE
  5
157
330
1E
100
AcDbEntity
  8
0
100
AcDbLine
 10
228.1332499999999
 20
129.461
 30
0.0
 11
228.1332499999999
 21
128.021
 31
0.0
  0
LINE
  5
158
330
1E
100
AcDbEntity
  8
0
100
AcDbLine
 10
228.1332499999999
 20
129.461
 30
0.0
 11
228.1332499999999
 21
130.325
 31
0.0
  0
LINE
  5
159
330
1E
100
AcDbEntity
  8
0
100
AcDbLine
 10
228.1332499999999
 20
130.325
 30
0.0
 11
228.1332499999999
 21
129.461
 31
0.0
  0
LINE
  5
15A
330
1E
100
AcDbEntity
  8
0
100
AcDbLine
 10
228.1332499999999
 20
130.325
 30
0.0
 11
228.1332499999999
 21
130.6489999999999
 31
0.0
  0
LINE
  5
15B
330
1E
100
AcDbEntity
  8
0
100
AcDbLine
 10
249.1332499999999
 20
140.6489999999999
 30
0.0
 11
249.1332499999999
 21
136.6489999999999
 31
0.0
  0
LINE
  5
15C
330
1E
100
AcDbEntity
  8
0
100
AcDbLine
 10
249.1332499999999
 20
140.6489999999999
 30
0.0
 11
250.5012499999999
 21
140.6489999999999
 31
0.0
  0
LINE
  5
15D
330
1E
100
AcDbEntity
  8
0
100
AcDbLine
 10
250.5012499999999
 20
140.6489999999999
 30
0.0
 11
254.1492499999999
 21
140.6489999999999
 31
0.0
  0
LINE
  5
15E
330
1E
100
AcDbEntity
  8
0
100
AcDbLine
 10
250.5012499999999
 20
136.6489999999999
 30
0.0
 11
254.1492499999999
 21
136.6489999999999
 31
0.0
  0
LINE
  5
15F
330
1E
100
AcDbEntity
  8
0
100
AcDbLine
 10
249.1332499999999
 20
136.6489999999999
 30
0.0
 11
250.5012499999999
 21
136.6489999999999
 31
0.0
  0
LINE
  5
160
330
1E
100
AcDbEntity
  8
0
100
AcDbLine
 10
249.1332499999999
 20
136.6489999999999
 30
0.0
 11
249.1332499999999
 21
140.6489999999999
 31
0.0
  0
LINE
  5
161
330
1E
100
AcDbEntity
  8
0
100
AcDbLine
 10
238.13325
 20
131.6489999999999
 30
0.0
 11
268.1332499999999
 21
131.6489999999999
 31
0.0
  0
LINE
  5
162
330
1E
100
AcDbEntity
  8
0
100
AcDbLine
 10
238.13325
 20
131.6489999999999
 30
0.0
 11
238.13325
 21
96.64900000000001
 31
0.0
  0
LINE
  5
163
330
1E
100
AcDbEntity
  8
0
100
AcDbLine
 10
228.1332499999999
 20
130.6489999999999
 30
0.0
 11
228.1332499999999
 21
130.325
 31
0.0
  0
LINE
  5
164
330
1E
100
AcDbEntity
  8
0
100
AcDbLine
 10
228.1332499999999
 20
128.649
 30
0.0
 11
238.13325
 21
128.649
 31
0.0
  0
LINE
  5
165
330
1E
100
AcDbEntity
  8
0
100
AcDbLine
 10
218.1332499999999
 20
104.993
 30
0.0
 11
218.1332499999999
 21
111.6489999999999
 31
0.0
  0
LINE
  5
166
330
1E
100
AcDbEntity
  8
0
100
AcDbLine
 10
218.1332499999999
 20
104.993
 30
0.0
 11
218.1332499999999
 21
98.75299999999999
 31
0.0
  0
LINE
  5
167
330
1E
100
AcDbEntity
  8
0
100
AcDbLine
 10
19.65346999999989
 20
408.0709999999999
 30
0.0
 11
20.41677999999989
 21
408.525
 31
0.0
  0
LINE
  5
168
330
1E
100
AcDbEntity
  8
0
100
AcDbLine
 10
19.19550999999989
 20
407.798
 30
0.0
 11
19.65346999999989
 21
408.0709999999999
 31
0.0
  0
LINE
  5
169
330
1E
100
AcDbEntity
  8
0
100
AcDbLine
 10
20.9497499999999
 20
415.628
 30
0.0
 11
22.9351199999999
 21
415.978
 31
0.0
  0
LINE
  5
16A
330
1E
100
AcDbEntity
  8
0
100
AcDbLine
 10
20.20522999999989
 20
415.4959999999999
 30
0.0
 11
20.9497499999999
 21
415.628
 31
0.0
  0
LINE
  5
16B
330
1E
100
AcDbEntity
  8
0
100
AcDbLine
 10
20.41677999999989
 20
408.525
 30
0.0
 11
21.42811999999989
 21
409.1269999999999
 31
0.0
  0
LINE
  5
16C
330
1E
100
AcDbEntity
  8
0
100
AcDbLine
 10
19.02377999999989
 20
407.695
 30
0.0
 11
19.19550999999989
 21
407.798
 31
0.0
  0
LINE
  5
16D
330
1E
100
AcDbEntity
  8
0
100
AcDbLine
 10
6.313349999999899
 20
494.281
 30
0.0
 11
20.20522999999989
 21
415.4959999999999
 31
0.0
  0
LINE
  5
16E
330
1E
100
AcDbEntity
  8
0
100
AcDbLine
 10
6.313349999999899
 20
494.281
 30
0.0
 11
7.05784999999991
 21
494.4119999999999
 31
0.0
  0
LINE
  5
171
330
1E
100
AcDbEntity
  8
0
100
AcDbLine
 10
7.05784999999991
 20
494.4119999999999
 30
0.0
 11
11.3704646557423
 21
495.172726309747
 31
0.0
  0
LINE
  5
172
330
1E
100
AcDbEntity
  8
0
100
AcDbLine
 10
7.15104999999991
 20
501.223
 30
0.0
 11
8.01184999999991
 21
501.299
 31
0.0
  0
LINE
  5
173
330
1E
100
AcDbEntity
  8
0
100
AcDbLine
 10
6.828349999999899
 20
501.1949999999999
 30
0.0
 11
7.15104999999991
 21
501.223
 31
0.0
  0
LINE
  5
175
330
1E
100
AcDbEntity
  8
0
100
AcDbLine
 10
8.01184999999991
 20
501.299
 30
0.0
 11
10.8131053558713
 21
501.543367279989
 31
0.0
  0
LINE
  5
17F
330
1E
100
AcDbEntity
  8
0
100
AcDbLine
 10
10.8131053558713
 20
501.543367279989
 30
0.0
 11
11.3704646557423
 21
495.172726309747
 31
0.0
  0
LINE
  5
180
330
1E
100
AcDbEntity
  8
0
100
AcDbLine
 10
16.50563474131829
 20
436.477509518886
 30
0.0
 11
19.02377999999989
 21
407.695
 31
0.0
  0
LINE
  5
183
330
1E
100
AcDbEntity
  8
0
100
AcDbLine
 10
22.9351199999999
 20
415.978
 30
0.0
 11
24.9906388877608
 21
416.3401589026039
 31
0.0
  0
LINE
  5
184
330
1E
100
AcDbEntity
  8
0
100
AcDbLine
 10
22.9351199999999
 20
415.978
 30
0.0
 11
24.9906388877608
 21
416.3401589026039
 31
0.0
  0
LINE
  5
185
330
1E
100
AcDbEntity
  8
0
100
AcDbLine
 10
22.9351199999999
 20
415.978
 30
0.0
 11
26.2440749999999
 21
416.561
 31
0.0
  0
LINE
  5
187
330
1E
100
AcDbEntity
  8
0
100
AcDbLine
 10
22.5730899999999
 20
409.809
 30
0.0
 11
23.7943599999999
 21
410.536
 31
0.0
  0
LINE
  5
188
330
1E
100
AcDbEntity
  8
0
100
AcDbLine
 10
21.42811999999989
 20
409.1269999999999
 30
0.0
 11
22.5730899999999
 21
409.809
 31
0.0
  0
LINE
  5
18A
330
1E
100
AcDbEntity
  8
0
100
AcDbLine
 10
23.7943599999999
 20
410.536
 30
0.0
 11
25.0156299999999
 21
411.263
 31
0.0
  0
LINE
  5
18B
330
1E
100
AcDbEntity
  8
0
100
AcDbLine
 10
24.9906388877608
 20
416.3401589026039
 30
0.0
 11
45.2740310588401
 21
297.00147883267
 31
0.0
  0
LINE
  5
18C
330
1E
100
AcDbEntity
  8
0
100
AcDbLine
 10
24.9906388877608
 20
416.3401589026039
 30
0.0
 11
45.2740310588401
 21
297.00147883267
 31
0.0
  0
LINE
  5
18F
330
1E
100
AcDbEntity
  8
0
100
AcDbLine
 10
30.62843999999989
 20
417.334
 30
0.0
 11
35.5918699999999
 21
418.209
 31
0.0
  0
LINE
  5
190
330
1E
100
AcDbEntity
  8
0
100
AcDbLine
 10
26.2440749999999
 20
416.561
 30
0.0
 11
30.62843999999989
 21
417.334
 31
0.0
  0
LINE
  5
192
330
1E
100
AcDbEntity
  8
0
100
AcDbLine
 10
35.5918699999999
 20
418.209
 30
0.0
 11
40.8861499999999
 21
419.143
 31
0.0
  0
LINE
  5
19A
330
1E
100
AcDbEntity
  8
0
100
AcDbLine
 10
25.0156299999999
 20
411.263
 30
0.0
 11
25.7766459461751
 21
411.7156343612619
 31
0.0
  0
LINE
  5
19D
330
1E
100
AcDbEntity
  8
0
100
AcDbLine
 10
43.01914999999989
 20
296.6029999999999
 30
0.0
 11
45.00454999999989
 21
296.954
 31
0.0
  0
LINE
  5
19F
330
1E
100
AcDbEntity
  8
0
100
AcDbLine
 10
42.2746499999999
 20
296.4719999999999
 30
0.0
 11
43.01914999999989
 21
296.6029999999999
 31
0.0
  0
LINE
  5
1A0
330
1E
100
AcDbEntity
  8
0
100
AcDbLine
 10
42.2746499999999
 20
296.4719999999999
 30
0.0
 11
43.6687946227152
 21
296.7178510439069
 31
0.0
  0
LINE
  5
1A1
330
1E
100
AcDbEntity
  8
0
100
AcDbLine
 10
42.2746499999999
 20
296.4719999999999
 30
0.0
 11
45.74759845218389
 21
276.7762923368219
 31
0.0
  0
LINE
  5
1A2
330
1E
100
AcDbEntity
  8
0
100
AcDbLine
 10
44.5934499999999
 20
276.573
 30
0.0
 11
46.4920162946253
 21
276.9077582669329
 31
0.0
  0
LINE
  5
1A3
330
1E
100
AcDbEntity
  8
0
100
AcDbLine
 10
44.5934499999999
 20
276.573
 30
0.0
 11
46.76784999999989
 21
276.9559999999999
 31
0.0
  0
LINE
  5
1A5
330
1E
100
AcDbEntity
  8
0
100
AcDbLine
 10
43.77804999999989
 20
276.429
 30
0.0
 11
48.9874499999999
 21
246.8849999999999
 31
0.0
  0
LINE
  5
1A6
330
1E
100
AcDbEntity
  8
0
100
AcDbLine
 10
43.77804999999989
 20
276.429
 30
0.0
 11
44.5934499999999
 21
276.573
 31
0.0
  0
LINE
  5
1A7
330
1E
100
AcDbEntity
  8
0
100
AcDbLine
 10
45.00454999999989
 20
296.954
 30
0.0
 11
45.27402544871169
 21
297.001511840231
 31
0.0
  0
LINE
  5
1A8
330
1E
100
AcDbEntity
  8
0
100
AcDbLine
 10
45.00454999999989
 20
296.954
 30
0.0
 11
45.2740310588401
 21
297.00147883267
 31
0.0
  0
LINE
  5
1A9
330
1E
100
AcDbEntity
  8
0
100
AcDbLine
 10
45.00454999999989
 20
296.954
 30
0.0
 11
47.61383269751319
 21
297.414048673208
 31
0.0
  0
LINE
  5
1AA
330
1E
100
AcDbEntity
  8
0
100
AcDbLine
 10
45.00454999999989
 20
296.954
 30
0.0
 11
48.31354999999989
 21
297.537
 31
0.0
  0
LINE
  5
1AC
330
1E
100
AcDbEntity
  8
0
100
AcDbLine
 10
44.5934500001771
 20
276.5730000000309
 30
0.0
 11
45.7475627143156
 21
276.776495012623
 31
0.0
  0
LINE
  5
1AD
330
1E
100
AcDbEntity
  8
0
100
AcDbLine
 10
40.8861499999999
 20
419.143
 30
0.0
 11
46.1805499999999
 21
420.0759999999999
 31
0.0
  0
LINE
  5
1AE
330
1E
100
AcDbEntity
  8
0
100
AcDbLine
 10
48.31354999999989
 20
297.537
 30
0.0
 11
50.4503105606792
 21
297.9137981210119
 31
0.0
  0
LINE
  5
1AF
330
1E
100
AcDbEntity
  8
0
100
AcDbLine
 10
48.31354999999989
 20
297.537
 30
0.0
 11
52.69784999999989
 21
298.3099999999999
 31
0.0
  0
LINE
  5
1B1
330
1E
100
AcDbEntity
  8
0
100
AcDbLine
 10
46.76784999999989
 20
276.9559999999999
 30
0.0
 11
48.477465986489
 21
277.257476479737
 31
0.0
  0
LINE
  5
1B2
330
1E
100
AcDbEntity
  8
0
100
AcDbLine
 10
46.76784999999989
 20
276.9559999999999
 30
0.0
 11
48.477465986489
 21
277.257476479737
 31
0.0
  0
LINE
  5
1B3
330
1E
100
AcDbEntity
  8
0
100
AcDbLine
 10
46.76784999999989
 20
276.9559999999999
 30
0.0
 11
50.39194999999989
 21
277.595
 31
0.0
  0
LINE
  5
1B5
330
1E
100
AcDbEntity
  8
0
100
AcDbLine
 10
46.1805499999999
 20
420.0759999999999
 30
0.0
 11
51.1439499999999
 21
420.952
 31
0.0
  0
LINE
  5
1B8
330
1E
100
AcDbEntity
  8
0
100
AcDbLine
 10
48.03154999999989
 20
510.7469999999999
 30
0.0
 11
49.14294999999989
 21
504.444
 31
0.0
  0
LINE
  5
1BA
330
1E
100
AcDbEntity
  8
0
100
AcDbLine
 10
48.1456920958317
 20
498.906534155393
 30
0.0
 11
61.5671499999999
 21
422.789
 31
0.0
  0
LINE
  5
1BB
330
1E
100
AcDbEntity
  8
0
100
AcDbLine
 10
48.1456920958317
 20
498.906534155393
 30
0.0
 11
50.05974999999989
 21
499.244
 31
0.0
  0
LINE
  5
1BD
330
1E
100
AcDbEntity
  8
0
100
AcDbLine
 10
15.65884999999989
 20
517.1429999999999
 30
0.0
 11
20.04695999999989
 21
517.307
 31
0.0
  0
LINE
  5
1C1
330
1E
100
AcDbEntity
  8
0
100
AcDbLine
 10
4.664949999999909
 20
523.6319999999999
 30
0.0
 11
4.88325986720665
 21
523.4275346538239
 31
0.0
  0
LINE
  5
1C2
330
1E
100
AcDbEntity
  8
0
100
AcDbLine
 10
4.085549999999909
 20
523.1749999999999
 30
0.0
 11
7.36104999999991
 21
520.1469999999999
 31
0.0
  0
LINE
  5
1C4
330
1E
100
AcDbEntity
  8
0
100
AcDbLine
 10
7.36104999999991
 20
520.1469999999999
 30
0.0
 11
11.3259499999999
 21
518.1049999999999
 31
0.0
  0
LINE
  5
1C5
330
1E
100
AcDbEntity
  8
0
100
AcDbLine
 10
11.3259499999999
 20
518.1049999999999
 30
0.0
 11
15.65884999999989
 21
517.1429999999999
 31
0.0
  0
LINE
  5
1C6
330
1E
100
AcDbEntity
  8
0
100
AcDbLine
 10
27.9691949999999
 20
521.0399999999999
 30
0.0
 11
30.9964099999999
 21
524.315
 31
0.0
  0
LINE
  5
1C7
330
1E
100
AcDbEntity
  8
0
100
AcDbLine
 10
24.2266899999999
 20
518.653
 30
0.0
 11
27.9691949999999
 21
521.0399999999999
 31
0.0
  0
LINE
  5
1C8
330
1E
100
AcDbEntity
  8
0
100
AcDbLine
 10
20.04695999999989
 20
517.307
 30
0.0
 11
24.2266899999999
 21
518.653
 31
0.0
  0
LINE
  5
1CA
330
1E
100
AcDbEntity
  8
0
100
AcDbLine
 10
47.0465499999999
 20
519.672
 30
0.0
 11
48.4635499999999
 21
511.6349999999999
 31
0.0
  0
LINE
  5
1CB
330
1E
100
AcDbEntity
  8
0
100
AcDbLine
 10
46.55904999999989
 20
519.098
 30
0.0
 11
48.03154999999989
 21
510.7469999999999
 31
0.0
  0
LINE
  5
1CD
330
1E
100
AcDbEntity
  8
0
100
AcDbLine
 10
30.9964099999999
 20
524.315
 30
0.0
 11
33.03893999999989
 21
528.2799999999999
 31
0.0
  0
LINE
  5
1CE
330
1E
100
AcDbEntity
  8
0
100
AcDbLine
 10
47.89150948467589
 20
514.8795233744949
 30
0.0
 11
48.35654999999989
 21
512.2419999999999
 31
0.0
  0
LINE
  5
1CF
330
1E
100
AcDbEntity
  8
0
100
AcDbLine
 10
47.89150948467589
 20
514.8795233744949
 30
0.0
 11
48.4635499999999
 21
511.6349999999999
 31
0.0
  0
LINE
  5
1D0
330
1E
100
AcDbEntity
  8
0
100
AcDbLine
 10
48.9874499999999
 20
246.8849999999999
 30
0.0
 11
49.80284999999989
 21
247.0279999999999
 31
0.0
  0
LINE
  5
1D1
330
1E
100
AcDbEntity
  8
0
100
AcDbLine
 10
49.14294999999989
 20
504.444
 30
0.0
 11
49.8097499999999
 21
500.663
 31
0.0
  0
LINE
  5
1D2
330
1E
100
AcDbEntity
  8
0
100
AcDbLine
 10
48.35654999999989
 20
512.2419999999999
 30
0.0
 11
50.2139499999999
 21
501.709
 31
0.0
  0
LINE
  5
1D4
330
1E
100
AcDbEntity
  8
0
100
AcDbLine
 10
49.29834999999989
 20
525.2
 30
0.0
 11
49.8721499999999
 21
524.825
 31
0.0
  0
LINE
  5
1D6
330
1E
100
AcDbEntity
  8
0
100
AcDbLine
 10
49.80284999999989
 20
247.0279999999999
 30
0.0
 11
51.8682320173912
 21
247.392169816029
 31
0.0
  0
LINE
  5
1D7
330
1E
100
AcDbEntity
  8
0
100
AcDbLine
 10
49.80284999999989
 20
247.0279999999999
 30
0.0
 11
51.9773499999999
 21
247.412
 31
0.0
  0
LINE
  5
1D8
330
1E
100
AcDbEntity
  8
0
100
AcDbLine
 10
49.80284999999989
 20
247.0279999999999
 30
0.0
 11
52.576766969202
 21
247.5170992677619
 31
0.0
  0
LINE
  5
1D9
330
1E
100
AcDbEntity
  8
0
100
AcDbLine
 10
49.80284999999989
 20
247.0279999999999
 30
0.0
 11
52.576766969202
 21
247.5170992677619
 31
0.0
  0
LINE
  5
1DA
330
1E
100
AcDbEntity
  8
0
100
AcDbLine
 10
50.2139499999999
 20
501.709
 30
0.0
 11
50.46394999999989
 21
500.2909999999999
 31
0.0
  0
LINE
  5
1DB
330
1E
100
AcDbEntity
  8
0
100
AcDbLine
 10
49.8097499999999
 20
500.663
 30
0.0
 11
50.05974999999989
 21
499.244
 31
0.0
  0
LINE
  5
1DC
330
1E
100
AcDbEntity
  8
0
100
AcDbLine
 10
50.05974999999989
 20
499.244
 30
0.0
 11
50.46394999999989
 21
500.2909999999999
 31
0.0
  0
LINE
  5
1DD
330
1E
100
AcDbEntity
  8
0
100
AcDbLine
 10
50.39194999999989
 20
277.595
 30
0.0
 11
55.19394999999989
 21
278.442
 31
0.0
  0
LINE
  5
1DF
330
1E
100
AcDbEntity
  8
0
100
AcDbLine
 10
50.283412104536
 20
501.315010943071
 30
0.0
 11
52.66694999999989
 21
501.735
 31
0.0
  0
LINE
  5
1E0
330
1E
100
AcDbEntity
  8
0
100
AcDbLine
 10
49.8329499999999
 20
521.1459999999999
 30
0.0
 11
51.17904999999989
 21
513.5119999999999
 31
0.0
  0
LINE
  5
1E1
330
1E
100
AcDbEntity
  8
0
100
AcDbLine
 10
49.3412499999999
 20
520.596
 30
0.0
 11
50.74014999999989
 21
512.6619999999999
 31
0.0
  0
LINE
  5
1E2
330
1E
100
AcDbEntity
  8
0
100
AcDbLine
 10
51.1439499999999
 20
420.952
 30
0.0
 11
55.5283499999999
 21
421.7249999999999
 31
0.0
  0
LINE
  5
1E3
330
1E
100
AcDbEntity
  8
0
100
AcDbLine
 10
51.17904999999989
 20
513.5119999999999
 30
0.0
 11
52.20844999999989
 21
507.674
 31
0.0
  0
LINE
  5
1E4
330
1E
100
AcDbEntity
  8
0
100
AcDbLine
 10
50.74014999999989
 20
512.6619999999999
 30
0.0
 11
51.79584999999989
 21
506.6749999999999
 31
0.0
  0
LINE
  5
1E5
330
1E
100
AcDbEntity
  8
0
100
AcDbLine
 10
49.8903499999999
 20
524.7219999999999
 30
0.0
 11
54.8144499999999
 21
525.59
 31
0.0
  0
LINE
  5
1E6
330
1E
100
AcDbEntity
  8
0
100
AcDbLine
 10
49.33874999999989
 20
524.97
 30
0.0
 11
49.8903499999999
 21
524.7219999999999
 31
0.0
  0
LINE
  5
1E9
330
1E
100
AcDbEntity
  8
0
100
AcDbLine
 10
1.699449999999899
 20
526.9169999999999
 30
0.0
 11
4.085549999999909
 21
523.1749999999999
 31
0.0
  0
LINE
  5
1F0
330
1E
100
AcDbEntity
  8
0
100
AcDbLine
 10
2.41204999999991
 20
527.195
 30
0.0
 11
4.664949999999909
 21
523.6319999999999
 31
0.0
  0
LINE
  5
1F1
330
1E
100
AcDbEntity
  8
0
100
AcDbLine
 10
1.699449999999909
 20
526.9169999999999
 30
0.0
 11
4.085549999999909
 21
523.1749999999999
 31
0.0
  0
LINE
  5
1F2
330
1E
100
AcDbEntity
  8
0
100
AcDbLine
 10
45.43514999999989
 20
528.811
 30
0.0
 11
47.0465499999999
 21
519.672
 31
0.0
  0
LINE
  5
1F3
330
1E
100
AcDbEntity
  8
0
100
AcDbLine
 10
44.8920499999999
 20
528.5519999999999
 30
0.0
 11
46.55904999999989
 21
519.098
 31
0.0
  0
LINE
  5
1F4
330
1E
100
AcDbEntity
  8
0
100
AcDbLine
 10
33.03893999999989
 20
528.2799999999999
 30
0.0
 11
34.00115999999989
 21
532.613
 31
0.0
  0
LINE
  5
1F5
330
1E
100
AcDbEntity
  8
0
100
AcDbLine
 10
47.75754999999989
 20
529.577
 30
0.0
 11
49.3412499999999
 21
520.596
 31
0.0
  0
LINE
  5
1F6
330
1E
100
AcDbEntity
  8
0
100
AcDbLine
 10
0.953349999999903
 20
535.4669999999999
 30
0.0
 11
1.09184999999991
 21
531.2269999999999
 31
0.0
  0
LINE
  5
1F7
330
1E
100
AcDbEntity
  8
0
100
AcDbLine
 10
0.953349999999903
 20
535.4669999999999
 30
0.0
 11
1.85184999999991
 21
539.5859999999999
 31
0.0
  0
LINE
  5
1F8
330
1E
100
AcDbEntity
  8
0
100
AcDbLine
 10
0.188749999999908
 20
535.4849999999999
 30
0.0
 11
0.353249999999908
 21
531.097
 31
0.0
  0
LINE
  5
1F9
330
1E
100
AcDbEntity
  8
0
100
AcDbLine
 10
0.188749999999908
 20
535.4849999999999
 30
0.0
 11
1.150949999999909
 21
539.8179999999999
 31
0.0
  0
LINE
  5
1FA
330
1E
100
AcDbEntity
  8
0
100
AcDbLine
 10
1.09184999999991
 20
531.2269999999999
 30
0.0
 11
2.41204999999991
 21
527.195
 31
0.0
  0
LINE
  5
1FB
330
1E
100
AcDbEntity
  8
0
100
AcDbLine
 10
1.85184999999991
 20
539.5859999999999
 30
0.0
 11
3.231375069515779
 21
542.3087090475499
 31
0.0
  0
LINE
  5
1FC
330
1E
100
AcDbEntity
  8
0
100
AcDbLine
 10
1.150949999999909
 20
539.8179999999999
 30
0.0
 11
3.193449999999899
 21
543.7829999999999
 31
0.0
  0
LINE
  5
1FD
330
1E
100
AcDbEntity
  8
0
100
AcDbLine
 10
1.150949999999909
 20
539.8179999999999
 30
0.0
 11
3.11561147812695
 21
543.6318960885059
 31
0.0
  0
LINE
  5
200
330
1E
100
AcDbEntity
  8
0
100
AcDbLine
 10
30.1042899999999
 20
544.923
 30
0.0
 11
32.4904199999999
 21
541.181
 31
0.0
  0
LINE
  5
201
330
1E
100
AcDbEntity
  8
0
100
AcDbLine
 10
32.4904199999999
 20
541.181
 30
0.0
 11
33.8366699999999
 21
537.0009999999999
 31
0.0
  0
LINE
  5
202
330
1E
100
AcDbEntity
  8
0
100
AcDbLine
 10
3.193449999999899
 20
543.7829999999999
 30
0.0
 11
6.22064999999991
 21
547.0579999999999
 31
0.0
  0
LINE
  5
204
330
1E
100
AcDbEntity
  8
0
100
AcDbLine
 10
26.82885599999989
 20
547.95
 30
0.0
 11
30.1042899999999
 21
544.923
 31
0.0
  0
LINE
  5
205
330
1E
100
AcDbEntity
  8
0
100
AcDbLine
 10
6.22064999999991
 20
547.0579999999999
 30
0.0
 11
9.96314999999991
 21
549.4439999999999
 31
0.0
  0
LINE
  5
206
330
1E
100
AcDbEntity
  8
0
100
AcDbLine
 10
1.09184999999991
 20
531.2269999999999
 30
0.0
 11
2.41204999999991
 21
527.195
 31
0.0
  0
LINE
  5
207
330
1E
100
AcDbEntity
  8
0
100
AcDbLine
 10
0.353249999999908
 20
531.097
 30
0.0
 11
1.699449999999899
 21
526.9169999999999
 31
0.0
  0
LINE
  5
20B
330
1E
100
AcDbEntity
  8
0
100
AcDbLine
 10
43.68474999999989
 20
538.7369999999999
 30
0.0
 11
45.43514999999989
 21
528.811
 31
0.0
  0
LINE
  5
20C
330
1E
100
AcDbEntity
  8
0
100
AcDbLine
 10
43.11384999999989
 20
538.6369999999999
 30
0.0
 11
44.8920499999999
 21
528.5519999999999
 31
0.0
  0
LINE
  5
20D
330
1E
100
AcDbEntity
  8
0
100
AcDbLine
 10
33.8366699999999
 20
537.0009999999999
 30
0.0
 11
34.00115999999989
 21
532.613
 31
0.0
  0
LINE
  5
20F
330
1E
100
AcDbEntity
  8
0
100
AcDbLine
 10
41.9955499999999
 20
548.3179999999999
 30
0.0
 11
43.68474999999989
 21
538.7369999999999
 31
0.0
  0
LINE
  5
211
330
1E
100
AcDbEntity
  8
0
100
AcDbLine
 10
41.9343499999999
 20
548.664
 30
0.0
 11
43.68474999999989
 21
538.7369999999999
 31
0.0
  0
LINE
  5
212
330
1E
100
AcDbEntity
  8
0
100
AcDbLine
 10
41.3356499999999
 20
548.721
 30
0.0
 11
43.11384999999989
 21
538.6369999999999
 31
0.0
  0
LINE
  5
213
330
1E
100
AcDbEntity
  8
0
100
AcDbLine
 10
5.088549999999909
 20
551.234
 30
0.0
 11
6.98924999999991
 21
551.4
 31
0.0
  0
LINE
  5
214
330
1E
100
AcDbEntity
  8
0
100
AcDbLine
 10
3.65404999999991
 20
551.108
 30
0.0
 11
5.088549999999909
 21
551.234
 31
0.0
  0
LINE
  5
215
330
1E
100
AcDbEntity
  8
0
100
AcDbLine
 10
2.793349999999899
 20
551.033
 30
0.0
 11
3.65404999999991
 21
551.108
 31
0.0
  0
LINE
  5
216
330
1E
100
AcDbEntity
  8
0
100
AcDbLine
 10
2.47054999999991
 20
551.0049999999999
 30
0.0
 11
6.828349999999899
 21
501.1949999999999
 31
0.0
  0
LINE
  5
217
330
1E
100
AcDbEntity
  8
0
100
AcDbLine
 10
2.47054999999991
 20
551.0049999999999
 30
0.0
 11
2.793349999999899
 21
551.033
 31
0.0
  0
LINE
  5
218
330
1E
100
AcDbEntity
  8
0
100
AcDbLine
 10
22.8639399999999
 20
549.993
 30
0.0
 11
26.82885599999989
 21
547.95
 31
0.0
  0
LINE
  5
219
330
1E
100
AcDbEntity
  8
0
100
AcDbLine
 10
18.5310199999999
 20
550.955
 30
0.0
 11
22.8639399999999
 21
549.993
 31
0.0
  0
LINE
  5
21A
330
1E
100
AcDbEntity
  8
0
100
AcDbLine
 10
14.1429499999999
 20
550.7909999999999
 30
0.0
 11
18.5310199999999
 21
550.955
 31
0.0
  0
LINE
  5
21B
330
1E
100
AcDbEntity
  8
0
100
AcDbLine
 10
9.96314999999991
 20
549.4439999999999
 30
0.0
 11
14.1429499999999
 21
550.7909999999999
 31
0.0
  0
LINE
  5
21C
330
1E
100
AcDbEntity
  8
0
100
AcDbLine
 10
44.9763499999999
 20
548.6889999999999
 30
0.0
 11
46.63914999999989
 21
539.258
 31
0.0
  0
LINE
  5
21D
330
1E
100
AcDbEntity
  8
0
100
AcDbLine
 10
44.37904999999989
 20
548.738
 30
0.0
 11
46.06824999999989
 21
539.158
 31
0.0
  0
LINE
  5
21E
330
1E
100
AcDbEntity
  8
0
100
AcDbLine
 10
45.03544085928879
 20
548.353850917757
 30
0.0
 11
45.33394999999989
 21
547.6829999999999
 31
0.0
  0
LINE
  5
220
330
1E
100
AcDbEntity
  8
0
100
AcDbLine
 10
48.0600499999999
 20
532.2219999999999
 30
0.0
 11
48.25254999999989
 21
531.1309999999999
 31
0.0
  0
LINE
  5
223
330
1E
100
AcDbEntity
  8
0
100
AcDbLine
 10
45.5264499999999
 20
546.591
 30
0.0
 11
45.64364999999989
 21
545.9259999999999
 31
0.0
  0
LINE
  5
225
330
1E
100
AcDbEntity
  8
0
100
AcDbLine
 10
46.63914999999989
 20
539.258
 30
0.0
 11
48.30204999999989
 21
529.828
 31
0.0
  0
LINE
  5
226
330
1E
100
AcDbEntity
  8
0
100
AcDbLine
 10
46.06824999999989
 20
539.158
 30
0.0
 11
47.75754999999989
 21
529.577
 31
0.0
  0
LINE
  5
229
330
1E
100
AcDbEntity
  8
0
100
AcDbLine
 10
45.64364999999989
 20
545.9259999999999
 30
0.0
 11
45.7271210462072
 21
544.430807952381
 31
0.0
  0
LINE
  5
22B
330
1E
100
AcDbEntity
  8
0
100
AcDbLine
 10
47.5096735898197
 20
534.321420859943
 30
0.0
 11
47.94284999999989
 21
532.8869999999999
 31
0.0
  0
LINE
  5
22C
330
1E
100
AcDbEntity
  8
0
100
AcDbLine
 10
47.94284999999989
 20
532.8869999999999
 30
0.0
 11
48.0600499999999
 21
532.2219999999999
 31
0.0
  0
LINE
  5
230
330
1E
100
AcDbEntity
  8
0
100
AcDbLine
 10
45.33394999999989
 20
547.6829999999999
 30
0.0
 11
45.5264499999999
 21
546.591
 31
0.0
  0
LINE
  5
232
330
1E
100
AcDbEntity
  8
0
100
AcDbLine
 10
48.2015555748881
 20
530.397885398283
 30
0.0
 11
48.25254999999989
 21
531.1309999999999
 31
0.0
  0
LINE
  5
233
330
1E
100
AcDbEntity
  8
0
100
AcDbLine
 10
48.30204999999989
 20
529.828
 30
0.0
 11
49.8329499999999
 21
521.1459999999999
 31
0.0
  0
LINE
  5
238
330
1E
100
AcDbEntity
  8
0
100
AcDbLine
 10
49.0063401238955
 20
525.8338482881559
 30
0.0
 11
49.29834999999989
 21
525.2
 31
0.0
  0
LINE
  5
23A
330
1E
100
AcDbEntity
  8
0
100
AcDbLine
 10
51.2427499999999
 20
548.725
 30
0.0
 11
51.3342499999999
 21
550.039
 31
0.0
  0
LINE
  5
23C
330
1E
100
AcDbEntity
  8
0
100
AcDbLine
 10
51.2427499999999
 20
548.725
 30
0.0
 11
51.43524999999989
 21
547.633
 31
0.0
  0
LINE
  5
240
330
1E
100
AcDbEntity
  8
0
100
AcDbLine
 10
49.0740047082483
 20
525.450110668879
 30
0.0
 11
49.33874999999989
 21
524.97
 31
0.0
  0
LINE
  5
241
330
1E
100
AcDbEntity
  8
0
100
AcDbLine
 10
51.30235128205161
 20
551.266519230767
 30
0.0
 11
51.37184999999989
 21
550.873
 31
0.0
  0
LINE
  5
242
330
1E
100
AcDbEntity
  8
0
100
AcDbLine
 10
11.4362499999999
 20
551.789
 30
0.0
 11
13.73154999999989
 21
551.9899999999999
 31
0.0
  0
LINE
  5
243
330
1E
100
AcDbEntity
  8
0
100
AcDbLine
 10
9.141049999999911
 20
551.5880000000001
 30
0.0
 11
11.4362499999999
 21
551.789
 31
0.0
  0
LINE
  5
244
330
1E
100
AcDbEntity
  8
0
100
AcDbLine
 10
6.98924999999991
 20
551.4
 30
0.0
 11
9.141049999999911
 21
551.5880000000001
 31
0.0
  0
LINE
  5
245
330
1E
100
AcDbEntity
  8
0
100
AcDbLine
 10
13.73154999999989
 20
551.9899999999999
 30
0.0
 11
15.88324999999989
 21
552.1779999999999
 31
0.0
  0
LINE
  5
248
330
1E
100
AcDbEntity
  8
0
100
AcDbLine
 10
44.2305658581672
 20
552.9184715000269
 30
0.0
 11
44.28814999999989
 21
553.614
 31
0.0
  0
LINE
  5
249
330
1E
100
AcDbEntity
  8
0
100
AcDbLine
 10
13.4695499999999
 20
566.127
 30
0.0
 11
14.0415499999999
 21
562.883
 31
0.0
  0
LINE
  5
24A
330
1E
100
AcDbEntity
  8
0
100
AcDbLine
 10
13.25504999999989
 20
567.344
 30
0.0
 11
13.4695499999999
 21
566.127
 31
0.0
  0
LINE
  5
24B
330
1E
100
AcDbEntity
  8
0
100
AcDbLine
 10
13.25504999999989
 20
567.344
 30
0.0
 11
13.5686499999999
 21
568.4439999999999
 31
0.0
  0
LINE
  5
24C
330
1E
100
AcDbEntity
  8
0
100
AcDbLine
 10
14.0415499999999
 20
562.883
 30
0.0
 11
15.88324999999989
 21
552.1779999999999
 31
0.0
  0
LINE
  5
250
330
1E
100
AcDbEntity
  8
0
100
AcDbLine
 10
13.5686499999999
 20
568.4439999999999
 30
0.0
 11
14.46404999999989
 21
569.125
 31
0.0
  0
LINE
  5
257
330
1E
100
AcDbEntity
  8
0
100
AcDbLine
 10
14.46404999999989
 20
569.125
 30
0.0
 11
27.7589869999999
 21
571.469
 31
0.0
  0
LINE
  5
258
330
1E
100
AcDbEntity
  8
0
100
AcDbLine
 10
27.0574479999999
 20
575.448
 30
0.0
 11
27.7589869999999
 21
571.469
 31
0.0
  0
LINE
  5
259
330
1E
100
AcDbEntity
  8
0
100
AcDbLine
 10
27.0574479999999
 20
575.448
 30
0.0
 11
27.4616389999999
 21
576.494
 31
0.0
  0
LINE
  5
25C
330
1E
100
AcDbEntity
  8
0
100
AcDbLine
 10
37.08478999999989
 20
572.829
 30
0.0
 11
38.19614999999989
 21
566.5259999999999
 31
0.0
  0
LINE
  5
25F
330
1E
100
AcDbEntity
  8
0
100
AcDbLine
 10
38.19614999999989
 20
566.5259999999999
 30
0.0
 11
39.6686499999999
 21
558.1749999999999
 31
0.0
  0
LINE
  5
260
330
1E
100
AcDbEntity
  8
0
100
AcDbLine
 10
38.9059499999999
 20
565.839
 30
0.0
 11
40.32294999999989
 21
557.803
 31
0.0
  0
LINE
  5
261
330
1E
100
AcDbEntity
  8
0
100
AcDbLine
 10
39.6686499999999
 20
558.1749999999999
 30
0.0
 11
41.3356499999999
 21
548.721
 31
0.0
  0
LINE
  5
262
330
1E
100
AcDbEntity
  8
0
100
AcDbLine
 10
43.44544999999989
 20
557.371
 30
0.0
 11
44.9763499999999
 21
548.6889999999999
 31
0.0
  0
LINE
  5
263
330
1E
100
AcDbEntity
  8
0
100
AcDbLine
 10
43.44544999999989
 20
557.371
 30
0.0
 11
44.163026435925
 21
553.3014993032189
 31
0.0
  0
LINE
  5
264
330
1E
100
AcDbEntity
  8
0
100
AcDbLine
 10
43.44544999999989
 20
557.371
 30
0.0
 11
44.163026435925
 21
553.3014993032189
 31
0.0
  0
LINE
  5
265
330
1E
100
AcDbEntity
  8
0
100
AcDbLine
 10
42.09934999999989
 20
565.005
 30
0.0
 11
43.44544999999989
 21
557.371
 31
0.0
  0
LINE
  5
266
330
1E
100
AcDbEntity
  8
0
100
AcDbLine
 10
42.7953499999999
 20
557.719
 30
0.0
 11
44.37904999999989
 21
548.738
 31
0.0
  0
LINE
  5
267
330
1E
100
AcDbEntity
  8
0
100
AcDbLine
 10
40.4118499999999
 20
557.2989999999999
 30
0.0
 11
41.9955499999999
 21
548.3179999999999
 31
0.0
  0
LINE
  5
268
330
1E
100
AcDbEntity
  8
0
100
AcDbLine
 10
40.1989499999999
 20
575.783
 30
0.0
 11
42.09934999999989
 21
565.005
 31
0.0
  0
LINE
  5
269
330
1E
100
AcDbEntity
  8
0
100
AcDbLine
 10
41.3964499999999
 20
565.653
 30
0.0
 11
42.7953499999999
 21
557.719
 31
0.0
  0
LINE
  5
26A
330
1E
100
AcDbEntity
  8
0
100
AcDbLine
 10
39.0129499999999
 20
565.233
 30
0.0
 11
40.4118499999999
 21
557.2989999999999
 31
0.0
  0
LINE
  5
26B
330
1E
100
AcDbEntity
  8
0
100
AcDbLine
 10
40.3406499999999
 20
571.6409999999999
 30
0.0
 11
41.3964499999999
 21
565.653
 31
0.0
  0
LINE
  5
26C
330
1E
100
AcDbEntity
  8
0
100
AcDbLine
 10
36.9055299999999
 20
577.184
 30
0.0
 11
39.0129499999999
 21
565.233
 31
0.0
  0
LINE
  5
26D
330
1E
100
AcDbEntity
  8
0
100
AcDbLine
 10
39.7072499999999
 20
575.233
 30
0.0
 11
40.3406499999999
 21
571.6409999999999
 31
0.0
  0
LINE
  5
26F
330
1E
100
AcDbEntity
  8
0
100
AcDbLine
 10
36.4179799999999
 20
576.611
 30
0.0
 11
37.08478999999989
 21
572.829
 31
0.0
  0
LINE
  5
271
330
1E
100
AcDbEntity
  8
0
100
AcDbLine
 10
27.4616389999999
 20
576.494
 30
0.0
 11
36.1679299999999
 21
578.0289999999999
 31
0.0
  0
LINE
  5
272
330
1E
100
AcDbEntity
  8
0
100
AcDbLine
 10
36.1679299999999
 20
578.0289999999999
 30
0.0
 11
36.4179799999999
 21
576.611
 31
0.0
  0
LINE
  5
273
330
1E
100
AcDbEntity
  8
0
100
AcDbLine
 10
36.1679299999999
 20
578.0289999999999
 30
0.0
 11
36.9055299999999
 21
577.184
 31
0.0
  0
LINE
  5
274
330
1E
100
AcDbEntity
  8
0
100
AcDbLine
 10
39.4696499999999
 20
576.58
 30
0.0
 11
39.7072499999999
 21
575.233
 31
0.0
  0
LINE
  5
275
330
1E
100
AcDbEntity
  8
0
100
AcDbLine
 10
39.4696499999999
 20
576.58
 30
0.0
 11
40.1989499999999
 21
575.783
 31
0.0
  0
LINE
  5
277
330
1E
100
AcDbEntity
  8
0
100
AcDbLine
 10
37.0861199999999
 20
576.1599999999999
 30
0.0
 11
39.4696499999999
 21
576.58
 31
0.0
  0
LINE
  5
278
330
1E
100
AcDbEntity
  8
0
100
AcDbLine
 10
44.28814999999989
 20
553.614
 30
0.0
 11
44.69914999999989
 21
554.1619999999999
 31
0.0
  0
LINE
  5
279
330
1E
100
AcDbEntity
  8
0
100
AcDbLine
 10
44.24774999999989
 20
553.843
 30
0.0
 11
44.6809499999999
 21
554.2659999999999
 31
0.0
  0
LINE
  5
27B
330
1E
100
AcDbEntity
  8
0
100
AcDbLine
 10
44.163026435925
 20
553.3014993032189
 30
0.0
 11
44.24774999999989
 21
553.843
 31
0.0
  0
LINE
  5
27C
330
1E
100
AcDbEntity
  8
0
100
AcDbLine
 10
50.1970499999999
 20
554.6559999999999
 30
0.0
 11
50.67524999999989
 21
553.618
 31
0.0
  0
LINE
  5
27E
330
1E
100
AcDbEntity
  8
0
100
AcDbLine
 10
50.67524999999989
 20
553.618
 30
0.0
 11
51.0968499999999
 21
551.849
 31
0.0
  0
LINE
  5
280
330
1E
100
AcDbEntity
  8
0
100
AcDbLine
 10
51.08704999999989
 20
552.488
 30
0.0
 11
51.30014999999989
 21
551.2789999999999
 31
0.0
  0
LINE
  5
282
330
1E
100
AcDbEntity
  8
0
100
AcDbLine
 10
51.0968499999999
 20
551.849
 30
0.0
 11
51.3342499999999
 21
550.039
 31
0.0
  0
LINE
  5
285
330
1E
100
AcDbEntity
  8
0
100
AcDbLine
 10
51.0041499999999
 20
552.9580000000001
 30
0.0
 11
51.08704999999989
 21
552.488
 31
0.0
  0
LINE
  5
286
330
1E
100
AcDbEntity
  8
0
100
AcDbLine
 10
50.67884999999989
 20
553.939
 30
0.0
 11
51.0041499999999
 21
552.9580000000001
 31
0.0
  0
LINE
  5
287
330
1E
100
AcDbEntity
  8
0
100
AcDbLine
 10
49.62324999999989
 20
555.0309999999999
 30
0.0
 11
50.1970499999999
 21
554.6559999999999
 31
0.0
  0
LINE
  5
288
330
1E
100
AcDbEntity
  8
0
100
AcDbLine
 10
49.6049499999999
 20
555.134
 30
0.0
 11
50.15654999999989
 21
554.8849999999999
 31
0.0
  0
LINE
  5
289
330
1E
100
AcDbEntity
  8
0
100
AcDbLine
 10
50.15654999999989
 20
554.8849999999999
 30
0.0
 11
50.67884999999989
 21
553.939
 31
0.0
  0
LINE
  5
28B
330
1E
100
AcDbEntity
  8
0
100
AcDbLine
 10
44.6809499999999
 20
554.2659999999999
 30
0.0
 11
49.6049499999999
 21
555.134
 31
0.0
  0
LINE
  5
28C
330
1E
100
AcDbEntity
  8
0
100
AcDbLine
 10
51.30014999999989
 20
551.2789999999999
 30
0.0
 11
51.64354999999989
 21
549.3319999999999
 31
0.0
  0
LINE
  5
28D
330
1E
100
AcDbEntity
  8
0
100
AcDbLine
 10
51.49854490068829
 20
277.7901865641159
 30
0.0
 11
51.78644999999989
 21
277.841
 31
0.0
  0
LINE
  5
28F
330
1E
100
AcDbEntity
  8
0
100
AcDbLine
 10
51.43524999999989
 20
547.633
 30
0.0
 11
51.55254999999989
 21
546.9680000000001
 31
0.0
  0
LINE
  5
290
330
1E
100
AcDbEntity
  8
0
100
AcDbLine
 10
51.78644999999989
 20
277.841
 30
0.0
 11
52.188602730692
 21
277.9119023038099
 31
0.0
  0
LINE
  5
291
330
1E
100
AcDbEntity
  8
0
100
AcDbLine
 10
51.9773499999999
 20
247.412
 30
0.0
 11
55.60144999999989
 21
248.0509999999999
 31
0.0
  0
LINE
  5
292
330
1E
100
AcDbEntity
  8
0
100
AcDbLine
 10
51.9773499999999
 20
247.412
 30
0.0
 11
54.46631901204449
 21
247.850782271015
 31
0.0
  0
LINE
  5
293
330
1E
100
AcDbEntity
  8
0
100
AcDbLine
 10
51.86813073667139
 20
247.392712716892
 30
0.0
 11
73.87104999999991
 21
129.4491999999999
 31
0.0
  0
LINE
  5
294
330
1E
100
AcDbEntity
  8
0
100
AcDbLine
 10
51.79584999999989
 20
506.6749999999999
 30
0.0
 11
52.42934999999989
 21
503.082
 31
0.0
  0
LINE
  5
295
330
1E
100
AcDbEntity
  8
0
100
AcDbLine
 10
51.55254999999989
 20
546.9680000000001
 30
0.0
 11
52.47964999999989
 21
543.899
 31
0.0
  0
LINE
  5
296
330
1E
100
AcDbEntity
  8
0
100
AcDbLine
 10
51.64354999999989
 20
549.3319999999999
 30
0.0
 11
52.10524999999989
 21
546.713
 31
0.0
  0
LINE
  5
297
330
1E
100
AcDbEntity
  8
0
100
AcDbLine
 10
52.20844999999989
 20
507.674
 30
0.0
 11
53.07944999999989
 21
502.734
 31
0.0
  0
LINE
  5
298
330
1E
100
AcDbEntity
  8
0
100
AcDbLine
 10
52.69784999999989
 20
298.3099999999999
 30
0.0
 11
54.2082446218654
 21
298.576363535159
 31
0.0
  0
LINE
  5
299
330
1E
100
AcDbEntity
  8
0
100
AcDbLine
 10
52.69784999999989
 20
298.3099999999999
 30
0.0
 11
57.66134999999989
 21
299.1849999999999
 31
0.0
  0
LINE
  5
29B
330
1E
100
AcDbEntity
  8
0
100
AcDbLine
 10
52.66694999999989
 20
501.735
 30
0.0
 11
53.07944999999989
 21
502.734
 31
0.0
  0
LINE
  5
29C
330
1E
100
AcDbEntity
  8
0
100
AcDbLine
 10
52.42934999999989
 20
503.082
 30
0.0
 11
52.66694999999989
 21
501.735
 31
0.0
  0
LINE
  5
29D
330
1E
100
AcDbEntity
  8
0
100
AcDbLine
 10
54.7961499999999
 20
525.6929999999999
 30
0.0
 11
55.20714999999989
 21
526.2419999999999
 31
0.0
  0
LINE
  5
29E
330
1E
100
AcDbEntity
  8
0
100
AcDbLine
 10
55.19394999999989
 20
278.442
 30
0.0
 11
56.17080604344579
 21
278.6142492854279
 31
0.0
  0
LINE
  5
29F
330
1E
100
AcDbEntity
  8
0
100
AcDbLine
 10
55.19394999999989
 20
278.442
 30
0.0
 11
60.63004999999989
 21
279.4
 31
0.0
  0
LINE
  5
2A1
330
1E
100
AcDbEntity
  8
0
100
AcDbLine
 10
58.76037154145371
 20
279.070507907638
 30
0.0
 11
61.13424999999989
 21
279.489
 31
0.0
  0
LINE
  5
2A2
330
1E
100
AcDbEntity
  8
0
100
AcDbLine
 10
57.66134999999989
 20
299.1849999999999
 30
0.0
 11
62.95564999999989
 21
300.119
 31
0.0
  0
LINE
  5
2A4
330
1E
100
AcDbEntity
  8
0
100
AcDbLine
 10
60.4033499999999
 20
248.897
 30
0.0
 11
65.8394499999999
 21
249.8559999999999
 31
0.0
  0
LINE
  5
2A5
330
1E
100
AcDbEntity
  8
0
100
AcDbLine
 10
60.4033499999999
 20
248.897
 30
0.0
 11
61.7882897755819
 21
249.14120462455
 31
0.0
  0
LINE
  5
2A6
330
1E
100
AcDbEntity
  8
0
100
AcDbLine
 10
55.60144999999989
 20
248.0509999999999
 30
0.0
 11
60.4033499999999
 21
248.897
 31
0.0
  0
LINE
  5
2A7
330
1E
100
AcDbEntity
  8
0
100
AcDbLine
 10
55.5283499999999
 20
421.7249999999999
 30
0.0
 11
58.8372499999999
 21
422.308
 31
0.0
  0
LINE
  5
2AA
330
1E
100
AcDbEntity
  8
0
100
AcDbLine
 10
58.8372499999999
 20
422.308
 30
0.0
 11
60.82264999999989
 21
422.658
 31
0.0
  0
LINE
  5
2AB
330
1E
100
AcDbEntity
  8
0
100
AcDbLine
 10
65.8394499999999
 20
249.8559999999999
 30
0.0
 11
71.63804999999991
 21
250.8779999999999
 31
0.0
  0
LINE
  5
2AC
330
1E
100
AcDbEntity
  8
0
100
AcDbLine
 10
65.8394499999999
 20
249.8559999999999
 30
0.0
 11
66.51195540134139
 21
249.974528700061
 31
0.0
  0
LINE
  5
2AD
330
1E
100
AcDbEntity
  8
0
100
AcDbLine
 10
71.63804999999991
 20
250.8779999999999
 30
0.0
 11
77.43654999999991
 21
251.9009999999999
 31
0.0
  0
LINE
  5
2AE
330
1E
100
AcDbEntity
  8
0
100
AcDbLine
 10
81.3131232731175
 20
252.5839930531339
 30
0.0
 11
82.87274999999992
 21
252.859
 31
0.0
  0
LINE
  5
2AF
330
1E
100
AcDbEntity
  8
0
100
AcDbLine
 10
77.43654999999991
 20
251.9009999999999
 30
0.0
 11
82.87274999999992
 21
252.859
 31
0.0
  0
LINE
  5
2B0
330
1E
100
AcDbEntity
  8
0
100
AcDbLine
 10
82.87274999999992
 20
252.859
 30
0.0
 11
87.6746499999999
 21
253.7059999999999
 31
0.0
  0
LINE
  5
2B1
330
1E
100
AcDbEntity
  8
0
100
AcDbLine
 10
88.6348518490197
 20
253.875243842312
 30
0.0
 11
91.29874999999989
 21
254.3449999999999
 31
0.0
  0
LINE
  5
2B2
330
1E
100
AcDbEntity
  8
0
100
AcDbLine
 10
87.6746499999999
 20
253.7059999999999
 30
0.0
 11
91.29874999999989
 21
254.3449999999999
 31
0.0
  0
LINE
  5
2B3
330
1E
100
AcDbEntity
  8
0
100
AcDbLine
 10
91.23280651461719
 20
254.333371417914
 30
0.0
 11
91.29874999999989
 21
254.3449999999999
 31
0.0
  0
LINE
  5
2B4
330
1E
100
AcDbEntity
  8
0
100
AcDbLine
 10
91.2328444590584
 20
254.333167150958
 30
0.0
 11
94.28864999999991
 21
254.872
 31
0.0
  0
LINE
  5
2B5
330
1E
100
AcDbEntity
  8
0
100
AcDbLine
 10
61.13424999999989
 20
279.489
 30
0.0
 11
66.4285499999999
 21
280.423
 31
0.0
  0
LINE
  5
2B6
330
1E
100
AcDbEntity
  8
0
100
AcDbLine
 10
60.63004999999989
 20
279.4
 30
0.0
 11
61.01831177445739
 21
279.4684990592859
 31
0.0
  0
LINE
  5
2B7
330
1E
100
AcDbEntity
  8
0
100
AcDbLine
 10
60.63004999999989
 20
279.4
 30
0.0
 11
66.4285499999999
 21
280.423
 31
0.0
  0
LINE
  5
2B9
330
1E
100
AcDbEntity
  8
0
100
AcDbLine
 10
66.4285499999999
 20
280.423
 30
0.0
 11
72.22714999999991
 21
281.4449999999999
 31
0.0
  0
LINE
  5
2BB
330
1E
100
AcDbEntity
  8
0
100
AcDbLine
 10
72.22714999999991
 20
281.4449999999999
 30
0.0
 11
77.66324999999991
 21
282.404
 31
0.0
  0
LINE
  5
2BD
330
1E
100
AcDbEntity
  8
0
100
AcDbLine
 10
71.72292690734879
 20
281.356130962527
 30
0.0
 11
72.22714999999991
 21
281.4449999999999
 31
0.0
  0
LINE
  5
2BE
330
1E
100
AcDbEntity
  8
0
100
AcDbLine
 10
82.0853672547525
 20
283.18307355217
 30
0.0
 11
84.37964999999989
 21
283.5879999999999
 31
0.0
  0
LINE
  5
2BF
330
1E
100
AcDbEntity
  8
0
100
AcDbLine
 10
77.66324999999991
 20
282.404
 30
0.0
 11
82.46524999999989
 21
283.2499999999999
 31
0.0
  0
LINE
  5
2C1
330
1E
100
AcDbEntity
  8
0
100
AcDbLine
 10
76.6860407280401
 20
282.231689963439
 30
0.0
 11
77.66324999999991
 21
282.404
 31
0.0
  0
LINE
  5
2C2
330
1E
100
AcDbEntity
  8
0
100
AcDbLine
 10
82.46524999999989
 20
283.2499999999999
 30
0.0
 11
86.0892499999999
 21
283.889
 31
0.0
  0
LINE
  5
2C4
330
1E
100
AcDbEntity
  8
0
100
AcDbLine
 10
62.95564999999989
 20
300.119
 30
0.0
 11
68.2499499999999
 21
301.052
 31
0.0
  0
LINE
  5
2C6
330
1E
100
AcDbEntity
  8
0
100
AcDbLine
 10
68.2499499999999
 20
301.052
 30
0.0
 11
73.2133499999999
 21
301.928
 31
0.0
  0
LINE
  5
2C8
330
1E
100
AcDbEntity
  8
0
100
AcDbLine
 10
73.2133499999999
 20
301.928
 30
0.0
 11
77.5977499999999
 21
302.7009999999999
 31
0.0
  0
LINE
  5
2CA
330
1E
100
AcDbEntity
  8
0
100
AcDbLine
 10
71.79292730867359
 20
301.677500897023
 30
0.0
 11
73.2133499999999
 21
301.928
 31
0.0
  0
LINE
  5
2CB
330
1E
100
AcDbEntity
  8
0
100
AcDbLine
 10
77.5977499999999
 20
302.7009999999999
 30
0.0
 11
80.9067499999999
 21
303.284
 31
0.0
  0
LINE
  5
2CD
330
1E
100
AcDbEntity
  8
0
100
AcDbLine
 10
80.9067499999999
 20
303.284
 30
0.0
 11
82.8920499999999
 21
303.634
 31
0.0
  0
LINE
  5
2CF
330
1E
100
AcDbEntity
  8
0
100
AcDbLine
 10
80.72715172040879
 20
303.252357268963
 30
0.0
 11
80.9067499999999
 21
303.284
 31
0.0
  0
LINE
  5
2D0
330
1E
100
AcDbEntity
  8
0
100
AcDbLine
 10
85.04450652360828
 20
283.7051752654919
 30
0.0
 11
86.3650499999999
 21
283.9379999999999
 31
0.0
  0
LINE
  5
2D1
330
1E
100
AcDbEntity
  8
0
100
AcDbLine
 10
84.37964999999989
 20
283.5879999999999
 30
0.0
 11
86.3650499999999
 21
283.9379999999999
 31
0.0
  0
LINE
  5
2D2
330
1E
100
AcDbEntity
  8
0
100
AcDbLine
 10
83.6365499999999
 20
303.7649999999999
 30
0.0
 11
87.10951970739749
 21
284.0691717947299
 31
0.0
  0
LINE
  5
2D3
330
1E
100
AcDbEntity
  8
0
100
AcDbLine
 10
82.8920499999999
 20
303.634
 30
0.0
 11
83.6365499999999
 21
303.7649999999999
 31
0.0
  0
LINE
  5
2D5
330
1E
100
AcDbEntity
  8
0
100
AcDbLine
 10
83.1540686788284
 20
283.3715546161029
 30
0.0
 11
86.0892499999999
 21
283.889
 31
0.0
  0
LINE
  5
2D6
330
1E
100
AcDbEntity
  8
0
100
AcDbLine
 10
85.7535509229643
 20
283.8299413164319
 30
0.0
 11
86.50954087158281
 21
283.963220140119
 31
0.0
  0
LINE
  5
2D7
330
1E
100
AcDbEntity
  8
0
100
AcDbLine
 10
85.7535067808563
 20
283.830178947393
 30
0.0
 11
86.3650499999999
 21
283.9379999999999
 31
0.0
  0
LINE
  5
2D8
330
1E
100
AcDbEntity
  8
0
100
AcDbLine
 10
85.75357286087971
 20
283.829823217678
 30
0.0
 11
86.0892499999999
 21
283.889
 31
0.0
  0
LINE
  5
2D9
330
1E
100
AcDbEntity
  8
0
100
AcDbLine
 10
85.75357286087971
 20
283.829823217678
 30
0.0
 11
86.0892499999999
 21
283.889
 31
0.0
  0
LINE
  5
2DA
330
1E
100
AcDbEntity
  8
0
100
AcDbLine
 10
86.3650499999999
 20
283.9379999999999
 30
0.0
 11
86.8307153865267
 21
284.0199370928609
 31
0.0
  0
LINE
  5
2DB
330
1E
100
AcDbEntity
  8
0
100
AcDbLine
 10
86.36499095352379
 20
283.938209280019
 30
0.0
 11
88.26374999999989
 21
284.2729999999999
 31
0.0
  0
LINE
  5
2DC
330
1E
100
AcDbEntity
  8
0
100
AcDbLine
 10
86.0892499999999
 20
283.889
 30
0.0
 11
86.8307153865267
 21
284.0199370928609
 31
0.0
  0
LINE
  5
2DD
330
1E
100
AcDbEntity
  8
0
100
AcDbLine
 10
86.0892499999999
 20
283.889
 30
0.0
 11
88.26374999999989
 21
284.2729999999999
 31
0.0
  0
LINE
  5
2DF
330
1E
100
AcDbEntity
  8
0
100
AcDbLine
 10
91.29874999999989
 20
254.3449999999999
 30
0.0
 11
93.4732499999999
 21
254.729
 31
0.0
  0
LINE
  5
2E0
330
1E
100
AcDbEntity
  8
0
100
AcDbLine
 10
93.4732499999999
 20
254.729
 30
0.0
 11
94.28864999999991
 21
254.872
 31
0.0
  0
LINE
  5
2E1
330
1E
100
AcDbEntity
  8
0
100
AcDbLine
 10
87.10951970739749
 20
284.0691717947299
 30
0.0
 11
88.26374999999989
 21
284.2729999999999
 31
0.0
  0
LINE
  5
2E2
330
1E
100
AcDbEntity
  8
0
100
AcDbLine
 10
88.26374999999989
 20
284.2729999999999
 30
0.0
 11
89.0791499999999
 21
284.417
 31
0.0
  0
LINE
  5
2E4
330
1E
100
AcDbEntity
  8
0
100
AcDbLine
 10
89.0791499999999
 20
284.417
 30
0.0
 11
94.28864999999991
 21
254.872
 31
0.0
  0
LINE
  5
2E5
330
1E
100
AcDbEntity
  8
0
100
AcDbLine
 10
87.1094048971577
 20
284.069673132687
 30
0.0
 11
89.0791499999999
 21
284.417
 31
0.0
  0
LINE
  5
2E6
330
1E
100
AcDbEntity
  8
0
100
AcDbLine
 10
87.1094661130084
 20
284.0694757380319
 30
0.0
 11
88.26374999999989
 21
284.2729999999999
 31
0.0
  0
LINE
  5
2E7
330
1E
100
AcDbEntity
  8
0
100
AcDbLine
 10
91.23280625369792
 20
254.3333728225249
 30
0.0
 11
112.5080499999999
 21
139.8019909999999
 31
0.0
  0
LINE
  5
2E8
330
1E
100
AcDbEntity
  8
0
100
AcDbLine
 10
91.23280625369792
 20
254.3333728225249
 30
0.0
 11
112.5080499999999
 21
139.8019909999999
 31
0.0
  0
LINE
  5
2E9
330
1E
100
AcDbEntity
  8
0
100
AcDbLine
 10
60.44373162121609
 20
422.5912016558
 30
0.0
 11
60.82264999999989
 21
422.658
 31
0.0
  0
LINE
  5
2EA
330
1E
100
AcDbEntity
  8
0
100
AcDbLine
 10
60.44373162121609
 20
422.5912016558
 30
0.0
 11
80.72715172040879
 21
303.252357268963
 31
0.0
  0
LINE
  5
2EB
330
1E
100
AcDbEntity
  8
0
100
AcDbLine
 10
60.82264999999989
 20
422.658
 30
0.0
 11
61.5671499999999
 21
422.789
 31
0.0
  0
LINE
  5
2EC
330
1E
100
AcDbEntity
  8
0
100
AcDbLine
 10
54.8144499999999
 20
525.59
 30
0.0
 11
55.24764999999989
 21
526.0119999999999
 31
0.0
  0
LINE
  5
2F0
330
1E
100
AcDbEntity
  8
0
100
AcDbLine
 10
53.9689499999999
 20
533.264
 30
0.0
 11
54.16144999999989
 21
532.172
 31
0.0
  0
LINE
  5
2F1
330
1E
100
AcDbEntity
  8
0
100
AcDbLine
 10
53.85164999999989
 20
533.929
 30
0.0
 11
53.9689499999999
 21
533.264
 31
0.0
  0
LINE
  5
2F5
330
1E
100
AcDbEntity
  8
0
100
AcDbLine
 10
55.20714999999989
 20
526.2419999999999
 30
0.0
 11
55.30154999999989
 21
527.381
 31
0.0
  0
LINE
  5
2F6
330
1E
100
AcDbEntity
  8
0
100
AcDbLine
 10
54.84364999999989
 20
531.1829999999999
 30
0.0
 11
54.9560838159782
 21
530.544973376902
 31
0.0
  0
LINE
  5
2F7
330
1E
100
AcDbEntity
  8
0
100
AcDbLine
 10
54.9560838159782
 20
530.544973376902
 30
0.0
 11
55.3019499999999
 21
528.584
 31
0.0
  0
LINE
  5
2F8
330
1E
100
AcDbEntity
  8
0
100
AcDbLine
 10
55.0929499999999
 20
529.186
 30
0.0
 11
55.30154999999989
 21
527.381
 31
0.0
  0
LINE
  5
2FA
330
1E
100
AcDbEntity
  8
0
100
AcDbLine
 10
54.69664999999989
 20
530.969
 30
0.0
 11
55.0929499999999
 21
529.186
 31
0.0
  0
LINE
  5
2FB
330
1E
100
AcDbEntity
  8
0
100
AcDbLine
 10
54.13923434833989
 20
535.177819064418
 30
0.0
 11
54.5216499999999
 21
533.009
 31
0.0
  0
LINE
  5
2FC
330
1E
100
AcDbEntity
  8
0
100
AcDbLine
 10
54.5216499999999
 20
533.009
 30
0.0
 11
54.84364999999989
 21
531.1829999999999
 31
0.0
  0
LINE
  5
2FD
330
1E
100
AcDbEntity
  8
0
100
AcDbLine
 10
54.16144999999989
 20
532.172
 30
0.0
 11
54.69664999999989
 21
530.969
 31
0.0
  0
LINE
  5
2FF
330
1E
100
AcDbEntity
  8
0
100
AcDbLine
 10
55.3019499999999
 20
528.584
 30
0.0
 11
55.38484999999989
 21
528.114
 31
0.0
  0
LINE
  5
302
330
1E
100
AcDbEntity
  8
0
100
AcDbLine
 10
54.09394999999989
 20
535.4349999999999
 30
0.0
 11
54.2483499999559
 21
534.558984284974
 31
0.0
  0
LINE
  5
303
330
1E
100
AcDbEntity
  8
0
100
AcDbLine
 10
52.62624999999989
 20
543.759
 30
0.0
 11
53.19454999999989
 21
540.5359999999999
 31
0.0
  0
LINE
  5
304
330
1E
100
AcDbEntity
  8
0
100
AcDbLine
 10
52.47964999999989
 20
543.899
 30
0.0
 11
53.14524999999989
 21
540.5269999999999
 31
0.0
  0
LINE
  5
305
330
1E
100
AcDbEntity
  8
0
100
AcDbLine
 10
53.14524999999989
 20
540.5269999999999
 30
0.0
 11
53.6730499999999
 21
537.131
 31
0.0
  0
LINE
  5
306
330
1E
100
AcDbEntity
  8
0
100
AcDbLine
 10
53.76284999999989
 20
537.3129999999999
 30
0.0
 11
54.2837499999999
 21
534.3580000000001
 31
0.0
  0
LINE
  5
307
330
1E
100
AcDbEntity
  8
0
100
AcDbLine
 10
53.6730499999999
 20
537.131
 30
0.0
 11
53.85164999999989
 21
533.929
 31
0.0
  0
LINE
  5
308
330
1E
100
AcDbEntity
  8
0
100
AcDbLine
 10
53.19454999999989
 20
540.5359999999999
 30
0.0
 11
53.76284999999989
 21
537.3129999999999
 31
0.0
  0
LINE
  5
309
330
1E
100
AcDbEntity
  8
0
100
AcDbLine
 10
53.90261487209349
 20
536.5201315088569
 30
0.0
 11
54.09394999999989
 21
535.4349999999999
 31
0.0
  0
LINE
  5
30A
330
1E
100
AcDbEntity
  8
0
100
AcDbLine
 10
55.38484999999989
 20
528.114
 30
0.0
 11
55.4147499999999
 21
527.08
 31
0.0
  0
LINE
  5
30B
330
1E
100
AcDbEntity
  8
0
100
AcDbLine
 10
55.24764999999989
 20
526.0119999999999
 30
0.0
 11
55.4147499999999
 21
527.08
 31
0.0
  0
LINE
  5
30C
330
1E
100
AcDbEntity
  8
0
100
AcDbLine
 10
52.38067291423661
 20
545.1513890812759
 30
0.0
 11
52.62624999999989
 21
543.759
 31
0.0
  0
LINE
  5
30D
330
1E
100
AcDbEntity
  8
0
100
AcDbLine
 10
52.0926108697661
 20
546.784695651034
 30
0.0
 11
52.106952614353
 21
546.703346405376
 31
0.0
  0
LINE
  5
30E
330
1E
100
AcDbEntity
  8
0
100
AcDbLine
 10
52.10524999999989
 20
546.713
 30
0.0
 11
52.62624999999989
 21
543.759
 31
0.0
  0
LINE
  5
30F
330
1E
100
AcDbEntity
  8
0
100
AcDbLine
 10
52.3479499999999
 20
545.3369999999999
 30
0.0
 11
52.38067291423661
 21
545.1513890812759
 31
0.0
  0
LINE
  5
310
330
1E
100
AcDbEntity
  8
0
100
AcDbLine
 10
51.9817112245042
 20
547.413775510122
 30
0.0
 11
52.3479499999999
 21
545.3369999999999
 31
0.0
  0
LINE
  5
311
330
1E
100
AcDbEntity
  8
0
100
AcDbLine
 10
51.47823685679099
 20
550.2692879727079
 30
0.0
 11
51.64354999999989
 21
549.3319999999999
 31
0.0
  0
LINE
  5
312
330
1E
100
AcDbEntity
  8
0
100
AcDbLine
 10
51.37184999999989
 20
550.873
 30
0.0
 11
51.47823685679099
 21
550.2692879727079
 31
0.0
  0
LINE
  5
313
330
1E
100
AcDbEntity
  8
0
100
AcDbLine
 10
252.13325
 20
152.649
 30
0.0
 11
252.13325
 21
150.649
 31
0.0
  0
LINE
  5
314
330
1E
100
AcDbEntity
  8
0
100
AcDbLine
 10
252.13325
 20
152.649
 30
0.0
 11
253.39325
 21
152.649
 31
0.0
  0
LINE
  5
315
330
1E
100
AcDbEntity
  8
0
100
AcDbLine
 10
254.1492499999999
 20
140.6489999999999
 30
0.0
 11
260.2292499999999
 21
140.6489999999999
 31
0.0
  0
LINE
  5
316
330
1E
100
AcDbEntity
  8
0
100
AcDbLine
 10
254.1492499999999
 20
136.6489999999999
 30
0.0
 11
260.2292499999999
 21
136.6489999999999
 31
0.0
  0
LINE
  5
317
330
1E
100
AcDbEntity
  8
0
100
AcDbLine
 10
254.1492499999999
 20
136.6489999999999
 30
0.0
 11
257.13325
 21
136.6489999999999
 31
0.0
  0
LINE
  5
318
330
1E
100
AcDbEntity
  8
0
100
AcDbLine
 10
257.13325
 20
136.6489999999999
 30
0.0
 11
257.13325
 21
131.6489999999999
 31
0.0
  0
LINE
  5
319
330
1E
100
AcDbEntity
  8
0
100
AcDbLine
 10
260.2292499999999
 20
140.6489999999999
 30
0.0
 11
268.28525
 21
140.6489999999999
 31
0.0
  0
LINE
  5
31A
330
1E
100
AcDbEntity
  8
0
100
AcDbLine
 10
260.2292499999999
 20
136.6489999999999
 30
0.0
 11
268.28525
 21
136.6489999999999
 31
0.0
  0
LINE
  5
31B
330
1E
100
AcDbEntity
  8
0
100
AcDbLine
 10
257.13325
 20
131.6489999999999
 30
0.0
 11
257.13325
 21
136.6489999999999
 31
0.0
  0
LINE
  5
31C
330
1E
100
AcDbEntity
  8
0
100
AcDbLine
 10
260.1332499999999
 20
140.6489999999999
 30
0.0
 11
260.1332499999999
 21
150.649
 31
0.0
  0
LINE
  5
31D
330
1E
100
AcDbEntity
  8
0
100
AcDbLine
 10
261.1332499999999
 20
82.649
 30
0.0
 11
262.06925
 21
82.649
 31
0.0
  0
LINE
  5
31E
330
1E
100
AcDbEntity
  8
0
100
AcDbLine
 10
261.1332499999999
 20
82.649
 30
0.0
 11
261.1332499999999
 21
84.649
 31
0.0
  0
LINE
  5
31F
330
1E
100
AcDbEntity
  8
0
100
AcDbLine
 10
262.06925
 20
82.649
 30
0.0
 11
264.56525
 21
82.649
 31
0.0
  0
LINE
  5
320
330
1E
100
AcDbEntity
  8
0
100
AcDbLine
 10
262.06925
 20
82.649
 30
0.0
 11
264.1332499999999
 21
82.649
 31
0.0
  0
LINE
  5
321
330
1E
100
AcDbEntity
  8
0
100
AcDbLine
 10
261.1332499999999
 20
84.649
 30
0.0
 11
262.06925
 21
84.649
 31
0.0
  0
LINE
  5
322
330
1E
100
AcDbEntity
  8
0
100
AcDbLine
 10
261.1332499999999
 20
84.649
 30
0.0
 11
261.1332499999999
 21
82.649
 31
0.0
  0
LINE
  5
323
330
1E
100
AcDbEntity
  8
0
100
AcDbLine
 10
264.1332499999999
 20
68.649
 30
0.0
 11
264.9612499999999
 21
68.649
 31
0.0
  0
LINE
  5
324
330
1E
100
AcDbEntity
  8
0
100
AcDbLine
 10
264.1332499999999
 20
68.649
 30
0.0
 11
264.1332499999999
 21
82.649
 31
0.0
  0
LINE
  5
325
330
1E
100
AcDbEntity
  8
0
100
AcDbLine
 10
264.5492499999999
 20
68.649
 30
0.0
 11
265.5492499999999
 21
68.649
 31
0.0
  0
LINE
  5
326
330
1E
100
AcDbEntity
  8
0
100
AcDbLine
 10
264.5492499999999
 20
68.649
 30
0.0
 11
267.1332499999999
 21
68.649
 31
0.0
  0
LINE
  5
327
330
1E
100
AcDbEntity
  8
0
100
AcDbLine
 10
264.5492499999999
 20
68.649
 30
0.0
 11
264.5492499999999
 21
82.649
 31
0.0
  0
LINE
  5
328
330
1E
100
AcDbEntity
  8
0
100
AcDbLine
 10
264.5492499999999
 20
68.649
 30
0.0
 11
267.1472499999999
 21
68.649
 31
0.0
  0
LINE
  5
329
330
1E
100
AcDbEntity
  8
0
100
AcDbLine
 10
267.1332499999999
 20
31.611
 30
0.0
 11
267.7812499999999
 21
30.649
 31
0.0
  0
LINE
  5
32A
330
1E
100
AcDbEntity
  8
0
100
AcDbLine
 10
267.1332499999999
 20
31.611
 30
0.0
 11
267.1332499999999
 21
54.6875
 31
0.0
  0
LINE
  5
32B
330
1E
100
AcDbEntity
  8
0
100
AcDbLine
 10
267.1332499999999
 20
54.6875
 30
0.0
 11
267.1332499999999
 21
31.611
 31
0.0
  0
LINE
  5
32C
330
1E
100
AcDbEntity
  8
0
100
AcDbLine
 10
267.1332499999999
 20
68.649
 30
0.0
 11
267.85325
 21
68.649
 31
0.0
  0
LINE
  5
32D
330
1E
100
AcDbEntity
  8
0
100
AcDbLine
 10
267.1332499999999
 20
68.649
 30
0.0
 11
267.1332499999999
 21
46.64899999999999
 31
0.0
  0
LINE
  5
32E
330
1E
100
AcDbEntity
  8
0
100
AcDbLine
 10
267.1332499999999
 20
46.64899999999999
 30
0.0
 11
267.1332499999999
 21
68.649
 31
0.0
  0
LINE
  5
330
330
1E
100
AcDbEntity
  8
0
100
AcDbLine
 10
267.7812499999999
 20
30.649
 30
0.0
 11
268.7532499999999
 21
30.649
 31
0.0
  0
LINE
  5
331
330
1E
100
AcDbEntity
  8
0
100
AcDbLine
 10
267.85325
 20
68.649
 30
0.0
 11
269.77325
 21
68.649
 31
0.0
  0
LINE
  5
332
330
1E
100
AcDbEntity
  8
0
100
AcDbLine
 10
267.1472499999999
 20
68.649
 30
0.0
 11
268.1472499999999
 21
68.649
 31
0.0
  0
LINE
  5
333
330
1E
100
AcDbEntity
  8
0
100
AcDbLine
 10
265.5492499999999
 20
68.649
 30
0.0
 11
267.1332499999999
 21
68.649
 31
0.0
  0
LINE
  5
334
330
1E
100
AcDbEntity
  8
0
100
AcDbLine
 10
265.5492499999999
 20
68.649
 30
0.0
 11
265.5492499999999
 21
82.649
 31
0.0
  0
LINE
  5
335
330
1E
100
AcDbEntity
  8
0
100
AcDbLine
 10
265.5492499999999
 20
68.649
 30
0.0
 11
268.1472499999999
 21
68.649
 31
0.0
  0
LINE
  5
336
330
1E
100
AcDbEntity
  8
0
100
AcDbLine
 10
264.9612499999999
 20
68.649
 30
0.0
 11
267.1692499999999
 21
68.649
 31
0.0
  0
LINE
  5
337
330
1E
100
AcDbEntity
  8
0
100
AcDbLine
 10
264.9612499999999
 20
68.649
 30
0.0
 11
267.1332499999999
 21
68.649
 31
0.0
  0
LINE
  5
338
330
1E
100
AcDbEntity
  8
0
100
AcDbLine
 10
265.5492499999999
 20
82.649
 30
0.0
 11
265.5492499999999
 21
68.649
 31
0.0
  0
LINE
  5
339
330
1E
100
AcDbEntity
  8
0
100
AcDbLine
 10
265.5492499999999
 20
82.649
 30
0.0
 11
268.1472499999999
 21
82.649
 31
0.0
  0
LINE
  5
33A
330
1E
100
AcDbEntity
  8
0
100
AcDbLine
 10
264.5492499999999
 20
82.649
 30
0.0
 11
264.5492499999999
 21
68.649
 31
0.0
  0
LINE
  5
33B
330
1E
100
AcDbEntity
  8
0
100
AcDbLine
 10
264.5492499999999
 20
82.649
 30
0.0
 11
265.5492499999999
 21
82.649
 31
0.0
  0
LINE
  5
33C
330
1E
100
AcDbEntity
  8
0
100
AcDbLine
 10
267.1692499999999
 20
68.649
 30
0.0
 11
270.8492499999999
 21
68.649
 31
0.0
  0
LINE
  5
33D
330
1E
100
AcDbEntity
  8
0
100
AcDbLine
 10
264.1332499999999
 20
82.649
 30
0.0
 11
264.5492499999999
 21
82.649
 31
0.0
  0
LINE
  5
33E
330
1E
100
AcDbEntity
  8
0
100
AcDbLine
 10
264.1332499999999
 20
82.649
 30
0.0
 11
264.1332499999999
 21
68.649
 31
0.0
  0
LINE
  5
33F
330
1E
100
AcDbEntity
  8
0
100
AcDbLine
 10
262.1332499999999
 20
84.649
 30
0.0
 11
262.1332499999999
 21
91.64900000000001
 31
0.0
  0
LINE
  5
340
330
1E
100
AcDbEntity
  8
0
100
AcDbLine
 10
264.56525
 20
82.649
 30
0.0
 11
268.72525
 21
82.649
 31
0.0
  0
LINE
  5
341
330
1E
100
AcDbEntity
  8
0
100
AcDbLine
 10
262.06925
 20
84.649
 30
0.0
 11
264.56525
 21
84.649
 31
0.0
  0
LINE
  5
342
330
1E
100
AcDbEntity
  8
0
100
AcDbLine
 10
262.1332499999999
 20
91.64900000000001
 30
0.0
 11
262.1332499999999
 21
84.649
 31
0.0
  0
LINE
  5
343
330
1E
100
AcDbEntity
  8
0
100
AcDbLine
 10
264.56525
 20
84.649
 30
0.0
 11
268.72525
 21
84.649
 31
0.0
  0
LINE
  5
346
330
1E
100
AcDbEntity
  8
0
100
AcDbLine
 10
268.1472499999999
 20
82.649
 30
0.0
 11
270.8492499999999
 21
82.649
 31
0.0
  0
LINE
  5
347
330
1E
100
AcDbEntity
  8
0
100
AcDbLine
 10
267.1332499999999
 20
55.64899999999999
 30
0.0
 11
271.34525
 21
55.64899999999999
 31
0.0
  0
LINE
  5
348
330
1E
100
AcDbEntity
  8
0
100
AcDbLine
 10
268.7532499999999
 20
30.649
 30
0.0
 11
271.34525
 21
30.649
 31
0.0
  0
LINE
  5
349
330
1E
100
AcDbEntity
  8
0
100
AcDbLine
 10
268.7532499999999
 20
30.649
 30
0.0
 11
271.34525
 21
30.649
 31
0.0
  0
LINE
  5
34A
330
1E
100
AcDbEntity
  8
0
100
AcDbLine
 10
269.77325
 20
68.649
 30
0.0
 11
272.97325
 21
68.649
 31
0.0
  0
LINE
  5
34B
330
1E
100
AcDbEntity
  8
0
100
AcDbLine
 10
268.72525
 20
82.649
 30
0.0
 11
274.23725
 21
82.649
 31
0.0
  0
LINE
  5
34C
330
1E
100
AcDbEntity
  8
0
100
AcDbLine
 10
268.1332499999999
 20
96.64900000000001
 30
0.0
 11
268.1332499999999
 21
131.6489999999999
 31
0.0
  0
LINE
  5
34D
330
1E
100
AcDbEntity
  8
0
100
AcDbLine
 10
268.1332499999999
 20
131.6489999999999
 30
0.0
 11
268.1332499999999
 21
96.64900000000001
 31
0.0
  0
LINE
  5
34E
330
1E
100
AcDbEntity
  8
0
100
AcDbLine
 10
268.1332499999999
 20
112.6489999999999
 30
0.0
 11
270.1332499999999
 21
112.6489999999999
 31
0.0
  0
LINE
  5
34F
330
1E
100
AcDbEntity
  8
0
100
AcDbLine
 10
268.28525
 20
140.6489999999999
 30
0.0
 11
277.40525
 21
140.6489999999999
 31
0.0
  0
LINE
  5
350
330
1E
100
AcDbEntity
  8
0
100
AcDbLine
 10
268.28525
 20
136.6489999999999
 30
0.0
 11
277.40525
 21
136.6489999999999
 31
0.0
  0
LINE
  5
351
330
1E
100
AcDbEntity
  8
0
100
AcDbLine
 10
268.1332499999999
 20
130.6489999999999
 30
0.0
 11
270.1332499999999
 21
130.6489999999999
 31
0.0
  0
LINE
  5
352
330
1E
100
AcDbEntity
  8
0
100
AcDbLine
 10
268.72525
 20
84.649
 30
0.0
 11
274.23725
 21
84.649
 31
0.0
  0
LINE
  5
353
330
1E
100
AcDbEntity
  8
0
100
AcDbLine
 10
268.0172499999999
 20
150.649
 30
0.0
 11
273.74125
 21
150.649
 31
0.0
  0
LINE
  5
354
330
1E
100
AcDbEntity
  8
0
100
AcDbLine
 10
263.69725
 20
150.649
 30
0.0
 11
268.0172499999999
 21
150.649
 31
0.0
  0
LINE
  5
355
330
1E
100
AcDbEntity
  8
0
100
AcDbLine
 10
261.1052499999999
 20
150.649
 30
0.0
 11
263.69725
 21
150.649
 31
0.0
  0
LINE
  5
356
330
1E
100
AcDbEntity
  8
0
100
AcDbLine
 10
260.1332499999999
 20
150.649
 30
0.0
 11
260.1332499999999
 21
140.6489999999999
 31
0.0
  0
LINE
  5
357
330
1E
100
AcDbEntity
  8
0
100
AcDbLine
 10
260.1332499999999
 20
150.649
 30
0.0
 11
261.1052499999999
 21
150.649
 31
0.0
  0
LINE
  5
35A
330
1E
100
AcDbEntity
  8
0
100
AcDbLine
 10
271.34525
 20
30.649
 30
0.0
 11
275.5572499999999
 21
30.649
 31
0.0
  0
LINE
  5
35B
330
1E
100
AcDbEntity
  8
0
100
AcDbLine
 10
271.34525
 20
55.64899999999999
 30
0.0
 11
275.5572499999999
 21
55.64899999999999
 31
0.0
  0
LINE
  5
35C
330
1E
100
AcDbEntity
  8
0
100
AcDbLine
 10
271.34525
 20
30.649
 30
0.0
 11
275.5572499999999
 21
30.649
 31
0.0
  0
LINE
  5
35D
330
1E
100
AcDbEntity
  8
0
100
AcDbLine
 10
272.97325
 20
68.649
 30
0.0
 11
277.21325
 21
68.649
 31
0.0
  0
LINE
  5
35E
330
1E
100
AcDbEntity
  8
0
100
AcDbLine
 10
270.8492499999999
 20
68.649
 30
0.0
 11
275.72525
 21
68.649
 31
0.0
  0
LINE
  5
35F
330
1E
100
AcDbEntity
  8
0
100
AcDbLine
 10
270.1332499999999
 20
112.6489999999999
 30
0.0
 11
270.1332499999999
 21
112.973
 31
0.0
  0
LINE
  5
360
330
1E
100
AcDbEntity
  8
0
100
AcDbLine
 10
270.1332499999999
 20
123.953
 30
0.0
 11
270.1332499999999
 21
121.649
 31
0.0
  0
LINE
  5
361
330
1E
100
AcDbEntity
  8
0
100
AcDbLine
 10
270.1332499999999
 20
123.953
 30
0.0
 11
270.1332499999999
 21
126.113
 31
0.0
  0
LINE
  5
362
330
1E
100
AcDbEntity
  8
0
100
AcDbLine
 10
270.1332499999999
 20
126.113
 30
0.0
 11
270.1332499999999
 21
123.953
 31
0.0
  0
LINE
  5
363
330
1E
100
AcDbEntity
  8
0
100
AcDbLine
 10
270.1332499999999
 20
126.113
 30
0.0
 11
270.1332499999999
 21
128.021
 31
0.0
  0
LINE
  5
364
330
1E
100
AcDbEntity
  8
0
100
AcDbLine
 10
270.1332499999999
 20
129.649
 30
0.0
 11
274.73325
 21
129.649
 31
0.0
  0
LINE
  5
365
330
1E
100
AcDbEntity
  8
0
100
AcDbLine
 10
270.1332499999999
 20
129.649
 30
0.0
 11
272.2532499999999
 21
129.649
 31
0.0
  0
LINE
  5
366
330
1E
100
AcDbEntity
  8
0
100
AcDbLine
 10
270.1332499999999
 20
128.021
 30
0.0
 11
270.1332499999999
 21
126.113
 31
0.0
  0
LINE
  5
367
330
1E
100
AcDbEntity
  8
0
100
AcDbLine
 10
270.1332499999999
 20
128.021
 30
0.0
 11
270.1332499999999
 21
129.461
 31
0.0
  0
LINE
  5
368
330
1E
100
AcDbEntity
  8
0
100
AcDbLine
 10
270.1332499999999
 20
129.461
 30
0.0
 11
270.1332499999999
 21
128.021
 31
0.0
  0
LINE
  5
369
330
1E
100
AcDbEntity
  8
0
100
AcDbLine
 10
270.1332499999999
 20
129.461
 30
0.0
 11
270.1332499999999
 21
130.325
 31
0.0
  0
LINE
  5
36A
330
1E
100
AcDbEntity
  8
0
100
AcDbLine
 10
270.1332499999999
 20
130.325
 30
0.0
 11
270.1332499999999
 21
129.461
 31
0.0
  0
LINE
  5
36B
330
1E
100
AcDbEntity
  8
0
100
AcDbLine
 10
270.1332499999999
 20
130.325
 30
0.0
 11
270.1332499999999
 21
130.6489999999999
 31
0.0
  0
LINE
  5
36C
330
1E
100
AcDbEntity
  8
0
100
AcDbLine
 10
270.1332499999999
 20
130.6489999999999
 30
0.0
 11
270.1332499999999
 21
130.325
 31
0.0
  0
LINE
  5
36D
330
1E
100
AcDbEntity
  8
0
100
AcDbLine
 10
270.1332499999999
 20
121.649
 30
0.0
 11
270.1332499999999
 21
119.345
 31
0.0
  0
LINE
  5
36E
330
1E
100
AcDbEntity
  8
0
100
AcDbLine
 10
270.1332499999999
 20
121.649
 30
0.0
 11
270.1332499999999
 21
123.953
 31
0.0
  0
LINE
  5
36F
330
1E
100
AcDbEntity
  8
0
100
AcDbLine
 10
270.1332499999999
 20
119.345
 30
0.0
 11
270.1332499999999
 21
117.185
 31
0.0
  0
LINE
  5
370
330
1E
100
AcDbEntity
  8
0
100
AcDbLine
 10
270.1332499999999
 20
119.345
 30
0.0
 11
270.1332499999999
 21
121.649
 31
0.0
  0
LINE
  5
371
330
1E
100
AcDbEntity
  8
0
100
AcDbLine
 10
270.1332499999999
 20
117.185
 30
0.0
 11
270.1332499999999
 21
115.277
 31
0.0
  0
LINE
  5
372
330
1E
100
AcDbEntity
  8
0
100
AcDbLine
 10
270.1332499999999
 20
117.185
 30
0.0
 11
270.1332499999999
 21
119.345
 31
0.0
  0
LINE
  5
373
330
1E
100
AcDbEntity
  8
0
100
AcDbLine
 10
270.1332499999999
 20
115.277
 30
0.0
 11
270.1332499999999
 21
113.837
 31
0.0
  0
LINE
  5
374
330
1E
100
AcDbEntity
  8
0
100
AcDbLine
 10
270.1332499999999
 20
115.277
 30
0.0
 11
270.1332499999999
 21
117.185
 31
0.0
  0
LINE
  5
375
330
1E
100
AcDbEntity
  8
0
100
AcDbLine
 10
270.1332499999999
 20
113.837
 30
0.0
 11
270.1332499999999
 21
112.973
 31
0.0
  0
LINE
  5
376
330
1E
100
AcDbEntity
  8
0
100
AcDbLine
 10
270.1332499999999
 20
113.837
 30
0.0
 11
270.1332499999999
 21
115.277
 31
0.0
  0
LINE
  5
377
330
1E
100
AcDbEntity
  8
0
100
AcDbLine
 10
272.2532499999999
 20
129.649
 30
0.0
 11
279.45325
 21
129.649
 31
0.0
  0
LINE
  5
378
330
1E
100
AcDbEntity
  8
0
100
AcDbLine
 10
270.1332499999999
 20
112.973
 30
0.0
 11
270.1332499999999
 21
112.6489999999999
 31
0.0
  0
LINE
  5
379
330
1E
100
AcDbEntity
  8
0
100
AcDbLine
 10
270.1332499999999
 20
112.973
 30
0.0
 11
270.1332499999999
 21
113.837
 31
0.0
  0
LINE
  5
37A
330
1E
100
AcDbEntity
  8
0
100
AcDbLine
 10
270.8492499999999
 20
82.649
 30
0.0
 11
275.72525
 21
82.649
 31
0.0
  0
LINE
  5
37B
330
1E
100
AcDbEntity
  8
0
100
AcDbLine
 10
274.23725
 20
82.649
 30
0.0
 11
280.47725
 21
82.649
 31
0.0
  0
LINE
  5
37D
330
1E
100
AcDbEntity
  8
0
100
AcDbLine
 10
275.5572499999999
 20
30.649
 30
0.0
 11
281.0652499999999
 21
30.649
 31
0.0
  0
LINE
  5
37E
330
1E
100
AcDbEntity
  8
0
100
AcDbLine
 10
275.5572499999999
 20
55.64899999999999
 30
0.0
 11
281.0652499999999
 21
55.64899999999999
 31
0.0
  0
LINE
  5
37F
330
1E
100
AcDbEntity
  8
0
100
AcDbLine
 10
275.5572499999999
 20
30.649
 30
0.0
 11
281.0652499999999
 21
30.649
 31
0.0
  0
LINE
  5
381
330
1E
100
AcDbEntity
  8
0
100
AcDbLine
 10
275.72525
 20
68.649
 30
0.0
 11
281.24525
 21
68.649
 31
0.0
  0
LINE
  5
383
330
1E
100
AcDbEntity
  8
0
100
AcDbLine
 10
281.0652499999999
 20
30.649
 30
0.0
 11
287.32925
 21
30.649
 31
0.0
  0
LINE
  5
384
330
1E
100
AcDbEntity
  8
0
100
AcDbLine
 10
281.0652499999999
 20
55.64899999999999
 30
0.0
 11
287.32925
 21
55.64899999999999
 31
0.0
  0
LINE
  5
385
330
1E
100
AcDbEntity
  8
0
100
AcDbLine
 10
281.0652499999999
 20
30.649
 30
0.0
 11
287.32925
 21
30.649
 31
0.0
  0
LINE
  5
387
330
1E
100
AcDbEntity
  8
0
100
AcDbLine
 10
277.21325
 20
68.649
 30
0.0
 11
282.01325
 21
68.649
 31
0.0
  0
LINE
  5
388
330
1E
100
AcDbEntity
  8
0
100
AcDbLine
 10
282.01325
 20
68.649
 30
0.0
 11
287.1332499999999
 21
68.649
 31
0.0
  0
LINE
  5
389
330
1E
100
AcDbEntity
  8
0
100
AcDbLine
 10
286.1332499999999
 20
68.649
 30
0.0
 11
286.1332499999999
 21
82.649
 31
0.0
  0
LINE
  5
38A
330
1E
100
AcDbEntity
  8
0
100
AcDbLine
 10
286.1332499999999
 20
68.649
 30
0.0
 11
288.1332499999999
 21
68.649
 31
0.0
  0
LINE
  5
38B
330
1E
100
AcDbEntity
  8
0
100
AcDbLine
 10
287.1332499999999
 20
68.649
 30
0.0
 11
293.02125
 21
68.649
 31
0.0
  0
LINE
  5
38C
330
1E
100
AcDbEntity
  8
0
100
AcDbLine
 10
287.1332499999999
 20
68.649
 30
0.0
 11
292.2532499999999
 21
68.649
 31
0.0
  0
LINE
  5
38D
330
1E
100
AcDbEntity
  8
0
100
AcDbLine
 10
286.1332499999999
 20
82.649
 30
0.0
 11
286.1332499999999
 21
68.649
 31
0.0
  0
LINE
  5
38E
330
1E
100
AcDbEntity
  8
0
100
AcDbLine
 10
286.1332499999999
 20
82.649
 30
0.0
 11
288.1332499999999
 21
82.649
 31
0.0
  0
LINE
  5
38F
330
1E
100
AcDbEntity
  8
0
100
AcDbLine
 10
281.24525
 20
68.649
 30
0.0
 11
287.1332499999999
 21
68.649
 31
0.0
  0
LINE
  5
390
330
1E
100
AcDbEntity
  8
0
100
AcDbLine
 10
275.72525
 20
82.649
 30
0.0
 11
281.24525
 21
82.649
 31
0.0
  0
LINE
  5
391
330
1E
100
AcDbEntity
  8
0
100
AcDbLine
 10
281.24525
 20
82.649
 30
0.0
 11
286.1332499999999
 21
82.649
 31
0.0
  0
LINE
  5
392
330
1E
100
AcDbEntity
  8
0
100
AcDbLine
 10
287.32925
 20
30.649
 30
0.0
 11
294.1332499999999
 21
30.649
 31
0.0
  0
LINE
  5
393
330
1E
100
AcDbEntity
  8
0
100
AcDbLine
 10
287.32925
 20
55.64899999999999
 30
0.0
 11
294.1332499999999
 21
55.64899999999999
 31
0.0
  0
LINE
  5
394
330
1E
100
AcDbEntity
  8
0
100
AcDbLine
 10
287.32925
 20
30.649
 30
0.0
 11
294.1332499999999
 21
30.649
 31
0.0
  0
LINE
  5
395
330
1E
100
AcDbEntity
  8
0
100
AcDbLine
 10
288.1332499999999
 20
68.649
 30
0.0
 11
288.1332499999999
 21
82.649
 31
0.0
  0
LINE
  5
396
330
1E
100
AcDbEntity
  8
0
100
AcDbLine
 10
292.2532499999999
 20
68.649
 30
0.0
 11
297.05325
 21
68.649
 31
0.0
  0
LINE
  5
397
330
1E
100
AcDbEntity
  8
0
100
AcDbLine
 10
293.02125
 20
68.649
 30
0.0
 11
298.5412499999999
 21
68.649
 31
0.0
  0
LINE
  5
398
330
1E
100
AcDbEntity
  8
0
100
AcDbLine
 10
293.02125
 20
82.649
 30
0.0
 11
298.5412499999999
 21
82.649
 31
0.0
  0
LINE
  5
399
330
1E
100
AcDbEntity
  8
0
100
AcDbLine
 10
288.1332499999999
 20
82.649
 30
0.0
 11
293.02125
 21
82.649
 31
0.0
  0
LINE
  5
39A
330
1E
100
AcDbEntity
  8
0
100
AcDbLine
 10
288.1332499999999
 20
82.649
 30
0.0
 11
288.1332499999999
 21
68.649
 31
0.0
  0
LINE
  5
39B
330
1E
100
AcDbEntity
  8
0
100
AcDbLine
 10
293.7892499999999
 20
82.649
 30
0.0
 11
300.02925
 21
82.649
 31
0.0
  0
LINE
  5
39C
330
1E
100
AcDbEntity
  8
0
100
AcDbLine
 10
287.1332499999999
 20
82.649
 30
0.0
 11
293.7892499999999
 21
82.649
 31
0.0
  0
LINE
  5
39D
330
1E
100
AcDbEntity
  8
0
100
AcDbLine
 10
293.7892499999999
 20
84.649
 30
0.0
 11
300.02925
 21
84.649
 31
0.0
  0
LINE
  5
39E
330
1E
100
AcDbEntity
  8
0
100
AcDbLine
 10
287.1332499999999
 20
84.649
 30
0.0
 11
293.7892499999999
 21
84.649
 31
0.0
  0
LINE
  5
39F
330
1E
100
AcDbEntity
  8
0
100
AcDbLine
 10
280.47725
 20
82.649
 30
0.0
 11
287.1332499999999
 21
82.649
 31
0.0
  0
LINE
  5
3A0
330
1E
100
AcDbEntity
  8
0
100
AcDbLine
 10
274.23725
 20
84.649
 30
0.0
 11
280.47725
 21
84.649
 31
0.0
  0
LINE
  5
3A1
330
1E
100
AcDbEntity
  8
0
100
AcDbLine
 10
279.45325
 20
129.649
 30
0.0
 11
287.1332499999999
 21
129.649
 31
0.0
  0
LINE
  5
3A2
330
1E
100
AcDbEntity
  8
0
100
AcDbLine
 10
280.73325
 20
129.649
 30
0.0
 11
287.1332499999999
 21
129.649
 31
0.0
  0
LINE
  5
3A3
330
1E
100
AcDbEntity
  8
0
100
AcDbLine
 10
274.73325
 20
129.649
 30
0.0
 11
280.73325
 21
129.649
 31
0.0
  0
LINE
  5
3A4
330
1E
100
AcDbEntity
  8
0
100
AcDbLine
 10
277.40525
 20
140.6489999999999
 30
0.0
 11
287.1332499999999
 21
140.6489999999999
 31
0.0
  0
LINE
  5
3A5
330
1E
100
AcDbEntity
  8
0
100
AcDbLine
 10
287.1332499999999
 20
140.6489999999999
 30
0.0
 11
296.8612499999999
 21
140.6489999999999
 31
0.0
  0
LINE
  5
3A6
330
1E
100
AcDbEntity
  8
0
100
AcDbLine
 10
287.1332499999999
 20
136.6489999999999
 30
0.0
 11
296.8612499999999
 21
136.6489999999999
 31
0.0
  0
LINE
  5
3A7
330
1E
100
AcDbEntity
  8
0
100
AcDbLine
 10
277.40525
 20
136.6489999999999
 30
0.0
 11
287.1332499999999
 21
136.6489999999999
 31
0.0
  0
LINE
  5
3A8
330
1E
100
AcDbEntity
  8
0
100
AcDbLine
 10
287.1332499999999
 20
129.649
 30
0.0
 11
293.53325
 21
129.649
 31
0.0
  0
LINE
  5
3A9
330
1E
100
AcDbEntity
  8
0
100
AcDbLine
 10
287.1332499999999
 20
129.649
 30
0.0
 11
294.8132499999999
 21
129.649
 31
0.0
  0
LINE
  5
3AA
330
1E
100
AcDbEntity
  8
0
100
AcDbLine
 10
293.53325
 20
129.649
 30
0.0
 11
299.5332499999999
 21
129.649
 31
0.0
  0
LINE
  5
3AB
330
1E
100
AcDbEntity
  8
0
100
AcDbLine
 10
280.47725
 20
84.649
 30
0.0
 11
287.1332499999999
 21
84.649
 31
0.0
  0
LINE
  5
3AC
330
1E
100
AcDbEntity
  8
0
100
AcDbLine
 10
294.1332499999999
 20
30.649
 30
0.0
 11
360.1332499999999
 21
30.649
 31
0.0
  0
LINE
  5
3AD
330
1E
100
AcDbEntity
  8
0
100
AcDbLine
 10
294.8132499999999
 20
129.649
 30
0.0
 11
302.01325
 21
129.649
 31
0.0
  0
LINE
  5
3AE
330
1E
100
AcDbEntity
  8
0
100
AcDbLine
 10
294.1332499999999
 20
55.64899999999999
 30
0.0
 11
360.1332499999999
 21
55.64899999999999
 31
0.0
  0
LINE
  5
3AF
330
1E
100
AcDbEntity
  8
0
100
AcDbLine
 10
294.1332499999999
 20
30.649
 30
0.0
 11
360.1332499999999
 21
30.649
 31
0.0
  0
LINE
  5
3B0
330
1E
100
AcDbEntity
  8
0
100
AcDbLine
 10
294.04525
 20
150.649
 30
0.0
 11
300.52525
 21
150.649
 31
0.0
  0
LINE
  5
3B1
330
1E
100
AcDbEntity
  8
0
100
AcDbLine
 10
287.1332499999999
 20
150.649
 30
0.0
 11
296.09325
 21
150.649
 31
0.0
  0
LINE
  5
3B2
330
1E
100
AcDbEntity
  8
0
100
AcDbLine
 10
287.1332499999999
 20
150.649
 30
0.0
 11
294.04525
 21
150.649
 31
0.0
  0
LINE
  5
3B3
330
1E
100
AcDbEntity
  8
0
100
AcDbLine
 10
297.05325
 20
68.649
 30
0.0
 11
301.29325
 21
68.649
 31
0.0
  0
LINE
  5
3B4
330
1E
100
AcDbEntity
  8
0
100
AcDbLine
 10
298.5412499999999
 20
68.649
 30
0.0
 11
303.41725
 21
68.649
 31
0.0
  0
LINE
  5
3B5
330
1E
100
AcDbEntity
  8
0
100
AcDbLine
 10
298.5412499999999
 20
82.649
 30
0.0
 11
303.41725
 21
82.649
 31
0.0
  0
LINE
  5
3B6
330
1E
100
AcDbEntity
  8
0
100
AcDbLine
 10
296.8612499999999
 20
140.6489999999999
 30
0.0
 11
305.98125
 21
140.6489999999999
 31
0.0
  0
LINE
  5
3B7
330
1E
100
AcDbEntity
  8
0
100
AcDbLine
 10
296.8612499999999
 20
136.6489999999999
 30
0.0
 11
305.98125
 21
136.6489999999999
 31
0.0
  0
LINE
  5
3B8
330
1E
100
AcDbEntity
  8
0
100
AcDbLine
 10
299.5332499999999
 20
129.649
 30
0.0
 11
304.83325
 21
129.649
 31
0.0
  0
LINE
  5
3B9
330
1E
100
AcDbEntity
  8
0
100
AcDbLine
 10
300.02925
 20
82.649
 30
0.0
 11
305.54125
 21
82.649
 31
0.0
  0
LINE
  5
3BA
330
1E
100
AcDbEntity
  8
0
100
AcDbLine
 10
301.29325
 20
68.649
 30
0.0
 11
304.4932499999999
 21
68.649
 31
0.0
  0
LINE
  5
3BB
330
1E
100
AcDbEntity
  8
0
100
AcDbLine
 10
304.4932499999999
 20
68.649
 30
0.0
 11
306.4132499999999
 21
68.649
 31
0.0
  0
LINE
  5
3BC
330
1E
100
AcDbEntity
  8
0
100
AcDbLine
 10
303.41725
 20
68.649
 30
0.0
 11
307.0972499999999
 21
68.649
 31
0.0
  0
LINE
  5
3BD
330
1E
100
AcDbEntity
  8
0
100
AcDbLine
 10
303.41725
 20
82.649
 30
0.0
 11
306.11925
 21
82.649
 31
0.0
  0
LINE
  5
3BE
330
1E
100
AcDbEntity
  8
0
100
AcDbLine
 10
306.11925
 20
82.649
 30
0.0
 11
308.7172499999999
 21
82.649
 31
0.0
  0
LINE
  5
3BF
330
1E
100
AcDbEntity
  8
0
100
AcDbLine
 10
306.11925
 20
68.649
 30
0.0
 11
308.7172499999999
 21
68.649
 31
0.0
  0
LINE
  5
3C0
330
1E
100
AcDbEntity
  8
0
100
AcDbLine
 10
306.11925
 20
68.649
 30
0.0
 11
307.11925
 21
68.649
 31
0.0
  0
LINE
  5
3C1
330
1E
100
AcDbEntity
  8
0
100
AcDbLine
 10
305.54125
 20
82.649
 30
0.0
 11
309.70125
 21
82.649
 31
0.0
  0
LINE
  5
3C2
330
1E
100
AcDbEntity
  8
0
100
AcDbLine
 10
302.01325
 20
129.649
 30
0.0
 11
308.3732499999999
 21
129.649
 31
0.0
  0
LINE
  5
3C3
330
1E
100
AcDbEntity
  8
0
100
AcDbLine
 10
305.98125
 20
140.6489999999999
 30
0.0
 11
314.0372499999999
 21
140.6489999999999
 31
0.0
  0
LINE
  5
3C4
330
1E
100
AcDbEntity
  8
0
100
AcDbLine
 10
305.98125
 20
136.6489999999999
 30
0.0
 11
314.0372499999999
 21
136.6489999999999
 31
0.0
  0
LINE
  5
3C5
330
1E
100
AcDbEntity
  8
0
100
AcDbLine
 10
304.83325
 20
129.649
 30
0.0
 11
308.83325
 21
129.649
 31
0.0
  0
LINE
  5
3C6
330
1E
100
AcDbEntity
  8
0
100
AcDbLine
 10
305.54125
 20
84.649
 30
0.0
 11
309.70125
 21
84.649
 31
0.0
  0
LINE
  5
3C7
330
1E
100
AcDbEntity
  8
0
100
AcDbLine
 10
300.02925
 20
84.649
 30
0.0
 11
305.54125
 21
84.649
 31
0.0
  0
LINE
  5
3C8
330
1E
100
AcDbEntity
  8
0
100
AcDbLine
 10
300.52525
 20
150.649
 30
0.0
 11
306.24925
 21
150.649
 31
0.0
  0
LINE
  5
3C9
330
1E
100
AcDbEntity
  8
0
100
AcDbLine
 10
306.4132499999999
 20
68.649
 30
0.0
 11
307.13325
 21
68.649
 31
0.0
  0
LINE
  5
3CA
330
1E
100
AcDbEntity
  8
0
100
AcDbLine
 10
307.13325
 20
55.64899999999999
 30
0.0
 11
307.13325
 21
68.649
 31
0.0
  0
LINE
  5
3CB
330
1E
100
AcDbEntity
  8
0
100
AcDbLine
 10
308.7172499999999
 20
68.649
 30
0.0
 11
308.7172499999999
 21
82.649
 31
0.0
  0
LINE
  5
3CC
330
1E
100
AcDbEntity
  8
0
100
AcDbLine
 10
308.7172499999999
 20
68.649
 30
0.0
 11
309.7172499999999
 21
68.649
 31
0.0
  0
LINE
  5
3CD
330
1E
100
AcDbEntity
  8
0
100
AcDbLine
 10
307.11925
 20
68.649
 30
0.0
 11
309.7172499999999
 21
68.649
 31
0.0
  0
LINE
  5
3CE
330
1E
100
AcDbEntity
  8
0
100
AcDbLine
 10
307.0972499999999
 20
68.649
 30
0.0
 11
309.30525
 21
68.649
 31
0.0
  0
LINE
  5
3CF
330
1E
100
AcDbEntity
  8
0
100
AcDbLine
 10
309.30525
 20
68.649
 30
0.0
 11
310.1332499999999
 21
68.649
 31
0.0
  0
LINE
  5
3D0
330
1E
100
AcDbEntity
  8
0
100
AcDbLine
 10
308.7172499999999
 20
82.649
 30
0.0
 11
309.7172499999999
 21
82.649
 31
0.0
  0
LINE
  5
3D1
330
1E
100
AcDbEntity
  8
0
100
AcDbLine
 10
308.7172499999999
 20
82.649
 30
0.0
 11
308.7172499999999
 21
68.649
 31
0.0
  0
LINE
  5
3D2
330
1E
100
AcDbEntity
  8
0
100
AcDbLine
 10
307.13325
 20
68.649
 30
0.0
 11
309.30525
 21
68.649
 31
0.0
  0
LINE
  5
3D3
330
1E
100
AcDbEntity
  8
0
100
AcDbLine
 10
307.13325
 20
68.649
 30
0.0
 11
308.7172499999999
 21
68.649
 31
0.0
  0
LINE
  5
3D4
330
1E
100
AcDbEntity
  8
0
100
AcDbLine
 10
307.13325
 20
68.649
 30
0.0
 11
309.7172499999999
 21
68.649
 31
0.0
  0
LINE
  5
3D5
330
1E
100
AcDbEntity
  8
0
100
AcDbLine
 10
307.13325
 20
68.649
 30
0.0
 11
307.13325
 21
55.64899999999999
 31
0.0
  0
LINE
  5
3D6
330
1E
100
AcDbEntity
  8
0
100
AcDbLine
 10
309.7172499999999
 20
68.649
 30
0.0
 11
309.7172499999999
 21
82.649
 31
0.0
  0
LINE
  5
3D7
330
1E
100
AcDbEntity
  8
0
100
AcDbLine
 10
310.1332499999999
 20
68.649
 30
0.0
 11
310.1332499999999
 21
82.649
 31
0.0
  0
LINE
  5
3D8
330
1E
100
AcDbEntity
  8
0
100
AcDbLine
 10
309.7172499999999
 20
82.649
 30
0.0
 11
310.1332499999999
 21
82.649
 31
0.0
  0
LINE
  5
3D9
330
1E
100
AcDbEntity
  8
0
100
AcDbLine
 10
309.7172499999999
 20
82.649
 30
0.0
 11
309.7172499999999
 21
68.649
 31
0.0
  0
LINE
  5
3DA
330
1E
100
AcDbEntity
  8
0
100
AcDbLine
 10
309.70125
 20
82.649
 30
0.0
 11
312.19725
 21
82.649
 31
0.0
  0
LINE
  5
3DB
330
1E
100
AcDbEntity
  8
0
100
AcDbLine
 10
308.3732499999999
 20
129.649
 30
0.0
 11
313.17325
 21
129.649
 31
0.0
  0
LINE
  5
3DC
330
1E
100
AcDbEntity
  8
0
100
AcDbLine
 10
308.83325
 20
129.649
 30
0.0
 11
311.2332499999999
 21
129.649
 31
0.0
  0
LINE
  5
3DD
330
1E
100
AcDbEntity
  8
0
100
AcDbLine
 10
311.2332499999999
 20
129.649
 30
0.0
 11
312.1332499999999
 21
129.649
 31
0.0
  0
LINE
  5
3DE
330
1E
100
AcDbEntity
  8
0
100
AcDbLine
 10
309.70125
 20
84.649
 30
0.0
 11
312.19725
 21
84.649
 31
0.0
  0
LINE
  5
3DF
330
1E
100
AcDbEntity
  8
0
100
AcDbLine
 10
310.1332499999999
 20
82.649
 30
0.0
 11
312.19725
 21
82.649
 31
0.0
  0
LINE
  5
3E0
330
1E
100
AcDbEntity
  8
0
100
AcDbLine
 10
310.1332499999999
 20
82.649
 30
0.0
 11
310.1332499999999
 21
68.649
 31
0.0
  0
LINE
  5
3E1
330
1E
100
AcDbEntity
  8
0
100
AcDbLine
 10
306.24925
 20
150.649
 30
0.0
 11
310.5692499999999
 21
150.649
 31
0.0
  0
LINE
  5
3E2
330
1E
100
AcDbEntity
  8
0
100
AcDbLine
 10
310.5692499999999
 20
150.649
 30
0.0
 11
313.16125
 21
150.649
 31
0.0
  0
LINE
  5
3E3
330
1E
100
AcDbEntity
  8
0
100
AcDbLine
 10
296.09325
 20
150.649
 30
0.0
 11
304.4932499999999
 21
150.649
 31
0.0
  0
LINE
  5
3E4
330
1E
100
AcDbEntity
  8
0
100
AcDbLine
 10
304.4932499999999
 20
150.649
 30
0.0
 11
311.91325
 21
150.649
 31
0.0
  0
LINE
  5
3E5
330
1E
100
AcDbEntity
  8
0
100
AcDbLine
 10
312.1332499999999
 20
84.649
 30
0.0
 11
312.1332499999999
 21
129.649
 31
0.0
  0
LINE
  5
3E6
330
1E
100
AcDbEntity
  8
0
100
AcDbLine
 10
312.1332499999999
 20
129.649
 30
0.0
 11
312.1332499999999
 21
84.649
 31
0.0
  0
LINE
  5
3E7
330
1E
100
AcDbEntity
  8
0
100
AcDbLine
 10
312.1332499999999
 20
129.649
 30
0.0
 11
313.17325
 21
129.649
 31
0.0
  0
LINE
  5
3E8
330
1E
100
AcDbEntity
  8
0
100
AcDbLine
 10
312.19725
 20
84.649
 30
0.0
 11
313.1332499999999
 21
84.649
 31
0.0
  0
LINE
  5
3E9
330
1E
100
AcDbEntity
  8
0
100
AcDbLine
 10
313.1332499999999
 20
82.649
 30
0.0
 11
313.1332499999999
 21
84.649
 31
0.0
  0
LINE
  5
3EA
330
1E
100
AcDbEntity
  8
0
100
AcDbLine
 10
314.0372499999999
 20
140.6489999999999
 30
0.0
 11
320.11725
 21
140.6489999999999
 31
0.0
  0
LINE
  5
3EB
330
1E
100
AcDbEntity
  8
0
100
AcDbLine
 10
314.0372499999999
 20
136.6489999999999
 30
0.0
 11
320.11725
 21
136.6489999999999
 31
0.0
  0
LINE
  5
3EC
330
1E
100
AcDbEntity
  8
0
100
AcDbLine
 10
313.17325
 20
129.649
 30
0.0
 11
316.0532499999999
 21
129.649
 31
0.0
  0
LINE
  5
3ED
330
1E
100
AcDbEntity
  8
0
100
AcDbLine
 10
316.0532499999999
 20
129.649
 30
0.0
 11
317.1332499999999
 21
129.649
 31
0.0
  0
LINE
  5
3EE
330
1E
100
AcDbEntity
  8
0
100
AcDbLine
 10
313.17325
 20
129.649
 30
0.0
 11
316.0532499999999
 21
129.649
 31
0.0
  0
LINE
  5
3EF
330
1E
100
AcDbEntity
  8
0
100
AcDbLine
 10
320.11725
 20
136.6489999999999
 30
0.0
 11
323.7652499999999
 21
136.6489999999999
 31
0.0
  0
LINE
  5
3F0
330
1E
100
AcDbEntity
  8
0
100
AcDbLine
 10
317.1332499999999
 20
129.649
 30
0.0
 11
317.1332499999999
 21
136.6489999999999
 31
0.0
  0
LINE
  5
3F1
330
1E
100
AcDbEntity
  8
0
100
AcDbLine
 10
320.11725
 20
140.6489999999999
 30
0.0
 11
323.7652499999999
 21
140.6489999999999
 31
0.0
  0
LINE
  5
3F2
330
1E
100
AcDbEntity
  8
0
100
AcDbLine
 10
317.1332499999999
 20
136.6489999999999
 30
0.0
 11
317.1332499999999
 21
129.649
 31
0.0
  0
LINE
  5
3F3
330
1E
100
AcDbEntity
  8
0
100
AcDbLine
 10
317.1332499999999
 20
136.6489999999999
 30
0.0
 11
320.11725
 21
136.6489999999999
 31
0.0
  0
LINE
  5
3F4
330
1E
100
AcDbEntity
  8
0
100
AcDbLine
 10
316.0532499999999
 20
129.649
 30
0.0
 11
317.1332499999999
 21
129.649
 31
0.0
  0
LINE
  5
3F5
330
1E
100
AcDbEntity
  8
0
100
AcDbLine
 10
313.1332499999999
 20
84.649
 30
0.0
 11
313.1332499999999
 21
82.649
 31
0.0
  0
LINE
  5
3F6
330
1E
100
AcDbEntity
  8
0
100
AcDbLine
 10
312.19725
 20
82.649
 30
0.0
 11
313.1332499999999
 21
82.649
 31
0.0
  0
LINE
  5
3F7
330
1E
100
AcDbEntity
  8
0
100
AcDbLine
 10
314.1332499999999
 20
150.649
 30
0.0
 11
314.1332499999999
 21
140.6489999999999
 31
0.0
  0
LINE
  5
3F8
330
1E
100
AcDbEntity
  8
0
100
AcDbLine
 10
314.1332499999999
 20
150.649
 30
0.0
 11
317.51325
 21
150.649
 31
0.0
  0
LINE
  5
3F9
330
1E
100
AcDbEntity
  8
0
100
AcDbLine
 10
313.16125
 20
150.649
 30
0.0
 11
314.1332499999999
 21
150.649
 31
0.0
  0
LINE
  5
3FA
330
1E
100
AcDbEntity
  8
0
100
AcDbLine
 10
314.1332499999999
 20
140.6489999999999
 30
0.0
 11
314.1332499999999
 21
150.649
 31
0.0
  0
LINE
  5
3FB
330
1E
100
AcDbEntity
  8
0
100
AcDbLine
 10
311.91325
 20
150.649
 30
0.0
 11
317.51325
 21
150.649
 31
0.0
  0
LINE
  5
3FC
330
1E
100
AcDbEntity
  8
0
100
AcDbLine
 10
317.51325
 20
150.649
 30
0.0
 11
320.8732499999999
 21
150.649
 31
0.0
  0
LINE
  5
3FD
330
1E
100
AcDbEntity
  8
0
100
AcDbLine
 10
360.1332499999999
 20
30.649
 30
0.0
 11
366.93725
 21
30.649
 31
0.0
  0
LINE
  5
3FE
330
1E
100
AcDbEntity
  8
0
100
AcDbLine
 10
366.93725
 20
30.649
 30
0.0
 11
373.20125
 21
30.649
 31
0.0
  0
LINE
  5
3FF
330
1E
100
AcDbEntity
  8
0
100
AcDbLine
 10
360.1332499999999
 20
30.649
 30
0.0
 11
366.93725
 21
30.649
 31
0.0
  0
LINE
  5
400
330
1E
100
AcDbEntity
  8
0
100
AcDbLine
 10
366.93725
 20
30.649
 30
0.0
 11
373.20125
 21
30.649
 31
0.0
  0
LINE
  5
401
330
1E
100
AcDbEntity
  8
0
100
AcDbLine
 10
373.20125
 20
30.649
 30
0.0
 11
378.7092499999999
 21
30.649
 31
0.0
  0
LINE
  5
404
330
1E
100
AcDbEntity
  8
0
100
AcDbLine
 10
373.20125
 20
30.649
 30
0.0
 11
378.7092499999999
 21
30.649
 31
0.0
  0
LINE
  5
405
330
1E
100
AcDbEntity
  8
0
100
AcDbLine
 10
378.7092499999999
 20
30.649
 30
0.0
 11
382.92125
 21
30.649
 31
0.0
  0
LINE
  5
406
330
1E
100
AcDbEntity
  8
0
100
AcDbLine
 10
382.92125
 20
30.649
 30
0.0
 11
385.51325
 21
30.649
 31
0.0
  0
LINE
  5
407
330
1E
100
AcDbEntity
  8
0
100
AcDbLine
 10
386.4852499999999
 20
30.649
 30
0.0
 11
387.1332499999999
 21
31.611
 31
0.0
  0
LINE
  5
408
330
1E
100
AcDbEntity
  8
0
100
AcDbLine
 10
378.7092499999999
 20
30.649
 30
0.0
 11
382.92125
 21
30.649
 31
0.0
  0
LINE
  5
409
330
1E
100
AcDbEntity
  8
0
100
AcDbLine
 10
382.92125
 20
30.649
 30
0.0
 11
385.51325
 21
30.649
 31
0.0
  0
LINE
  5
40C
330
1E
100
AcDbEntity
  8
0
100
AcDbLine
 10
387.1332499999999
 20
31.611
 30
0.0
 11
387.1332499999999
 21
54.6875
 31
0.0
  0
LINE
  5
40D
330
1E
100
AcDbEntity
  8
0
100
AcDbLine
 10
385.51325
 20
30.649
 30
0.0
 11
386.4852499999999
 21
30.649
 31
0.0
  0
LINE
  5
40E
330
1E
100
AcDbEntity
  8
0
100
AcDbLine
 10
341.1332499999999
 20
78.649
 30
0.0
 11
342.06925
 21
78.649
 31
0.0
  0
LINE
  5
40F
330
1E
100
AcDbEntity
  8
0
100
AcDbLine
 10
341.1332499999999
 20
78.649
 30
0.0
 11
341.1332499999999
 21
80.64899999999999
 31
0.0
  0
LINE
  5
410
330
1E
100
AcDbEntity
  8
0
100
AcDbLine
 10
344.5492499999999
 20
64.649
 30
0.0
 11
344.5492499999999
 21
78.649
 31
0.0
  0
LINE
  5
411
330
1E
100
AcDbEntity
  8
0
100
AcDbLine
 10
344.5492499999999
 20
64.649
 30
0.0
 11
347.1472499999999
 21
64.649
 31
0.0
  0
LINE
  5
412
330
1E
100
AcDbEntity
  8
0
100
AcDbLine
 10
344.5492499999999
 20
64.649
 30
0.0
 11
345.5492499999999
 21
64.649
 31
0.0
  0
LINE
  5
413
330
1E
100
AcDbEntity
  8
0
100
AcDbLine
 10
344.5492499999999
 20
64.649
 30
0.0
 11
347.1332499999999
 21
64.649
 31
0.0
  0
LINE
  5
414
330
1E
100
AcDbEntity
  8
0
100
AcDbLine
 10
344.5492499999999
 20
78.649
 30
0.0
 11
344.5492499999999
 21
64.649
 31
0.0
  0
LINE
  5
415
330
1E
100
AcDbEntity
  8
0
100
AcDbLine
 10
344.5492499999999
 20
78.649
 30
0.0
 11
345.5492499999999
 21
78.649
 31
0.0
  0
LINE
  5
416
330
1E
100
AcDbEntity
  8
0
100
AcDbLine
 10
344.1332499999999
 20
78.649
 30
0.0
 11
344.1332499999999
 21
64.649
 31
0.0
  0
LINE
  5
417
330
1E
100
AcDbEntity
  8
0
100
AcDbLine
 10
344.1332499999999
 20
78.649
 30
0.0
 11
344.5492499999999
 21
78.649
 31
0.0
  0
LINE
  5
418
330
1E
100
AcDbEntity
  8
0
100
AcDbLine
 10
344.1332499999999
 20
64.649
 30
0.0
 11
344.96125
 21
64.649
 31
0.0
  0
LINE
  5
419
330
1E
100
AcDbEntity
  8
0
100
AcDbLine
 10
344.1332499999999
 20
64.649
 30
0.0
 11
344.1332499999999
 21
78.649
 31
0.0
  0
LINE
  5
41A
330
1E
100
AcDbEntity
  8
0
100
AcDbLine
 10
347.1332499999999
 20
55.64899999999999
 30
0.0
 11
347.1332499999999
 21
64.649
 31
0.0
  0
LINE
  5
41B
330
1E
100
AcDbEntity
  8
0
100
AcDbLine
 10
347.1332499999999
 20
64.649
 30
0.0
 11
347.1332499999999
 21
55.64899999999999
 31
0.0
  0
LINE
  5
41C
330
1E
100
AcDbEntity
  8
0
100
AcDbLine
 10
347.1472499999999
 20
64.649
 30
0.0
 11
348.1472499999999
 21
64.649
 31
0.0
  0
LINE
  5
41D
330
1E
100
AcDbEntity
  8
0
100
AcDbLine
 10
345.5492499999999
 20
64.649
 30
0.0
 11
345.5492499999999
 21
78.649
 31
0.0
  0
LINE
  5
41E
330
1E
100
AcDbEntity
  8
0
100
AcDbLine
 10
345.5492499999999
 20
64.649
 30
0.0
 11
348.1472499999999
 21
64.649
 31
0.0
  0
LINE
  5
41F
330
1E
100
AcDbEntity
  8
0
100
AcDbLine
 10
345.5492499999999
 20
64.649
 30
0.0
 11
347.1332499999999
 21
64.649
 31
0.0
  0
LINE
  5
420
330
1E
100
AcDbEntity
  8
0
100
AcDbLine
 10
347.1692499999999
 20
64.649
 30
0.0
 11
350.84925
 21
64.649
 31
0.0
  0
LINE
  5
421
330
1E
100
AcDbEntity
  8
0
100
AcDbLine
 10
350.84925
 20
64.649
 30
0.0
 11
355.72525
 21
64.649
 31
0.0
  0
LINE
  5
422
330
1E
100
AcDbEntity
  8
0
100
AcDbLine
 10
345.5492499999999
 20
78.649
 30
0.0
 11
345.5492499999999
 21
64.649
 31
0.0
  0
LINE
  5
423
330
1E
100
AcDbEntity
  8
0
100
AcDbLine
 10
345.5492499999999
 20
78.649
 30
0.0
 11
348.1472499999999
 21
78.649
 31
0.0
  0
LINE
  5
424
330
1E
100
AcDbEntity
  8
0
100
AcDbLine
 10
348.1472499999999
 20
78.649
 30
0.0
 11
350.84925
 21
78.649
 31
0.0
  0
LINE
  5
425
330
1E
100
AcDbEntity
  8
0
100
AcDbLine
 10
350.84925
 20
78.649
 30
0.0
 11
355.72525
 21
78.649
 31
0.0
  0
LINE
  5
426
330
1E
100
AcDbEntity
  8
0
100
AcDbLine
 10
344.96125
 20
64.649
 30
0.0
 11
347.1332499999999
 21
64.649
 31
0.0
  0
LINE
  5
427
330
1E
100
AcDbEntity
  8
0
100
AcDbLine
 10
344.96125
 20
64.649
 30
0.0
 11
347.1692499999999
 21
64.649
 31
0.0
  0
LINE
  5
428
330
1E
100
AcDbEntity
  8
0
100
AcDbLine
 10
344.56525
 20
78.649
 30
0.0
 11
348.72525
 21
78.649
 31
0.0
  0
LINE
  5
429
330
1E
100
AcDbEntity
  8
0
100
AcDbLine
 10
348.72525
 20
78.649
 30
0.0
 11
354.23725
 21
78.649
 31
0.0
  0
LINE
  5
42A
330
1E
100
AcDbEntity
  8
0
100
AcDbLine
 10
360.1332499999999
 20
55.64899999999999
 30
0.0
 11
366.93725
 21
55.64899999999999
 31
0.0
  0
LINE
  5
42B
330
1E
100
AcDbEntity
  8
0
100
AcDbLine
 10
355.72525
 20
64.649
 30
0.0
 11
361.2452499999999
 21
64.649
 31
0.0
  0
LINE
  5
42C
330
1E
100
AcDbEntity
  8
0
100
AcDbLine
 10
366.93725
 20
55.64899999999999
 30
0.0
 11
373.20125
 21
55.64899999999999
 31
0.0
  0
LINE
  5
42E
330
1E
100
AcDbEntity
  8
0
100
AcDbLine
 10
366.1332499999999
 20
64.649
 30
0.0
 11
366.1332499999999
 21
78.649
 31
0.0
  0
LINE
  5
42F
330
1E
100
AcDbEntity
  8
0
100
AcDbLine
 10
366.1332499999999
 20
64.649
 30
0.0
 11
368.1332499999999
 21
64.649
 31
0.0
  0
LINE
  5
430
330
1E
100
AcDbEntity
  8
0
100
AcDbLine
 10
361.2452499999999
 20
64.649
 30
0.0
 11
367.1332499999999
 21
64.649
 31
0.0
  0
LINE
  5
431
330
1E
100
AcDbEntity
  8
0
100
AcDbLine
 10
355.72525
 20
78.649
 30
0.0
 11
361.2452499999999
 21
78.649
 31
0.0
  0
LINE
  5
432
330
1E
100
AcDbEntity
  8
0
100
AcDbLine
 10
366.1332499999999
 20
78.649
 30
0.0
 11
368.1332499999999
 21
78.649
 31
0.0
  0
LINE
  5
433
330
1E
100
AcDbEntity
  8
0
100
AcDbLine
 10
366.1332499999999
 20
78.649
 30
0.0
 11
366.1332499999999
 21
64.649
 31
0.0
  0
LINE
  5
434
330
1E
100
AcDbEntity
  8
0
100
AcDbLine
 10
361.2452499999999
 20
78.649
 30
0.0
 11
366.1332499999999
 21
78.649
 31
0.0
  0
LINE
  5
435
330
1E
100
AcDbEntity
  8
0
100
AcDbLine
 10
367.1332499999999
 20
64.649
 30
0.0
 11
373.02125
 21
64.649
 31
0.0
  0
LINE
  5
436
330
1E
100
AcDbEntity
  8
0
100
AcDbLine
 10
354.23725
 20
78.649
 30
0.0
 11
360.47725
 21
78.649
 31
0.0
  0
LINE
  5
437
330
1E
100
AcDbEntity
  8
0
100
AcDbLine
 10
360.47725
 20
78.649
 30
0.0
 11
367.1332499999999
 21
78.649
 31
0.0
  0
LINE
  5
438
330
1E
100
AcDbEntity
  8
0
100
AcDbLine
 10
342.06925
 20
78.649
 30
0.0
 11
344.1332499999999
 21
78.649
 31
0.0
  0
LINE
  5
439
330
1E
100
AcDbEntity
  8
0
100
AcDbLine
 10
342.06925
 20
78.649
 30
0.0
 11
344.56525
 21
78.649
 31
0.0
  0
LINE
  5
43A
330
1E
100
AcDbEntity
  8
0
100
AcDbLine
 10
342.06925
 20
80.64899999999999
 30
0.0
 11
344.56525
 21
80.64899999999999
 31
0.0
  0
LINE
  5
43B
330
1E
100
AcDbEntity
  8
0
100
AcDbLine
 10
347.1332499999999
 20
80.64899999999999
 30
0.0
 11
348.8712499999999
 21
93.8488
 31
0.0
  0
LINE
  5
43C
330
1E
100
AcDbEntity
  8
0
100
AcDbLine
 10
344.56525
 20
80.64899999999999
 30
0.0
 11
348.72525
 21
80.64899999999999
 31
0.0
  0
LINE
  5
43D
330
1E
100
AcDbEntity
  8
0
100
AcDbLine
 10
348.72525
 20
80.64899999999999
 30
0.0
 11
354.23725
 21
80.64899999999999
 31
0.0
  0
LINE
  5
43E
330
1E
100
AcDbEntity
  8
0
100
AcDbLine
 10
354.23725
 20
80.64899999999999
 30
0.0
 11
360.47725
 21
80.64899999999999
 31
0.0
  0
LINE
  5
43F
330
1E
100
AcDbEntity
  8
0
100
AcDbLine
 10
360.47725
 20
80.64899999999999
 30
0.0
 11
367.1332499999999
 21
80.64899999999999
 31
0.0
  0
LINE
  5
440
330
1E
100
AcDbEntity
  8
0
100
AcDbLine
 10
341.1332499999999
 20
80.64899999999999
 30
0.0
 11
341.1332499999999
 21
78.649
 31
0.0
  0
LINE
  5
441
330
1E
100
AcDbEntity
  8
0
100
AcDbLine
 10
341.1332499999999
 20
80.64899999999999
 30
0.0
 11
342.06925
 21
80.64899999999999
 31
0.0
  0
LINE
  5
442
330
1E
100
AcDbEntity
  8
0
100
AcDbLine
 10
367.1332499999999
 20
78.649
 30
0.0
 11
373.78925
 21
78.649
 31
0.0
  0
LINE
  5
443
330
1E
100
AcDbEntity
  8
0
100
AcDbLine
 10
368.1332499999999
 20
64.649
 30
0.0
 11
368.1332499999999
 21
78.649
 31
0.0
  0
LINE
  5
444
330
1E
100
AcDbEntity
  8
0
100
AcDbLine
 10
373.02125
 20
64.649
 30
0.0
 11
378.54125
 21
64.649
 31
0.0
  0
LINE
  5
445
330
1E
100
AcDbEntity
  8
0
100
AcDbLine
 10
373.20125
 20
55.64899999999999
 30
0.0
 11
378.7092499999999
 21
55.64899999999999
 31
0.0
  0
LINE
  5
447
330
1E
100
AcDbEntity
  8
0
100
AcDbLine
 10
378.7092499999999
 20
55.64899999999999
 30
0.0
 11
382.92125
 21
55.64899999999999
 31
0.0
  0
LINE
  5
449
330
1E
100
AcDbEntity
  8
0
100
AcDbLine
 10
378.54125
 20
64.649
 30
0.0
 11
383.41725
 21
64.649
 31
0.0
  0
LINE
  5
44A
330
1E
100
AcDbEntity
  8
0
100
AcDbLine
 10
378.54125
 20
78.649
 30
0.0
 11
383.41725
 21
78.649
 31
0.0
  0
LINE
  5
44B
330
1E
100
AcDbEntity
  8
0
100
AcDbLine
 10
373.02125
 20
78.649
 30
0.0
 11
378.54125
 21
78.649
 31
0.0
  0
LINE
  5
44C
330
1E
100
AcDbEntity
  8
0
100
AcDbLine
 10
368.1332499999999
 20
78.649
 30
0.0
 11
373.02125
 21
78.649
 31
0.0
  0
LINE
  5
44D
330
1E
100
AcDbEntity
  8
0
100
AcDbLine
 10
368.1332499999999
 20
78.649
 30
0.0
 11
368.1332499999999
 21
64.649
 31
0.0
  0
LINE
  5
44E
330
1E
100
AcDbEntity
  8
0
100
AcDbLine
 10
380.0292499999999
 20
78.649
 30
0.0
 11
385.5412499999999
 21
78.649
 31
0.0
  0
LINE
  5
44F
330
1E
100
AcDbEntity
  8
0
100
AcDbLine
 10
373.78925
 20
78.649
 30
0.0
 11
380.0292499999999
 21
78.649
 31
0.0
  0
LINE
  5
450
330
1E
100
AcDbEntity
  8
0
100
AcDbLine
 10
382.92125
 20
55.64899999999999
 30
0.0
 11
385.51325
 21
55.64899999999999
 31
0.0
  0
LINE
  5
451
330
1E
100
AcDbEntity
  8
0
100
AcDbLine
 10
385.51325
 20
55.64899999999999
 30
0.0
 11
386.4852499999999
 21
55.64899999999999
 31
0.0
  0
LINE
  5
453
330
1E
100
AcDbEntity
  8
0
100
AcDbLine
 10
384.49325
 20
55.64899999999999
 30
0.0
 11
386.41325
 21
55.64899999999999
 31
0.0
  0
LINE
  5
454
330
1E
100
AcDbEntity
  8
0
100
AcDbLine
 10
386.4852499999999
 20
55.64899999999999
 30
0.0
 11
387.1332499999999
 21
54.6875
 31
0.0
  0
LINE
  5
455
330
1E
100
AcDbEntity
  8
0
100
AcDbLine
 10
386.4852499999999
 20
55.64899999999999
 30
0.0
 11
387.1332499999999
 21
55.64899999999999
 31
0.0
  0
LINE
  5
456
330
1E
100
AcDbEntity
  8
0
100
AcDbLine
 10
387.1332499999999
 20
54.6875
 30
0.0
 11
387.1332499999999
 21
31.611
 31
0.0
  0
LINE
  5
457
330
1E
100
AcDbEntity
  8
0
100
AcDbLine
 10
386.41325
 20
55.64899999999999
 30
0.0
 11
387.1332499999999
 21
55.64899999999999
 31
0.0
  0
LINE
  5
458
330
1E
100
AcDbEntity
  8
0
100
AcDbLine
 10
387.1332499999999
 20
55.64899999999999
 30
0.0
 11
387.1332499999999
 21
64.649
 31
0.0
  0
LINE
  5
459
330
1E
100
AcDbEntity
  8
0
100
AcDbLine
 10
386.11925
 20
64.649
 30
0.0
 11
388.7172499999999
 21
64.649
 31
0.0
  0
LINE
  5
45A
330
1E
100
AcDbEntity
  8
0
100
AcDbLine
 10
386.11925
 20
64.649
 30
0.0
 11
387.11925
 21
64.649
 31
0.0
  0
LINE
  5
45B
330
1E
100
AcDbEntity
  8
0
100
AcDbLine
 10
387.11925
 20
64.649
 30
0.0
 11
389.7172499999999
 21
64.649
 31
0.0
  0
LINE
  5
45C
330
1E
100
AcDbEntity
  8
0
100
AcDbLine
 10
388.7172499999999
 20
64.649
 30
0.0
 11
389.7172499999999
 21
64.649
 31
0.0
  0
LINE
  5
45D
330
1E
100
AcDbEntity
  8
0
100
AcDbLine
 10
388.7172499999999
 20
64.649
 30
0.0
 11
388.7172499999999
 21
78.649
 31
0.0
  0
LINE
  5
45E
330
1E
100
AcDbEntity
  8
0
100
AcDbLine
 10
387.1332499999999
 20
64.649
 30
0.0
 11
389.3052499999999
 21
64.649
 31
0.0
  0
LINE
  5
45F
330
1E
100
AcDbEntity
  8
0
100
AcDbLine
 10
387.1332499999999
 20
64.649
 30
0.0
 11
388.7172499999999
 21
64.649
 31
0.0
  0
LINE
  5
460
330
1E
100
AcDbEntity
  8
0
100
AcDbLine
 10
387.1332499999999
 20
64.649
 30
0.0
 11
389.7172499999999
 21
64.649
 31
0.0
  0
LINE
  5
461
330
1E
100
AcDbEntity
  8
0
100
AcDbLine
 10
387.1332499999999
 20
64.649
 30
0.0
 11
387.1332499999999
 21
55.64899999999999
 31
0.0
  0
LINE
  5
462
330
1E
100
AcDbEntity
  8
0
100
AcDbLine
 10
389.3052499999999
 20
64.649
 30
0.0
 11
390.1332499999999
 21
64.649
 31
0.0
  0
LINE
  5
463
330
1E
100
AcDbEntity
  8
0
100
AcDbLine
 10
386.11925
 20
78.649
 30
0.0
 11
388.7172499999999
 21
78.649
 31
0.0
  0
LINE
  5
464
330
1E
100
AcDbEntity
  8
0
100
AcDbLine
 10
388.7172499999999
 20
78.649
 30
0.0
 11
389.7172499999999
 21
78.649
 31
0.0
  0
LINE
  5
465
330
1E
100
AcDbEntity
  8
0
100
AcDbLine
 10
388.7172499999999
 20
78.649
 30
0.0
 11
388.7172499999999
 21
64.649
 31
0.0
  0
LINE
  5
466
330
1E
100
AcDbEntity
  8
0
100
AcDbLine
 10
387.0972499999999
 20
64.649
 30
0.0
 11
389.3052499999999
 21
64.649
 31
0.0
  0
LINE
  5
467
330
1E
100
AcDbEntity
  8
0
100
AcDbLine
 10
383.41725
 20
64.649
 30
0.0
 11
387.0972499999999
 21
64.649
 31
0.0
  0
LINE
  5
468
330
1E
100
AcDbEntity
  8
0
100
AcDbLine
 10
383.41725
 20
78.649
 30
0.0
 11
386.11925
 21
78.649
 31
0.0
  0
LINE
  5
469
330
1E
100
AcDbEntity
  8
0
100
AcDbLine
 10
389.70125
 20
78.649
 30
0.0
 11
392.1972499999999
 21
78.649
 31
0.0
  0
LINE
  5
46A
330
1E
100
AcDbEntity
  8
0
100
AcDbLine
 10
387.1332499999999
 20
80.64899999999999
 30
0.0
 11
387.5082499999999
 21
83.496
 31
0.0
  0
LINE
  5
46B
330
1E
100
AcDbEntity
  8
0
100
AcDbLine
 10
385.5412499999999
 20
78.649
 30
0.0
 11
389.70125
 21
78.649
 31
0.0
  0
LINE
  5
46C
330
1E
100
AcDbEntity
  8
0
100
AcDbLine
 10
389.7172499999999
 20
64.649
 30
0.0
 11
389.7172499999999
 21
78.649
 31
0.0
  0
LINE
  5
46D
330
1E
100
AcDbEntity
  8
0
100
AcDbLine
 10
390.1332499999999
 20
64.649
 30
0.0
 11
390.1332499999999
 21
78.649
 31
0.0
  0
LINE
  5
46E
330
1E
100
AcDbEntity
  8
0
100
AcDbLine
 10
389.7172499999999
 20
78.649
 30
0.0
 11
390.1332499999999
 21
78.649
 31
0.0
  0
LINE
  5
46F
330
1E
100
AcDbEntity
  8
0
100
AcDbLine
 10
389.7172499999999
 20
78.649
 30
0.0
 11
389.7172499999999
 21
64.649
 31
0.0
  0
LINE
  5
470
330
1E
100
AcDbEntity
  8
0
100
AcDbLine
 10
390.1332499999999
 20
78.649
 30
0.0
 11
392.1972499999999
 21
78.649
 31
0.0
  0
LINE
  5
471
330
1E
100
AcDbEntity
  8
0
100
AcDbLine
 10
390.1332499999999
 20
78.649
 30
0.0
 11
390.1332499999999
 21
64.649
 31
0.0
  0
LINE
  5
472
330
1E
100
AcDbEntity
  8
0
100
AcDbLine
 10
393.1332499999999
 20
78.649
 30
0.0
 11
393.1332499999999
 21
80.64899999999999
 31
0.0
  0
LINE
  5
473
330
1E
100
AcDbEntity
  8
0
100
AcDbLine
 10
393.1332499999999
 20
80.64899999999999
 30
0.0
 11
393.1332499999999
 21
78.649
 31
0.0
  0
LINE
  5
474
330
1E
100
AcDbEntity
  8
0
100
AcDbLine
 10
392.1972499999999
 20
78.649
 30
0.0
 11
393.1332499999999
 21
78.649
 31
0.0
  0
LINE
  5
475
330
1E
100
AcDbEntity
  8
0
100
AcDbLine
 10
392.1972499999999
 20
80.64899999999999
 30
0.0
 11
393.1332499999999
 21
80.64899999999999
 31
0.0
  0
LINE
  5
476
330
1E
100
AcDbEntity
  8
0
100
AcDbLine
 10
389.70125
 20
80.64899999999999
 30
0.0
 11
392.1972499999999
 21
80.64899999999999
 31
0.0
  0
LINE
  5
477
330
1E
100
AcDbEntity
  8
0
100
AcDbLine
 10
385.5412499999999
 20
80.64899999999999
 30
0.0
 11
389.70125
 21
80.64899999999999
 31
0.0
  0
LINE
  5
478
330
1E
100
AcDbEntity
  8
0
100
AcDbLine
 10
380.0292499999999
 20
80.64899999999999
 30
0.0
 11
385.5412499999999
 21
80.64899999999999
 31
0.0
  0
LINE
  5
479
330
1E
100
AcDbEntity
  8
0
100
AcDbLine
 10
387.5082499999999
 20
83.496
 30
0.0
 11
388.60725
 21
86.149
 31
0.0
  0
LINE
  5
47A
330
1E
100
AcDbEntity
  8
0
100
AcDbLine
 10
373.78925
 20
80.64899999999999
 30
0.0
 11
380.0292499999999
 21
80.64899999999999
 31
0.0
  0
LINE
  5
47B
330
1E
100
AcDbEntity
  8
0
100
AcDbLine
 10
367.1332499999999
 20
80.64899999999999
 30
0.0
 11
373.78925
 21
80.64899999999999
 31
0.0
  0
LINE
  5
47C
330
1E
100
AcDbEntity
  8
0
100
AcDbLine
 10
388.60725
 20
86.149
 30
0.0
 11
390.35525
 21
88.42719999999999
 31
0.0
  0
LINE
  5
47D
330
1E
100
AcDbEntity
  8
0
100
AcDbLine
 10
390.35525
 20
88.42719999999999
 30
0.0
 11
392.63325
 21
90.17529999999998
 31
0.0
  0
LINE
  5
47E
330
1E
100
AcDbEntity
  8
0
100
AcDbLine
 10
412.1332499999999
 20
85.64899999999999
 30
0.0
 11
412.1332499999999
 21
86.585
 31
0.0
  0
LINE
  5
47F
330
1E
100
AcDbEntity
  8
0
100
AcDbLine
 10
412.1332499999999
 20
85.64899999999999
 30
0.0
 11
414.1332499999999
 21
85.64899999999999
 31
0.0
  0
LINE
  5
480
330
1E
100
AcDbEntity
  8
0
100
AcDbLine
 10
412.1332499999999
 20
86.585
 30
0.0
 11
412.1332499999999
 21
89.08100000000001
 31
0.0
  0
LINE
  5
481
330
1E
100
AcDbEntity
  8
0
100
AcDbLine
 10
412.1332499999999
 20
86.585
 30
0.0
 11
412.1332499999999
 21
85.64899999999999
 31
0.0
  0
LINE
  5
482
330
1E
100
AcDbEntity
  8
0
100
AcDbLine
 10
395.28625
 20
91.27419999999998
 30
0.0
 11
398.1332499999999
 21
91.64900000000001
 31
0.0
  0
LINE
  5
483
330
1E
100
AcDbEntity
  8
0
100
AcDbLine
 10
392.63325
 20
90.17529999999998
 30
0.0
 11
395.28625
 21
91.27419999999998
 31
0.0
  0
LINE
  5
484
330
1E
100
AcDbEntity
  8
0
100
AcDbLine
 10
348.8712499999999
 20
93.8488
 30
0.0
 11
353.9662499999999
 21
106.149
 31
0.0
  0
LINE
  5
485
330
1E
100
AcDbEntity
  8
0
100
AcDbLine
 10
398.1332499999999
 20
91.64900000000001
 30
0.0
 11
412.1332499999999
 21
91.64900000000001
 31
0.0
  0
LINE
  5
486
330
1E
100
AcDbEntity
  8
0
100
AcDbLine
 10
412.1332499999999
 20
91.64900000000001
 30
0.0
 11
412.1332499999999
 21
89.08100000000001
 31
0.0
  0
LINE
  5
487
330
1E
100
AcDbEntity
  8
0
100
AcDbLine
 10
412.1332499999999
 20
89.08100000000001
 30
0.0
 11
412.1332499999999
 21
93.24099999999999
 31
0.0
  0
LINE
  5
488
330
1E
100
AcDbEntity
  8
0
100
AcDbLine
 10
412.1332499999999
 20
89.08100000000001
 30
0.0
 11
412.1332499999999
 21
86.585
 31
0.0
  0
LINE
  5
489
330
1E
100
AcDbEntity
  8
0
100
AcDbLine
 10
412.1332499999999
 20
89.08100000000001
 30
0.0
 11
412.1332499999999
 21
91.64900000000001
 31
0.0
  0
LINE
  5
48A
330
1E
100
AcDbEntity
  8
0
100
AcDbLine
 10
412.1332499999999
 20
93.24099999999999
 30
0.0
 11
412.1332499999999
 21
98.75299999999999
 31
0.0
  0
LINE
  5
48B
330
1E
100
AcDbEntity
  8
0
100
AcDbLine
 10
412.1332499999999
 20
93.24099999999999
 30
0.0
 11
412.1332499999999
 21
89.08100000000001
 31
0.0
  0
LINE
  5
48C
330
1E
100
AcDbEntity
  8
0
100
AcDbLine
 10
353.9662499999999
 20
106.149
 30
0.0
 11
362.07125
 21
116.7113999999999
 31
0.0
  0
LINE
  5
48D
330
1E
100
AcDbEntity
  8
0
100
AcDbLine
 10
362.07125
 20
116.7113999999999
 30
0.0
 11
372.6332499999999
 21
124.8162999999999
 31
0.0
  0
LINE
  5
48E
330
1E
100
AcDbEntity
  8
0
100
AcDbLine
 10
384.93325
 20
129.9112
 30
0.0
 11
398.1332499999999
 21
131.6489999999999
 31
0.0
  0
LINE
  5
48F
330
1E
100
AcDbEntity
  8
0
100
AcDbLine
 10
372.6332499999999
 20
124.8162999999999
 30
0.0
 11
384.93325
 21
129.9112
 31
0.0
  0
LINE
  5
490
330
1E
100
AcDbEntity
  8
0
100
AcDbLine
 10
398.1332499999999
 20
131.6489999999999
 30
0.0
 11
412.1332499999999
 21
131.6489999999999
 31
0.0
  0
LINE
  5
491
330
1E
100
AcDbEntity
  8
0
100
AcDbLine
 10
412.1332499999999
 20
130.057
 30
0.0
 11
412.1332499999999
 21
134.217
 31
0.0
  0
LINE
  5
492
330
1E
100
AcDbEntity
  8
0
100
AcDbLine
 10
412.1332499999999
 20
130.057
 30
0.0
 11
412.1332499999999
 21
124.5449999999999
 31
0.0
  0
LINE
  5
493
330
1E
100
AcDbEntity
  8
0
100
AcDbLine
 10
412.1332499999999
 20
124.5449999999999
 30
0.0
 11
412.1332499999999
 21
130.057
 31
0.0
  0
LINE
  5
494
330
1E
100
AcDbEntity
  8
0
100
AcDbLine
 10
412.1332499999999
 20
124.5449999999999
 30
0.0
 11
412.1332499999999
 21
118.305
 31
0.0
  0
LINE
  5
495
330
1E
100
AcDbEntity
  8
0
100
AcDbLine
 10
412.1332499999999
 20
118.305
 30
0.0
 11
412.1332499999999
 21
124.5449999999999
 31
0.0
  0
LINE
  5
496
330
1E
100
AcDbEntity
  8
0
100
AcDbLine
 10
412.1332499999999
 20
118.305
 30
0.0
 11
412.1332499999999
 21
111.6489999999999
 31
0.0
  0
LINE
  5
497
330
1E
100
AcDbEntity
  8
0
100
AcDbLine
 10
412.1332499999999
 20
131.6489999999999
 30
0.0
 11
412.1332499999999
 21
134.217
 31
0.0
  0
LINE
  5
498
330
1E
100
AcDbEntity
  8
0
100
AcDbLine
 10
325.1332499999999
 20
136.6489999999999
 30
0.0
 11
325.1332499999999
 21
140.6489999999999
 31
0.0
  0
LINE
  5
499
330
1E
100
AcDbEntity
  8
0
100
AcDbLine
 10
323.7652499999999
 20
136.6489999999999
 30
0.0
 11
325.1332499999999
 21
136.6489999999999
 31
0.0
  0
LINE
  5
49A
330
1E
100
AcDbEntity
  8
0
100
AcDbLine
 10
325.1332499999999
 20
140.6489999999999
 30
0.0
 11
325.1332499999999
 21
136.6489999999999
 31
0.0
  0
LINE
  5
49B
330
1E
100
AcDbEntity
  8
0
100
AcDbLine
 10
323.7652499999999
 20
140.6489999999999
 30
0.0
 11
325.1332499999999
 21
140.6489999999999
 31
0.0
  0
LINE
  5
49C
330
1E
100
AcDbEntity
  8
0
100
AcDbLine
 10
412.1332499999999
 20
137.6489999999999
 30
0.0
 11
412.1332499999999
 21
136.7129999999999
 31
0.0
  0
LINE
  5
49D
330
1E
100
AcDbEntity
  8
0
100
AcDbLine
 10
412.1332499999999
 20
137.6489999999999
 30
0.0
 11
414.1332499999999
 21
137.6489999999999
 31
0.0
  0
LINE
  5
49E
330
1E
100
AcDbEntity
  8
0
100
AcDbLine
 10
412.1332499999999
 20
136.7129999999999
 30
0.0
 11
412.1332499999999
 21
134.217
 31
0.0
  0
LINE
  5
49F
330
1E
100
AcDbEntity
  8
0
100
AcDbLine
 10
412.1332499999999
 20
136.7129999999999
 30
0.0
 11
412.1332499999999
 21
137.6489999999999
 31
0.0
  0
LINE
  5
4A0
330
1E
100
AcDbEntity
  8
0
100
AcDbLine
 10
412.1332499999999
 20
134.217
 30
0.0
 11
412.1332499999999
 21
131.6489999999999
 31
0.0
  0
LINE
  5
4A1
330
1E
100
AcDbEntity
  8
0
100
AcDbLine
 10
412.1332499999999
 20
134.217
 30
0.0
 11
412.1332499999999
 21
136.7129999999999
 31
0.0
  0
LINE
  5
4A2
330
1E
100
AcDbEntity
  8
0
100
AcDbLine
 10
412.1332499999999
 20
134.217
 30
0.0
 11
412.1332499999999
 21
130.057
 31
0.0
  0
LINE
  5
4A3
330
1E
100
AcDbEntity
  8
0
100
AcDbLine
 10
412.1332499999999
 20
111.6489999999999
 30
0.0
 11
412.1332499999999
 21
104.993
 31
0.0
  0
LINE
  5
4A4
330
1E
100
AcDbEntity
  8
0
100
AcDbLine
 10
412.1332499999999
 20
111.6489999999999
 30
0.0
 11
412.1332499999999
 21
118.305
 31
0.0
  0
LINE
  5
4A5
330
1E
100
AcDbEntity
  8
0
100
AcDbLine
 10
412.1332499999999
 20
98.75299999999999
 30
0.0
 11
412.1332499999999
 21
104.993
 31
0.0
  0
LINE
  5
4A6
330
1E
100
AcDbEntity
  8
0
100
AcDbLine
 10
412.1332499999999
 20
98.75299999999999
 30
0.0
 11
412.1332499999999
 21
93.24099999999999
 31
0.0
  0
LINE
  5
4A7
330
1E
100
AcDbEntity
  8
0
100
AcDbLine
 10
414.1332499999999
 20
85.64899999999999
 30
0.0
 11
414.1332499999999
 21
86.585
 31
0.0
  0
LINE
  5
4A8
330
1E
100
AcDbEntity
  8
0
100
AcDbLine
 10
414.1332499999999
 20
90.06539999999999
 30
0.0
 11
428.1332499999999
 21
90.06539999999999
 31
0.0
  0
LINE
  5
4A9
330
1E
100
AcDbEntity
  8
0
100
AcDbLine
 10
414.1332499999999
 20
89.06539999999999
 30
0.0
 11
428.1332499999999
 21
89.06539999999999
 31
0.0
  0
LINE
  5
4AA
330
1E
100
AcDbEntity
  8
0
100
AcDbLine
 10
414.1332499999999
 20
88.649
 30
0.0
 11
428.1332499999999
 21
88.649
 31
0.0
  0
LINE
  5
4AB
330
1E
100
AcDbEntity
  8
0
100
AcDbLine
 10
414.1332499999999
 20
86.585
 30
0.0
 11
414.1332499999999
 21
89.08100000000001
 31
0.0
  0
LINE
  5
4AC
330
1E
100
AcDbEntity
  8
0
100
AcDbLine
 10
414.1332499999999
 20
86.585
 30
0.0
 11
414.1332499999999
 21
85.64899999999999
 31
0.0
  0
LINE
  5
4AD
330
1E
100
AcDbEntity
  8
0
100
AcDbLine
 10
414.1332499999999
 20
89.08100000000001
 30
0.0
 11
414.1332499999999
 21
93.24099999999999
 31
0.0
  0
LINE
  5
4AE
330
1E
100
AcDbEntity
  8
0
100
AcDbLine
 10
414.1332499999999
 20
89.08100000000001
 30
0.0
 11
414.1332499999999
 21
86.585
 31
0.0
  0
LINE
  5
4AF
330
1E
100
AcDbEntity
  8
0
100
AcDbLine
 10
414.1332499999999
 20
93.24099999999999
 30
0.0
 11
414.1332499999999
 21
98.75299999999999
 31
0.0
  0
LINE
  5
4B0
330
1E
100
AcDbEntity
  8
0
100
AcDbLine
 10
414.1332499999999
 20
93.24099999999999
 30
0.0
 11
414.1332499999999
 21
89.08100000000001
 31
0.0
  0
LINE
  5
4B1
330
1E
100
AcDbEntity
  8
0
100
AcDbLine
 10
428.1332499999999
 20
91.64900000000001
 30
0.0
 11
450.13325
 21
91.64900000000001
 31
0.0
  0
LINE
  5
4B2
330
1E
100
AcDbEntity
  8
0
100
AcDbLine
 10
428.1332499999999
 20
90.06539999999999
 30
0.0
 11
428.1332499999999
 21
92.66339999999999
 31
0.0
  0
LINE
  5
4B3
330
1E
100
AcDbEntity
  8
0
100
AcDbLine
 10
428.1332499999999
 20
90.06539999999999
 30
0.0
 11
428.1332499999999
 21
89.06539999999999
 31
0.0
  0
LINE
  5
4B4
330
1E
100
AcDbEntity
  8
0
100
AcDbLine
 10
428.1332499999999
 20
89.06539999999999
 30
0.0
 11
428.1332499999999
 21
88.649
 31
0.0
  0
LINE
  5
4B5
330
1E
100
AcDbEntity
  8
0
100
AcDbLine
 10
428.1332499999999
 20
89.06539999999999
 30
0.0
 11
428.1332499999999
 21
90.06539999999999
 31
0.0
  0
LINE
  5
4B6
330
1E
100
AcDbEntity
  8
0
100
AcDbLine
 10
428.1332499999999
 20
88.649
 30
0.0
 11
428.1332499999999
 21
89.06539999999999
 31
0.0
  0
LINE
  5
4B7
330
1E
100
AcDbEntity
  8
0
100
AcDbLine
 10
428.1332499999999
 20
92.66339999999999
 30
0.0
 11
428.1332499999999
 21
95.365
 31
0.0
  0
LINE
  5
4B8
330
1E
100
AcDbEntity
  8
0
100
AcDbLine
 10
428.1332499999999
 20
92.66339999999999
 30
0.0
 11
428.1332499999999
 21
90.06539999999999
 31
0.0
  0
LINE
  5
4B9
330
1E
100
AcDbEntity
  8
0
100
AcDbLine
 10
457.9112499999999
 20
88.42719999999999
 30
0.0
 11
504.07125
 21
41.69749999999999
 31
0.0
  0
LINE
  5
4BA
330
1E
100
AcDbEntity
  8
0
100
AcDbLine
 10
455.6332499999999
 20
90.17529999999998
 30
0.0
 11
457.9112499999999
 21
88.42719999999999
 31
0.0
  0
LINE
  5
4BB
330
1E
100
AcDbEntity
  8
0
100
AcDbLine
 10
450.13325
 20
91.64900000000001
 30
0.0
 11
452.98025
 21
91.27419999999998
 31
0.0
  0
LINE
  5
4BC
330
1E
100
AcDbEntity
  8
0
100
AcDbLine
 10
452.98025
 20
91.27419999999998
 30
0.0
 11
455.6332499999999
 21
90.17529999999998
 31
0.0
  0
LINE
  5
4BD
330
1E
100
AcDbEntity
  8
0
100
AcDbLine
 10
428.1332499999999
 20
95.365
 30
0.0
 11
428.1332499999999
 21
100.241
 31
0.0
  0
LINE
  5
4BE
330
1E
100
AcDbEntity
  8
0
100
AcDbLine
 10
428.1332499999999
 20
95.365
 30
0.0
 11
428.1332499999999
 21
92.66339999999999
 31
0.0
  0
LINE
  5
4BF
330
1E
100
AcDbEntity
  8
0
100
AcDbLine
 10
428.1332499999999
 20
100.241
 30
0.0
 11
428.1332499999999
 21
105.761
 31
0.0
  0
LINE
  5
4C0
330
1E
100
AcDbEntity
  8
0
100
AcDbLine
 10
428.1332499999999
 20
100.241
 30
0.0
 11
428.1332499999999
 21
95.365
 31
0.0
  0
LINE
  5
4C1
330
1E
100
AcDbEntity
  8
0
100
AcDbLine
 10
414.1332499999999
 20
98.75299999999999
 30
0.0
 11
414.1332499999999
 21
104.993
 31
0.0
  0
LINE
  5
4C2
330
1E
100
AcDbEntity
  8
0
100
AcDbLine
 10
414.1332499999999
 20
98.75299999999999
 30
0.0
 11
414.1332499999999
 21
93.24099999999999
 31
0.0
  0
LINE
  5
4C3
330
1E
100
AcDbEntity
  8
0
100
AcDbLine
 10
414.1332499999999
 20
112.6489999999999
 30
0.0
 11
428.1332499999999
 21
112.6489999999999
 31
0.0
  0
LINE
  5
4C4
330
1E
100
AcDbEntity
  8
0
100
AcDbLine
 10
414.1332499999999
 20
110.6489999999999
 30
0.0
 11
428.1332499999999
 21
110.6489999999999
 31
0.0
  0
LINE
  5
4C5
330
1E
100
AcDbEntity
  8
0
100
AcDbLine
 10
414.1332499999999
 20
133.2325999999999
 30
0.0
 11
428.1332499999999
 21
133.2325999999999
 31
0.0
  0
LINE
  5
4C6
330
1E
100
AcDbEntity
  8
0
100
AcDbLine
 10
414.1332499999999
 20
134.2325999999999
 30
0.0
 11
428.1332499999999
 21
134.2325999999999
 31
0.0
  0
LINE
  5
4C7
330
1E
100
AcDbEntity
  8
0
100
AcDbLine
 10
414.1332499999999
 20
134.6489999999999
 30
0.0
 11
428.1332499999999
 21
134.6489999999999
 31
0.0
  0
LINE
  5
4C8
330
1E
100
AcDbEntity
  8
0
100
AcDbLine
 10
414.1332499999999
 20
137.6489999999999
 30
0.0
 11
414.1332499999999
 21
136.7129999999999
 31
0.0
  0
LINE
  5
4C9
330
1E
100
AcDbEntity
  8
0
100
AcDbLine
 10
414.1332499999999
 20
136.7129999999999
 30
0.0
 11
414.1332499999999
 21
137.6489999999999
 31
0.0
  0
LINE
  5
4CA
330
1E
100
AcDbEntity
  8
0
100
AcDbLine
 10
414.1332499999999
 20
136.7129999999999
 30
0.0
 11
414.1332499999999
 21
134.217
 31
0.0
  0
LINE
  5
4CB
330
1E
100
AcDbEntity
  8
0
100
AcDbLine
 10
414.1332499999999
 20
134.217
 30
0.0
 11
414.1332499999999
 21
136.7129999999999
 31
0.0
  0
LINE
  5
4CC
330
1E
100
AcDbEntity
  8
0
100
AcDbLine
 10
414.1332499999999
 20
134.217
 30
0.0
 11
414.1332499999999
 21
130.057
 31
0.0
  0
LINE
  5
4CD
330
1E
100
AcDbEntity
  8
0
100
AcDbLine
 10
414.1332499999999
 20
130.057
 30
0.0
 11
414.1332499999999
 21
134.217
 31
0.0
  0
LINE
  5
4CE
330
1E
100
AcDbEntity
  8
0
100
AcDbLine
 10
414.1332499999999
 20
130.057
 30
0.0
 11
414.1332499999999
 21
124.5449999999999
 31
0.0
  0
LINE
  5
4CF
330
1E
100
AcDbEntity
  8
0
100
AcDbLine
 10
414.1332499999999
 20
124.5449999999999
 30
0.0
 11
414.1332499999999
 21
130.057
 31
0.0
  0
LINE
  5
4D0
330
1E
100
AcDbEntity
  8
0
100
AcDbLine
 10
414.1332499999999
 20
124.5449999999999
 30
0.0
 11
414.1332499999999
 21
118.305
 31
0.0
  0
LINE
  5
4D1
330
1E
100
AcDbEntity
  8
0
100
AcDbLine
 10
414.1332499999999
 20
118.305
 30
0.0
 11
414.1332499999999
 21
124.5449999999999
 31
0.0
  0
LINE
  5
4D2
330
1E
100
AcDbEntity
  8
0
100
AcDbLine
 10
414.1332499999999
 20
118.305
 30
0.0
 11
414.1332499999999
 21
111.6489999999999
 31
0.0
  0
LINE
  5
4D3
330
1E
100
AcDbEntity
  8
0
100
AcDbLine
 10
428.1332499999999
 20
131.6489999999999
 30
0.0
 11
450.13325
 21
131.6489999999999
 31
0.0
  0
LINE
  5
4D4
330
1E
100
AcDbEntity
  8
0
100
AcDbLine
 10
428.1332499999999
 20
133.2325999999999
 30
0.0
 11
428.1332499999999
 21
130.6346
 31
0.0
  0
LINE
  5
4D5
330
1E
100
AcDbEntity
  8
0
100
AcDbLine
 10
428.1332499999999
 20
133.2325999999999
 30
0.0
 11
428.1332499999999
 21
134.2325999999999
 31
0.0
  0
LINE
  5
4D6
330
1E
100
AcDbEntity
  8
0
100
AcDbLine
 10
428.1332499999999
 20
130.6346
 30
0.0
 11
428.1332499999999
 21
127.9329999999999
 31
0.0
  0
LINE
  5
4D7
330
1E
100
AcDbEntity
  8
0
100
AcDbLine
 10
428.1332499999999
 20
130.6346
 30
0.0
 11
428.1332499999999
 21
133.2325999999999
 31
0.0
  0
LINE
  5
4D8
330
1E
100
AcDbEntity
  8
0
100
AcDbLine
 10
428.1332499999999
 20
134.6489999999999
 30
0.0
 11
428.1332499999999
 21
134.2325999999999
 31
0.0
  0
LINE
  5
4D9
330
1E
100
AcDbEntity
  8
0
100
AcDbLine
 10
428.1332499999999
 20
134.2325999999999
 30
0.0
 11
428.1332499999999
 21
134.6489999999999
 31
0.0
  0
LINE
  5
4DA
330
1E
100
AcDbEntity
  8
0
100
AcDbLine
 10
428.1332499999999
 20
134.2325999999999
 30
0.0
 11
428.1332499999999
 21
133.2325999999999
 31
0.0
  0
LINE
  5
4DB
330
1E
100
AcDbEntity
  8
0
100
AcDbLine
 10
428.1332499999999
 20
127.9329999999999
 30
0.0
 11
428.1332499999999
 21
130.6346
 31
0.0
  0
LINE
  5
4DC
330
1E
100
AcDbEntity
  8
0
100
AcDbLine
 10
428.1332499999999
 20
127.9329999999999
 30
0.0
 11
428.1332499999999
 21
123.0569999999999
 31
0.0
  0
LINE
  5
4DD
330
1E
100
AcDbEntity
  8
0
100
AcDbLine
 10
428.1332499999999
 20
123.0569999999999
 30
0.0
 11
428.1332499999999
 21
127.9329999999999
 31
0.0
  0
LINE
  5
4DE
330
1E
100
AcDbEntity
  8
0
100
AcDbLine
 10
428.1332499999999
 20
123.0569999999999
 30
0.0
 11
428.1332499999999
 21
117.537
 31
0.0
  0
LINE
  5
4DF
330
1E
100
AcDbEntity
  8
0
100
AcDbLine
 10
428.1332499999999
 20
117.537
 30
0.0
 11
428.1332499999999
 21
123.0569999999999
 31
0.0
  0
LINE
  5
4E0
330
1E
100
AcDbEntity
  8
0
100
AcDbLine
 10
428.1332499999999
 20
117.537
 30
0.0
 11
428.1332499999999
 21
112.6489999999999
 31
0.0
  0
LINE
  5
4E1
330
1E
100
AcDbEntity
  8
0
100
AcDbLine
 10
428.1332499999999
 20
112.6489999999999
 30
0.0
 11
428.1332499999999
 21
117.537
 31
0.0
  0
LINE
  5
4E2
330
1E
100
AcDbEntity
  8
0
100
AcDbLine
 10
428.1332499999999
 20
112.6489999999999
 30
0.0
 11
428.1332499999999
 21
110.6489999999999
 31
0.0
  0
LINE
  5
4E3
330
1E
100
AcDbEntity
  8
0
100
AcDbLine
 10
486.19525
 20
116.7113999999999
 30
0.0
 11
532.3552499999999
 21
69.9817
 31
0.0
  0
LINE
  5
4E4
330
1E
100
AcDbEntity
  8
0
100
AcDbLine
 10
475.63325
 20
124.8162999999999
 30
0.0
 11
486.19525
 21
116.7113999999999
 31
0.0
  0
LINE
  5
4E5
330
1E
100
AcDbEntity
  8
0
100
AcDbLine
 10
450.13325
 20
131.6489999999999
 30
0.0
 11
463.33325
 21
129.9112
 31
0.0
  0
LINE
  5
4E6
330
1E
100
AcDbEntity
  8
0
100
AcDbLine
 10
463.33325
 20
129.9112
 30
0.0
 11
475.63325
 21
124.8162999999999
 31
0.0
  0
LINE
  5
4E7
330
1E
100
AcDbEntity
  8
0
100
AcDbLine
 10
428.1332499999999
 20
110.6489999999999
 30
0.0
 11
428.1332499999999
 21
105.761
 31
0.0
  0
LINE
  5
4E8
330
1E
100
AcDbEntity
  8
0
100
AcDbLine
 10
428.1332499999999
 20
110.6489999999999
 30
0.0
 11
428.1332499999999
 21
112.6489999999999
 31
0.0
  0
LINE
  5
4E9
330
1E
100
AcDbEntity
  8
0
100
AcDbLine
 10
428.1332499999999
 20
105.761
 30
0.0
 11
428.1332499999999
 21
110.6489999999999
 31
0.0
  0
LINE
  5
4EA
330
1E
100
AcDbEntity
  8
0
100
AcDbLine
 10
428.1332499999999
 20
105.761
 30
0.0
 11
428.1332499999999
 21
100.241
 31
0.0
  0
LINE
  5
4EB
330
1E
100
AcDbEntity
  8
0
100
AcDbLine
 10
414.1332499999999
 20
111.6489999999999
 30
0.0
 11
414.1332499999999
 21
104.993
 31
0.0
  0
LINE
  5
4EC
330
1E
100
AcDbEntity
  8
0
100
AcDbLine
 10
414.1332499999999
 20
111.6489999999999
 30
0.0
 11
414.1332499999999
 21
118.305
 31
0.0
  0
LINE
  5
4ED
330
1E
100
AcDbEntity
  8
0
100
AcDbLine
 10
414.1332499999999
 20
104.993
 30
0.0
 11
414.1332499999999
 21
111.6489999999999
 31
0.0
  0
LINE
  5
4EE
330
1E
100
AcDbEntity
  8
0
100
AcDbLine
 10
414.1332499999999
 20
104.993
 30
0.0
 11
414.1332499999999
 21
98.75299999999999
 31
0.0
  0
LINE
  5
4EF
330
1E
100
AcDbEntity
  8
0
100
AcDbLine
 10
412.1332499999999
 20
104.993
 30
0.0
 11
412.1332499999999
 21
111.6489999999999
 31
0.0
  0
LINE
  5
4F0
330
1E
100
AcDbEntity
  8
0
100
AcDbLine
 10
412.1332499999999
 20
104.993
 30
0.0
 11
412.1332499999999
 21
98.75299999999999
 31
0.0
  0
LINE
  5
4F1
330
1E
100
AcDbEntity
  8
0
100
AcDbLine
 10
504.05525
 20
35.281
 30
0.0
 11
505.82025
 21
37.046
 31
0.0
  0
LINE
  5
4F2
330
1E
100
AcDbEntity
  8
0
100
AcDbLine
 10
504.07125
 20
41.69749999999999
 30
0.0
 11
507.2710270605219
 21
38.4972703543205
 31
0.0
  0
LINE
  5
4F3
330
1E
100
AcDbEntity
  8
0
100
AcDbLine
 10
504.05525
 20
35.281
 30
0.0
 11
505.82025
 21
37.046
 31
0.0
  0
LINE
  5
4F4
330
1E
100
AcDbEntity
  8
0
100
AcDbLine
 10
503.39325
 20
34.61999999999999
 30
0.0
 11
504.05525
 21
35.281
 31
0.0
  0
LINE
  5
4F5
330
1E
100
AcDbEntity
  8
0
100
AcDbLine
 10
503.39325
 20
34.61999999999999
 30
0.0
 11
504.10025
 21
33.91199999999999
 31
0.0
  0
LINE
  5
4F6
330
1E
100
AcDbEntity
  8
0
100
AcDbLine
 10
539.4552499999999
 20
-0.029000000000007
 30
0.0
 11
540.09225
 21
0.607999999999994
 31
0.0
  0
LINE
  5
4F7
330
1E
100
AcDbEntity
  8
0
100
AcDbLine
 10
539.4552499999999
 20
-0.029000000000007
 30
0.0
 11
540.09225
 21
0.6079999999999929
 31
0.0
  0
LINE
  5
4F8
330
1E
100
AcDbEntity
  8
0
100
AcDbLine
 10
540.09225
 20
0.6079999999999929
 30
0.0
 11
541.78925
 21
2.305
 31
0.0
  0
LINE
  5
4F9
330
1E
100
AcDbEntity
  8
0
100
AcDbLine
 10
540.09225
 20
0.6079999999999929
 30
0.0
 11
541.78925
 21
2.305
 31
0.0
  0
LINE
  5
4FA
330
1E
100
AcDbEntity
  8
0
100
AcDbLine
 10
540.09225
 20
0.607999999999994
 30
0.0
 11
541.78925
 21
2.305
 31
0.0
  0
LINE
  5
4FB
330
1E
100
AcDbEntity
  8
0
100
AcDbLine
 10
541.78925
 20
2.305
 30
0.0
 11
541.98125
 21
2.49699999999999
 31
0.0
  0
LINE
  5
4FC
330
1E
100
AcDbEntity
  8
0
100
AcDbLine
 10
542.52625
 20
3.04199999999999
 30
0.0
 11
543.98125
 21
4.496999999999969
 31
0.0
  0
LINE
  5
4FD
330
1E
100
AcDbEntity
  8
0
100
AcDbLine
 10
543.98125
 20
4.49699999999998
 30
0.0
 11
544.61725
 21
5.132999999999999
 31
0.0
  0
LINE
  5
4FE
330
1E
100
AcDbEntity
  8
0
100
AcDbLine
 10
543.98125
 20
4.496999999999969
 30
0.0
 11
546.40525
 21
6.92099999999998
 31
0.0
  0
LINE
  5
4FF
330
1E
100
AcDbEntity
  8
0
100
AcDbLine
 10
543.98125
 20
4.49699999999998
 30
0.0
 11
546.40525
 21
6.92099999999998
 31
0.0
  0
LINE
  5
500
330
1E
100
AcDbEntity
  8
0
100
AcDbLine
 10
543.98125
 20
4.49699999999998
 30
0.0
 11
544.61725
 21
5.132999999999999
 31
0.0
  0
LINE
  5
501
330
1E
100
AcDbEntity
  8
0
100
AcDbLine
 10
542.52625
 20
3.04199999999999
 30
0.0
 11
543.98125
 21
4.49699999999998
 31
0.0
  0
LINE
  5
502
330
1E
100
AcDbEntity
  8
0
100
AcDbLine
 10
541.98125
 20
2.496999999999979
 30
0.0
 11
542.52625
 21
3.04199999999999
 31
0.0
  0
LINE
  5
503
330
1E
100
AcDbEntity
  8
0
100
AcDbLine
 10
546.40525
 20
6.92099999999998
 30
0.0
 11
549.61725
 21
10.13299999999999
 31
0.0
  0
LINE
  5
504
330
1E
100
AcDbEntity
  8
0
100
AcDbLine
 10
546.40525
 20
6.92099999999998
 30
0.0
 11
549.61725
 21
10.13299999999999
 31
0.0
  0
LINE
  5
505
330
1E
100
AcDbEntity
  8
0
100
AcDbLine
 10
549.61725
 20
10.13299999999999
 30
0.0
 11
553.2542499999999
 21
13.77
 31
0.0
  0
LINE
  5
506
330
1E
100
AcDbEntity
  8
0
100
AcDbLine
 10
549.61725
 20
10.13299999999999
 30
0.0
 11
553.2542499999999
 21
13.77
 31
0.0
  0
LINE
  5
507
330
1E
100
AcDbEntity
  8
0
100
AcDbLine
 10
553.2542499999999
 20
13.77
 30
0.0
 11
557.1332499999999
 21
17.649
 31
0.0
  0
LINE
  5
508
330
1E
100
AcDbEntity
  8
0
100
AcDbLine
 10
557.1332499999999
 20
17.649
 30
0.0
 11
561.65925
 21
22.174
 31
0.0
  0
LINE
  5
509
330
1E
100
AcDbEntity
  8
0
100
AcDbLine
 10
557.1332499999999
 20
17.649
 30
0.0
 11
561.65925
 21
22.174
 31
0.0
  0
LINE
  5
50A
330
1E
100
AcDbEntity
  8
0
100
AcDbLine
 10
561.65925
 20
22.174
 30
0.0
 11
565.90125
 21
26.417
 31
0.0
  0
LINE
  5
50B
330
1E
100
AcDbEntity
  8
0
100
AcDbLine
 10
565.90125
 20
26.417
 30
0.0
 11
567.86125
 21
28.37699999999999
 31
0.0
  0
LINE
  5
50C
330
1E
100
AcDbEntity
  8
0
100
AcDbLine
 10
567.86125
 20
28.37699999999999
 30
0.0
 11
569.64925
 21
30.165
 31
0.0
  0
LINE
  5
50D
330
1E
100
AcDbEntity
  8
0
100
AcDbLine
 10
565.90125
 20
26.417
 30
0.0
 11
567.86125
 21
28.37699999999999
 31
0.0
  0
LINE
  5
50E
330
1E
100
AcDbEntity
  8
0
100
AcDbLine
 10
565.90125
 20
26.417
 30
0.0
 11
567.86125
 21
28.37699999999999
 31
0.0
  0
LINE
  5
50F
330
1E
100
AcDbEntity
  8
0
100
AcDbLine
 10
565.90125
 20
26.417
 30
0.0
 11
569.64925
 21
30.165
 31
0.0
  0
LINE
  5
510
330
1E
100
AcDbEntity
  8
0
100
AcDbLine
 10
565.90125
 20
26.417
 30
0.0
 11
567.86125
 21
28.37699999999999
 31
0.0
  0
LINE
  5
511
330
1E
100
AcDbEntity
  8
0
100
AcDbLine
 10
567.86125
 20
28.37699999999999
 30
0.0
 11
569.64925
 21
30.165
 31
0.0
  0
LINE
  5
512
330
1E
100
AcDbEntity
  8
0
100
AcDbLine
 10
569.64925
 20
30.165
 30
0.0
 11
572.47725
 21
32.993
 31
0.0
  0
LINE
  5
513
330
1E
100
AcDbEntity
  8
0
100
AcDbLine
 10
570.28525
 20
30.80099999999999
 30
0.0
 11
571.7402499999999
 21
32.256
 31
0.0
  0
LINE
  5
514
330
1E
100
AcDbEntity
  8
0
100
AcDbLine
 10
571.7402499999999
 20
32.256
 30
0.0
 11
572.47725
 21
32.993
 31
0.0
  0
LINE
  5
515
330
1E
100
AcDbEntity
  8
0
100
AcDbLine
 10
572.47725
 20
32.993
 30
0.0
 11
574.1742499999999
 21
34.68999999999999
 31
0.0
  0
LINE
  5
516
330
1E
100
AcDbEntity
  8
0
100
AcDbLine
 10
572.47725
 20
32.993
 30
0.0
 11
574.1742499999999
 21
34.68999999999999
 31
0.0
  0
LINE
  5
517
330
1E
100
AcDbEntity
  8
0
100
AcDbLine
 10
571.7402499999999
 20
32.256
 30
0.0
 11
572.28525
 21
32.801
 31
0.0
  0
LINE
  5
518
330
1E
100
AcDbEntity
  8
0
100
AcDbLine
 10
553.2542499999999
 20
13.77
 30
0.0
 11
557.1332499999999
 21
17.649
 31
0.0
  0
LINE
  5
519
330
1E
100
AcDbEntity
  8
0
100
AcDbLine
 10
552.60725
 20
13.124
 30
0.0
 11
557.1332499999999
 21
17.649
 31
0.0
  0
LINE
  5
51A
330
1E
100
AcDbEntity
  8
0
100
AcDbLine
 10
548.3652499999999
 20
8.880999999999991
 30
0.0
 11
552.60725
 21
13.124
 31
0.0
  0
LINE
  5
51B
330
1E
100
AcDbEntity
  8
0
100
AcDbLine
 10
544.61725
 20
5.132999999999999
 30
0.0
 11
548.3652499999999
 21
8.880999999999991
 31
0.0
  0
LINE
  5
51C
330
1E
100
AcDbEntity
  8
0
100
AcDbLine
 10
541.78925
 20
2.305
 30
0.0
 11
544.61725
 21
5.132999999999999
 31
0.0
  0
LINE
  5
51D
330
1E
100
AcDbEntity
  8
0
100
AcDbLine
 10
540.09225
 20
0.607999999999994
 30
0.0
 11
541.78925
 21
2.305
 31
0.0
  0
LINE
  5
51E
330
1E
100
AcDbEntity
  8
0
100
AcDbLine
 10
539.4552499999999
 20
-0.029000000000007
 30
0.0
 11
540.09225
 21
0.607999999999994
 31
0.0
  0
LINE
  5
51F
330
1E
100
AcDbEntity
  8
0
100
AcDbLine
 10
539.4552499999999
 20
-0.029000000000007
 30
0.0
 11
540.09225
 21
0.6079999999999929
 31
0.0
  0
LINE
  5
520
330
1E
100
AcDbEntity
  8
0
100
AcDbLine
 10
504.807749992785
 20
34.6194999927847
 30
0.0
 11
539.4552499999999
 21
-0.0290000000000067
 31
0.0
  0
LINE
  5
521
330
1E
100
AcDbEntity
  8
0
100
AcDbLine
 10
504.807749992785
 20
34.6194999927847
 30
0.0
 11
539.4552499999999
 21
-0.029000000000007
 31
0.0
  0
LINE
  5
522
330
1E
100
AcDbEntity
  8
0
100
AcDbLine
 10
505.82025
 20
37.046
 30
0.0
 11
508.76125
 21
39.988
 31
0.0
  0
LINE
  5
523
330
1E
100
AcDbEntity
  8
0
100
AcDbLine
 10
509.333250000159
 20
39.1450000001592
 30
0.0
 11
511.75725
 21
41.5694
 31
0.0
  0
LINE
  5
524
330
1E
100
AcDbEntity
  8
0
100
AcDbLine
 10
507.66670827357
 20
37.47884571262899
 30
0.0
 11
507.8782499999999
 21
37.69
 31
0.0
  0
LINE
  5
525
330
1E
100
AcDbEntity
  8
0
100
AcDbLine
 10
507.14125
 20
36.953
 30
0.0
 11
509.9692499999999
 21
39.78099999999999
 31
0.0
  0
LINE
  5
526
330
1E
100
AcDbEntity
  8
0
100
AcDbLine
 10
506.91650932312
 20
36.7283916792317
 30
0.0
 11
507.14125
 21
36.953
 31
0.0
  0
LINE
  5
527
330
1E
100
AcDbEntity
  8
0
100
AcDbLine
 10
574.1742499999999
 20
34.68999999999999
 30
0.0
 11
574.8112499999999
 21
35.327
 31
0.0
  0
LINE
  5
528
330
1E
100
AcDbEntity
  8
0
100
AcDbLine
 10
509.46825
 20
39.281
 30
0.0
 11
512.7586272527629
 21
42.570870781149
 31
0.0
  0
LINE
  5
529
330
1E
100
AcDbEntity
  8
0
100
AcDbLine
 10
509.46825
 20
39.281
 30
0.0
 11
512.7586272527629
 21
42.570870781149
 31
0.0
  0
LINE
  5
52A
330
1E
100
AcDbEntity
  8
0
100
AcDbLine
 10
509.9692499999999
 20
39.78099999999999
 30
0.0
 11
513.71725
 21
43.5291
 31
0.0
  0
LINE
  5
52B
330
1E
100
AcDbEntity
  8
0
100
AcDbLine
 10
511.75725
 20
41.5694
 30
0.0
 11
512.758627252768
 21
42.5708707811541
 31
0.0
  0
LINE
  5
52C
330
1E
100
AcDbEntity
  8
0
100
AcDbLine
 10
511.75725
 20
41.5694
 30
0.0
 11
512.758627252778
 21
42.5708707811642
 31
0.0
  0
LINE
  5
52D
330
1E
100
AcDbEntity
  8
0
100
AcDbLine
 10
512.65925
 20
43.8855
 30
0.0
 11
517.0712499999999
 21
48.2978
 31
0.0
  0
LINE
  5
52E
330
1E
100
AcDbEntity
  8
0
100
AcDbLine
 10
508.76125
 20
39.988
 30
0.0
 11
512.65925
 21
43.8855
 31
0.0
  0
LINE
  5
52F
330
1E
100
AcDbEntity
  8
0
100
AcDbLine
 10
516.042431799159
 20
45.8547637698158
 30
0.0
 11
516.6513273395369
 21
46.4635923434037
 31
0.0
  0
LINE
  5
530
330
1E
100
AcDbEntity
  8
0
100
AcDbLine
 10
513.71725
 20
43.5291
 30
0.0
 11
517.881618963634
 21
47.694057983289
 31
0.0
  0
LINE
  5
531
330
1E
100
AcDbEntity
  8
0
100
AcDbLine
 10
517.7782499999999
 20
47.5907
 30
0.0
 11
517.881618963602
 21
47.6940579832574
 31
0.0
  0
LINE
  5
532
330
1E
100
AcDbEntity
  8
0
100
AcDbLine
 10
521.7782499999999
 20
53.0043
 30
0.0
 11
526.4842499999999
 21
57.7108
 31
0.0
  0
LINE
  5
533
330
1E
100
AcDbEntity
  8
0
100
AcDbLine
 10
527.1189278646029
 20
56.93137018056851
 30
0.0
 11
527.387359256875
 21
57.1997825934822
 31
0.0
  0
LINE
  5
534
330
1E
100
AcDbEntity
  8
0
100
AcDbLine
 10
527.1189278646029
 20
56.93137018056851
 30
0.0
 11
527.387359256875
 21
57.1997825934822
 31
0.0
  0
LINE
  5
535
330
1E
100
AcDbEntity
  8
0
100
AcDbLine
 10
522.4852499999999
 20
52.2972
 30
0.0
 11
527.19125
 21
57.0037
 31
0.0
  0
LINE
  5
536
330
1E
100
AcDbEntity
  8
0
100
AcDbLine
 10
526.4842499999999
 20
57.7108
 30
0.0
 11
530.89725
 21
62.1232
 31
0.0
  0
LINE
  5
537
330
1E
100
AcDbEntity
  8
0
100
AcDbLine
 10
530.89725
 20
62.1232
 30
0.0
 11
534.79425
 21
66.02079999999999
 31
0.0
  0
LINE
  5
538
330
1E
100
AcDbEntity
  8
0
100
AcDbLine
 10
527.19125
 20
57.0037
 30
0.0
 11
531.60425
 21
61.4161
 31
0.0
  0
LINE
  5
539
330
1E
100
AcDbEntity
  8
0
100
AcDbLine
 10
533.9154716462419
 20
63.7273375244017
 30
0.0
 11
535.6372499999999
 21
65.4494
 31
0.0
  0
LINE
  5
53A
330
1E
100
AcDbEntity
  8
0
100
AcDbLine
 10
535.00125
 20
64.813
 30
0.0
 11
537.522086498191
 21
67.33419305215129
 31
0.0
  0
LINE
  5
53B
330
1E
100
AcDbEntity
  8
0
100
AcDbLine
 10
532.611353687179
 20
62.4233587454834
 30
0.0
 11
535.5012499999999
 21
65.31369999999999
 31
0.0
  0
LINE
  5
53C
330
1E
100
AcDbEntity
  8
0
100
AcDbLine
 10
532.611353687179
 20
62.4233587454834
 30
0.0
 11
535.00125
 21
64.813
 31
0.0
  0
LINE
  5
53D
330
1E
100
AcDbEntity
  8
0
100
AcDbLine
 10
531.60425
 20
61.4161
 30
0.0
 11
535.5012499999999
 21
65.31369999999999
 31
0.0
  0
LINE
  5
53E
330
1E
100
AcDbEntity
  8
0
100
AcDbLine
 10
535.6372499999999
 20
65.4494
 30
0.0
 11
536.381905615128
 21
66.19385089880779
 31
0.0
  0
LINE
  5
53F
330
1E
100
AcDbEntity
  8
0
100
AcDbLine
 10
532.3552499999999
 20
69.9817
 30
0.0
 11
535.5554909487479
 21
66.78191157401109
 31
0.0
  0
LINE
  5
540
330
1E
100
AcDbEntity
  8
0
100
AcDbLine
 10
534.79425
 20
66.02079999999999
 30
0.0
 11
537.73625
 21
68.9623
 31
0.0
  0
LINE
  5
541
330
1E
100
AcDbEntity
  8
0
100
AcDbLine
 10
537.73625
 20
68.9623
 30
0.0
 11
539.5012499999999
 21
70.72729999999999
 31
0.0
  0
LINE
  5
542
330
1E
100
AcDbEntity
  8
0
100
AcDbLine
 10
535.5012499999999
 20
65.31369999999999
 30
0.0
 11
538.44325
 21
68.2552
 31
0.0
  0
LINE
  5
543
330
1E
100
AcDbEntity
  8
0
100
AcDbLine
 10
540.162600005556
 20
69.9745500055558
 30
0.0
 11
574.8112499999999
 21
35.327
 31
0.0
  0
LINE
  5
544
330
1E
100
AcDbEntity
  8
0
100
AcDbLine
 10
538.44325
 20
68.2552
 30
0.0
 11
540.20825
 21
70.0202
 31
0.0
  0
LINE
  5
545
330
1E
100
AcDbEntity
  8
0
100
AcDbLine
 10
540.16225
 20
71.3891
 30
0.0
 11
540.87025
 21
70.682
 31
0.0
  0
LINE
  5
546
330
1E
100
AcDbEntity
  8
0
100
AcDbLine
 10
539.5012499999999
 20
70.72729999999999
 30
0.0
 11
540.16225
 21
71.3891
 31
0.0
  0
LINE
  5
547
330
1E
100
AcDbEntity
  8
0
100
AcDbLine
 10
540.20825
 20
70.0202
 30
0.0
 11
540.87025
 21
70.682
 31
0.0
  0
LINE
  5
548
330
1E
100
AcDbEntity
  8
0
100
AcDbLine
 10
517.0712499999999
 20
48.2978
 30
0.0
 11
521.7782499999999
 21
53.0043
 31
0.0
  0
LINE
  5
549
330
1E
100
AcDbEntity
  8
0
100
AcDbLine
 10
517.7782499999999
 20
47.5907
 30
0.0
 11
522.4852499999999
 21
52.2972
 31
0.0
  0
LINE
  5
54A
330
1E
100
AcDbEntity
  8
0
100
AcDbLine
 10
513.36625
 20
43.1784
 30
0.0
 11
517.7782499999999
 21
47.5907
 31
0.0
  0
LINE
  5
54B
330
1E
100
AcDbEntity
  8
0
100
AcDbLine
 10
509.46825
 20
39.281
 30
0.0
 11
513.36625
 21
43.1784
 31
0.0
  0
LINE
  5
54C
330
1E
100
AcDbEntity
  8
0
100
AcDbLine
 10
506.5272499999999
 20
36.339
 30
0.0
 11
509.46825
 21
39.281
 31
0.0
  0
LINE
  5
54D
330
1E
100
AcDbEntity
  8
0
100
AcDbLine
 10
504.76225
 20
34.57399999999999
 30
0.0
 11
506.5272499999999
 21
36.339
 31
0.0
  0
LINE
  5
54E
330
1E
100
AcDbEntity
  8
0
100
AcDbLine
 10
504.10025
 20
33.91199999999999
 30
0.0
 11
504.76225
 21
34.57399999999999
 31
0.0
  0
LINE
  5
54F
330
1E
100
AcDbEntity
  8
0
100
AcDbLine
 10
322.1332499999999
 20
150.649
 30
0.0
 11
322.1332499999999
 21
152.649
 31
0.0
  0
LINE
  5
550
330
1E
100
AcDbEntity
  8
0
100
AcDbLine
 10
320.8732499999999
 20
150.649
 30
0.0
 11
322.1332499999999
 21
150.649
 31
0.0
  0
LINE
  5
551
330
1E
100
AcDbEntity
  8
0
100
AcDbLine
 10
280.2212499999999
 20
150.649
 30
0.0
 11
287.1332499999999
 21
150.649
 31
0.0
  0
LINE
  5
552
330
1E
100
AcDbEntity
  8
0
100
AcDbLine
 10
273.74125
 20
150.649
 30
0.0
 11
280.2212499999999
 21
150.649
 31
0.0
  0
LINE
  5
553
330
1E
100
AcDbEntity
  8
0
100
AcDbLine
 10
278.1732499999999
 20
150.649
 30
0.0
 11
287.1332499999999
 21
150.649
 31
0.0
  0
LINE
  5
554
330
1E
100
AcDbEntity
  8
0
100
AcDbLine
 10
269.77325
 20
150.649
 30
0.0
 11
278.1732499999999
 21
150.649
 31
0.0
  0
LINE
  5
555
330
1E
100
AcDbEntity
  8
0
100
AcDbLine
 10
262.35325
 20
150.649
 30
0.0
 11
269.77325
 21
150.649
 31
0.0
  0
LINE
  5
556
330
1E
100
AcDbEntity
  8
0
100
AcDbLine
 10
256.7532499999999
 20
150.649
 30
0.0
 11
262.35325
 21
150.649
 31
0.0
  0
LINE
  5
557
330
1E
100
AcDbEntity
  8
0
100
AcDbLine
 10
256.7532499999999
 20
150.649
 30
0.0
 11
260.1332499999999
 21
150.649
 31
0.0
  0
LINE
  5
558
330
1E
100
AcDbEntity
  8
0
100
AcDbLine
 10
287.1332499999999
 20
152.649
 30
0.0
 11
296.09325
 21
152.649
 31
0.0
  0
LINE
  5
559
330
1E
100
AcDbEntity
  8
0
100
AcDbLine
 10
296.09325
 20
152.649
 30
0.0
 11
304.4932499999999
 21
152.649
 31
0.0
  0
LINE
  5
55A
330
1E
100
AcDbEntity
  8
0
100
AcDbLine
 10
304.4932499999999
 20
152.649
 30
0.0
 11
311.91325
 21
152.649
 31
0.0
  0
LINE
  5
55B
330
1E
100
AcDbEntity
  8
0
100
AcDbLine
 10
311.91325
 20
152.649
 30
0.0
 11
317.51325
 21
152.649
 31
0.0
  0
LINE
  5
55C
330
1E
100
AcDbEntity
  8
0
100
AcDbLine
 10
322.1332499999999
 20
152.649
 30
0.0
 11
322.1332499999999
 21
150.649
 31
0.0
  0
LINE
  5
55D
330
1E
100
AcDbEntity
  8
0
100
AcDbLine
 10
317.51325
 20
152.649
 30
0.0
 11
320.8732499999999
 21
152.649
 31
0.0
  0
LINE
  5
55E
330
1E
100
AcDbEntity
  8
0
100
AcDbLine
 10
320.8732499999999
 20
152.649
 30
0.0
 11
322.1332499999999
 21
152.649
 31
0.0
  0
LINE
  5
55F
330
1E
100
AcDbEntity
  8
0
100
AcDbLine
 10
278.1732499999999
 20
152.649
 30
0.0
 11
287.1332499999999
 21
152.649
 31
0.0
  0
LINE
  5
560
330
1E
100
AcDbEntity
  8
0
100
AcDbLine
 10
269.77325
 20
152.649
 30
0.0
 11
278.1732499999999
 21
152.649
 31
0.0
  0
LINE
  5
561
330
1E
100
AcDbEntity
  8
0
100
AcDbLine
 10
262.35325
 20
152.649
 30
0.0
 11
269.77325
 21
152.649
 31
0.0
  0
LINE
  5
562
330
1E
100
AcDbEntity
  8
0
100
AcDbLine
 10
256.7532499999999
 20
152.649
 30
0.0
 11
262.35325
 21
152.649
 31
0.0
  0
LINE
  5
563
330
1E
100
AcDbEntity
  8
0
100
AcDbLine
 10
253.39325
 20
152.649
 30
0.0
 11
256.7532499999999
 21
152.649
 31
0.0
  0
LINE
  5
564
330
1E
100
AcDbEntity
  8
0
100
AcDbLine
 10
253.39325
 20
150.649
 30
0.0
 11
256.7532499999999
 21
150.649
 31
0.0
  0
LINE
  5
565
330
1E
100
AcDbEntity
  8
0
100
AcDbLine
 10
252.13325
 20
150.649
 30
0.0
 11
253.39325
 21
150.649
 31
0.0
  0
LINE
  5
566
330
1E
100
AcDbEntity
  8
0
100
AcDbLine
 10
252.13325
 20
150.649
 30
0.0
 11
252.13325
 21
152.649
 31
0.0
  0
ENDSEC
  0
SECTION
  2
OBJECTS
  0
DICTIONARY
  5
C
330
0
100
AcDbDictionary
281
     1
  3
ACAD_GROUP
350
D
  3
ACAD_LAYOUT
350
19
  3
ACAD_MLINESTYLE
350
16
  3
ACAD_PLOTSETTINGS
350
18
  3
ACAD_PLOTSTYLENAME
350
E
  3
AcDbVariableDictionary
350
56B
  0
DICTIONARY
  5
D
102
{ACAD_REACTORS
330
C
102
}
330
C
100
AcDbDictionary
281
     1
  0
DICTIONARY
  5
19
102
{ACAD_REACTORS
330
C
102
}
330
C
100
AcDbDictionary
281
     1
  3
Layout1
350
1D
  3
Model
350
21
  0
DICTIONARY
  5
16
102
{ACAD_REACTORS
330
C
102
}
330
C
100
AcDbDictionary
281
     1
  3
Standard
350
17
  0
DICTIONARY
  5
18
102
{ACAD_REACTORS
330
C
102
}
330
C
100
AcDbDictionary
281
     1
  0
ACDBDICTIONARYWDFLT
  5
E
102
{ACAD_REACTORS
330
C
102
}
330
C
100
AcDbDictionary
281
     1
  3
Normal
350
F
100
AcDbDictionaryWithDefault
340
F
  0
DICTIONARY
  5
56B
102
{ACAD_REACTORS
330
C
102
}
330
C
100
AcDbDictionary
281
     1
  3
DIMASSOC
350
56C
  0
LAYOUT
  5
1D
102
{ACAD_REACTORS
330
19
102
}
330
19
100
AcDbPlotSettings
  1

  2
hp deskjet 980c series
  4

  6

 40
0.0
 41
0.0
 42
0.0
 43
0.0
 44
0.0
 45
0.0
 46
0.0
 47
0.0
 48
0.0
 49
0.0
140
0.0
141
0.0
142
1.0
143
1.0
 70
   688
 72
     0
 73
     0
 74
     5
  7

 75
    16
147
1.0
148
0.0
149
0.0
100
AcDbLayout
  1
Layout1
 70
     1
 71
     1
 10
0.0
 20
0.0
 11
12.0
 21
9.0
 12
0.0
 22
0.0
 32
0.0
 14
1.000000000000000E+20
 24
1.000000000000000E+20
 34
1.000000000000000E+20
 15
-1.000000000000000E+20
 25
-1.000000000000000E+20
 35
-1.000000000000000E+20
146
0.0
 13
0.0
 23
0.0
 33
0.0
 16
1.0
 26
0.0
 36
0.0
 17
0.0
 27
1.0
 37
0.0
 76
     0
330
1A
  0
LAYOUT
  5
21
102
{ACAD_REACTORS
330
19
102
}
330
19
100
AcDbPlotSettings
  1

  2
hp deskjet 980c series
  4

  6

 40
0.0
 41
0.0
 42
0.0
 43
0.0
 44
0.0
 45
0.0
 46
0.0
 47
0.0
 48
0.0
 49
0.0
140
0.0
141
0.0
142
1.0
143
1.0
 70
  1712
 72
     0
 73
     0
 74
     0
  7

 75
     0
147
1.0
148
0.0
149
0.0
100
AcDbLayout
  1
Model
 70
     1
 71
     0
 10
0.0
 20
0.0
 11
12.0
 21
9.0
 12
0.0
 22
0.0
 32
0.0
 14
0.0
 24
0.0
 34
0.0
 15
0.0
 25
0.0
 35
0.0
146
0.0
 13
0.0
 23
0.0
 33
0.0
 16
1.0
 26
0.0
 36
0.0
 17
0.0
 27
1.0
 37
0.0
 76
     0
330
1E
  0
MLINESTYLE
  5
17
102
{ACAD_REACTORS
330
16
102
}
330
16
100
AcDbMlineStyle
  2
STANDARD
 70
     0
  3

 62
   256
 51
90.0
 52
90.0
 71
     2
 49
0.5
 62
   256
  6
BYLAYER
 49
-0.5
 62
   256
  6
BYLAYER
  0
ACDBPLACEHOLDER
  5
F
102
{ACAD_REACTORS
330
E
102
}
330
E
  0
DICTIONARYVAR
  5
56C
102
{ACAD_REACTORS
330
56B
102
}
330
56B
100
DictionaryVariables
280
     0
  1
1
  0
ENDSEC
  0
EOF
