  0
SECTION
  2
HEADER
  9
$ACADVER
  1
AC1015
  9
$ACADMAINTVER
 70
    13
  9
$DWGCODEPAGE
  3
ANSI_1252
  9
$INSBASE
 10
0.0
 20
0.0
 30
0.0
  9
$EXTMIN
 10
0.0
 20
0.0000000000000024
 30
0.0
  9
$EXTMAX
 10
128.0
 20
113.887
 30
0.0
  9
$LIMMIN
 10
0.0
 20
0.0
  9
$LIMMAX
 10
12.0
 20
9.0
  9
$ORTHOMODE
 70
     0
  9
$REGENMODE
 70
     1
  9
$FILLMODE
 70
     1
  9
$QTEXTMODE
 70
     0
  9
$MIRRTEXT
 70
     1
  9
$LTSCALE
 40
1.0
  9
$ATTMODE
 70
     1
  9
$TEXTSIZE
 40
0.2
  9
$TRACEWID
 40
0.05
  9
$TEXTSTYLE
  7
Standard
  9
$CLAYER
  8
0
  9
$CELTYPE
  6
Continuous
  9
$CECOLOR
 62
   256
  9
$CELTSCALE
 40
1.0
  9
$DISPSILH
 70
     0
  9
$DIMSCALE
 40
1.0
  9
$DIMASZ
 40
0.18
  9
$DIMEXO
 40
0.0625
  9
$DIMDLI
 40
0.38
  9
$DIMRND
 40
0.0
  9
$DIMDLE
 40
0.0
  9
$DIMEXE
 40
0.18
  9
$DIMTP
 40
0.0
  9
$DIMTM
 40
0.0
  9
$DIMTXT
 40
0.18
  9
$DIMCEN
 40
0.09
  9
$DIMTSZ
 40
0.0
  9
$DIMTOL
 70
     0
  9
$DIMLIM
 70
     0
  9
$DIMTIH
 70
     1
  9
$DIMTOH
 70
     1
  9
$DIMSE1
 70
     0
  9
$DIMSE2
 70
     0
  9
$DIMTAD
 70
     0
  9
$DIMZIN
 70
     0
  9
$DIMBLK
  1

  9
$DIMASO
 70
     1
  9
$DIMSHO
 70
     1
  9
$DIMPOST
  1

  9
$DIMAPOST
  1

  9
$DIMALT
 70
     0
  9
$DIMALTD
 70
     2
  9
$DIMALTF
 40
25.4
  9
$DIMLFAC
 40
1.0
  9
$DIMTOFL
 70
     0
  9
$DIMTVP
 40
0.0
  9
$DIMTIX
 70
     0
  9
$DIMSOXD
 70
     0
  9
$DIMSAH
 70
     0
  9
$DIMBLK1
  1

  9
$DIMBLK2
  1

  9
$DIMSTYLE
  2
Standard
  9
$DIMCLRD
 70
     0
  9
$DIMCLRE
 70
     0
  9
$DIMCLRT
 70
     0
  9
$DIMTFAC
 40
1.0
  9
$DIMGAP
 40
0.09
  9
$DIMJUST
 70
     0
  9
$DIMSD1
 70
     0
  9
$DIMSD2
 70
     0
  9
$DIMTOLJ
 70
     1
  9
$DIMTZIN
 70
     0
  9
$DIMALTZ
 70
     0
  9
$DIMALTTZ
 70
     0
  9
$DIMUPT
 70
     0
  9
$DIMDEC
 70
     4
  9
$DIMTDEC
 70
     4
  9
$DIMALTU
 70
     2
  9
$DIMALTTD
 70
     2
  9
$DIMTXSTY
  7
Standard
  9
$DIMAUNIT
 70
     0
  9
$DIMADEC
 70
     0
  9
$DIMALTRND
 40
0.0
  9
$DIMAZIN
 70
     0
  9
$DIMDSEP
 70
    46
  9
$DIMATFIT
 70
     3
  9
$DIMFRAC
 70
     0
  9
$DIMLDRBLK
  1

  9
$DIMLUNIT
 70
     2
  9
$DIMLWD
 70
    -2
  9
$DIMLWE
 70
    -2
  9
$DIMTMOVE
 70
     0
  9
$LUNITS
 70
     2
  9
$LUPREC
 70
     4
  9
$SKETCHINC
 40
0.1
  9
$FILLETRAD
 40
0.0
  9
$AUNITS
 70
     0
  9
$AUPREC
 70
     0
  9
$MENU
  1
.
  9
$ELEVATION
 40
0.0
  9
$PELEVATION
 40
0.0
  9
$THICKNESS
 40
0.0
  9
$LIMCHECK
 70
     0
  9
$CHAMFERA
 40
0.0
  9
$CHAMFERB
 40
0.0
  9
$CHAMFERC
 40
0.0
  9
$CHAMFERD
 40
0.0
  9
$SKPOLY
 70
     0
  9
$TDCREATE
 40
2454780.855428032
  9
$TDUCREATE
 40
2454780.813761365
  9
$TDUPDATE
 40
2454780.856806794
  9
$TDUUPDATE
 40
2454780.815140127
  9
$TDINDWG
 40
0.0013789468
  9
$TDUSRTIMER
 40
0.0013789468
  9
$USRTIMER
 70
     1
  9
$ANGBASE
 50
0.0
  9
$ANGDIR
 70
     0
  9
$PDMODE
 70
     0
  9
$PDSIZE
 40
0.0
  9
$PLINEWID
 40
0.0
  9
$SPLFRAME
 70
     0
  9
$SPLINETYPE
 70
     6
  9
$SPLINESEGS
 70
     8
  9
$HANDSEED
  5
1E7
  9
$SURFTAB1
 70
     6
  9
$SURFTAB2
 70
     6
  9
$SURFTYPE
 70
     6
  9
$SURFU
 70
     6
  9
$SURFV
 70
     6
  9
$UCSBASE
  2

  9
$UCSNAME
  2

  9
$UCSORG
 10
0.0
 20
0.0
 30
0.0
  9
$UCSXDIR
 10
1.0
 20
0.0
 30
0.0
  9
$UCSYDIR
 10
0.0
 20
1.0
 30
0.0
  9
$UCSORTHOREF
  2

  9
$UCSORTHOVIEW
 70
     1
  9
$UCSORGTOP
 10
0.0
 20
0.0
 30
0.0
  9
$UCSORGBOTTOM
 10
0.0
 20
0.0
 30
0.0
  9
$UCSORGLEFT
 10
0.0
 20
0.0
 30
0.0
  9
$UCSORGRIGHT
 10
0.0
 20
0.0
 30
0.0
  9
$UCSORGFRONT
 10
0.0
 20
0.0
 30
0.0
  9
$UCSORGBACK
 10
0.0
 20
0.0
 30
0.0
  9
$PUCSBASE
  2

  9
$PUCSNAME
  2

  9
$PUCSORG
 10
0.0
 20
0.0
 30
0.0
  9
$PUCSXDIR
 10
1.0
 20
0.0
 30
0.0
  9
$PUCSYDIR
 10
0.0
 20
1.0
 30
0.0
  9
$PUCSORTHOREF
  2

  9
$PUCSORTHOVIEW
 70
     0
  9
$PUCSORGTOP
 10
0.0
 20
0.0
 30
0.0
  9
$PUCSORGBOTTOM
 10
0.0
 20
0.0
 30
0.0
  9
$PUCSORGLEFT
 10
0.0
 20
0.0
 30
0.0
  9
$PUCSORGRIGHT
 10
0.0
 20
0.0
 30
0.0
  9
$PUCSORGFRONT
 10
0.0
 20
0.0
 30
0.0
  9
$PUCSORGBACK
 10
0.0
 20
0.0
 30
0.0
  9
$USERI1
 70
     0
  9
$USERI2
 70
     0
  9
$USERI3
 70
     0
  9
$USERI4
 70
     0
  9
$USERI5
 70
     0
  9
$USERR1
 40
0.0
  9
$USERR2
 40
0.0
  9
$USERR3
 40
0.0
  9
$USERR4
 40
0.0
  9
$USERR5
 40
0.0
  9
$WORLDVIEW
 70
     1
  9
$SHADEDGE
 70
     3
  9
$SHADEDIF
 70
    70
  9
$TILEMODE
 70
     1
  9
$MAXACTVP
 70
    64
  9
$PINSBASE
 10
0.0
 20
0.0
 30
0.0
  9
$PLIMCHECK
 70
     0
  9
$PEXTMIN
 10
1.000000000000000E+20
 20
1.000000000000000E+20
 30
1.000000000000000E+20
  9
$PEXTMAX
 10
-1.000000000000000E+20
 20
-1.000000000000000E+20
 30
-1.000000000000000E+20
  9
$PLIMMIN
 10
0.0
 20
0.0
  9
$PLIMMAX
 10
12.0
 20
9.0
  9
$UNITMODE
 70
     0
  9
$VISRETAIN
 70
     1
  9
$PLINEGEN
 70
     0
  9
$PSLTSCALE
 70
     1
  9
$TREEDEPTH
 70
  3020
  9
$CMLSTYLE
  2
Standard
  9
$CMLJUST
 70
     0
  9
$CMLSCALE
 40
1.0
  9
$PROXYGRAPHICS
 70
     1
  9
$MEASUREMENT
 70
     0
  9
$CELWEIGHT
370
    -1
  9
$ENDCAPS
280
     0
  9
$JOINSTYLE
280
     0
  9
$LWDISPLAY
290
     0
  9
$INSUNITS
 70
     0
  9
$HYPERLINKBASE
  1

  9
$STYLESHEET
  1

  9
$XEDIT
290
     1
  9
$CEPSNTYPE
380
     0
  9
$PSTYLEMODE
290
     1
  9
$FINGERPRINTGUID
  2
{6D6133B6-4FEC-40D3-A7AC-A0EA6447529F}
  9
$VERSIONGUID
  2
{A06E21C3-890B-481E-9452-61395E5E0B9E}
  9
$EXTNAMES
290
     1
  9
$PSVPSCALE
 40
0.0
  9
$OLESTARTUP
290
     0
  0
ENDSEC
  0
SECTION
  2
CLASSES
  0
CLASS
  1
ACDBDICTIONARYWDFLT
  2
AcDbDictionaryWithDefault
  3
AutoCAD 2000
 90
        0
280
     0
281
     0
  0
CLASS
  1
ACDBPLACEHOLDER
  2
AcDbPlaceHolder
  3
AutoCAD 2000
 90
        0
280
     0
281
     0
  0
CLASS
  1
LAYOUT
  2
AcDbLayout
  3
AutoCAD 2000
 90
        0
280
     0
281
     0
  0
CLASS
  1
DICTIONARYVAR
  2
AcDbDictionaryVar
  3
AutoCAD 2000
 90
        0
280
     0
281
     0
  0
ENDSEC
  0
SECTION
  2
TABLES
  0
TABLE
  2
VPORT
  5
8
330
0
100
AcDbSymbolTable
 70
     2
  0
VPORT
  5
1E6
330
8
100
AcDbSymbolTableRecord
100
AcDbViewportTableRecord
  2
*Active
 70
     0
 10
0.0
 20
0.0
 11
1.0
 21
1.0
 12
64.0
 22
56.9435
 13
0.0
 23
0.0
 14
1.0
 24
1.0
 15
0.0
 25
0.0
 16
0.0
 26
0.0
 36
1.0
 17
0.0
 27
0.0
 37
0.0
 40
114.7608132992327
 41
2.078104993597951
 42
50.0
 43
0.0
 44
0.0
 50
0.0
 51
0.0
 71
     0
 72
   100
 73
     1
 74
     3
 75
     0
 76
     0
 77
     0
 78
     0
281
     0
 65
     1
110
0.0
120
0.0
130
0.0
111
1.0
121
0.0
131
0.0
112
0.0
122
1.0
132
0.0
 79
     1
146
0.0
  0
ENDTAB
  0
TABLE
  2
LTYPE
  5
5
330
0
100
AcDbSymbolTable
 70
     1
  0
LTYPE
  5
13
330
5
100
AcDbSymbolTableRecord
100
AcDbLinetypeTableRecord
  2
ByBlock
 70
     0
  3

 72
    65
 73
     0
 40
0.0
  0
LTYPE
  5
14
330
5
100
AcDbSymbolTableRecord
100
AcDbLinetypeTableRecord
  2
ByLayer
 70
     0
  3

 72
    65
 73
     0
 40
0.0
  0
LTYPE
  5
15
330
5
100
AcDbSymbolTableRecord
100
AcDbLinetypeTableRecord
  2
Continuous
 70
     0
  3
Solid line
 72
    65
 73
     0
 40
0.0
  0
ENDTAB
  0
TABLE
  2
LAYER
  5
2
330
0
100
AcDbSymbolTable
 70
     1
  0
LAYER
  5
10
330
2
100
AcDbSymbolTableRecord
100
AcDbLayerTableRecord
  2
0
 70
     0
 62
     7
  6
Continuous
370
    -3
390
F
  0
ENDTAB
  0
TABLE
  2
STYLE
  5
3
330
0
100
AcDbSymbolTable
 70
     1
  0
STYLE
  5
11
330
3
100
AcDbSymbolTableRecord
100
AcDbTextStyleTableRecord
  2
Standard
 70
     0
 40
0.0
 41
1.0
 50
0.0
 71
     0
 42
0.2
  3
txt
  4

  0
ENDTAB
  0
TABLE
  2
VIEW
  5
6
330
0
100
AcDbSymbolTable
 70
     0
  0
ENDTAB
  0
TABLE
  2
UCS
  5
7
330
0
100
AcDbSymbolTable
 70
     0
  0
ENDTAB
  0
TABLE
  2
APPID
  5
9
330
0
100
AcDbSymbolTable
 70
     1
  0
APPID
  5
12
330
9
100
AcDbSymbolTableRecord
100
AcDbRegAppTableRecord
  2
ACAD
 70
     0
  0
ENDTAB
  0
TABLE
  2
DIMSTYLE
  5
A
330
0
100
AcDbSymbolTable
 70
     1
100
AcDbDimStyleTable
 71
     0
  0
DIMSTYLE
105
1DF
330
A
100
AcDbSymbolTableRecord
100
AcDbDimStyleTableRecord
  2
Standard
 70
     0
340
11
  0
ENDTAB
  0
TABLE
  2
BLOCK_RECORD
  5
1
330
0
100
AcDbSymbolTable
 70
     0
  0
BLOCK_RECORD
  5
1E
330
1
100
AcDbSymbolTableRecord
100
AcDbBlockTableRecord
  2
*Model_Space
340
21
  0
BLOCK_RECORD
  5
1A
330
1
100
AcDbSymbolTableRecord
100
AcDbBlockTableRecord
  2
*Paper_Space
340
1D
  0
ENDTAB
  0
ENDSEC
  0
SECTION
  2
BLOCKS
  0
BLOCK
  5
1F
330
1E
100
AcDbEntity
  8
0
100
AcDbBlockBegin
  2
*Model_Space
 70
     0
 10
0.0
 20
0.0
 30
0.0
  3
*Model_Space
  1

  0
ENDBLK
  5
20
330
1E
100
AcDbEntity
  8
0
100
AcDbBlockEnd
  0
BLOCK
  5
1B
330
1A
100
AcDbEntity
 67
     1
  8
0
100
AcDbBlockBegin
  2
*Paper_Space
 70
     0
 10
0.0
 20
0.0
 30
0.0
  3
*Paper_Space
  1

  0
ENDBLK
  5
1C
330
1A
100
AcDbEntity
 67
     1
  8
0
100
AcDbBlockEnd
  0
ENDSEC
  0
SECTION
  2
ENTITIES
  0
LINE
  5
22
330
1E
100
AcDbEntity
  8
0
100
AcDbLine
 10
0.0
 20
0.0000000000000103
 30
0.0
 11
0.0000000000000001
 21
0.86374500000001
 31
0.0
  0
LINE
  5
23
330
1E
100
AcDbEntity
  8
0
100
AcDbLine
 10
0.0
 20
0.0000000000000103
 30
0.0
 11
128.0
 21
0.0000000000000024
 31
0.0
  0
LINE
  5
24
330
1E
100
AcDbEntity
  8
0
100
AcDbLine
 10
0.0
 20
0.0000000000000103
 30
0.0
 11
0.0
 21
0.79658800000001
 31
0.0
  0
LINE
  5
25
330
1E
100
AcDbEntity
  8
0
100
AcDbLine
 10
0.0
 20
0.79658800000001
 30
0.0
 11
0.0000000000000001
 21
0.86374500000001
 31
0.0
  0
LINE
  5
26
330
1E
100
AcDbEntity
  8
0
100
AcDbLine
 10
0.0000000000000001
 20
0.86374500000001
 30
0.0
 11
0.0000000000000002
 21
2.886230000000009
 31
0.0
  0
LINE
  5
27
330
1E
100
AcDbEntity
  8
0
100
AcDbLine
 10
0.0
 20
5.000000000000009
 30
0.0
 11
128.0
 21
5.0
 31
0.0
  0
LINE
  5
28
330
1E
100
AcDbEntity
  8
0
100
AcDbLine
 10
0.0000000000000001
 20
0.86374500000001
 30
0.0
 11
0.0000000000000002
 21
2.886230000000009
 31
0.0
  0
LINE
  5
29
330
1E
100
AcDbEntity
  8
0
100
AcDbLine
 10
0.0000000000000002
 20
2.886230000000009
 30
0.0
 11
0.0000000000000003
 21
5.000000000000009
 31
0.0
  0
LINE
  5
2A
330
1E
100
AcDbEntity
  8
0
100
AcDbLine
 10
0.0000000000000002
 20
2.982540000000009
 30
0.0
 11
0.0000000000000003
 21
4.812410000000009
 31
0.0
  0
LINE
  5
2B
330
1E
100
AcDbEntity
  8
0
100
AcDbLine
 10
0.0000000000000001
 20
2.00000000000001
 30
0.0
 11
0.0000000000000001
 21
2.379620000000009
 31
0.0
  0
LINE
  5
2C
330
1E
100
AcDbEntity
  8
0
100
AcDbLine
 10
0.0000000000000001
 20
2.00000000000001
 30
0.0
 11
0.0000000000000002
 21
2.982540000000009
 31
0.0
  0
LINE
  5
2D
330
1E
100
AcDbEntity
  8
0
100
AcDbLine
 10
0.0
 20
0.0000000000000103
 30
0.0
 11
0.0
 21
0.79658800000001
 31
0.0
  0
LINE
  5
2E
330
1E
100
AcDbEntity
  8
0
100
AcDbLine
 10
0.0
 20
0.0000000000000103
 30
0.0
 11
0.0000000000000001
 21
0.86374500000001
 31
0.0
  0
LINE
  5
2F
330
1E
100
AcDbEntity
  8
0
100
AcDbLine
 10
0.0000000000000003
 20
5.000000000000009
 30
0.0
 11
0.0000000000000034
 21
55.0
 31
0.0
  0
LINE
  5
30
330
1E
100
AcDbEntity
  8
0
100
AcDbLine
 10
0.0000000000000003
 20
4.812410000000009
 30
0.0
 11
0.0000000000000003
 21
5.000000000000009
 31
0.0
  0
LINE
  5
31
330
1E
100
AcDbEntity
  8
0
100
AcDbLine
 10
0.0000000000000003
 20
5.000000000000009
 30
0.0
 11
0.0000000000000004
 21
6.566910000000009
 31
0.0
  0
LINE
  5
32
330
1E
100
AcDbEntity
  8
0
100
AcDbLine
 10
0.0000000000000003
 20
5.000000000000009
 30
0.0
 11
0.0000000000000034
 21
55.0
 31
0.0
  0
LINE
  5
33
330
1E
100
AcDbEntity
  8
0
100
AcDbLine
 10
0.0000000000000003
 20
5.000000000000009
 30
0.0
 11
128.0
 21
5.0
 31
0.0
  0
LINE
  5
34
330
1E
100
AcDbEntity
  8
0
100
AcDbLine
 10
0.0000000000000004
 20
7.000000000000009
 30
0.0
 11
0.0000000000000005
 21
8.525690000000009
 31
0.0
  0
LINE
  5
35
330
1E
100
AcDbEntity
  8
0
100
AcDbLine
 10
0.0000000000000004
 20
7.000000000000009
 30
0.0
 11
0.0000000000000032
 21
53.0
 31
0.0
  0
LINE
  5
36
330
1E
100
AcDbEntity
  8
0
100
AcDbLine
 10
0.0000000000000007
 20
11.16879999999999
 30
0.0
 11
0.000000000000001
 21
16.1768
 31
0.0
  0
LINE
  5
37
330
1E
100
AcDbEntity
  8
0
100
AcDbLine
 10
0.0000000000000006
 20
9.91677000000001
 30
0.0
 11
0.0000000000000007
 21
11.16879999999999
 31
0.0
  0
LINE
  5
38
330
1E
100
AcDbEntity
  8
0
100
AcDbLine
 10
0.0000000000000005
 20
8.525690000000009
 30
0.0
 11
0.0000000000000008
 21
13.8259
 31
0.0
  0
LINE
  5
39
330
1E
100
AcDbEntity
  8
0
100
AcDbLine
 10
0.0000000000000004
 20
6.566910000000009
 30
0.0
 11
0.0000000000000004
 21
7.000000000000009
 31
0.0
  0
LINE
  5
3A
330
1E
100
AcDbEntity
  8
0
100
AcDbLine
 10
0.0
 20
91.0
 30
0.0
 11
128.0
 21
91.0
 31
0.0
  0
LINE
  5
3B
330
1E
100
AcDbEntity
  8
0
100
AcDbLine
 10
0.0
 20
55.0
 30
0.0
 11
128.0
 21
55.0
 31
0.0
  0
LINE
  5
3C
330
1E
100
AcDbEntity
  8
0
100
AcDbLine
 10
0.0
 20
55.0
 30
0.0
 11
6.0
 21
55.0
 31
0.0
  0
LINE
  5
3D
330
1E
100
AcDbEntity
  8
0
100
AcDbLine
 10
0.000000000000001
 20
16.1768
 30
0.0
 11
0.0000000000000012
 21
20.2218
 31
0.0
  0
LINE
  5
3E
330
1E
100
AcDbEntity
  8
0
100
AcDbLine
 10
0.000000000000001
 20
16.1768
 30
0.0
 11
0.0000000000000013
 21
20.99229999999999
 31
0.0
  0
LINE
  5
3F
330
1E
100
AcDbEntity
  8
0
100
AcDbLine
 10
0.000000000000001
 20
16.1768
 30
0.0
 11
0.0000000000000015
 21
24.77199999999999
 31
0.0
  0
LINE
  5
40
330
1E
100
AcDbEntity
  8
0
100
AcDbLine
 10
0.0000000000000015
 20
24.0
 30
0.0
 11
0.0000000000000015
 21
25.2724
 31
0.0
  0
LINE
  5
41
330
1E
100
AcDbEntity
  8
0
100
AcDbLine
 10
0.000000000000001
 20
16.1768
 30
0.0
 11
0.0000000000000012
 21
20.2218
 31
0.0
  0
LINE
  5
42
330
1E
100
AcDbEntity
  8
0
100
AcDbLine
 10
0.0000000000000007
 20
12.0976
 30
0.0
 11
0.0000000000000015
 21
24.77199999999999
 31
0.0
  0
LINE
  5
44
330
1E
100
AcDbEntity
  8
0
100
AcDbLine
 10
0.0000000000000016
 20
26.45939999999999
 30
0.0
 11
0.000000000000002
 21
33.0396
 31
0.0
  0
LINE
  5
45
330
1E
100
AcDbEntity
  8
0
100
AcDbLine
 10
0.000000000000002
 20
32.52599999999999
 30
0.0
 11
0.0000000000000024
 21
39.38719999999999
 31
0.0
  0
LINE
  5
46
330
1E
100
AcDbEntity
  8
0
100
AcDbLine
 10
0.0000000000000018
 20
29.478
 30
0.0
 11
0.000000000000002
 21
33.0396
 31
0.0
  0
LINE
  5
47
330
1E
100
AcDbEntity
  8
0
100
AcDbLine
 10
0.0000000000000017
 20
28.3834
 30
0.0
 11
0.0000000000000018
 21
29.478
 31
0.0
  0
LINE
  5
48
330
1E
100
AcDbEntity
  8
0
100
AcDbLine
 10
0.0000000000000028
 20
46.47969999999999
 30
0.0
 11
0.0000000000000031
 21
49.9469
 31
0.0
  0
LINE
  5
49
330
1E
100
AcDbEntity
  8
0
100
AcDbLine
 10
0.0000000000000028
 20
45.42029999999999
 30
0.0
 11
0.0000000000000029
 21
47.25019999999999
 31
0.0
  0
LINE
  5
4A
330
1E
100
AcDbEntity
  8
0
100
AcDbLine
 10
0.0000000000000029
 20
47.25019999999999
 30
0.0
 11
0.000000000000003
 21
48.4059
 31
0.0
  0
LINE
  5
4B
330
1E
100
AcDbEntity
  8
0
100
AcDbLine
 10
0.0000000000000032
 20
51.77669999999999
 30
0.0
 11
0.0000000000000034
 21
55.0
 31
0.0
  0
LINE
  5
4C
330
1E
100
AcDbEntity
  8
0
100
AcDbLine
 10
0.0000000000000032
 20
53.0
 30
0.0
 11
0.0000000000000034
 21
55.0
 31
0.0
  0
LINE
  5
4D
330
1E
100
AcDbEntity
  8
0
100
AcDbLine
 10
0.0000000000000032
 20
53.0532
 30
0.0
 11
0.0000000000000035
 21
57.4316
 31
0.0
  0
LINE
  5
4E
330
1E
100
AcDbEntity
  8
0
100
AcDbLine
 10
0.0000000000000032
 20
52.35459999999999
 30
0.0
 11
0.0000000000000036
 21
58.474
 31
0.0
  0
LINE
  5
4F
330
1E
100
AcDbEntity
  8
0
100
AcDbLine
 10
0.000000000000003
 20
48.7912
 30
0.0
 11
0.0000000000000032
 21
52.35459999999999
 31
0.0
  0
LINE
  5
50
330
1E
100
AcDbEntity
  8
0
100
AcDbLine
 10
0.0000000000000034
 20
55.0
 30
0.0
 11
0.0000000000000035
 21
57.7197
 31
0.0
  0
LINE
  5
51
330
1E
100
AcDbEntity
  8
0
100
AcDbLine
 10
0.0000000000000034
 20
55.0
 30
0.0
 11
0.0000000000000035
 21
57.4316
 31
0.0
  0
LINE
  5
52
330
1E
100
AcDbEntity
  8
0
100
AcDbLine
 10
0.0000000000000034
 20
55.0
 30
0.0
 11
128.0
 21
55.0
 31
0.0
  0
LINE
  5
53
330
1E
100
AcDbEntity
  8
0
100
AcDbLine
 10
0.0000000000000034
 20
55.0
 30
0.0
 11
6.0
 21
55.0
 31
0.0
  0
LINE
  5
54
330
1E
100
AcDbEntity
  8
0
100
AcDbLine
 10
0.0000000000000033
 20
53.36999999999999
 30
0.0
 11
0.0000000000000035
 21
57.7197
 31
0.0
  0
LINE
  5
55
330
1E
100
AcDbEntity
  8
0
100
AcDbLine
 10
0.0000000000000029
 20
47.5391
 30
0.0
 11
0.000000000000003
 21
48.4059
 31
0.0
  0
LINE
  5
56
330
1E
100
AcDbEntity
  8
0
100
AcDbLine
 10
0.0000000000000027
 20
43.92179999999999
 30
0.0
 11
0.0000000000000028
 21
45.32399999999999
 31
0.0
  0
LINE
  5
57
330
1E
100
AcDbEntity
  8
0
100
AcDbLine
 10
0.0000000000000026
 20
43.2304
 30
0.0
 11
0.0000000000000029
 21
47.25019999999999
 31
0.0
  0
LINE
  5
58
330
1E
100
AcDbEntity
  8
0
100
AcDbLine
 10
0.0000000000000026
 20
43.2304
 30
0.0
 11
0.000000000000003
 21
48.4059
 31
0.0
  0
LINE
  5
59
330
1E
100
AcDbEntity
  8
0
100
AcDbLine
 10
0.0000000000000026
 20
43.2304
 30
0.0
 11
0.0000000000000028
 21
46.47969999999999
 31
0.0
  0
LINE
  5
5A
330
1E
100
AcDbEntity
  8
0
100
AcDbLine
 10
0.000000000000004
 20
65.1298
 30
0.0
 11
0.0000000000000043
 21
70.7782
 31
0.0
  0
LINE
  5
5B
330
1E
100
AcDbEntity
  8
0
100
AcDbLine
 10
0.000000000000004
 20
64.5406
 30
0.0
 11
0.0000000000000043
 21
70.0077
 31
0.0
  0
LINE
  5
5C
330
1E
100
AcDbEntity
  8
0
100
AcDbLine
 10
0.0000000000000036
 20
58.474
 30
0.0
 11
0.000000000000004
 21
65.1298
 31
0.0
  0
LINE
  5
5D
330
1E
100
AcDbEntity
  8
0
100
AcDbLine
 10
0.0000000000000036
 20
58.474
 30
0.0
 11
0.000000000000004
 21
64.5406
 31
0.0
  0
LINE
  5
5E
330
1E
100
AcDbEntity
  8
0
100
AcDbLine
 10
0.0000000000000035
 20
57.7197
 30
0.0
 11
0.0000000000000036
 21
58.474
 31
0.0
  0
LINE
  5
5F
330
1E
100
AcDbEntity
  8
0
100
AcDbLine
 10
0.0000000000000035
 20
57.7197
 30
0.0
 11
0.0000000000000035
 21
57.9604
 31
0.0
  0
LINE
  5
60
330
1E
100
AcDbEntity
  8
0
100
AcDbLine
 10
0.0000000000000035
 20
57.4316
 30
0.0
 11
0.0000000000000035
 21
57.7197
 31
0.0
  0
LINE
  5
61
330
1E
100
AcDbEntity
  8
0
100
AcDbLine
 10
0.0000000000000035
 20
57.4316
 30
0.0
 11
0.0000000000000038
 21
61.522
 31
0.0
  0
LINE
  5
62
330
1E
100
AcDbEntity
  8
0
100
AcDbLine
 10
0.0000000000000043
 20
70.7782
 30
0.0
 11
0.0000000000000047
 21
76.0752
 31
0.0
  0
LINE
  5
63
330
1E
100
AcDbEntity
  8
0
100
AcDbLine
 10
0.0000000000000043
 20
70.0077
 30
0.0
 11
0.0000000000000046
 21
74.8232
 31
0.0
  0
LINE
  5
64
330
1E
100
AcDbEntity
  8
0
100
AcDbLine
 10
0.0000000000000047
 20
76.0752
 30
0.0
 11
0.000000000000005
 21
81.0832
 31
0.0
  0
LINE
  5
65
330
1E
100
AcDbEntity
  8
0
100
AcDbLine
 10
0.0000000000000046
 20
74.8232
 30
0.0
 11
0.0000000000000049
 21
79.83119999999999
 31
0.0
  0
LINE
  5
66
330
1E
100
AcDbEntity
  8
0
100
AcDbLine
 10
0.000000000000005
 20
81.0832
 30
0.0
 11
0.0000000000000052
 21
85.3208
 31
0.0
  0
LINE
  5
67
330
1E
100
AcDbEntity
  8
0
100
AcDbLine
 10
0.0000000000000049
 20
79.83119999999999
 30
0.0
 11
0.0000000000000051
 21
83.6836
 31
0.0
  0
LINE
  5
68
330
1E
100
AcDbEntity
  8
0
100
AcDbLine
 10
0.0000000000000049
 20
79.83119999999999
 30
0.0
 11
0.000000000000005
 21
81.0832
 31
0.0
  0
LINE
  5
69
330
1E
100
AcDbEntity
  8
0
100
AcDbLine
 10
0.0000000000000052
 20
85.3208
 30
0.0
 11
0.0000000000000054
 21
88.11379999999999
 31
0.0
  0
LINE
  5
6A
330
1E
100
AcDbEntity
  8
0
100
AcDbLine
 10
0.0000000000000051
 20
83.6836
 30
0.0
 11
0.0000000000000052
 21
85.3208
 31
0.0
  0
LINE
  5
6B
330
1E
100
AcDbEntity
  8
0
100
AcDbLine
 10
0.0000000000000054
 20
88.0175
 30
0.0
 11
0.0000000000000054
 21
88.11379999999999
 31
0.0
  0
LINE
  5
6C
330
1E
100
AcDbEntity
  8
0
100
AcDbLine
 10
0.0000000000000053
 20
86.18759999999999
 30
0.0
 11
0.0000000000000054
 21
88.0175
 31
0.0
  0
LINE
  5
6D
330
1E
100
AcDbEntity
  8
0
100
AcDbLine
 10
0.0000000000000053
 20
86.18759999999999
 30
0.0
 11
0.0000000000000054
 21
88.11379999999999
 31
0.0
  0
LINE
  5
6F
330
1E
100
AcDbEntity
  8
0
100
AcDbLine
 10
6.0
 20
55.0
 30
0.0
 11
23.0
 21
55.0
 31
0.0
  0
LINE
  5
70
330
1E
100
AcDbEntity
  8
0
100
AcDbLine
 10
0.0000000000000054
 20
89.0
 30
0.0
 11
0.0000000000000055
 21
90.1363
 31
0.0
  0
LINE
  5
71
330
1E
100
AcDbEntity
  8
0
100
AcDbLine
 10
0.0000000000000056
 20
91.0
 30
0.0
 11
128.0
 21
91.0
 31
0.0
  0
LINE
  5
72
330
1E
100
AcDbEntity
  8
0
100
AcDbLine
 10
0.0000000000000055
 20
90.1363
 30
0.0
 11
0.0000000000000056
 21
91.0
 31
0.0
  0
LINE
  5
73
330
1E
100
AcDbEntity
  8
0
100
AcDbLine
 10
0.0000000000000054
 20
88.11379999999999
 30
0.0
 11
0.0000000000000054
 21
89.0
 31
0.0
  0
LINE
  5
74
330
1E
100
AcDbEntity
  8
0
100
AcDbLine
 10
0.0000000000000054
 20
88.11379999999999
 30
0.0
 11
0.0000000000000055
 21
90.1363
 31
0.0
  0
LINE
  5
75
330
1E
100
AcDbEntity
  8
0
100
AcDbLine
 10
0.0000000000000016
 20
25.9243
 30
0.0
 11
0.0000000000000027
 21
43.92179999999999
 31
0.0
  0
LINE
  5
76
330
1E
100
AcDbEntity
  8
0
100
AcDbLine
 10
0.0000000000000015
 20
24.77199999999999
 30
0.0
 11
0.0000000000000016
 21
25.9243
 31
0.0
  0
LINE
  5
77
330
1E
100
AcDbEntity
  8
0
100
AcDbLine
 10
0.0000000000000015
 20
24.77199999999999
 30
0.0
 11
0.0000000000000015
 21
25.2724
 31
0.0
  0
LINE
  5
78
330
1E
100
AcDbEntity
  8
0
100
AcDbLine
 10
10.5
 20
110.0
 30
0.0
 11
10.92799999999999
 21
110.0
 31
0.0
  0
LINE
  5
79
330
1E
100
AcDbEntity
  8
0
100
AcDbLine
 10
10.5
 20
110.0
 30
0.0
 11
10.5
 21
111.0
 31
0.0
  0
LINE
  5
7A
330
1E
100
AcDbEntity
  8
0
100
AcDbLine
 10
12.4975
 20
110.0
 30
0.0
 11
14.5506
 21
110.0
 31
0.0
  0
LINE
  5
7B
330
1E
100
AcDbEntity
  8
0
100
AcDbLine
 10
12.4975
 20
111.0
 30
0.0
 11
14.5506
 21
111.0
 31
0.0
  0
LINE
  5
7C
330
1E
100
AcDbEntity
  8
0
100
AcDbLine
 10
10.92799999999999
 20
111.0
 30
0.0
 11
12.4975
 21
111.0
 31
0.0
  0
LINE
  5
7D
330
1E
100
AcDbEntity
  8
0
100
AcDbLine
 10
10.92799999999999
 20
110.0
 30
0.0
 11
12.4975
 21
110.0
 31
0.0
  0
LINE
  5
7E
330
1E
100
AcDbEntity
  8
0
100
AcDbLine
 10
10.5
 20
111.0
 30
0.0
 11
16.2072
 21
111.637
 31
0.0
  0
LINE
  5
7F
330
1E
100
AcDbEntity
  8
0
100
AcDbLine
 10
10.5
 20
111.0
 30
0.0
 11
10.92799999999999
 21
111.0
 31
0.0
  0
LINE
  5
80
330
1E
100
AcDbEntity
  8
0
100
AcDbLine
 10
10.5
 20
111.0
 30
0.0
 11
10.5
 21
110.0
 31
0.0
  0
LINE
  5
81
330
1E
100
AcDbEntity
  8
0
100
AcDbLine
 10
12.5
 20
93.0
 30
0.0
 11
18.5
 21
95.0
 31
0.0
  0
LINE
  5
82
330
1E
100
AcDbEntity
  8
0
100
AcDbLine
 10
10.5
 20
93.0
 30
0.0
 11
10.5
 21
91.0
 31
0.0
  0
LINE
  5
83
330
1E
100
AcDbEntity
  8
0
100
AcDbLine
 10
10.5
 20
93.0
 30
0.0
 11
12.6
 21
93.0
 31
0.0
  0
LINE
  5
84
330
1E
100
AcDbEntity
  8
0
100
AcDbLine
 10
10.5
 20
91.0
 30
0.0
 11
12.6
 21
91.0
 31
0.0
  0
LINE
  5
85
330
1E
100
AcDbEntity
  8
0
100
AcDbLine
 10
10.5
 20
91.0
 30
0.0
 11
10.5
 21
93.0
 31
0.0
  0
LINE
  5
86
330
1E
100
AcDbEntity
  8
0
100
AcDbLine
 10
14.0
 20
91.0
 30
0.0
 11
29.5426
 21
91.0
 31
0.0
  0
LINE
  5
87
330
1E
100
AcDbEntity
  8
0
100
AcDbLine
 10
14.0
 20
91.0
 30
0.0
 11
29.5426
 21
91.0
 31
0.0
  0
LINE
  5
8A
330
1E
100
AcDbEntity
  8
0
100
AcDbLine
 10
18.1
 20
91.0
 30
0.0
 11
22.0
 21
91.0
 31
0.0
  0
LINE
  5
8B
330
1E
100
AcDbEntity
  8
0
100
AcDbLine
 10
18.1
 20
91.0
 30
0.0
 11
27.5
 21
91.0
 31
0.0
  0
LINE
  5
8C
330
1E
100
AcDbEntity
  8
0
100
AcDbLine
 10
12.6
 20
93.0
 30
0.0
 11
18.1
 21
93.0
 31
0.0
  0
LINE
  5
8D
330
1E
100
AcDbEntity
  8
0
100
AcDbLine
 10
18.5
 20
95.0
 30
0.0
 11
20.3
 21
95.0
 31
0.0
  0
LINE
  5
8E
330
1E
100
AcDbEntity
  8
0
100
AcDbLine
 10
18.1
 20
93.0
 30
0.0
 11
27.5
 21
93.0
 31
0.0
  0
LINE
  5
8F
330
1E
100
AcDbEntity
  8
0
100
AcDbLine
 10
14.5
 20
93.0
 30
0.0
 11
18.1
 21
93.0
 31
0.0
  0
LINE
  5
90
330
1E
100
AcDbEntity
  8
0
100
AcDbLine
 10
12.6
 20
91.0
 30
0.0
 11
18.1
 21
91.0
 31
0.0
  0
LINE
  5
91
330
1E
100
AcDbEntity
  8
0
100
AcDbLine
 10
23.0
 20
5.000000000000009
 30
0.0
 11
42.0
 21
5.000000000000009
 31
0.0
  0
LINE
  5
92
330
1E
100
AcDbEntity
  8
0
100
AcDbLine
 10
23.0
 20
55.0
 30
0.0
 11
42.0
 21
55.0
 31
0.0
  0
LINE
  5
93
330
1E
100
AcDbEntity
  8
0
100
AcDbLine
 10
22.0
 20
91.0
 30
0.0
 11
29.5426
 21
91.0
 31
0.0
  0
LINE
  5
94
330
1E
100
AcDbEntity
  8
0
100
AcDbLine
 10
22.0
 20
91.0
 30
0.0
 11
29.5426
 21
91.0
 31
0.0
  0
LINE
  5
95
330
1E
100
AcDbEntity
  8
0
100
AcDbLine
 10
24.1
 20
91.0
 30
0.0
 11
28.6
 21
91.0
 31
0.0
  0
LINE
  5
96
330
1E
100
AcDbEntity
  8
0
100
AcDbLine
 10
22.5
 20
91.0
 30
0.0
 11
24.1
 21
91.0
 31
0.0
  0
LINE
  5
97
330
1E
100
AcDbEntity
  8
0
100
AcDbLine
 10
29.5426
 20
91.0
 30
0.0
 11
29.7269
 21
91.0
 31
0.0
  0
LINE
  5
98
330
1E
100
AcDbEntity
  8
0
100
AcDbLine
 10
29.7269
 20
91.0
 30
0.0
 11
30.2111
 21
91.0
 31
0.0
  0
LINE
  5
99
330
1E
100
AcDbEntity
  8
0
100
AcDbLine
 10
33.2455
 20
91.0
 30
0.0
 11
34.5634
 21
91.0
 31
0.0
  0
LINE
  5
9A
330
1E
100
AcDbEntity
  8
0
100
AcDbLine
 10
32.02259999999999
 20
91.0
 30
0.0
 11
33.2455
 21
91.0
 31
0.0
  0
LINE
  5
9B
330
1E
100
AcDbEntity
  8
0
100
AcDbLine
 10
31.0069
 20
91.0
 30
0.0
 11
32.02259999999999
 21
91.0
 31
0.0
  0
LINE
  5
9C
330
1E
100
AcDbEntity
  8
0
100
AcDbLine
 10
30.2111
 20
91.0
 30
0.0
 11
31.0069
 21
91.0
 31
0.0
  0
LINE
  5
9D
330
1E
100
AcDbEntity
  8
0
100
AcDbLine
 10
27.5
 20
91.0
 30
0.0
 11
39.39999999999999
 21
91.0
 31
0.0
  0
LINE
  5
9E
330
1E
100
AcDbEntity
  8
0
100
AcDbLine
 10
35.8427
 20
91.0
 30
0.0
 11
37.0412
 21
91.0
 31
0.0
  0
LINE
  5
9F
330
1E
100
AcDbEntity
  8
0
100
AcDbLine
 10
34.5634
 20
91.0
 30
0.0
 11
35.8427
 21
91.0
 31
0.0
  0
LINE
  5
A0
330
1E
100
AcDbEntity
  8
0
100
AcDbLine
 10
37.0412
 20
91.0
 30
0.0
 11
38.0597
 21
91.0
 31
0.0
  0
LINE
  5
A1
330
1E
100
AcDbEntity
  8
0
100
AcDbLine
 10
38.0597
 20
91.0
 30
0.0
 11
38.85889999999999
 21
91.0
 31
0.0
  0
LINE
  5
A2
330
1E
100
AcDbEntity
  8
0
100
AcDbLine
 10
38.85889999999999
 20
91.0
 30
0.0
 11
39.37689999999999
 21
91.0
 31
0.0
  0
LINE
  5
A3
330
1E
100
AcDbEntity
  8
0
100
AcDbLine
 10
39.37689999999999
 20
91.0
 30
0.0
 11
39.5397
 21
91.0
 31
0.0
  0
LINE
  5
A4
330
1E
100
AcDbEntity
  8
0
100
AcDbLine
 10
41.9
 20
23.6
 30
0.0
 11
44.29999999999999
 21
17.6
 31
0.0
  0
LINE
  5
A5
330
1E
100
AcDbEntity
  8
0
100
AcDbLine
 10
41.9
 20
36.4
 30
0.0
 11
44.29999999999999
 21
42.4
 31
0.0
  0
LINE
  5
A6
330
1E
100
AcDbEntity
  8
0
100
AcDbLine
 10
41.0
 20
30.0
 30
0.0
 11
41.9
 21
36.4
 31
0.0
  0
LINE
  5
A7
330
1E
100
AcDbEntity
  8
0
100
AcDbLine
 10
41.0
 20
30.0
 30
0.0
 11
41.9
 21
23.6
 31
0.0
  0
LINE
  5
A8
330
1E
100
AcDbEntity
  8
0
100
AcDbLine
 10
48.3
 20
12.3
 30
0.0
 11
53.6
 21
8.300000000000009
 31
0.0
  0
LINE
  5
A9
330
1E
100
AcDbEntity
  8
0
100
AcDbLine
 10
44.29999999999999
 20
17.6
 30
0.0
 11
48.3
 21
12.3
 31
0.0
  0
LINE
  5
AA
330
1E
100
AcDbEntity
  8
0
100
AcDbLine
 10
53.6
 20
8.300000000000009
 30
0.0
 11
59.6
 21
5.900000000000009
 31
0.0
  0
LINE
  5
AB
330
1E
100
AcDbEntity
  8
0
100
AcDbLine
 10
54.592
 20
10.036
 30
0.0
 11
60.11199999999999
 21
7.827999999999999
 31
0.0
  0
LINE
  5
AC
330
1E
100
AcDbEntity
  8
0
100
AcDbLine
 10
49.716
 20
13.71599999999999
 30
0.0
 11
54.592
 21
10.036
 31
0.0
  0
LINE
  5
AD
330
1E
100
AcDbEntity
  8
0
100
AcDbLine
 10
46.036
 20
18.59199999999999
 30
0.0
 11
49.716
 21
13.71599999999999
 31
0.0
  0
LINE
  5
AE
330
1E
100
AcDbEntity
  8
0
100
AcDbLine
 10
43.828
 20
24.112
 30
0.0
 11
46.036
 21
18.59199999999999
 31
0.0
  0
LINE
  5
AF
330
1E
100
AcDbEntity
  8
0
100
AcDbLine
 10
46.036
 20
41.408
 30
0.0
 11
49.716
 21
46.284
 31
0.0
  0
LINE
  5
B0
330
1E
100
AcDbEntity
  8
0
100
AcDbLine
 10
43.828
 20
35.888
 30
0.0
 11
46.036
 21
41.408
 31
0.0
  0
LINE
  5
B1
330
1E
100
AcDbEntity
  8
0
100
AcDbLine
 10
43.0
 20
30.0
 30
0.0
 11
43.828
 21
35.888
 31
0.0
  0
LINE
  5
B2
330
1E
100
AcDbEntity
  8
0
100
AcDbLine
 10
43.0
 20
30.0
 30
0.0
 11
43.828
 21
24.112
 31
0.0
  0
LINE
  5
B3
330
1E
100
AcDbEntity
  8
0
100
AcDbLine
 10
48.3
 20
47.7
 30
0.0
 11
53.6
 21
51.7
 31
0.0
  0
LINE
  5
B4
330
1E
100
AcDbEntity
  8
0
100
AcDbLine
 10
53.6
 20
51.7
 30
0.0
 11
59.6
 21
54.1
 31
0.0
  0
LINE
  5
B5
330
1E
100
AcDbEntity
  8
0
100
AcDbLine
 10
54.592
 20
49.964
 30
0.0
 11
60.11199999999999
 21
52.172
 31
0.0
  0
LINE
  5
B6
330
1E
100
AcDbEntity
  8
0
100
AcDbLine
 10
49.716
 20
46.284
 30
0.0
 11
54.592
 21
49.964
 31
0.0
  0
LINE
  5
B7
330
1E
100
AcDbEntity
  8
0
100
AcDbLine
 10
44.29999999999999
 20
42.4
 30
0.0
 11
48.3
 21
47.7
 31
0.0
  0
LINE
  5
B8
330
1E
100
AcDbEntity
  8
0
100
AcDbLine
 10
42.0
 20
55.0
 30
0.0
 11
66.0
 21
55.0
 31
0.0
  0
LINE
  5
B9
330
1E
100
AcDbEntity
  8
0
100
AcDbLine
 10
42.0
 20
55.0
 30
0.0
 11
109.0
 21
55.0
 31
0.0
  0
LINE
  5
BA
330
1E
100
AcDbEntity
  8
0
100
AcDbLine
 10
39.39999999999999
 20
91.0
 30
0.0
 11
53.2
 21
91.0
 31
0.0
  0
LINE
  5
BB
330
1E
100
AcDbEntity
  8
0
100
AcDbLine
 10
53.2
 20
91.0
 30
0.0
 11
68.0
 21
91.0
 31
0.0
  0
LINE
  5
BC
330
1E
100
AcDbEntity
  8
0
100
AcDbLine
 10
35.89999999999999
 20
91.0
 30
0.0
 11
45.4
 21
91.0
 31
0.0
  0
LINE
  5
BD
330
1E
100
AcDbEntity
  8
0
100
AcDbLine
 10
45.4
 20
91.0
 30
0.0
 11
56.29999999999999
 21
91.0
 31
0.0
  0
LINE
  5
BE
330
1E
100
AcDbEntity
  8
0
100
AcDbLine
 10
33.79999999999999
 20
91.0
 30
0.0
 11
43.89999999999999
 21
91.0
 31
0.0
  0
LINE
  5
BF
330
1E
100
AcDbEntity
  8
0
100
AcDbLine
 10
43.89999999999999
 20
91.0
 30
0.0
 11
55.5
 21
91.0
 31
0.0
  0
LINE
  5
C0
330
1E
100
AcDbEntity
  8
0
100
AcDbLine
 10
59.6
 20
5.900000000000009
 30
0.0
 11
66.0
 21
5.000000000000009
 31
0.0
  0
LINE
  5
C1
330
1E
100
AcDbEntity
  8
0
100
AcDbLine
 10
60.11199999999999
 20
7.827999999999999
 30
0.0
 11
66.0
 21
7.000000000000009
 31
0.0
  0
LINE
  5
C2
330
1E
100
AcDbEntity
  8
0
100
AcDbLine
 10
59.6
 20
54.1
 30
0.0
 11
66.0
 21
55.0
 31
0.0
  0
LINE
  5
C3
330
1E
100
AcDbEntity
  8
0
100
AcDbLine
 10
66.0
 20
5.000000000000009
 30
0.0
 11
72.40000000000001
 21
5.900000000000009
 31
0.0
  0
LINE
  5
C4
330
1E
100
AcDbEntity
  8
0
100
AcDbLine
 10
72.40000000000001
 20
5.900000000000009
 30
0.0
 11
78.4
 21
8.300000000000009
 31
0.0
  0
LINE
  5
C5
330
1E
100
AcDbEntity
  8
0
100
AcDbLine
 10
66.0
 20
7.000000000000009
 30
0.0
 11
71.888
 21
7.827999999999999
 31
0.0
  0
LINE
  5
C6
330
1E
100
AcDbEntity
  8
0
100
AcDbLine
 10
71.888
 20
7.827999999999999
 30
0.0
 11
77.408
 21
10.036
 31
0.0
  0
LINE
  5
C7
330
1E
100
AcDbEntity
  8
0
100
AcDbLine
 10
78.4
 20
8.300000000000009
 30
0.0
 11
83.7
 21
12.3
 31
0.0
  0
LINE
  5
C8
330
1E
100
AcDbEntity
  8
0
100
AcDbLine
 10
77.408
 20
10.036
 30
0.0
 11
82.28399999999998
 21
13.71599999999999
 31
0.0
  0
LINE
  5
C9
330
1E
100
AcDbEntity
  8
0
100
AcDbLine
 10
66.0
 20
55.0
 30
0.0
 11
72.40000000000001
 21
54.1
 31
0.0
  0
LINE
  5
CA
330
1E
100
AcDbEntity
  8
0
100
AcDbLine
 10
66.0
 20
53.0
 30
0.0
 11
71.888
 21
52.172
 31
0.0
  0
LINE
  5
CB
330
1E
100
AcDbEntity
  8
0
100
AcDbLine
 10
72.40000000000001
 20
54.1
 30
0.0
 11
78.4
 21
51.7
 31
0.0
  0
LINE
  5
CC
330
1E
100
AcDbEntity
  8
0
100
AcDbLine
 10
78.4
 20
51.7
 30
0.0
 11
83.7
 21
47.7
 31
0.0
  0
LINE
  5
CD
330
1E
100
AcDbEntity
  8
0
100
AcDbLine
 10
71.888
 20
52.172
 30
0.0
 11
77.408
 21
49.964
 31
0.0
  0
LINE
  5
CE
330
1E
100
AcDbEntity
  8
0
100
AcDbLine
 10
77.408
 20
49.964
 30
0.0
 11
82.28399999999998
 21
46.284
 31
0.0
  0
LINE
  5
CF
330
1E
100
AcDbEntity
  8
0
100
AcDbLine
 10
60.11199999999999
 20
52.172
 30
0.0
 11
66.0
 21
53.0
 31
0.0
  0
LINE
  5
D0
330
1E
100
AcDbEntity
  8
0
100
AcDbLine
 10
79.7
 20
91.0
 30
0.0
 11
90.6
 21
91.0
 31
0.0
  0
LINE
  5
D1
330
1E
100
AcDbEntity
  8
0
100
AcDbLine
 10
83.7
 20
12.3
 30
0.0
 11
87.70000000000001
 21
17.6
 31
0.0
  0
LINE
  5
D2
330
1E
100
AcDbEntity
  8
0
100
AcDbLine
 10
87.70000000000001
 20
17.6
 30
0.0
 11
90.09999999999999
 21
23.6
 31
0.0
  0
LINE
  5
D3
330
1E
100
AcDbEntity
  8
0
100
AcDbLine
 10
82.28399999999998
 20
13.71599999999999
 30
0.0
 11
85.964
 21
18.59199999999999
 31
0.0
  0
LINE
  5
D4
330
1E
100
AcDbEntity
  8
0
100
AcDbLine
 10
85.964
 20
18.59199999999999
 30
0.0
 11
88.17200000000001
 21
24.112
 31
0.0
  0
LINE
  5
D5
330
1E
100
AcDbEntity
  8
0
100
AcDbLine
 10
88.17200000000001
 20
24.112
 30
0.0
 11
89.0
 21
30.0
 31
0.0
  0
LINE
  5
D6
330
1E
100
AcDbEntity
  8
0
100
AcDbLine
 10
83.7
 20
47.7
 30
0.0
 11
87.70000000000001
 21
42.4
 31
0.0
  0
LINE
  5
D7
330
1E
100
AcDbEntity
  8
0
100
AcDbLine
 10
87.70000000000001
 20
42.4
 30
0.0
 11
90.09999999999999
 21
36.4
 31
0.0
  0
LINE
  5
D8
330
1E
100
AcDbEntity
  8
0
100
AcDbLine
 10
82.28399999999998
 20
46.284
 30
0.0
 11
85.964
 21
41.408
 31
0.0
  0
LINE
  5
D9
330
1E
100
AcDbEntity
  8
0
100
AcDbLine
 10
85.964
 20
41.408
 30
0.0
 11
88.17200000000001
 21
35.888
 31
0.0
  0
LINE
  5
DA
330
1E
100
AcDbEntity
  8
0
100
AcDbLine
 10
90.09999999999999
 20
23.6
 30
0.0
 11
91.0
 21
30.0
 31
0.0
  0
LINE
  5
DB
330
1E
100
AcDbEntity
  8
0
100
AcDbLine
 10
90.09999999999999
 20
36.4
 30
0.0
 11
91.0
 21
30.0
 31
0.0
  0
LINE
  5
DC
330
1E
100
AcDbEntity
  8
0
100
AcDbLine
 10
88.17200000000001
 20
35.888
 30
0.0
 11
89.0
 21
30.0
 31
0.0
  0
LINE
  5
DD
330
1E
100
AcDbEntity
  8
0
100
AcDbLine
 10
82.79999999999999
 20
91.0
 30
0.0
 11
96.6
 21
91.0
 31
0.0
  0
LINE
  5
DE
330
1E
100
AcDbEntity
  8
0
100
AcDbLine
 10
97.94029999999999
 20
91.0
 30
0.0
 11
98.9588
 21
91.0
 31
0.0
  0
LINE
  5
DF
330
1E
100
AcDbEntity
  8
0
100
AcDbLine
 10
97.14109999999999
 20
91.0
 30
0.0
 11
97.94029999999999
 21
91.0
 31
0.0
  0
LINE
  5
E0
330
1E
100
AcDbEntity
  8
0
100
AcDbLine
 10
96.62309999999999
 20
91.0
 30
0.0
 11
97.14109999999999
 21
91.0
 31
0.0
  0
LINE
  5
E1
330
1E
100
AcDbEntity
  8
0
100
AcDbLine
 10
96.46030000000001
 20
91.0
 30
0.0
 11
96.62309999999999
 21
91.0
 31
0.0
  0
LINE
  5
E2
330
1E
100
AcDbEntity
  8
0
100
AcDbLine
 10
98.9588
 20
91.0
 30
0.0
 11
100.157
 21
91.0
 31
0.0
  0
LINE
  5
E3
330
1E
100
AcDbEntity
  8
0
100
AcDbLine
 10
96.6
 20
91.0
 30
0.0
 11
108.4999999999999
 21
91.0
 31
0.0
  0
LINE
  5
E6
330
1E
100
AcDbEntity
  8
0
100
AcDbLine
 10
100.157
 20
91.0
 30
0.0
 11
101.437
 21
91.0
 31
0.0
  0
LINE
  5
E7
330
1E
100
AcDbEntity
  8
0
100
AcDbLine
 10
101.437
 20
91.0
 30
0.0
 11
102.7549999999999
 21
91.0
 31
0.0
  0
LINE
  5
E8
330
1E
100
AcDbEntity
  8
0
100
AcDbLine
 10
102.7549999999999
 20
91.0
 30
0.0
 11
103.977
 21
91.0
 31
0.0
  0
LINE
  5
E9
330
1E
100
AcDbEntity
  8
0
100
AcDbLine
 10
103.977
 20
91.0
 30
0.0
 11
104.993
 21
91.0
 31
0.0
  0
LINE
  5
EA
330
1E
100
AcDbEntity
  8
0
100
AcDbLine
 10
106.2729999999999
 20
91.0
 30
0.0
 11
106.457
 21
91.0
 31
0.0
  0
LINE
  5
EB
330
1E
100
AcDbEntity
  8
0
100
AcDbLine
 10
105.7889999999999
 20
91.0
 30
0.0
 11
106.2729999999999
 21
91.0
 31
0.0
  0
LINE
  5
EC
330
1E
100
AcDbEntity
  8
0
100
AcDbLine
 10
104.993
 20
91.0
 30
0.0
 11
105.7889999999999
 21
91.0
 31
0.0
  0
LINE
  5
ED
330
1E
100
AcDbEntity
  8
0
100
AcDbLine
 10
106.457
 20
91.0
 30
0.0
 11
122.0
 21
91.0
 31
0.0
  0
LINE
  5
EE
330
1E
100
AcDbEntity
  8
0
100
AcDbLine
 10
100.0999999999999
 20
91.0
 30
0.0
 11
107.4
 21
91.0
 31
0.0
  0
LINE
  5
EF
330
1E
100
AcDbEntity
  8
0
100
AcDbLine
 10
102.2
 20
91.0
 30
0.0
 11
108.4999999999999
 21
91.0
 31
0.0
  0
LINE
  5
F0
330
1E
100
AcDbEntity
  8
0
100
AcDbLine
 10
90.6
 20
91.0
 30
0.0
 11
100.0999999999999
 21
91.0
 31
0.0
  0
LINE
  5
F1
330
1E
100
AcDbEntity
  8
0
100
AcDbLine
 10
92.09999999999999
 20
91.0
 30
0.0
 11
102.2
 21
91.0
 31
0.0
  0
LINE
  5
F2
330
1E
100
AcDbEntity
  8
0
100
AcDbLine
 10
80.5
 20
91.0
 30
0.0
 11
92.09999999999999
 21
91.0
 31
0.0
  0
LINE
  5
F3
330
1E
100
AcDbEntity
  8
0
100
AcDbLine
 10
68.0
 20
91.0
 30
0.0
 11
80.5
 21
91.0
 31
0.0
  0
LINE
  5
F4
330
1E
100
AcDbEntity
  8
0
100
AcDbLine
 10
68.0
 20
91.0
 30
0.0
 11
79.7
 21
91.0
 31
0.0
  0
LINE
  5
F5
330
1E
100
AcDbEntity
  8
0
100
AcDbLine
 10
68.0
 20
91.0
 30
0.0
 11
82.79999999999999
 21
91.0
 31
0.0
  0
LINE
  5
F8
330
1E
100
AcDbEntity
  8
0
100
AcDbLine
 10
108.4999999999999
 20
91.0
 30
0.0
 11
117.9
 21
91.0
 31
0.0
  0
LINE
  5
F9
330
1E
100
AcDbEntity
  8
0
100
AcDbLine
 10
128.0
 20
0.0000000000000024
 30
0.0
 11
128.0
 21
0.8637450000000029
 31
0.0
  0
LINE
  5
FA
330
1E
100
AcDbEntity
  8
0
100
AcDbLine
 10
128.0
 20
2.886229999999999
 30
0.0
 11
128.0
 21
0.8637450000000029
 31
0.0
  0
LINE
  5
FB
330
1E
100
AcDbEntity
  8
0
100
AcDbLine
 10
128.0
 20
2.886229999999999
 30
0.0
 11
128.0
 21
5.0
 31
0.0
  0
LINE
  5
FC
330
1E
100
AcDbEntity
  8
0
100
AcDbLine
 10
128.0
 20
0.8637450000000029
 30
0.0
 11
128.0
 21
0.0000000000000025
 31
0.0
  0
LINE
  5
FD
330
1E
100
AcDbEntity
  8
0
100
AcDbLine
 10
128.0
 20
0.8637450000000029
 30
0.0
 11
128.0
 21
2.886229999999999
 31
0.0
  0
LINE
  5
FE
330
1E
100
AcDbEntity
  8
0
100
AcDbLine
 10
126.0
 20
55.0
 30
0.0
 11
128.0
 21
55.0
 31
0.0
  0
LINE
  5
FF
330
1E
100
AcDbEntity
  8
0
100
AcDbLine
 10
128.0
 20
5.0
 30
0.0
 11
128.0
 21
2.886229999999999
 31
0.0
  0
LINE
  5
100
330
1E
100
AcDbEntity
  8
0
100
AcDbLine
 10
128.0
 20
5.0
 30
0.0
 11
128.0
 21
55.0
 31
0.0
  0
LINE
  5
101
330
1E
100
AcDbEntity
  8
0
100
AcDbLine
 10
128.0
 20
55.0
 30
0.0
 11
128.0
 21
5.0
 31
0.0
  0
LINE
  5
102
330
1E
100
AcDbEntity
  8
0
100
AcDbLine
 10
128.0
 20
55.0
 30
0.0
 11
128.0
 21
58.474
 31
0.0
  0
LINE
  5
103
330
1E
100
AcDbEntity
  8
0
100
AcDbLine
 10
128.0
 20
70.7782
 30
0.0
 11
128.0
 21
65.1298
 31
0.0
  0
LINE
  5
104
330
1E
100
AcDbEntity
  8
0
100
AcDbLine
 10
128.0
 20
70.7782
 30
0.0
 11
128.0
 21
76.0752
 31
0.0
  0
LINE
  5
105
330
1E
100
AcDbEntity
  8
0
100
AcDbLine
 10
128.0
 20
65.1298
 30
0.0
 11
128.0
 21
58.474
 31
0.0
  0
LINE
  5
106
330
1E
100
AcDbEntity
  8
0
100
AcDbLine
 10
128.0
 20
65.1298
 30
0.0
 11
128.0
 21
70.7782
 31
0.0
  0
LINE
  5
107
330
1E
100
AcDbEntity
  8
0
100
AcDbLine
 10
128.0
 20
58.474
 30
0.0
 11
128.0
 21
55.0
 31
0.0
  0
LINE
  5
108
330
1E
100
AcDbEntity
  8
0
100
AcDbLine
 10
128.0
 20
58.474
 30
0.0
 11
128.0
 21
65.1298
 31
0.0
  0
LINE
  5
109
330
1E
100
AcDbEntity
  8
0
100
AcDbLine
 10
128.0
 20
76.0752
 30
0.0
 11
128.0
 21
70.7782
 31
0.0
  0
LINE
  5
10A
330
1E
100
AcDbEntity
  8
0
100
AcDbLine
 10
128.0
 20
76.0752
 30
0.0
 11
128.0
 21
81.0832
 31
0.0
  0
LINE
  5
10B
330
1E
100
AcDbEntity
  8
0
100
AcDbLine
 10
128.0
 20
81.0832
 30
0.0
 11
128.0
 21
76.0752
 31
0.0
  0
LINE
  5
10C
330
1E
100
AcDbEntity
  8
0
100
AcDbLine
 10
128.0
 20
81.0832
 30
0.0
 11
128.0
 21
85.3208
 31
0.0
  0
LINE
  5
10D
330
1E
100
AcDbEntity
  8
0
100
AcDbLine
 10
128.0
 20
85.3208
 30
0.0
 11
128.0
 21
81.0832
 31
0.0
  0
LINE
  5
10E
330
1E
100
AcDbEntity
  8
0
100
AcDbLine
 10
128.0
 20
85.3208
 30
0.0
 11
128.0
 21
88.11379999999999
 31
0.0
  0
LINE
  5
10F
330
1E
100
AcDbEntity
  8
0
100
AcDbLine
 10
128.0
 20
88.11379999999999
 30
0.0
 11
128.0
 21
85.3208
 31
0.0
  0
LINE
  5
110
330
1E
100
AcDbEntity
  8
0
100
AcDbLine
 10
128.0
 20
88.11379999999999
 30
0.0
 11
128.0
 21
90.1363
 31
0.0
  0
LINE
  5
111
330
1E
100
AcDbEntity
  8
0
100
AcDbLine
 10
128.0
 20
90.1363
 30
0.0
 11
128.0
 21
88.11379999999999
 31
0.0
  0
LINE
  5
112
330
1E
100
AcDbEntity
  8
0
100
AcDbLine
 10
128.0
 20
90.1363
 30
0.0
 11
128.0
 21
91.0
 31
0.0
  0
LINE
  5
113
330
1E
100
AcDbEntity
  8
0
100
AcDbLine
 10
128.0
 20
91.0
 30
0.0
 11
128.0
 21
90.1363
 31
0.0
  0
LINE
  5
114
330
1E
100
AcDbEntity
  8
0
100
AcDbLine
 10
125.5
 20
91.0
 30
0.0
 11
125.5
 21
93.0
 31
0.0
  0
LINE
  5
115
330
1E
100
AcDbEntity
  8
0
100
AcDbLine
 10
107.4
 20
91.0
 30
0.0
 11
108.4999999999999
 21
91.0
 31
0.0
  0
LINE
  5
116
330
1E
100
AcDbEntity
  8
0
100
AcDbLine
 10
106.457
 20
91.0
 30
0.0
 11
108.4999999999999
 21
91.0
 31
0.0
  0
LINE
  5
117
330
1E
100
AcDbEntity
  8
0
100
AcDbLine
 10
106.457
 20
91.0
 30
0.0
 11
107.4
 21
91.0
 31
0.0
  0
LINE
  5
118
330
1E
100
AcDbEntity
  8
0
100
AcDbLine
 10
56.29999999999999
 20
91.0
 30
0.0
 11
68.0
 21
91.0
 31
0.0
  0
LINE
  5
119
330
1E
100
AcDbEntity
  8
0
100
AcDbLine
 10
55.5
 20
91.0
 30
0.0
 11
68.0
 21
91.0
 31
0.0
  0
LINE
  5
11A
330
1E
100
AcDbEntity
  8
0
100
AcDbLine
 10
28.6
 20
91.0
 30
0.0
 11
29.5426
 21
91.0
 31
0.0
  0
LINE
  5
11B
330
1E
100
AcDbEntity
  8
0
100
AcDbLine
 10
28.6
 20
91.0
 30
0.0
 11
35.89999999999999
 21
91.0
 31
0.0
  0
LINE
  5
11C
330
1E
100
AcDbEntity
  8
0
100
AcDbLine
 10
26.0
 20
91.0
 30
0.0
 11
29.5426
 21
91.0
 31
0.0
  0
LINE
  5
11D
330
1E
100
AcDbEntity
  8
0
100
AcDbLine
 10
26.0
 20
91.0
 30
0.0
 11
33.79999999999999
 21
91.0
 31
0.0
  0
LINE
  5
11E
330
1E
100
AcDbEntity
  8
0
100
AcDbLine
 10
27.5
 20
93.0
 30
0.0
 11
39.39999999999999
 21
93.0
 31
0.0
  0
LINE
  5
11F
330
1E
100
AcDbEntity
  8
0
100
AcDbLine
 10
108.4999999999999
 20
93.0
 30
0.0
 11
117.9
 21
93.0
 31
0.0
  0
LINE
  5
120
330
1E
100
AcDbEntity
  8
0
100
AcDbLine
 10
96.6
 20
93.0
 30
0.0
 11
108.4999999999999
 21
93.0
 31
0.0
  0
LINE
  5
121
330
1E
100
AcDbEntity
  8
0
100
AcDbLine
 10
82.79999999999999
 20
93.0
 30
0.0
 11
96.6
 21
93.0
 31
0.0
  0
LINE
  5
122
330
1E
100
AcDbEntity
  8
0
100
AcDbLine
 10
68.0
 20
93.0
 30
0.0
 11
82.79999999999999
 21
93.0
 31
0.0
  0
LINE
  5
123
330
1E
100
AcDbEntity
  8
0
100
AcDbLine
 10
39.39999999999999
 20
93.0
 30
0.0
 11
53.2
 21
93.0
 31
0.0
  0
LINE
  5
124
330
1E
100
AcDbEntity
  8
0
100
AcDbLine
 10
33.0
 20
95.0
 30
0.0
 11
43.39999999999999
 21
95.0
 31
0.0
  0
LINE
  5
125
330
1E
100
AcDbEntity
  8
0
100
AcDbLine
 10
43.39999999999999
 20
95.0
 30
0.0
 11
55.3
 21
95.0
 31
0.0
  0
LINE
  5
126
330
1E
100
AcDbEntity
  8
0
100
AcDbLine
 10
103.0
 20
95.0
 30
0.0
 11
110.8999999999999
 21
95.0
 31
0.0
  0
LINE
  5
127
330
1E
100
AcDbEntity
  8
0
100
AcDbLine
 10
110.8999999999999
 20
95.0
 30
0.0
 11
115.7
 21
95.0
 31
0.0
  0
LINE
  5
128
330
1E
100
AcDbEntity
  8
0
100
AcDbLine
 10
115.7
 20
95.0
 30
0.0
 11
117.5
 21
95.0
 31
0.0
  0
LINE
  5
129
330
1E
100
AcDbEntity
  8
0
100
AcDbLine
 10
92.59999999999999
 20
95.0
 30
0.0
 11
103.0
 21
95.0
 31
0.0
  0
LINE
  5
12A
330
1E
100
AcDbEntity
  8
0
100
AcDbLine
 10
80.7
 20
95.0
 30
0.0
 11
92.59999999999999
 21
95.0
 31
0.0
  0
LINE
  5
12B
330
1E
100
AcDbEntity
  8
0
100
AcDbLine
 10
68.0
 20
95.0
 30
0.0
 11
80.7
 21
95.0
 31
0.0
  0
LINE
  5
12C
330
1E
100
AcDbEntity
  8
0
100
AcDbLine
 10
55.3
 20
95.0
 30
0.0
 11
68.0
 21
95.0
 31
0.0
  0
LINE
  5
12D
330
1E
100
AcDbEntity
  8
0
100
AcDbLine
 10
25.1
 20
95.0
 30
0.0
 11
33.0
 21
95.0
 31
0.0
  0
LINE
  5
12E
330
1E
100
AcDbEntity
  8
0
100
AcDbLine
 10
20.3
 20
95.0
 30
0.0
 11
25.1
 21
95.0
 31
0.0
  0
LINE
  5
12F
330
1E
100
AcDbEntity
  8
0
100
AcDbLine
 10
53.2
 20
93.0
 30
0.0
 11
68.0
 21
93.0
 31
0.0
  0
LINE
  5
130
330
1E
100
AcDbEntity
  8
0
100
AcDbLine
 10
117.9
 20
93.0
 30
0.0
 11
123.3999999999999
 21
93.0
 31
0.0
  0
LINE
  5
131
330
1E
100
AcDbEntity
  8
0
100
AcDbLine
 10
123.3999999999999
 20
93.0
 30
0.0
 11
125.5
 21
93.0
 31
0.0
  0
LINE
  5
132
330
1E
100
AcDbEntity
  8
0
100
AcDbLine
 10
117.5
 20
95.0
 30
0.0
 11
123.5
 21
93.0
 31
0.0
  0
LINE
  5
133
330
1E
100
AcDbEntity
  8
0
100
AcDbLine
 10
125.5
 20
93.0
 30
0.0
 11
125.5
 21
91.0
 31
0.0
  0
LINE
  5
134
330
1E
100
AcDbEntity
  8
0
100
AcDbLine
 10
116.5
 20
95.0
 30
0.0
 11
116.5
 21
96.0
 31
0.0
  0
LINE
  5
135
330
1E
100
AcDbEntity
  8
0
100
AcDbLine
 10
21.3
 20
91.0
 30
0.0
 11
26.0
 21
91.0
 31
0.0
  0
LINE
  5
136
330
1E
100
AcDbEntity
  8
0
100
AcDbLine
 10
19.5
 20
91.0
 30
0.0
 11
21.3
 21
91.0
 31
0.0
  0
LINE
  5
137
330
1E
100
AcDbEntity
  8
0
100
AcDbLine
 10
19.5
 20
96.0
 30
0.0
 11
21.3
 21
96.0
 31
0.0
  0
LINE
  5
138
330
1E
100
AcDbEntity
  8
0
100
AcDbLine
 10
19.5
 20
96.0
 30
0.0
 11
19.5
 21
95.0
 31
0.0
  0
LINE
  5
139
330
1E
100
AcDbEntity
  8
0
100
AcDbLine
 10
33.79999999999999
 20
96.0
 30
0.0
 11
43.89999999999999
 21
96.0
 31
0.0
  0
LINE
  5
13A
330
1E
100
AcDbEntity
  8
0
100
AcDbLine
 10
102.2
 20
96.0
 30
0.0
 11
110.0
 21
96.0
 31
0.0
  0
LINE
  5
13B
330
1E
100
AcDbEntity
  8
0
100
AcDbLine
 10
110.0
 20
96.0
 30
0.0
 11
114.7
 21
96.0
 31
0.0
  0
LINE
  5
13C
330
1E
100
AcDbEntity
  8
0
100
AcDbLine
 10
114.7
 20
96.0
 30
0.0
 11
116.5
 21
96.0
 31
0.0
  0
LINE
  5
13D
330
1E
100
AcDbEntity
  8
0
100
AcDbLine
 10
92.09999999999999
 20
96.0
 30
0.0
 11
102.2
 21
96.0
 31
0.0
  0
LINE
  5
13E
330
1E
100
AcDbEntity
  8
0
100
AcDbLine
 10
80.5
 20
96.0
 30
0.0
 11
92.09999999999999
 21
96.0
 31
0.0
  0
LINE
  5
13F
330
1E
100
AcDbEntity
  8
0
100
AcDbLine
 10
68.0
 20
96.0
 30
0.0
 11
80.5
 21
96.0
 31
0.0
  0
LINE
  5
140
330
1E
100
AcDbEntity
  8
0
100
AcDbLine
 10
116.5
 20
96.0
 30
0.0
 11
123.5
 21
100.0
 31
0.0
  0
LINE
  5
141
330
1E
100
AcDbEntity
  8
0
100
AcDbLine
 10
116.5
 20
96.0
 30
0.0
 11
116.5
 21
95.0
 31
0.0
  0
LINE
  5
142
330
1E
100
AcDbEntity
  8
0
100
AcDbLine
 10
43.89999999999999
 20
96.0
 30
0.0
 11
55.5
 21
96.0
 31
0.0
  0
LINE
  5
143
330
1E
100
AcDbEntity
  8
0
100
AcDbLine
 10
55.5
 20
96.0
 30
0.0
 11
68.0
 21
96.0
 31
0.0
  0
LINE
  5
144
330
1E
100
AcDbEntity
  8
0
100
AcDbLine
 10
26.0
 20
96.0
 30
0.0
 11
33.79999999999999
 21
96.0
 31
0.0
  0
LINE
  5
145
330
1E
100
AcDbEntity
  8
0
100
AcDbLine
 10
28.8
 20
100.0
 30
0.0
 11
40.4
 21
100.0
 31
0.0
  0
LINE
  5
146
330
1E
100
AcDbEntity
  8
0
100
AcDbLine
 10
40.4
 20
100.0
 30
0.0
 11
53.7
 21
100.0
 31
0.0
  0
LINE
  5
147
330
1E
100
AcDbEntity
  8
0
100
AcDbLine
 10
107.2
 20
100.0
 30
0.0
 11
116.1
 21
100.0
 31
0.0
  0
LINE
  5
148
330
1E
100
AcDbEntity
  8
0
100
AcDbLine
 10
116.1
 20
100.0
 30
0.0
 11
121.5
 21
100.0
 31
0.0
  0
LINE
  5
149
330
1E
100
AcDbEntity
  8
0
100
AcDbLine
 10
121.5
 20
100.0
 30
0.0
 11
123.5
 21
100.0
 31
0.0
  0
LINE
  5
14A
330
1E
100
AcDbEntity
  8
0
100
AcDbLine
 10
123.5
 20
100.0
 30
0.0
 11
123.5
 21
102.0
 31
0.0
  0
LINE
  5
14B
330
1E
100
AcDbEntity
  8
0
100
AcDbLine
 10
95.6
 20
100.0
 30
0.0
 11
107.2
 21
100.0
 31
0.0
  0
LINE
  5
14C
330
1E
100
AcDbEntity
  8
0
100
AcDbLine
 10
82.3
 20
100.0
 30
0.0
 11
95.6
 21
100.0
 31
0.0
  0
LINE
  5
14D
330
1E
100
AcDbEntity
  8
0
100
AcDbLine
 10
68.0
 20
100.0
 30
0.0
 11
82.3
 21
100.0
 31
0.0
  0
LINE
  5
14E
330
1E
100
AcDbEntity
  8
0
100
AcDbLine
 10
53.7
 20
100.0
 30
0.0
 11
68.0
 21
100.0
 31
0.0
  0
LINE
  5
14F
330
1E
100
AcDbEntity
  8
0
100
AcDbLine
 10
21.3
 20
96.0
 30
0.0
 11
26.0
 21
96.0
 31
0.0
  0
LINE
  5
150
330
1E
100
AcDbEntity
  8
0
100
AcDbLine
 10
19.9
 20
100.0
 30
0.0
 11
28.8
 21
100.0
 31
0.0
  0
LINE
  5
151
330
1E
100
AcDbEntity
  8
0
100
AcDbLine
 10
20.5
 20
102.0
 30
0.0
 11
20.5
 21
110.0
 31
0.0
  0
LINE
  5
152
330
1E
100
AcDbEntity
  8
0
100
AcDbLine
 10
33.7053
 20
102.0
 30
0.0
 11
33.7053
 21
110.0
 31
0.0
  0
LINE
  5
153
330
1E
100
AcDbEntity
  8
0
100
AcDbLine
 10
35.1195
 20
102.0
 30
0.0
 11
35.1195
 21
110.0
 31
0.0
  0
LINE
  5
154
330
1E
100
AcDbEntity
  8
0
100
AcDbLine
 10
31.57469999999999
 20
102.0
 30
0.0
 11
31.57469999999999
 21
105.0
 31
0.0
  0
LINE
  5
155
330
1E
100
AcDbEntity
  8
0
100
AcDbLine
 10
28.8
 20
102.0
 30
0.0
 11
40.4
 21
102.0
 31
0.0
  0
LINE
  5
156
330
1E
100
AcDbEntity
  8
0
100
AcDbLine
 10
40.4
 20
102.0
 30
0.0
 11
53.7
 21
102.0
 31
0.0
  0
LINE
  5
15C
330
1E
100
AcDbEntity
  8
0
100
AcDbLine
 10
102.295
 20
102.0
 30
0.0
 11
102.295
 21
110.0
 31
0.0
  0
LINE
  5
15D
330
1E
100
AcDbEntity
  8
0
100
AcDbLine
 10
100.8809999999999
 20
102.0
 30
0.0
 11
100.8809999999999
 21
110.0
 31
0.0
  0
LINE
  5
15E
330
1E
100
AcDbEntity
  8
0
100
AcDbLine
 10
115.5
 20
102.0
 30
0.0
 11
115.5
 21
110.0
 31
0.0
  0
LINE
  5
15F
330
1E
100
AcDbEntity
  8
0
100
AcDbLine
 10
104.4249999999999
 20
102.0
 30
0.0
 11
104.4249999999999
 21
105.0
 31
0.0
  0
LINE
  5
160
330
1E
100
AcDbEntity
  8
0
100
AcDbLine
 10
107.2
 20
102.0
 30
0.0
 11
116.1
 21
102.0
 31
0.0
  0
LINE
  5
161
330
1E
100
AcDbEntity
  8
0
100
AcDbLine
 10
116.1
 20
102.0
 30
0.0
 11
121.5
 21
102.0
 31
0.0
  0
LINE
  5
162
330
1E
100
AcDbEntity
  8
0
100
AcDbLine
 10
121.5
 20
102.0
 30
0.0
 11
123.5
 21
102.0
 31
0.0
  0
LINE
  5
163
330
1E
100
AcDbEntity
  8
0
100
AcDbLine
 10
95.6
 20
102.0
 30
0.0
 11
107.2
 21
102.0
 31
0.0
  0
LINE
  5
164
330
1E
100
AcDbEntity
  8
0
100
AcDbLine
 10
82.3
 20
102.0
 30
0.0
 11
95.6
 21
102.0
 31
0.0
  0
LINE
  5
165
330
1E
100
AcDbEntity
  8
0
100
AcDbLine
 10
68.0
 20
102.0
 30
0.0
 11
82.3
 21
102.0
 31
0.0
  0
LINE
  5
166
330
1E
100
AcDbEntity
  8
0
100
AcDbLine
 10
123.5
 20
102.0
 30
0.0
 11
123.5
 21
100.0
 31
0.0
  0
LINE
  5
167
330
1E
100
AcDbEntity
  8
0
100
AcDbLine
 10
53.7
 20
102.0
 30
0.0
 11
68.0
 21
102.0
 31
0.0
  0
LINE
  5
168
330
1E
100
AcDbEntity
  8
0
100
AcDbLine
 10
31.57469999999999
 20
105.0
 30
0.0
 11
31.57469999999999
 21
102.0
 31
0.0
  0
LINE
  5
169
330
1E
100
AcDbEntity
  8
0
100
AcDbLine
 10
31.57469999999999
 20
105.0
 30
0.0
 11
31.6853
 21
105.0
 31
0.0
  0
LINE
  5
16A
330
1E
100
AcDbEntity
  8
0
100
AcDbLine
 10
14.5506
 20
111.0
 30
0.0
 11
18.2047
 21
111.0
 31
0.0
  0
LINE
  5
16B
330
1E
100
AcDbEntity
  8
0
100
AcDbLine
 10
14.5506
 20
110.0
 30
0.0
 11
18.2047
 21
110.0
 31
0.0
  0
LINE
  5
16C
330
1E
100
AcDbEntity
  8
0
100
AcDbLine
 10
18.2047
 20
111.0
 30
0.0
 11
22.3424
 21
111.0
 31
0.0
  0
LINE
  5
16D
330
1E
100
AcDbEntity
  8
0
100
AcDbLine
 10
20.5
 20
110.0
 30
0.0
 11
20.5
 21
102.0
 31
0.0
  0
LINE
  5
16E
330
1E
100
AcDbEntity
  8
0
100
AcDbLine
 10
20.5
 20
110.0
 30
0.0
 11
33.7053
 21
110.0
 31
0.0
  0
LINE
  5
16F
330
1E
100
AcDbEntity
  8
0
100
AcDbLine
 10
22.3424
 20
110.0
 30
0.0
 11
27.1935
 21
110.0
 31
0.0
  0
LINE
  5
170
330
1E
100
AcDbEntity
  8
0
100
AcDbLine
 10
27.1935
 20
110.0
 30
0.0
 11
32.9007
 21
110.0
 31
0.0
  0
LINE
  5
171
330
1E
100
AcDbEntity
  8
0
100
AcDbLine
 10
22.3424
 20
111.0
 30
0.0
 11
27.1935
 21
111.0
 31
0.0
  0
LINE
  5
172
330
1E
100
AcDbEntity
  8
0
100
AcDbLine
 10
27.1935
 20
111.0
 30
0.0
 11
32.9007
 21
111.0
 31
0.0
  0
LINE
  5
173
330
1E
100
AcDbEntity
  8
0
100
AcDbLine
 10
18.2047
 20
110.0
 30
0.0
 11
20.5
 21
110.0
 31
0.0
  0
LINE
  5
174
330
1E
100
AcDbEntity
  8
0
100
AcDbLine
 10
18.2047
 20
110.0
 30
0.0
 11
22.3424
 21
110.0
 31
0.0
  0
LINE
  5
175
330
1E
100
AcDbEntity
  8
0
100
AcDbLine
 10
25.62409999999999
 20
112.481
 30
0.0
 11
35.469
 21
113.1
 31
0.0
  0
LINE
  5
176
330
1E
100
AcDbEntity
  8
0
100
AcDbLine
 10
16.2072
 20
111.637
 30
0.0
 11
25.62409999999999
 21
112.481
 31
0.0
  0
LINE
  5
177
330
1E
100
AcDbEntity
  8
0
100
AcDbLine
 10
31.6853
 20
105.0
 30
0.0
 11
31.9758
 21
105.0
 31
0.0
  0
LINE
  5
17D
330
1E
100
AcDbEntity
  8
0
100
AcDbLine
 10
102.295
 20
105.0
 30
0.0
 11
102.937
 21
105.0
 31
0.0
  0
LINE
  5
17E
330
1E
100
AcDbEntity
  8
0
100
AcDbLine
 10
104.315
 20
105.0
 30
0.0
 11
104.4249999999999
 21
105.0
 31
0.0
  0
LINE
  5
17F
330
1E
100
AcDbEntity
  8
0
100
AcDbLine
 10
104.4249999999999
 20
105.0
 30
0.0
 11
104.4249999999999
 21
102.0
 31
0.0
  0
LINE
  5
180
330
1E
100
AcDbEntity
  8
0
100
AcDbLine
 10
104.024
 20
105.0
 30
0.0
 11
104.315
 21
105.0
 31
0.0
  0
LINE
  5
181
330
1E
100
AcDbEntity
  8
0
100
AcDbLine
 10
102.937
 20
105.0
 30
0.0
 11
103.547
 21
105.0
 31
0.0
  0
LINE
  5
182
330
1E
100
AcDbEntity
  8
0
100
AcDbLine
 10
103.547
 20
105.0
 30
0.0
 11
104.024
 21
105.0
 31
0.0
  0
LINE
  5
18B
330
1E
100
AcDbEntity
  8
0
100
AcDbLine
 10
33.0627
 20
105.0
 30
0.0
 11
33.7053
 21
105.0
 31
0.0
  0
LINE
  5
18C
330
1E
100
AcDbEntity
  8
0
100
AcDbLine
 10
35.1195
 20
110.0
 30
0.0
 11
66.9393
 21
110.0
 31
0.0
  0
LINE
  5
18D
330
1E
100
AcDbEntity
  8
0
100
AcDbLine
 10
35.1195
 20
110.0
 30
0.0
 11
35.1195
 21
102.0
 31
0.0
  0
LINE
  5
18E
330
1E
100
AcDbEntity
  8
0
100
AcDbLine
 10
33.7053
 20
110.0
 30
0.0
 11
33.7053
 21
102.0
 31
0.0
  0
LINE
  5
18F
330
1E
100
AcDbEntity
  8
0
100
AcDbLine
 10
33.7053
 20
110.0
 30
0.0
 11
35.1195
 21
110.0
 31
0.0
  0
LINE
  5
190
330
1E
100
AcDbEntity
  8
0
100
AcDbLine
 10
32.9007
 20
110.0
 30
0.0
 11
39.4639
 21
110.0
 31
0.0
  0
LINE
  5
191
330
1E
100
AcDbEntity
  8
0
100
AcDbLine
 10
32.9007
 20
111.0
 30
0.0
 11
39.4639
 21
111.0
 31
0.0
  0
LINE
  5
192
330
1E
100
AcDbEntity
  8
0
100
AcDbLine
 10
39.4639
 20
110.0
 30
0.0
 11
46.19629999999999
 21
110.0
 31
0.0
  0
LINE
  5
193
330
1E
100
AcDbEntity
  8
0
100
AcDbLine
 10
46.19629999999999
 20
110.0
 30
0.0
 11
53.3039
 21
110.0
 31
0.0
  0
LINE
  5
194
330
1E
100
AcDbEntity
  8
0
100
AcDbLine
 10
53.3039
 20
110.0
 30
0.0
 11
60.5807
 21
110.0
 31
0.0
  0
LINE
  5
195
330
1E
100
AcDbEntity
  8
0
100
AcDbLine
 10
39.4639
 20
111.0
 30
0.0
 11
46.19629999999999
 21
111.0
 31
0.0
  0
LINE
  5
196
330
1E
100
AcDbEntity
  8
0
100
AcDbLine
 10
46.19629999999999
 20
111.0
 30
0.0
 11
53.3039
 21
111.0
 31
0.0
  0
LINE
  5
197
330
1E
100
AcDbEntity
  8
0
100
AcDbLine
 10
60.5807
 20
110.0
 30
0.0
 11
68.0
 21
110.0
 31
0.0
  0
LINE
  5
198
330
1E
100
AcDbEntity
  8
0
100
AcDbLine
 10
53.3039
 20
111.0
 30
0.0
 11
60.5807
 21
111.0
 31
0.0
  0
LINE
  5
199
330
1E
100
AcDbEntity
  8
0
100
AcDbLine
 10
60.5807
 20
111.0
 30
0.0
 11
68.0
 21
111.0
 31
0.0
  0
LINE
  5
19C
330
1E
100
AcDbEntity
  8
0
100
AcDbLine
 10
67.0
 20
110.0
 30
0.0
 11
69.0
 21
110.0
 31
0.0
  0
LINE
  5
19D
330
1E
100
AcDbEntity
  8
0
100
AcDbLine
 10
68.0
 20
110.0
 30
0.0
 11
75.4193
 21
110.0
 31
0.0
  0
LINE
  5
19E
330
1E
100
AcDbEntity
  8
0
100
AcDbLine
 10
68.0
 20
111.0
 30
0.0
 11
75.4193
 21
111.0
 31
0.0
  0
LINE
  5
1A0
330
1E
100
AcDbEntity
  8
0
100
AcDbLine
 10
69.06069999999999
 20
110.0
 30
0.0
 11
100.8809999999999
 21
110.0
 31
0.0
  0
LINE
  5
1A1
330
1E
100
AcDbEntity
  8
0
100
AcDbLine
 10
102.295
 20
110.0
 30
0.0
 11
102.295
 21
102.0
 31
0.0
  0
LINE
  5
1A2
330
1E
100
AcDbEntity
  8
0
100
AcDbLine
 10
102.295
 20
110.0
 30
0.0
 11
115.5
 21
110.0
 31
0.0
  0
LINE
  5
1A3
330
1E
100
AcDbEntity
  8
0
100
AcDbLine
 10
100.8809999999999
 20
110.0
 30
0.0
 11
102.295
 21
110.0
 31
0.0
  0
LINE
  5
1A4
330
1E
100
AcDbEntity
  8
0
100
AcDbLine
 10
100.8809999999999
 20
110.0
 30
0.0
 11
100.8809999999999
 21
102.0
 31
0.0
  0
LINE
  5
1A5
330
1E
100
AcDbEntity
  8
0
100
AcDbLine
 10
108.807
 20
110.0
 30
0.0
 11
113.6579999999999
 21
110.0
 31
0.0
  0
LINE
  5
1A6
330
1E
100
AcDbEntity
  8
0
100
AcDbLine
 10
113.6579999999999
 20
110.0
 30
0.0
 11
117.795
 21
110.0
 31
0.0
  0
LINE
  5
1A7
330
1E
100
AcDbEntity
  8
0
100
AcDbLine
 10
103.0989999999999
 20
110.0
 30
0.0
 11
108.807
 21
110.0
 31
0.0
  0
LINE
  5
1A8
330
1E
100
AcDbEntity
  8
0
100
AcDbLine
 10
96.5361
 20
110.0
 30
0.0
 11
103.0989999999999
 21
110.0
 31
0.0
  0
LINE
  5
1A9
330
1E
100
AcDbEntity
  8
0
100
AcDbLine
 10
89.8037
 20
110.0
 30
0.0
 11
96.5361
 21
110.0
 31
0.0
  0
LINE
  5
1AA
330
1E
100
AcDbEntity
  8
0
100
AcDbLine
 10
82.6961
 20
110.0
 30
0.0
 11
89.8037
 21
110.0
 31
0.0
  0
LINE
  5
1AB
330
1E
100
AcDbEntity
  8
0
100
AcDbLine
 10
75.4193
 20
110.0
 30
0.0
 11
82.6961
 21
110.0
 31
0.0
  0
LINE
  5
1AC
330
1E
100
AcDbEntity
  8
0
100
AcDbLine
 10
115.5
 20
110.0
 30
0.0
 11
117.795
 21
110.0
 31
0.0
  0
LINE
  5
1AD
330
1E
100
AcDbEntity
  8
0
100
AcDbLine
 10
115.5
 20
110.0
 30
0.0
 11
115.5
 21
102.0
 31
0.0
  0
LINE
  5
1AE
330
1E
100
AcDbEntity
  8
0
100
AcDbLine
 10
117.795
 20
110.0
 30
0.0
 11
121.449
 21
110.0
 31
0.0
  0
LINE
  5
1AF
330
1E
100
AcDbEntity
  8
0
100
AcDbLine
 10
121.449
 20
110.0
 30
0.0
 11
123.502
 21
110.0
 31
0.0
  0
LINE
  5
1B0
330
1E
100
AcDbEntity
  8
0
100
AcDbLine
 10
125.5
 20
110.0
 30
0.0
 11
125.5
 21
111.0
 31
0.0
  0
LINE
  5
1B1
330
1E
100
AcDbEntity
  8
0
100
AcDbLine
 10
123.502
 20
110.0
 30
0.0
 11
125.072
 21
110.0
 31
0.0
  0
LINE
  5
1B2
330
1E
100
AcDbEntity
  8
0
100
AcDbLine
 10
117.795
 20
111.0
 30
0.0
 11
121.449
 21
111.0
 31
0.0
  0
LINE
  5
1B3
330
1E
100
AcDbEntity
  8
0
100
AcDbLine
 10
121.449
 20
111.0
 30
0.0
 11
123.502
 21
111.0
 31
0.0
  0
LINE
  5
1B4
330
1E
100
AcDbEntity
  8
0
100
AcDbLine
 10
108.807
 20
111.0
 30
0.0
 11
113.6579999999999
 21
111.0
 31
0.0
  0
LINE
  5
1B5
330
1E
100
AcDbEntity
  8
0
100
AcDbLine
 10
113.6579999999999
 20
111.0
 30
0.0
 11
117.795
 21
111.0
 31
0.0
  0
LINE
  5
1B6
330
1E
100
AcDbEntity
  8
0
100
AcDbLine
 10
123.502
 20
111.0
 30
0.0
 11
125.072
 21
111.0
 31
0.0
  0
LINE
  5
1B7
330
1E
100
AcDbEntity
  8
0
100
AcDbLine
 10
125.072
 20
111.0
 30
0.0
 11
125.5
 21
111.0
 31
0.0
  0
LINE
  5
1B8
330
1E
100
AcDbEntity
  8
0
100
AcDbLine
 10
103.0989999999999
 20
111.0
 30
0.0
 11
108.807
 21
111.0
 31
0.0
  0
LINE
  5
1B9
330
1E
100
AcDbEntity
  8
0
100
AcDbLine
 10
96.5361
 20
111.0
 30
0.0
 11
103.0989999999999
 21
111.0
 31
0.0
  0
LINE
  5
1BA
330
1E
100
AcDbEntity
  8
0
100
AcDbLine
 10
89.8037
 20
111.0
 30
0.0
 11
96.5361
 21
111.0
 31
0.0
  0
LINE
  5
1BB
330
1E
100
AcDbEntity
  8
0
100
AcDbLine
 10
82.6961
 20
111.0
 30
0.0
 11
89.8037
 21
111.0
 31
0.0
  0
LINE
  5
1BC
330
1E
100
AcDbEntity
  8
0
100
AcDbLine
 10
75.4193
 20
111.0
 30
0.0
 11
82.6961
 21
111.0
 31
0.0
  0
LINE
  5
1BD
330
1E
100
AcDbEntity
  8
0
100
AcDbLine
 10
125.5
 20
111.0
 30
0.0
 11
125.5
 21
110.0
 31
0.0
  0
LINE
  5
1BE
330
1E
100
AcDbEntity
  8
0
100
AcDbLine
 10
125.072
 20
110.0
 30
0.0
 11
125.5
 21
110.0
 31
0.0
  0
LINE
  5
1BF
330
1E
100
AcDbEntity
  8
0
100
AcDbLine
 10
69.0
 20
110.0
 30
0.0
 11
69.06069999999999
 21
110.0
 31
0.0
  0
LINE
  5
1C1
330
1E
100
AcDbEntity
  8
0
100
AcDbLine
 10
89.8301
 20
113.606
 30
0.0
 11
100.531
 21
113.1
 31
0.0
  0
LINE
  5
1C2
330
1E
100
AcDbEntity
  8
0
100
AcDbLine
 10
100.531
 20
113.1
 30
0.0
 11
110.376
 21
112.481
 31
0.0
  0
LINE
  5
1C3
330
1E
100
AcDbEntity
  8
0
100
AcDbLine
 10
110.376
 20
112.481
 30
0.0
 11
119.7929999999999
 21
111.637
 31
0.0
  0
LINE
  5
1C4
330
1E
100
AcDbEntity
  8
0
100
AcDbLine
 10
119.7929999999999
 20
111.637
 30
0.0
 11
125.5
 21
111.0
 31
0.0
  0
LINE
  5
1C5
330
1E
100
AcDbEntity
  8
0
100
AcDbLine
 10
66.9393
 20
110.0
 30
0.0
 11
67.0
 21
110.0
 31
0.0
  0
LINE
  5
1CF
330
1E
100
AcDbEntity
  8
0
100
AcDbLine
 10
79.1289
 20
113.887
 30
0.0
 11
89.8301
 21
113.606
 31
0.0
  0
LINE
  5
1D3
330
1E
100
AcDbEntity
  8
0
100
AcDbLine
 10
46.1699
 20
113.606
 30
0.0
 11
56.8711
 21
113.887
 31
0.0
  0
LINE
  5
1D4
330
1E
100
AcDbEntity
  8
0
100
AcDbLine
 10
35.469
 20
113.1
 30
0.0
 11
46.1699
 21
113.606
 31
0.0
  0
LINE
  5
1D5
330
1E
100
AcDbEntity
  8
0
100
AcDbLine
 10
32.4533
 20
105.0
 30
0.0
 11
33.0627
 21
105.0
 31
0.0
  0
LINE
  5
1D6
330
1E
100
AcDbEntity
  8
0
100
AcDbLine
 10
31.9758
 20
105.0
 30
0.0
 11
32.4533
 21
105.0
 31
0.0
  0
LINE
  5
1D7
330
1E
100
AcDbEntity
  8
0
100
AcDbLine
 10
19.9
 20
102.0
 30
0.0
 11
28.8
 21
102.0
 31
0.0
  0
LINE
  5
1D8
330
1E
100
AcDbEntity
  8
0
100
AcDbLine
 10
14.5
 20
102.0
 30
0.0
 11
19.9
 21
102.0
 31
0.0
  0
LINE
  5
1D9
330
1E
100
AcDbEntity
  8
0
100
AcDbLine
 10
14.5
 20
100.0
 30
0.0
 11
19.9
 21
100.0
 31
0.0
  0
LINE
  5
1DA
330
1E
100
AcDbEntity
  8
0
100
AcDbLine
 10
12.5
 20
102.0
 30
0.0
 11
14.5
 21
102.0
 31
0.0
  0
LINE
  5
1DB
330
1E
100
AcDbEntity
  8
0
100
AcDbLine
 10
19.5
 20
95.0
 30
0.0
 11
19.5
 21
96.0
 31
0.0
  0
LINE
  5
1DC
330
1E
100
AcDbEntity
  8
0
100
AcDbLine
 10
12.5
 20
100.0
 30
0.0
 11
12.5
 21
102.0
 31
0.0
  0
LINE
  5
1DD
330
1E
100
AcDbEntity
  8
0
100
AcDbLine
 10
12.5
 20
100.0
 30
0.0
 11
19.5
 21
96.0
 31
0.0
  0
LINE
  5
1DE
330
1E
100
AcDbEntity
  8
0
100
AcDbLine
 10
12.5
 20
100.0
 30
0.0
 11
14.5
 21
100.0
 31
0.0
  0
LINE
  5
1E3
330
1E
100
AcDbEntity
  8
0
100
AcDbLine
 10
79.1289
 20
113.887
 30
0.0
 11
56.8711
 21
113.887
 31
0.0
  0
ENDSEC
  0
SECTION
  2
OBJECTS
  0
DICTIONARY
  5
C
330
0
100
AcDbDictionary
281
     1
  3
ACAD_GROUP
350
D
  3
ACAD_LAYOUT
350
19
  3
ACAD_MLINESTYLE
350
16
  3
ACAD_PLOTSETTINGS
350
18
  3
ACAD_PLOTSTYLENAME
350
E
  3
AcDbVariableDictionary
350
1E4
  0
DICTIONARY
  5
D
102
{ACAD_REACTORS
330
C
102
}
330
C
100
AcDbDictionary
281
     1
  0
DICTIONARY
  5
19
102
{ACAD_REACTORS
330
C
102
}
330
C
100
AcDbDictionary
281
     1
  3
Layout1
350
1D
  3
Model
350
21
  0
DICTIONARY
  5
16
102
{ACAD_REACTORS
330
C
102
}
330
C
100
AcDbDictionary
281
     1
  3
Standard
350
17
  0
DICTIONARY
  5
18
102
{ACAD_REACTORS
330
C
102
}
330
C
100
AcDbDictionary
281
     1
  0
ACDBDICTIONARYWDFLT
  5
E
102
{ACAD_REACTORS
330
C
102
}
330
C
100
AcDbDictionary
281
     1
  3
Normal
350
F
100
AcDbDictionaryWithDefault
340
F
  0
DICTIONARY
  5
1E4
102
{ACAD_REACTORS
330
C
102
}
330
C
100
AcDbDictionary
281
     1
  3
DIMASSOC
350
1E5
  0
LAYOUT
  5
1D
102
{ACAD_REACTORS
330
19
102
}
330
19
100
AcDbPlotSettings
  1

  2
hp deskjet 980c series
  4

  6

 40
0.0
 41
0.0
 42
0.0
 43
0.0
 44
0.0
 45
0.0
 46
0.0
 47
0.0
 48
0.0
 49
0.0
140
0.0
141
0.0
142
1.0
143
1.0
 70
   688
 72
     0
 73
     0
 74
     5
  7

 75
    16
147
1.0
148
0.0
149
0.0
100
AcDbLayout
  1
Layout1
 70
     1
 71
     1
 10
0.0
 20
0.0
 11
12.0
 21
9.0
 12
0.0
 22
0.0
 32
0.0
 14
1.000000000000000E+20
 24
1.000000000000000E+20
 34
1.000000000000000E+20
 15
-1.000000000000000E+20
 25
-1.000000000000000E+20
 35
-1.000000000000000E+20
146
0.0
 13
0.0
 23
0.0
 33
0.0
 16
1.0
 26
0.0
 36
0.0
 17
0.0
 27
1.0
 37
0.0
 76
     0
330
1A
  0
LAYOUT
  5
21
102
{ACAD_REACTORS
330
19
102
}
330
19
100
AcDbPlotSettings
  1

  2
hp deskjet 980c series
  4

  6

 40
0.0
 41
0.0
 42
0.0
 43
0.0
 44
0.0
 45
0.0
 46
0.0
 47
0.0
 48
0.0
 49
0.0
140
0.0
141
0.0
142
1.0
143
1.0
 70
  1712
 72
     0
 73
     0
 74
     0
  7

 75
     0
147
1.0
148
0.0
149
0.0
100
AcDbLayout
  1
Model
 70
     1
 71
     0
 10
0.0
 20
0.0
 11
12.0
 21
9.0
 12
0.0
 22
0.0
 32
0.0
 14
0.0
 24
0.0
 34
0.0
 15
0.0
 25
0.0
 35
0.0
146
0.0
 13
0.0
 23
0.0
 33
0.0
 16
1.0
 26
0.0
 36
0.0
 17
0.0
 27
1.0
 37
0.0
 76
     0
330
1E
  0
MLINESTYLE
  5
17
102
{ACAD_REACTORS
330
16
102
}
330
16
100
AcDbMlineStyle
  2
STANDARD
 70
     0
  3

 62
   256
 51
90.0
 52
90.0
 71
     2
 49
0.5
 62
   256
  6
BYLAYER
 49
-0.5
 62
   256
  6
BYLAYER
  0
ACDBPLACEHOLDER
  5
F
102
{ACAD_REACTORS
330
E
102
}
330
E
  0
DICTIONARYVAR
  5
1E5
102
{ACAD_REACTORS
330
1E4
102
}
330
1E4
100
DictionaryVariables
280
     0
  1
1
  0
ENDSEC
  0
EOF
