  0
SECTION
  2
HEADER
  9
$ACADVER
  1
AC1015
  9
$ACADMAINTVER
 70
    13
  9
$DWGCODEPAGE
  3
ANSI_1252
  9
$INSBASE
 10
0.0
 20
0.0
 30
0.0
  9
$EXTMIN
 10
0.25
 20
0.0000000000000024
 30
0.0
  9
$EXTMAX
 10
262.7499999999999
 20
113.887
 30
0.0
  9
$LIMMIN
 10
0.0
 20
0.0
  9
$LIMMAX
 10
12.0
 20
9.0
  9
$ORTHOMODE
 70
     0
  9
$REGENMODE
 70
     1
  9
$FILLMODE
 70
     1
  9
$QTEXTMODE
 70
     0
  9
$MIRRTEXT
 70
     1
  9
$LTSCALE
 40
1.0
  9
$ATTMODE
 70
     1
  9
$TEXTSIZE
 40
0.2
  9
$TRACEWID
 40
0.05
  9
$TEXTSTYLE
  7
Standard
  9
$CLAYER
  8
0
  9
$CELTYPE
  6
Continuous
  9
$CECOLOR
 62
   256
  9
$CELTSCALE
 40
1.0
  9
$DISPSILH
 70
     0
  9
$DIMSCALE
 40
1.0
  9
$DIMASZ
 40
0.18
  9
$DIMEXO
 40
0.0625
  9
$DIMDLI
 40
0.38
  9
$DIMRND
 40
0.0
  9
$DIMDLE
 40
0.0
  9
$DIMEXE
 40
0.18
  9
$DIMTP
 40
0.0
  9
$DIMTM
 40
0.0
  9
$DIMTXT
 40
0.18
  9
$DIMCEN
 40
0.09
  9
$DIMTSZ
 40
0.0
  9
$DIMTOL
 70
     0
  9
$DIMLIM
 70
     0
  9
$DIMTIH
 70
     1
  9
$DIMTOH
 70
     1
  9
$DIMSE1
 70
     0
  9
$DIMSE2
 70
     0
  9
$DIMTAD
 70
     0
  9
$DIMZIN
 70
     0
  9
$DIMBLK
  1

  9
$DIMASO
 70
     1
  9
$DIMSHO
 70
     1
  9
$DIMPOST
  1

  9
$DIMAPOST
  1

  9
$DIMALT
 70
     0
  9
$DIMALTD
 70
     2
  9
$DIMALTF
 40
25.4
  9
$DIMLFAC
 40
1.0
  9
$DIMTOFL
 70
     0
  9
$DIMTVP
 40
0.0
  9
$DIMTIX
 70
     0
  9
$DIMSOXD
 70
     0
  9
$DIMSAH
 70
     0
  9
$DIMBLK1
  1

  9
$DIMBLK2
  1

  9
$DIMSTYLE
  2
Standard
  9
$DIMCLRD
 70
     0
  9
$DIMCLRE
 70
     0
  9
$DIMCLRT
 70
     0
  9
$DIMTFAC
 40
1.0
  9
$DIMGAP
 40
0.09
  9
$DIMJUST
 70
     0
  9
$DIMSD1
 70
     0
  9
$DIMSD2
 70
     0
  9
$DIMTOLJ
 70
     1
  9
$DIMTZIN
 70
     0
  9
$DIMALTZ
 70
     0
  9
$DIMALTTZ
 70
     0
  9
$DIMUPT
 70
     0
  9
$DIMDEC
 70
     4
  9
$DIMTDEC
 70
     4
  9
$DIMALTU
 70
     2
  9
$DIMALTTD
 70
     2
  9
$DIMTXSTY
  7
Standard
  9
$DIMAUNIT
 70
     0
  9
$DIMADEC
 70
     0
  9
$DIMALTRND
 40
0.0
  9
$DIMAZIN
 70
     0
  9
$DIMDSEP
 70
    46
  9
$DIMATFIT
 70
     3
  9
$DIMFRAC
 70
     0
  9
$DIMLDRBLK
  1

  9
$DIMLUNIT
 70
     2
  9
$DIMLWD
 70
    -2
  9
$DIMLWE
 70
    -2
  9
$DIMTMOVE
 70
     0
  9
$LUNITS
 70
     2
  9
$LUPREC
 70
     4
  9
$SKETCHINC
 40
0.1
  9
$FILLETRAD
 40
0.0
  9
$AUNITS
 70
     0
  9
$AUPREC
 70
     0
  9
$MENU
  1
.
  9
$ELEVATION
 40
0.0
  9
$PELEVATION
 40
0.0
  9
$THICKNESS
 40
0.0
  9
$LIMCHECK
 70
     0
  9
$CHAMFERA
 40
0.0
  9
$CHAMFERB
 40
0.0
  9
$CHAMFERC
 40
0.0
  9
$CHAMFERD
 40
0.0
  9
$SKPOLY
 70
     0
  9
$TDCREATE
 40
2454780.855425868
  9
$TDUCREATE
 40
2454780.813759201
  9
$TDUPDATE
 40
2454780.857264514
  9
$TDUUPDATE
 40
2454780.815597847
  9
$TDINDWG
 40
0.0018388310
  9
$TDUSRTIMER
 40
0.0018388310
  9
$USRTIMER
 70
     1
  9
$ANGBASE
 50
0.0
  9
$ANGDIR
 70
     0
  9
$PDMODE
 70
     0
  9
$PDSIZE
 40
0.0
  9
$PLINEWID
 40
0.0
  9
$SPLFRAME
 70
     0
  9
$SPLINETYPE
 70
     6
  9
$SPLINESEGS
 70
     8
  9
$HANDSEED
  5
25D
  9
$SURFTAB1
 70
     6
  9
$SURFTAB2
 70
     6
  9
$SURFTYPE
 70
     6
  9
$SURFU
 70
     6
  9
$SURFV
 70
     6
  9
$UCSBASE
  2

  9
$UCSNAME
  2

  9
$UCSORG
 10
0.0
 20
0.0
 30
0.0
  9
$UCSXDIR
 10
1.0
 20
0.0
 30
0.0
  9
$UCSYDIR
 10
0.0
 20
1.0
 30
0.0
  9
$UCSORTHOREF
  2

  9
$UCSORTHOVIEW
 70
     1
  9
$UCSORGTOP
 10
0.0
 20
0.0
 30
0.0
  9
$UCSORGBOTTOM
 10
0.0
 20
0.0
 30
0.0
  9
$UCSORGLEFT
 10
0.0
 20
0.0
 30
0.0
  9
$UCSORGRIGHT
 10
0.0
 20
0.0
 30
0.0
  9
$UCSORGFRONT
 10
0.0
 20
0.0
 30
0.0
  9
$UCSORGBACK
 10
0.0
 20
0.0
 30
0.0
  9
$PUCSBASE
  2

  9
$PUCSNAME
  2

  9
$PUCSORG
 10
0.0
 20
0.0
 30
0.0
  9
$PUCSXDIR
 10
1.0
 20
0.0
 30
0.0
  9
$PUCSYDIR
 10
0.0
 20
1.0
 30
0.0
  9
$PUCSORTHOREF
  2

  9
$PUCSORTHOVIEW
 70
     0
  9
$PUCSORGTOP
 10
0.0
 20
0.0
 30
0.0
  9
$PUCSORGBOTTOM
 10
0.0
 20
0.0
 30
0.0
  9
$PUCSORGLEFT
 10
0.0
 20
0.0
 30
0.0
  9
$PUCSORGRIGHT
 10
0.0
 20
0.0
 30
0.0
  9
$PUCSORGFRONT
 10
0.0
 20
0.0
 30
0.0
  9
$PUCSORGBACK
 10
0.0
 20
0.0
 30
0.0
  9
$USERI1
 70
     0
  9
$USERI2
 70
     0
  9
$USERI3
 70
     0
  9
$USERI4
 70
     0
  9
$USERI5
 70
     0
  9
$USERR1
 40
0.0
  9
$USERR2
 40
0.0
  9
$USERR3
 40
0.0
  9
$USERR4
 40
0.0
  9
$USERR5
 40
0.0
  9
$WORLDVIEW
 70
     1
  9
$SHADEDGE
 70
     3
  9
$SHADEDIF
 70
    70
  9
$TILEMODE
 70
     1
  9
$MAXACTVP
 70
    64
  9
$PINSBASE
 10
0.0
 20
0.0
 30
0.0
  9
$PLIMCHECK
 70
     0
  9
$PEXTMIN
 10
1.000000000000000E+20
 20
1.000000000000000E+20
 30
1.000000000000000E+20
  9
$PEXTMAX
 10
-1.000000000000000E+20
 20
-1.000000000000000E+20
 30
-1.000000000000000E+20
  9
$PLIMMIN
 10
0.0
 20
0.0
  9
$PLIMMAX
 10
12.0
 20
9.0
  9
$UNITMODE
 70
     0
  9
$VISRETAIN
 70
     1
  9
$PLINEGEN
 70
     0
  9
$PSLTSCALE
 70
     1
  9
$TREEDEPTH
 70
  3020
  9
$CMLSTYLE
  2
Standard
  9
$CMLJUST
 70
     0
  9
$CMLSCALE
 40
1.0
  9
$PROXYGRAPHICS
 70
     1
  9
$MEASUREMENT
 70
     0
  9
$CELWEIGHT
370
    -1
  9
$ENDCAPS
280
     0
  9
$JOINSTYLE
280
     0
  9
$LWDISPLAY
290
     0
  9
$INSUNITS
 70
     0
  9
$HYPERLINKBASE
  1

  9
$STYLESHEET
  1

  9
$XEDIT
290
     1
  9
$CEPSNTYPE
380
     0
  9
$PSTYLEMODE
290
     1
  9
$FINGERPRINTGUID
  2
{A72C5806-8879-4389-BF43-EE04FEC16AD3}
  9
$VERSIONGUID
  2
{7C9E285A-DBE6-4E1C-822A-19E30DEBF03D}
  9
$EXTNAMES
290
     1
  9
$PSVPSCALE
 40
0.0
  9
$OLESTARTUP
290
     0
  0
ENDSEC
  0
SECTION
  2
CLASSES
  0
CLASS
  1
ACDBDICTIONARYWDFLT
  2
AcDbDictionaryWithDefault
  3
AutoCAD 2000
 90
        0
280
     0
281
     0
  0
CLASS
  1
ACDBPLACEHOLDER
  2
AcDbPlaceHolder
  3
AutoCAD 2000
 90
        0
280
     0
281
     0
  0
CLASS
  1
LAYOUT
  2
AcDbLayout
  3
AutoCAD 2000
 90
        0
280
     0
281
     0
  0
CLASS
  1
DICTIONARYVAR
  2
AcDbDictionaryVar
  3
AutoCAD 2000
 90
        0
280
     0
281
     0
  0
ENDSEC
  0
SECTION
  2
TABLES
  0
TABLE
  2
VPORT
  5
8
330
0
100
AcDbSymbolTable
 70
     2
  0
VPORT
  5
25C
330
8
100
AcDbSymbolTableRecord
100
AcDbViewportTableRecord
  2
*Active
 70
     0
 10
0.0
 20
0.0
 11
1.0
 21
1.0
 12
131.4999999999999
 22
56.9435
 13
0.0
 23
0.0
 14
1.0
 24
1.0
 15
0.0
 25
0.0
 16
0.0
 26
0.0
 36
1.0
 17
0.0
 27
0.0
 37
0.0
 40
126.7836939894193
 41
2.078104993597951
 42
50.0
 43
0.0
 44
0.0
 50
0.0
 51
0.0
 71
     0
 72
   100
 73
     1
 74
     3
 75
     0
 76
     0
 77
     0
 78
     0
281
     0
 65
     1
110
0.0
120
0.0
130
0.0
111
1.0
121
0.0
131
0.0
112
0.0
122
1.0
132
0.0
 79
     1
146
0.0
  0
ENDTAB
  0
TABLE
  2
LTYPE
  5
5
330
0
100
AcDbSymbolTable
 70
     1
  0
LTYPE
  5
13
330
5
100
AcDbSymbolTableRecord
100
AcDbLinetypeTableRecord
  2
ByBlock
 70
     0
  3

 72
    65
 73
     0
 40
0.0
  0
LTYPE
  5
14
330
5
100
AcDbSymbolTableRecord
100
AcDbLinetypeTableRecord
  2
ByLayer
 70
     0
  3

 72
    65
 73
     0
 40
0.0
  0
LTYPE
  5
15
330
5
100
AcDbSymbolTableRecord
100
AcDbLinetypeTableRecord
  2
Continuous
 70
     0
  3
Solid line
 72
    65
 73
     0
 40
0.0
  0
ENDTAB
  0
TABLE
  2
LAYER
  5
2
330
0
100
AcDbSymbolTable
 70
     1
  0
LAYER
  5
10
330
2
100
AcDbSymbolTableRecord
100
AcDbLayerTableRecord
  2
0
 70
     0
 62
     7
  6
Continuous
370
    -3
390
F
  0
ENDTAB
  0
TABLE
  2
STYLE
  5
3
330
0
100
AcDbSymbolTable
 70
     1
  0
STYLE
  5
11
330
3
100
AcDbSymbolTableRecord
100
AcDbTextStyleTableRecord
  2
Standard
 70
     0
 40
0.0
 41
1.0
 50
0.0
 71
     0
 42
0.2
  3
txt
  4

  0
ENDTAB
  0
TABLE
  2
VIEW
  5
6
330
0
100
AcDbSymbolTable
 70
     0
  0
ENDTAB
  0
TABLE
  2
UCS
  5
7
330
0
100
AcDbSymbolTable
 70
     0
  0
ENDTAB
  0
TABLE
  2
APPID
  5
9
330
0
100
AcDbSymbolTable
 70
     1
  0
APPID
  5
12
330
9
100
AcDbSymbolTableRecord
100
AcDbRegAppTableRecord
  2
ACAD
 70
     0
  0
ENDTAB
  0
TABLE
  2
DIMSTYLE
  5
A
330
0
100
AcDbSymbolTable
 70
     1
100
AcDbDimStyleTable
 71
     0
  0
DIMSTYLE
105
255
330
A
100
AcDbSymbolTableRecord
100
AcDbDimStyleTableRecord
  2
Standard
 70
     0
340
11
  0
ENDTAB
  0
TABLE
  2
BLOCK_RECORD
  5
1
330
0
100
AcDbSymbolTable
 70
     0
  0
BLOCK_RECORD
  5
1E
330
1
100
AcDbSymbolTableRecord
100
AcDbBlockTableRecord
  2
*Model_Space
340
21
  0
BLOCK_RECORD
  5
1A
330
1
100
AcDbSymbolTableRecord
100
AcDbBlockTableRecord
  2
*Paper_Space
340
1D
  0
ENDTAB
  0
ENDSEC
  0
SECTION
  2
BLOCKS
  0
BLOCK
  5
1F
330
1E
100
AcDbEntity
  8
0
100
AcDbBlockBegin
  2
*Model_Space
 70
     0
 10
0.0
 20
0.0
 30
0.0
  3
*Model_Space
  1

  0
ENDBLK
  5
20
330
1E
100
AcDbEntity
  8
0
100
AcDbBlockEnd
  0
BLOCK
  5
1B
330
1A
100
AcDbEntity
 67
     1
  8
0
100
AcDbBlockBegin
  2
*Paper_Space
 70
     0
 10
0.0
 20
0.0
 30
0.0
  3
*Paper_Space
  1

  0
ENDBLK
  5
1C
330
1A
100
AcDbEntity
 67
     1
  8
0
100
AcDbBlockEnd
  0
ENDSEC
  0
SECTION
  2
ENTITIES
  0
LINE
  5
22
330
1E
100
AcDbEntity
  8
0
100
AcDbLine
 10
0.250000000000001
 20
93.0
 30
0.0
 11
2.35
 21
93.0
 31
0.0
  0
LINE
  5
23
330
1E
100
AcDbEntity
  8
0
100
AcDbLine
 10
0.250000000000001
 20
93.0
 30
0.0
 11
0.250000000000001
 21
91.0
 31
0.0
  0
LINE
  5
24
330
1E
100
AcDbEntity
  8
0
100
AcDbLine
 10
2.25
 20
91.0
 30
0.0
 11
2.25
 21
60.0
 31
0.0
  0
LINE
  5
25
330
1E
100
AcDbEntity
  8
0
100
AcDbLine
 10
2.25
 20
91.0
 30
0.0
 11
26.25
 21
91.0
 31
0.0
  0
LINE
  5
26
330
1E
100
AcDbEntity
  8
0
100
AcDbLine
 10
2.25
 20
60.0
 30
0.0
 11
2.25
 21
91.0
 31
0.0
  0
LINE
  5
27
330
1E
100
AcDbEntity
  8
0
100
AcDbLine
 10
2.25
 20
60.0
 30
0.0
 11
26.25
 21
26.0
 31
0.0
  0
LINE
  5
28
330
1E
100
AcDbEntity
  8
0
100
AcDbLine
 10
2.25
 20
93.0
 30
0.0
 11
8.25
 21
95.0
 31
0.0
  0
LINE
  5
29
330
1E
100
AcDbEntity
  8
0
100
AcDbLine
 10
0.250000000000001
 20
93.0
 30
0.0
 11
2.35
 21
93.0
 31
0.0
  0
LINE
  5
2A
330
1E
100
AcDbEntity
  8
0
100
AcDbLine
 10
0.250000000000001
 20
91.0
 30
0.0
 11
2.35
 21
91.0
 31
0.0
  0
LINE
  5
2B
330
1E
100
AcDbEntity
  8
0
100
AcDbLine
 10
0.250000000000001
 20
91.0
 30
0.0
 11
2.25
 21
91.0
 31
0.0
  0
LINE
  5
2C
330
1E
100
AcDbEntity
  8
0
100
AcDbLine
 10
0.250000000000001
 20
91.0
 30
0.0
 11
2.35
 21
91.0
 31
0.0
  0
LINE
  5
2D
330
1E
100
AcDbEntity
  8
0
100
AcDbLine
 10
0.250000000000001
 20
91.0
 30
0.0
 11
0.250000000000001
 21
93.0
 31
0.0
  0
LINE
  5
2E
330
1E
100
AcDbEntity
  8
0
100
AcDbLine
 10
0.250000000000001
 20
91.0
 30
0.0
 11
2.25
 21
91.0
 31
0.0
  0
LINE
  5
2F
330
1E
100
AcDbEntity
  8
0
100
AcDbLine
 10
0.250000000000001
 20
110.0
 30
0.0
 11
0.6780390000000011
 21
110.0
 31
0.0
  0
LINE
  5
30
330
1E
100
AcDbEntity
  8
0
100
AcDbLine
 10
0.250000000000001
 20
110.0
 30
0.0
 11
0.250000000000001
 21
111.0
 31
0.0
  0
LINE
  5
31
330
1E
100
AcDbEntity
  8
0
100
AcDbLine
 10
0.25
 20
111.0
 30
0.0
 11
5.9572
 21
111.637
 31
0.0
  0
LINE
  5
32
330
1E
100
AcDbEntity
  8
0
100
AcDbLine
 10
2.24752
 20
110.0
 30
0.0
 11
4.30064
 21
110.0
 31
0.0
  0
LINE
  5
33
330
1E
100
AcDbEntity
  8
0
100
AcDbLine
 10
0.6780390000000011
 20
110.0
 30
0.0
 11
2.24752
 21
110.0
 31
0.0
  0
LINE
  5
34
330
1E
100
AcDbEntity
  8
0
100
AcDbLine
 10
0.250000000000001
 20
111.0
 30
0.0
 11
0.6780390000000011
 21
111.0
 31
0.0
  0
LINE
  5
35
330
1E
100
AcDbEntity
  8
0
100
AcDbLine
 10
0.250000000000001
 20
110.0
 30
0.0
 11
0.6780390000000011
 21
110.0
 31
0.0
  0
LINE
  5
36
330
1E
100
AcDbEntity
  8
0
100
AcDbLine
 10
2.24752
 20
111.0
 30
0.0
 11
4.30064
 21
111.0
 31
0.0
  0
LINE
  5
37
330
1E
100
AcDbEntity
  8
0
100
AcDbLine
 10
0.6780390000000011
 20
111.0
 30
0.0
 11
2.24752
 21
111.0
 31
0.0
  0
LINE
  5
38
330
1E
100
AcDbEntity
  8
0
100
AcDbLine
 10
0.250000000000001
 20
111.0
 30
0.0
 11
0.6780390000000011
 21
111.0
 31
0.0
  0
LINE
  5
39
330
1E
100
AcDbEntity
  8
0
100
AcDbLine
 10
0.250000000000001
 20
111.0
 30
0.0
 11
0.250000000000001
 21
110.0
 31
0.0
  0
LINE
  5
3A
330
1E
100
AcDbEntity
  8
0
100
AcDbLine
 10
0.250000000000001
 20
111.0
 30
0.0
 11
5.9572
 21
111.637
 31
0.0
  0
LINE
  5
3B
330
1E
100
AcDbEntity
  8
0
100
AcDbLine
 10
2.25
 20
102.0
 30
0.0
 11
2.25
 21
100.0
 31
0.0
  0
LINE
  5
3C
330
1E
100
AcDbEntity
  8
0
100
AcDbLine
 10
2.25
 20
102.0
 30
0.0
 11
4.25
 21
102.0
 31
0.0
  0
LINE
  5
3D
330
1E
100
AcDbEntity
  8
0
100
AcDbLine
 10
2.25
 20
60.0
 30
0.0
 11
26.25
 21
26.0
 31
0.0
  0
LINE
  5
3E
330
1E
100
AcDbEntity
  8
0
100
AcDbLine
 10
2.25
 20
93.0
 30
0.0
 11
8.25
 21
95.0
 31
0.0
  0
LINE
  5
3F
330
1E
100
AcDbEntity
  8
0
100
AcDbLine
 10
2.35
 20
93.0
 30
0.0
 11
7.849999999999999
 21
93.0
 31
0.0
  0
LINE
  5
40
330
1E
100
AcDbEntity
  8
0
100
AcDbLine
 10
2.35
 20
93.0
 30
0.0
 11
7.849999999999999
 21
93.0
 31
0.0
  0
LINE
  5
41
330
1E
100
AcDbEntity
  8
0
100
AcDbLine
 10
2.35
 20
91.0
 30
0.0
 11
7.849999999999999
 21
91.0
 31
0.0
  0
LINE
  5
42
330
1E
100
AcDbEntity
  8
0
100
AcDbLine
 10
8.25
 20
95.0
 30
0.0
 11
10.05
 21
95.0
 31
0.0
  0
LINE
  5
43
330
1E
100
AcDbEntity
  8
0
100
AcDbLine
 10
7.849999999999999
 20
93.0
 30
0.0
 11
17.25
 21
93.0
 31
0.0
  0
LINE
  5
44
330
1E
100
AcDbEntity
  8
0
100
AcDbLine
 10
7.849999999999999
 20
91.0
 30
0.0
 11
17.25
 21
91.0
 31
0.0
  0
LINE
  5
45
330
1E
100
AcDbEntity
  8
0
100
AcDbLine
 10
2.35
 20
91.0
 30
0.0
 11
7.849999999999999
 21
91.0
 31
0.0
  0
LINE
  5
46
330
1E
100
AcDbEntity
  8
0
100
AcDbLine
 10
9.25
 20
95.0
 30
0.0
 11
9.25
 21
96.0
 31
0.0
  0
LINE
  5
47
330
1E
100
AcDbEntity
  8
0
100
AcDbLine
 10
9.25
 20
91.0
 30
0.0
 11
11.05
 21
91.0
 31
0.0
  0
LINE
  5
48
330
1E
100
AcDbEntity
  8
0
100
AcDbLine
 10
2.25
 20
100.0
 30
0.0
 11
9.25
 21
96.0
 31
0.0
  0
LINE
  5
49
330
1E
100
AcDbEntity
  8
0
100
AcDbLine
 10
9.25
 20
96.0
 30
0.0
 11
11.05
 21
96.0
 31
0.0
  0
LINE
  5
4A
330
1E
100
AcDbEntity
  8
0
100
AcDbLine
 10
9.25
 20
96.0
 30
0.0
 11
9.25
 21
95.0
 31
0.0
  0
LINE
  5
4B
330
1E
100
AcDbEntity
  8
0
100
AcDbLine
 10
13.85
 20
91.0
 30
0.0
 11
18.35
 21
91.0
 31
0.0
  0
LINE
  5
4C
330
1E
100
AcDbEntity
  8
0
100
AcDbLine
 10
12.25
 20
91.0
 30
0.0
 11
13.85
 21
91.0
 31
0.0
  0
LINE
  5
4D
330
1E
100
AcDbEntity
  8
0
100
AcDbLine
 10
15.75
 20
91.0
 30
0.0
 11
23.54999999999999
 21
91.0
 31
0.0
  0
LINE
  5
4E
330
1E
100
AcDbEntity
  8
0
100
AcDbLine
 10
14.85
 20
95.0
 30
0.0
 11
22.74999999999999
 21
95.0
 31
0.0
  0
LINE
  5
4F
330
1E
100
AcDbEntity
  8
0
100
AcDbLine
 10
10.05
 20
95.0
 30
0.0
 11
14.85
 21
95.0
 31
0.0
  0
LINE
  5
50
330
1E
100
AcDbEntity
  8
0
100
AcDbLine
 10
11.05
 20
91.0
 30
0.0
 11
15.75
 21
91.0
 31
0.0
  0
LINE
  5
51
330
1E
100
AcDbEntity
  8
0
100
AcDbLine
 10
17.25
 20
91.0
 30
0.0
 11
29.15
 21
91.0
 31
0.0
  0
LINE
  5
52
330
1E
100
AcDbEntity
  8
0
100
AcDbLine
 10
24.8333
 20
2.517280000000009
 30
0.0
 11
26.3484
 21
0.79658800000001
 31
0.0
  0
LINE
  5
53
330
1E
100
AcDbEntity
  8
0
100
AcDbLine
 10
26.3484
 20
0.79658800000001
 30
0.0
 11
29.25
 21
0.0000000000000103
 31
0.0
  0
LINE
  5
54
330
1E
100
AcDbEntity
  8
0
100
AcDbLine
 10
26.3484
 20
0.79658800000001
 30
0.0
 11
29.25
 21
0.0000000000000103
 31
0.0
  0
LINE
  5
55
330
1E
100
AcDbEntity
  8
0
100
AcDbLine
 10
27.7945
 20
2.379620000000009
 30
0.0
 11
29.25
 21
2.00000000000001
 31
0.0
  0
LINE
  5
56
330
1E
100
AcDbEntity
  8
0
100
AcDbLine
 10
26.6927
 20
3.412040000000009
 30
0.0
 11
27.7945
 21
2.379620000000009
 31
0.0
  0
LINE
  5
57
330
1E
100
AcDbEntity
  8
0
100
AcDbLine
 10
26.3484
 20
0.7965880000000021
 30
0.0
 11
29.25
 21
0.0000000000000024
 31
0.0
  0
LINE
  5
58
330
1E
100
AcDbEntity
  8
0
100
AcDbLine
 10
26.3484
 20
0.7965880000000021
 30
0.0
 11
29.25
 21
0.0000000000000025
 31
0.0
  0
LINE
  5
59
330
1E
100
AcDbEntity
  8
0
100
AcDbLine
 10
24.8333
 20
2.517279999999999
 30
0.0
 11
26.3484
 21
0.7965880000000021
 31
0.0
  0
LINE
  5
5A
330
1E
100
AcDbEntity
  8
0
100
AcDbLine
 10
26.25
 20
24.0
 30
0.0
 11
64.25
 21
24.0
 31
0.0
  0
LINE
  5
5B
330
1E
100
AcDbEntity
  8
0
100
AcDbLine
 10
24.25
 20
5.000000000000009
 30
0.0
 11
24.8333
 21
2.517280000000009
 31
0.0
  0
LINE
  5
5C
330
1E
100
AcDbEntity
  8
0
100
AcDbLine
 10
24.25
 20
5.000000000000009
 30
0.0
 11
24.25
 21
26.0
 31
0.0
  0
LINE
  5
5D
330
1E
100
AcDbEntity
  8
0
100
AcDbLine
 10
26.25
 20
5.000000000000009
 30
0.0
 11
26.25
 21
24.0
 31
0.0
  0
LINE
  5
5E
330
1E
100
AcDbEntity
  8
0
100
AcDbLine
 10
26.25
 20
5.000000000000009
 30
0.0
 11
26.6927
 21
3.412040000000009
 31
0.0
  0
LINE
  5
5F
330
1E
100
AcDbEntity
  8
0
100
AcDbLine
 10
24.25
 20
26.0
 30
0.0
 11
24.25
 21
5.0
 31
0.0
  0
LINE
  5
60
330
1E
100
AcDbEntity
  8
0
100
AcDbLine
 10
27.2168
 20
61.9995
 30
0.0
 11
28.3688
 21
59.1196
 31
0.0
  0
LINE
  5
61
330
1E
100
AcDbEntity
  8
0
100
AcDbLine
 10
27.2168
 20
68.1436
 30
0.0
 11
28.3688
 21
71.0236
 31
0.0
  0
LINE
  5
62
330
1E
100
AcDbEntity
  8
0
100
AcDbLine
 10
26.7848
 20
65.0715
 30
0.0
 11
27.2168
 21
68.1436
 31
0.0
  0
LINE
  5
63
330
1E
100
AcDbEntity
  8
0
100
AcDbLine
 10
26.7848
 20
65.0715
 30
0.0
 11
27.2168
 21
61.9995
 31
0.0
  0
LINE
  5
64
330
1E
100
AcDbEntity
  8
0
100
AcDbLine
 10
28.25
 20
59.4165896875
 30
0.0
 11
28.25
 21
26.0
 31
0.0
  0
LINE
  5
65
330
1E
100
AcDbEntity
  8
0
100
AcDbLine
 10
26.25
 20
26.0
 30
0.0
 11
26.25
 21
91.0
 31
0.0
  0
LINE
  5
66
330
1E
100
AcDbEntity
  8
0
100
AcDbLine
 10
28.25
 20
70.7266
 30
0.0
 11
28.25
 21
91.0
 31
0.0
  0
LINE
  5
67
330
1E
100
AcDbEntity
  8
0
100
AcDbLine
 10
28.3688
 20
59.1196
 30
0.0
 11
30.2888
 21
56.5756
 31
0.0
  0
LINE
  5
68
330
1E
100
AcDbEntity
  8
0
100
AcDbLine
 10
28.8694
 20
62.4384
 30
0.0
 11
29.8568
 21
59.9698
 31
0.0
  0
LINE
  5
69
330
1E
100
AcDbEntity
  8
0
100
AcDbLine
 10
28.8694
 20
67.7047
 30
0.0
 11
29.8568
 21
70.17319999999999
 31
0.0
  0
LINE
  5
6A
330
1E
100
AcDbEntity
  8
0
100
AcDbLine
 10
28.49909999999999
 20
65.0715
 30
0.0
 11
28.8694
 21
67.7047
 31
0.0
  0
LINE
  5
6B
330
1E
100
AcDbEntity
  8
0
100
AcDbLine
 10
28.49909999999999
 20
65.0715
 30
0.0
 11
28.8694
 21
62.4384
 31
0.0
  0
LINE
  5
6C
330
1E
100
AcDbEntity
  8
0
100
AcDbLine
 10
28.3688
 20
71.0236
 30
0.0
 11
30.2888
 21
73.5676
 31
0.0
  0
LINE
  5
6D
330
1E
100
AcDbEntity
  8
0
100
AcDbLine
 10
28.25
 20
26.0
 30
0.0
 11
28.25
 21
59.4165896875
 31
0.0
  0
LINE
  5
6E
330
1E
100
AcDbEntity
  8
0
100
AcDbLine
 10
26.25
 20
91.0
 30
0.0
 11
26.25
 21
26.0
 31
0.0
  0
LINE
  5
6F
330
1E
100
AcDbEntity
  8
0
100
AcDbLine
 10
26.25
 20
91.0
 30
0.0
 11
28.25
 21
91.0
 31
0.0
  0
LINE
  5
70
330
1E
100
AcDbEntity
  8
0
100
AcDbLine
 10
24.25
 20
26.0
 30
0.0
 11
24.25
 21
5.000000000000009
 31
0.0
  0
LINE
  5
71
330
1E
100
AcDbEntity
  8
0
100
AcDbLine
 10
24.25
 20
26.0
 30
0.0
 11
64.25
 21
26.0
 31
0.0
  0
LINE
  5
72
330
1E
100
AcDbEntity
  8
0
100
AcDbLine
 10
26.25
 20
24.0
 30
0.0
 11
64.25
 21
24.0
 31
0.0
  0
LINE
  5
73
330
1E
100
AcDbEntity
  8
0
100
AcDbLine
 10
26.25
 20
24.0
 30
0.0
 11
26.25
 21
5.000000000000009
 31
0.0
  0
LINE
  5
74
330
1E
100
AcDbEntity
  8
0
100
AcDbLine
 10
24.25
 20
26.0
 30
0.0
 11
64.25
 21
26.0
 31
0.0
  0
LINE
  5
75
330
1E
100
AcDbEntity
  8
0
100
AcDbLine
 10
24.25
 20
5.0
 30
0.0
 11
24.25
 21
26.0
 31
0.0
  0
LINE
  5
76
330
1E
100
AcDbEntity
  8
0
100
AcDbLine
 10
24.25
 20
5.0
 30
0.0
 11
24.8333
 21
2.517279999999999
 31
0.0
  0
LINE
  5
77
330
1E
100
AcDbEntity
  8
0
100
AcDbLine
 10
29.25
 20
2.00000000000001
 30
0.0
 11
64.65
 21
2.00000000000001
 31
0.0
  0
LINE
  5
78
330
1E
100
AcDbEntity
  8
0
100
AcDbLine
 10
29.8568
 20
59.9698
 30
0.0
 11
31.5025
 21
57.78929999999999
 31
0.0
  0
LINE
  5
79
330
1E
100
AcDbEntity
  8
0
100
AcDbLine
 10
33.6831
 20
56.1436
 30
0.0
 11
36.15169999999999
 21
55.1561
 31
0.0
  0
LINE
  5
7A
330
1E
100
AcDbEntity
  8
0
100
AcDbLine
 10
32.83279999999999
 20
54.65559999999999
 30
0.0
 11
35.7128
 21
53.5036
 31
0.0
  0
LINE
  5
7B
330
1E
100
AcDbEntity
  8
0
100
AcDbLine
 10
31.5025
 20
57.78929999999999
 30
0.0
 11
33.6831
 21
56.1436
 31
0.0
  0
LINE
  5
7C
330
1E
100
AcDbEntity
  8
0
100
AcDbLine
 10
30.2888
 20
56.5756
 30
0.0
 11
32.83279999999999
 21
54.65559999999999
 31
0.0
  0
LINE
  5
7D
330
1E
100
AcDbEntity
  8
0
100
AcDbLine
 10
31.5025
 20
72.35389999999999
 30
0.0
 11
33.6831
 21
73.9995
 31
0.0
  0
LINE
  5
7E
330
1E
100
AcDbEntity
  8
0
100
AcDbLine
 10
29.8568
 20
70.17319999999999
 30
0.0
 11
31.5025
 21
72.35389999999999
 31
0.0
  0
LINE
  5
7F
330
1E
100
AcDbEntity
  8
0
100
AcDbLine
 10
33.6831
 20
73.9995
 30
0.0
 11
36.15169999999999
 21
74.98699999999999
 31
0.0
  0
LINE
  5
80
330
1E
100
AcDbEntity
  8
0
100
AcDbLine
 10
32.83279999999999
 20
75.4875
 30
0.0
 11
35.7128
 21
76.63949999999999
 31
0.0
  0
LINE
  5
81
330
1E
100
AcDbEntity
  8
0
100
AcDbLine
 10
30.2888
 20
73.5676
 30
0.0
 11
32.83279999999999
 21
75.4875
 31
0.0
  0
LINE
  5
82
330
1E
100
AcDbEntity
  8
0
100
AcDbLine
 10
29.25
 20
0.0000000000000103
 30
0.0
 11
64.65
 21
0.0000000000000103
 31
0.0
  0
LINE
  5
83
330
1E
100
AcDbEntity
  8
0
100
AcDbLine
 10
29.25
 20
0.0000000000000024
 30
0.0
 11
64.65
 21
0.0000000000000024
 31
0.0
  0
LINE
  5
84
330
1E
100
AcDbEntity
  8
0
100
AcDbLine
 10
29.15
 20
91.0
 30
0.0
 11
42.95
 21
91.0
 31
0.0
  0
LINE
  5
85
330
1E
100
AcDbEntity
  8
0
100
AcDbLine
 10
25.64999999999999
 20
91.0
 30
0.0
 11
26.25
 21
91.0
 31
0.0
  0
LINE
  5
86
330
1E
100
AcDbEntity
  8
0
100
AcDbLine
 10
35.7128
 20
53.5036
 30
0.0
 11
38.78479999999999
 21
53.07159999999999
 31
0.0
  0
LINE
  5
87
330
1E
100
AcDbEntity
  8
0
100
AcDbLine
 10
36.15169999999999
 20
55.1561
 30
0.0
 11
38.78479999999999
 21
54.7858
 31
0.0
  0
LINE
  5
88
330
1E
100
AcDbEntity
  8
0
100
AcDbLine
 10
38.78479999999999
 20
54.7858
 30
0.0
 11
41.4179
 21
55.1561
 31
0.0
  0
LINE
  5
89
330
1E
100
AcDbEntity
  8
0
100
AcDbLine
 10
41.4179
 20
55.1561
 30
0.0
 11
43.8865
 21
56.1436
 31
0.0
  0
LINE
  5
8A
330
1E
100
AcDbEntity
  8
0
100
AcDbLine
 10
38.78479999999999
 20
53.07159999999999
 30
0.0
 11
41.8568
 21
53.5036
 31
0.0
  0
LINE
  5
8B
330
1E
100
AcDbEntity
  8
0
100
AcDbLine
 10
43.8865
 20
56.1436
 30
0.0
 11
46.0671
 21
57.78929999999999
 31
0.0
  0
LINE
  5
8C
330
1E
100
AcDbEntity
  8
0
100
AcDbLine
 10
41.8568
 20
53.5036
 30
0.0
 11
44.7368
 21
54.65559999999999
 31
0.0
  0
LINE
  5
8D
330
1E
100
AcDbEntity
  8
0
100
AcDbLine
 10
41.4179
 20
74.98699999999999
 30
0.0
 11
43.8865
 21
73.9995
 31
0.0
  0
LINE
  5
8E
330
1E
100
AcDbEntity
  8
0
100
AcDbLine
 10
44.7368
 20
54.65559999999999
 30
0.0
 11
47.2808
 21
56.5756
 31
0.0
  0
LINE
  5
8F
330
1E
100
AcDbEntity
  8
0
100
AcDbLine
 10
43.8865
 20
73.9995
 30
0.0
 11
46.0671
 21
72.35389999999999
 31
0.0
  0
LINE
  5
90
330
1E
100
AcDbEntity
  8
0
100
AcDbLine
 10
38.78479999999999
 20
75.3573
 30
0.0
 11
41.4179
 21
74.98699999999999
 31
0.0
  0
LINE
  5
91
330
1E
100
AcDbEntity
  8
0
100
AcDbLine
 10
38.78479999999999
 20
77.0715
 30
0.0
 11
41.8568
 21
76.63949999999999
 31
0.0
  0
LINE
  5
92
330
1E
100
AcDbEntity
  8
0
100
AcDbLine
 10
41.8568
 20
76.63949999999999
 30
0.0
 11
44.7368
 21
75.4875
 31
0.0
  0
LINE
  5
93
330
1E
100
AcDbEntity
  8
0
100
AcDbLine
 10
44.7368
 20
75.4875
 30
0.0
 11
47.2808
 21
73.5676
 31
0.0
  0
LINE
  5
94
330
1E
100
AcDbEntity
  8
0
100
AcDbLine
 10
36.15169999999999
 20
74.98699999999999
 30
0.0
 11
38.78479999999999
 21
75.3573
 31
0.0
  0
LINE
  5
95
330
1E
100
AcDbEntity
  8
0
100
AcDbLine
 10
35.7128
 20
76.63949999999999
 30
0.0
 11
38.78479999999999
 21
77.0715
 31
0.0
  0
LINE
  5
96
330
1E
100
AcDbEntity
  8
0
100
AcDbLine
 10
42.95
 20
91.0
 30
0.0
 11
57.75
 21
91.0
 31
0.0
  0
LINE
  5
97
330
1E
100
AcDbEntity
  8
0
100
AcDbLine
 10
35.15
 20
91.0
 30
0.0
 11
46.04999999999999
 21
91.0
 31
0.0
  0
LINE
  5
98
330
1E
100
AcDbEntity
  8
0
100
AcDbLine
 10
28.25
 20
91.0
 30
0.0
 11
33.65
 21
91.0
 31
0.0
  0
LINE
  5
99
330
1E
100
AcDbEntity
  8
0
100
AcDbLine
 10
28.25
 20
91.0
 30
0.0
 11
35.15
 21
91.0
 31
0.0
  0
LINE
  5
9A
330
1E
100
AcDbEntity
  8
0
100
AcDbLine
 10
28.25
 20
91.0
 30
0.0
 11
28.25
 21
70.7266
 31
0.0
  0
LINE
  5
9B
330
1E
100
AcDbEntity
  8
0
100
AcDbLine
 10
23.54999999999999
 20
91.0
 30
0.0
 11
26.25
 21
91.0
 31
0.0
  0
LINE
  5
9C
330
1E
100
AcDbEntity
  8
0
100
AcDbLine
 10
33.65
 20
91.0
 30
0.0
 11
45.25
 21
91.0
 31
0.0
  0
LINE
  5
9D
330
1E
100
AcDbEntity
  8
0
100
AcDbLine
 10
64.65
 20
0.0000000000000024
 30
0.0
 11
72.7733
 21
0.8637450000000029
 31
0.0
  0
LINE
  5
9E
330
1E
100
AcDbEntity
  8
0
100
AcDbLine
 10
64.65
 20
0.0000000000000103
 30
0.0
 11
72.7733
 21
0.86374500000001
 31
0.0
  0
LINE
  5
9F
330
1E
100
AcDbEntity
  8
0
100
AcDbLine
 10
46.0671
 20
57.78929999999999
 30
0.0
 11
47.71279999999999
 21
59.9698
 31
0.0
  0
LINE
  5
A0
330
1E
100
AcDbEntity
  8
0
100
AcDbLine
 10
47.71279999999999
 20
59.9698
 30
0.0
 11
48.7002
 21
62.4384
 31
0.0
  0
LINE
  5
A1
330
1E
100
AcDbEntity
  8
0
100
AcDbLine
 10
48.7002
 20
62.4384
 30
0.0
 11
49.0705
 21
65.0715
 31
0.0
  0
LINE
  5
A2
330
1E
100
AcDbEntity
  8
0
100
AcDbLine
 10
47.2808
 20
56.5756
 30
0.0
 11
49.2008
 21
59.1196
 31
0.0
  0
LINE
  5
A3
330
1E
100
AcDbEntity
  8
0
100
AcDbLine
 10
47.2808
 20
73.5676
 30
0.0
 11
49.2008
 21
71.0236
 31
0.0
  0
LINE
  5
A4
330
1E
100
AcDbEntity
  8
0
100
AcDbLine
 10
46.0671
 20
72.35389999999999
 30
0.0
 11
47.71279999999999
 21
70.17319999999999
 31
0.0
  0
LINE
  5
A5
330
1E
100
AcDbEntity
  8
0
100
AcDbLine
 10
47.71279999999999
 20
70.17319999999999
 30
0.0
 11
48.7002
 21
67.7047
 31
0.0
  0
LINE
  5
A6
330
1E
100
AcDbEntity
  8
0
100
AcDbLine
 10
49.2008
 20
59.1196
 30
0.0
 11
49.25
 21
59.2425957291667
 31
0.0
  0
LINE
  5
A7
330
1E
100
AcDbEntity
  8
0
100
AcDbLine
 10
49.2008
 20
71.0236
 30
0.0
 11
49.25
 21
70.9006
 31
0.0
  0
LINE
  5
A8
330
1E
100
AcDbEntity
  8
0
100
AcDbLine
 10
48.7002
 20
67.7047
 30
0.0
 11
49.0705
 21
65.0715
 31
0.0
  0
LINE
  5
A9
330
1E
100
AcDbEntity
  8
0
100
AcDbLine
 10
49.25
 20
26.0
 30
0.0
 11
49.25
 21
91.0
 31
0.0
  0
LINE
  5
AA
330
1E
100
AcDbEntity
  8
0
100
AcDbLine
 10
51.25
 20
26.0
 30
0.0
 11
51.25
 21
91.0
 31
0.0
  0
LINE
  5
AB
330
1E
100
AcDbEntity
  8
0
100
AcDbLine
 10
49.25
 20
91.0
 30
0.0
 11
49.25
 21
26.0
 31
0.0
  0
LINE
  5
AC
330
1E
100
AcDbEntity
  8
0
100
AcDbLine
 10
49.25
 20
91.0
 30
0.0
 11
51.25
 21
91.0
 31
0.0
  0
LINE
  5
AD
330
1E
100
AcDbEntity
  8
0
100
AcDbLine
 10
64.25
 20
26.0
 30
0.0
 11
68.51300000000001
 21
27.0007
 31
0.0
  0
LINE
  5
AE
330
1E
100
AcDbEntity
  8
0
100
AcDbLine
 10
64.25
 20
24.0
 30
0.0
 11
69.7235
 21
25.2724
 31
0.0
  0
LINE
  5
AF
330
1E
100
AcDbEntity
  8
0
100
AcDbLine
 10
64.65
 20
2.00000000000001
 30
0.0
 11
72.0988
 21
2.982540000000009
 31
0.0
  0
LINE
  5
B0
330
1E
100
AcDbEntity
  8
0
100
AcDbLine
 10
64.65
 20
0.0000000000000103
 30
0.0
 11
72.7733
 21
0.86374500000001
 31
0.0
  0
LINE
  5
B1
330
1E
100
AcDbEntity
  8
0
100
AcDbLine
 10
69.7235
 20
25.2724
 30
0.0
 11
73.5279
 21
28.3834
 31
0.0
  0
LINE
  5
B2
330
1E
100
AcDbEntity
  8
0
100
AcDbLine
 10
68.51300000000001
 20
27.0007
 30
0.0
 11
71.6833
 21
29.478
 31
0.0
  0
LINE
  5
B3
330
1E
100
AcDbEntity
  8
0
100
AcDbLine
 10
64.65
 20
0.0000000000000025
 30
0.0
 11
72.7733
 21
0.8637450000000029
 31
0.0
  0
LINE
  5
B4
330
1E
100
AcDbEntity
  8
0
100
AcDbLine
 10
69.45
 20
91.0
 30
0.0
 11
80.35
 21
91.0
 31
0.0
  0
LINE
  5
B5
330
1E
100
AcDbEntity
  8
0
100
AcDbLine
 10
72.7733
 20
0.8637450000000029
 30
0.0
 11
78.5549
 21
2.886229999999999
 31
0.0
  0
LINE
  5
B6
330
1E
100
AcDbEntity
  8
0
100
AcDbLine
 10
72.7733
 20
0.86374500000001
 30
0.0
 11
78.5549
 21
2.886230000000009
 31
0.0
  0
LINE
  5
B7
330
1E
100
AcDbEntity
  8
0
100
AcDbLine
 10
72.7733
 20
0.86374500000001
 30
0.0
 11
78.5549
 21
2.886230000000009
 31
0.0
  0
LINE
  5
B8
330
1E
100
AcDbEntity
  8
0
100
AcDbLine
 10
71.9226
 20
61.0
 30
0.0
 11
71.9226
 21
91.0
 31
0.0
  0
LINE
  5
B9
330
1E
100
AcDbEntity
  8
0
100
AcDbLine
 10
71.9226
 20
61.0
 30
0.0
 11
72.08540000000001
 21
61.0
 31
0.0
  0
LINE
  5
BA
330
1E
100
AcDbEntity
  8
0
100
AcDbLine
 10
71.9226
 20
61.0
 30
0.0
 11
72.10689999999999
 21
61.0
 31
0.0
  0
LINE
  5
BB
330
1E
100
AcDbEntity
  8
0
100
AcDbLine
 10
72.591
 20
61.0
 30
0.0
 11
73.38689999999999
 21
61.0
 31
0.0
  0
LINE
  5
BC
330
1E
100
AcDbEntity
  8
0
100
AcDbLine
 10
72.10689999999999
 20
61.0
 30
0.0
 11
72.591
 21
61.0
 31
0.0
  0
LINE
  5
BD
330
1E
100
AcDbEntity
  8
0
100
AcDbLine
 10
72.08540000000001
 20
61.0
 30
0.0
 11
72.60339999999999
 21
61.0
 31
0.0
  0
LINE
  5
BE
330
1E
100
AcDbEntity
  8
0
100
AcDbLine
 10
72.591
 20
91.0
 30
0.0
 11
73.38689999999999
 21
91.0
 31
0.0
  0
LINE
  5
BF
330
1E
100
AcDbEntity
  8
0
100
AcDbLine
 10
72.10689999999999
 20
91.0
 30
0.0
 11
72.591
 21
91.0
 31
0.0
  0
LINE
  5
C0
330
1E
100
AcDbEntity
  8
0
100
AcDbLine
 10
71.9226
 20
91.0
 30
0.0
 11
71.9226
 21
61.0
 31
0.0
  0
LINE
  5
C1
330
1E
100
AcDbEntity
  8
0
100
AcDbLine
 10
71.9226
 20
91.0
 30
0.0
 11
72.10689999999999
 21
91.0
 31
0.0
  0
LINE
  5
C2
330
1E
100
AcDbEntity
  8
0
100
AcDbLine
 10
72.60339999999999
 20
61.0
 30
0.0
 11
73.4026
 21
61.0
 31
0.0
  0
LINE
  5
C3
330
1E
100
AcDbEntity
  8
0
100
AcDbLine
 10
71.6833
 20
29.478
 30
0.0
 11
73.75849999999999
 21
33.5684
 31
0.0
  0
LINE
  5
C4
330
1E
100
AcDbEntity
  8
0
100
AcDbLine
 10
72.0988
 20
2.982540000000009
 30
0.0
 11
77.97679999999999
 21
4.812410000000009
 31
0.0
  0
LINE
  5
C5
330
1E
100
AcDbEntity
  8
0
100
AcDbLine
 10
73.38689999999999
 20
61.0
 30
0.0
 11
74.40260000000001
 21
61.0
 31
0.0
  0
LINE
  5
C6
330
1E
100
AcDbEntity
  8
0
100
AcDbLine
 10
73.38689999999999
 20
91.0
 30
0.0
 11
74.40260000000001
 21
91.0
 31
0.0
  0
LINE
  5
C7
330
1E
100
AcDbEntity
  8
0
100
AcDbLine
 10
73.4026
 20
61.0
 30
0.0
 11
74.42109999999999
 21
61.0
 31
0.0
  0
LINE
  5
C8
330
1E
100
AcDbEntity
  8
0
100
AcDbLine
 10
74.40260000000001
 20
61.0
 30
0.0
 11
75.00222290633729
 21
61.0
 31
0.0
  0
LINE
  5
C9
330
1E
100
AcDbEntity
  8
0
100
AcDbLine
 10
74.40260000000001
 20
91.0
 30
0.0
 11
75.6254
 21
91.0
 31
0.0
  0
LINE
  5
CA
330
1E
100
AcDbEntity
  8
0
100
AcDbLine
 10
74.42109999999999
 20
61.0
 30
0.0
 11
75.00222290633729
 21
61.0
 31
0.0
  0
LINE
  5
CB
330
1E
100
AcDbEntity
  8
0
100
AcDbLine
 10
73.75849999999999
 20
33.5684
 30
0.0
 11
74.5625
 21
39.3596
 31
0.0
  0
LINE
  5
CC
330
1E
100
AcDbEntity
  8
0
100
AcDbLine
 10
73.5279
 20
28.3834
 30
0.0
 11
75.94889999999999
 21
33.2803
 31
0.0
  0
LINE
  5
CD
330
1E
100
AcDbEntity
  8
0
100
AcDbLine
 10
75.94889999999999
 20
33.2803
 30
0.0
 11
76.6238
 21
39.38719999999999
 31
0.0
  0
LINE
  5
CE
330
1E
100
AcDbEntity
  8
0
100
AcDbLine
 10
78.5549
 20
2.886230000000009
 30
0.0
 11
83.9511
 21
5.679180000000009
 31
0.0
  0
LINE
  5
CF
330
1E
100
AcDbEntity
  8
0
100
AcDbLine
 10
77.97679999999999
 20
4.812410000000009
 30
0.0
 11
82.6984
 21
7.316430000000009
 31
0.0
  0
LINE
  5
D0
330
1E
100
AcDbEntity
  8
0
100
AcDbLine
 10
75.6254
 20
91.0
 30
0.0
 11
76.9434
 21
91.0
 31
0.0
  0
LINE
  5
D1
330
1E
100
AcDbEntity
  8
0
100
AcDbLine
 10
76.9434
 20
91.0
 30
0.0
 11
78.22259999999999
 21
91.0
 31
0.0
  0
LINE
  5
D2
330
1E
100
AcDbEntity
  8
0
100
AcDbLine
 10
78.22259999999999
 20
91.0
 30
0.0
 11
79.42109999999999
 21
91.0
 31
0.0
  0
LINE
  5
D3
330
1E
100
AcDbEntity
  8
0
100
AcDbLine
 10
79.42109999999999
 20
91.0
 30
0.0
 11
80.4396
 21
91.0
 31
0.0
  0
LINE
  5
D4
330
1E
100
AcDbEntity
  8
0
100
AcDbLine
 10
79.96380000000001
 20
70.0077
 30
0.0
 11
82.7583
 21
74.8232
 31
0.0
  0
LINE
  5
D5
330
1E
100
AcDbEntity
  8
0
100
AcDbLine
 10
78.13299999999999
 20
70.7782
 30
0.0
 11
81.0238
 21
76.0752
 31
0.0
  0
LINE
  5
D6
330
1E
100
AcDbEntity
  8
0
100
AcDbLine
 10
77.7638
 20
64.5406
 30
0.0
 11
79.96380000000001
 21
70.0077
 31
0.0
  0
LINE
  5
D7
330
1E
100
AcDbEntity
  8
0
100
AcDbLine
 10
75.7074
 20
65.1298
 30
0.0
 11
78.13299999999999
 21
70.7782
 31
0.0
  0
LINE
  5
D8
330
1E
100
AcDbEntity
  8
0
100
AcDbLine
 10
76.5677
 20
57.9604
 30
0.0
 11
76.6375
 21
51.64039999999999
 31
0.0
  0
LINE
  5
D9
330
1E
100
AcDbEntity
  8
0
100
AcDbLine
 10
76.5677
 20
57.9604
 30
0.0
 11
77.7638
 21
64.5406
 31
0.0
  0
LINE
  5
DA
330
1E
100
AcDbEntity
  8
0
100
AcDbLine
 10
74.57089999999999
 20
58.474
 30
0.0
 11
74.5762
 21
51.6128
 31
0.0
  0
LINE
  5
DB
330
1E
100
AcDbEntity
  8
0
100
AcDbLine
 10
74.57089999999999
 20
58.474
 30
0.0
 11
75.7074
 21
65.1298
 31
0.0
  0
LINE
  5
DC
330
1E
100
AcDbEntity
  8
0
100
AcDbLine
 10
76.6238
 20
39.38719999999999
 30
0.0
 11
76.6375
 21
51.64039999999999
 31
0.0
  0
LINE
  5
DD
330
1E
100
AcDbEntity
  8
0
100
AcDbLine
 10
74.5625
 20
39.3596
 30
0.0
 11
74.5762
 21
51.6128
 31
0.0
  0
LINE
  5
DE
330
1E
100
AcDbEntity
  8
0
100
AcDbLine
 10
78.5549
 20
2.886229999999999
 30
0.0
 11
83.9511
 21
5.67918
 31
0.0
  0
LINE
  5
DF
330
1E
100
AcDbEntity
  8
0
100
AcDbLine
 10
72.7733
 20
0.8637450000000029
 30
0.0
 11
78.5549
 21
2.886229999999999
 31
0.0
  0
LINE
  5
E0
330
1E
100
AcDbEntity
  8
0
100
AcDbLine
 10
72.54999999999999
 20
91.0
 30
0.0
 11
86.34999999999999
 21
91.0
 31
0.0
  0
LINE
  5
E1
330
1E
100
AcDbEntity
  8
0
100
AcDbLine
 10
81.91970000000001
 20
91.0
 30
0.0
 11
81.91970000000001
 21
77.06587482170059
 31
0.0
  0
LINE
  5
E2
330
1E
100
AcDbEntity
  8
0
100
AcDbLine
 10
81.75690000000001
 20
91.0
 30
0.0
 11
81.91970000000001
 21
91.0
 31
0.0
  0
LINE
  5
E3
330
1E
100
AcDbEntity
  8
0
100
AcDbLine
 10
81.91970000000001
 20
77.06587482170059
 30
0.0
 11
81.91970000000001
 21
91.0
 31
0.0
  0
LINE
  5
E4
330
1E
100
AcDbEntity
  8
0
100
AcDbLine
 10
81.23890000000001
 20
91.0
 30
0.0
 11
81.75690000000001
 21
91.0
 31
0.0
  0
LINE
  5
E5
330
1E
100
AcDbEntity
  8
0
100
AcDbLine
 10
80.4396
 20
91.0
 30
0.0
 11
81.23890000000001
 21
91.0
 31
0.0
  0
LINE
  5
E6
330
1E
100
AcDbEntity
  8
0
100
AcDbLine
 10
81.0238
 20
76.0752
 30
0.0
 11
85.5527
 21
81.0832
 31
0.0
  0
LINE
  5
E7
330
1E
100
AcDbEntity
  8
0
100
AcDbLine
 10
82.7583
 20
74.8232
 30
0.0
 11
87.19089999999999
 21
79.83119999999999
 31
0.0
  0
LINE
  5
E8
330
1E
100
AcDbEntity
  8
0
100
AcDbLine
 10
87.19089999999999
 20
79.83119999999999
 30
0.0
 11
92.20159999999999
 21
83.6836
 31
0.0
  0
LINE
  5
E9
330
1E
100
AcDbEntity
  8
0
100
AcDbLine
 10
85.5527
 20
81.0832
 30
0.0
 11
90.94889999999999
 21
85.3208
 31
0.0
  0
LINE
  5
EA
330
1E
100
AcDbEntity
  8
0
100
AcDbLine
 10
87.75
 20
82.8087250880249
 30
0.0
 11
87.75
 21
91.0
 31
0.0
  0
LINE
  5
EB
330
1E
100
AcDbEntity
  8
0
100
AcDbLine
 10
87.7091
 20
11.16879999999999
 30
0.0
 11
92.14170000000001
 21
16.1768
 31
0.0
  0
LINE
  5
EC
330
1E
100
AcDbEntity
  8
0
100
AcDbLine
 10
83.9511
 20
5.679180000000009
 30
0.0
 11
89.3473
 21
9.91677000000001
 31
0.0
  0
LINE
  5
ED
330
1E
100
AcDbEntity
  8
0
100
AcDbLine
 10
82.6984
 20
7.316430000000009
 30
0.0
 11
87.7091
 21
11.16879999999999
 31
0.0
  0
LINE
  5
EE
330
1E
100
AcDbEntity
  8
0
100
AcDbLine
 10
83.9511
 20
5.67918
 30
0.0
 11
89.3473
 21
9.916769999999999
 31
0.0
  0
LINE
  5
EF
330
1E
100
AcDbEntity
  8
0
100
AcDbLine
 10
87.75
 20
91.0
 30
0.0
 11
98.25000000000001
 21
91.0
 31
0.0
  0
LINE
  5
F0
330
1E
100
AcDbEntity
  8
0
100
AcDbLine
 10
86.34999999999999
 20
91.0
 30
0.0
 11
98.25000000000001
 21
91.0
 31
0.0
  0
LINE
  5
F1
330
1E
100
AcDbEntity
  8
0
100
AcDbLine
 10
89.3473
 20
9.91677000000001
 30
0.0
 11
93.8762
 21
14.9248
 31
0.0
  0
LINE
  5
F2
330
1E
100
AcDbEntity
  8
0
100
AcDbLine
 10
96.76700000000002
 20
20.2218
 30
0.0
 11
99.19260000000001
 21
25.8702
 31
0.0
  0
LINE
  5
F3
330
1E
100
AcDbEntity
  8
0
100
AcDbLine
 10
92.20159999999999
 20
83.6836
 30
0.0
 11
96.9232
 21
86.18759999999999
 31
0.0
  0
LINE
  5
F4
330
1E
100
AcDbEntity
  8
0
100
AcDbLine
 10
94.93619999999999
 20
20.99229999999999
 30
0.0
 11
97.1362
 21
26.45939999999999
 31
0.0
  0
LINE
  5
F5
330
1E
100
AcDbEntity
  8
0
100
AcDbLine
 10
97.1362
 20
26.45939999999999
 30
0.0
 11
98.3323
 21
33.0396
 31
0.0
  0
LINE
  5
F6
330
1E
100
AcDbEntity
  8
0
100
AcDbLine
 10
93.8762
 20
14.9248
 30
0.0
 11
96.76700000000002
 21
20.2218
 31
0.0
  0
LINE
  5
F7
330
1E
100
AcDbEntity
  8
0
100
AcDbLine
 10
92.14170000000001
 20
16.1768
 30
0.0
 11
94.93619999999999
 21
20.99229999999999
 31
0.0
  0
LINE
  5
F8
330
1E
100
AcDbEntity
  8
0
100
AcDbLine
 10
93.8762
 20
14.9248
 30
0.0
 11
96.76700000000002
 21
20.2218
 31
0.0
  0
LINE
  5
F9
330
1E
100
AcDbEntity
  8
0
100
AcDbLine
 10
89.3473
 20
9.916769999999999
 30
0.0
 11
93.8762
 21
14.9248
 31
0.0
  0
LINE
  5
FA
330
1E
100
AcDbEntity
  8
0
100
AcDbLine
 10
96.9232
 20
86.18759999999999
 30
0.0
 11
102.801
 21
88.0175
 31
0.0
  0
LINE
  5
FB
330
1E
100
AcDbEntity
  8
0
100
AcDbLine
 10
96.3451
 20
88.11379999999999
 30
0.0
 11
102.127
 21
90.1363
 31
0.0
  0
LINE
  5
FC
330
1E
100
AcDbEntity
  8
0
100
AcDbLine
 10
90.94889999999999
 20
85.3208
 30
0.0
 11
96.3451
 21
88.11379999999999
 31
0.0
  0
LINE
  5
FD
330
1E
100
AcDbEntity
  8
0
100
AcDbLine
 10
90.94889999999999
 20
85.3208
 30
0.0
 11
96.3451
 21
88.11379999999999
 31
0.0
  0
LINE
  5
FE
330
1E
100
AcDbEntity
  8
0
100
AcDbLine
 10
87.75
 20
91.0
 30
0.0
 11
91.95
 21
91.0
 31
0.0
  0
LINE
  5
FF
330
1E
100
AcDbEntity
  8
0
100
AcDbLine
 10
87.75
 20
91.0
 30
0.0
 11
89.84999999999999
 21
91.0
 31
0.0
  0
LINE
  5
100
330
1E
100
AcDbEntity
  8
0
100
AcDbLine
 10
87.75
 20
91.0
 30
0.0
 11
87.75
 21
82.8087250880249
 31
0.0
  0
LINE
  5
101
330
1E
100
AcDbEntity
  8
0
100
AcDbLine
 10
89.84999999999999
 20
91.0
 30
0.0
 11
97.15000000000001
 21
91.0
 31
0.0
  0
LINE
  5
102
330
1E
100
AcDbEntity
  8
0
100
AcDbLine
 10
98.25000000000001
 20
35.0
 30
0.0
 11
98.31064874683541
 21
35.0
 31
0.0
  0
LINE
  5
103
330
1E
100
AcDbEntity
  8
0
100
AcDbLine
 10
98.25000000000001
 20
35.0
 30
0.0
 11
98.25000000000001
 21
39.7766239918325
 31
0.0
  0
LINE
  5
104
330
1E
100
AcDbEntity
  8
0
100
AcDbLine
 10
99.19260000000001
 20
25.8702
 30
0.0
 11
100.329
 21
32.52599999999999
 31
0.0
  0
LINE
  5
105
330
1E
100
AcDbEntity
  8
0
100
AcDbLine
 10
98.25000000000001
 20
39.7766239918325
 30
0.0
 11
98.25000000000001
 21
35.0
 31
0.0
  0
LINE
  5
106
330
1E
100
AcDbEntity
  8
0
100
AcDbLine
 10
98.26250000000001
 20
39.3596
 30
0.0
 11
98.3323
 21
33.0396
 31
0.0
  0
LINE
  5
107
330
1E
100
AcDbEntity
  8
0
100
AcDbLine
 10
97.87069999999999
 20
52.43079999999999
 30
0.0
 11
98.55110000000001
 21
57.7197
 31
0.0
  0
LINE
  5
108
330
1E
100
AcDbEntity
  8
0
100
AcDbLine
 10
97.87069999999999
 20
52.43079999999999
 30
0.0
 11
98.26250000000001
 21
39.3596
 31
0.0
  0
LINE
  5
109
330
1E
100
AcDbEntity
  8
0
100
AcDbLine
 10
98.55110000000001
 20
57.7197
 30
0.0
 11
100.972
 21
62.6166
 31
0.0
  0
LINE
  5
10A
330
1E
100
AcDbEntity
  8
0
100
AcDbLine
 10
99.19260000000001
 20
25.8702
 30
0.0
 11
100.329
 21
32.52599999999999
 31
0.0
  0
LINE
  5
10B
330
1E
100
AcDbEntity
  8
0
100
AcDbLine
 10
98.25000000000001
 20
91.0
 30
0.0
 11
107.65
 21
91.0
 31
0.0
  0
LINE
  5
10C
330
1E
100
AcDbEntity
  8
0
100
AcDbLine
 10
97.15000000000001
 20
91.0
 30
0.0
 11
101.65
 21
91.0
 31
0.0
  0
LINE
  5
10D
330
1E
100
AcDbEntity
  8
0
100
AcDbLine
 10
91.95
 20
91.0
 30
0.0
 11
99.75000000000001
 21
91.0
 31
0.0
  0
LINE
  5
10E
330
1E
100
AcDbEntity
  8
0
100
AcDbLine
 10
100.3271971083779
 20
35.0
 30
0.0
 11
129.3060420838209
 21
35.0
 31
0.0
  0
LINE
  5
10F
330
1E
100
AcDbEntity
  8
0
100
AcDbLine
 10
100.249424186577
 20
45.0
 30
0.0
 11
123.067626287424
 21
45.0
 31
0.0
  0
LINE
  5
110
330
1E
100
AcDbEntity
  8
0
100
AcDbLine
 10
100.3239999999999
 20
39.38719999999999
 30
0.0
 11
100.329
 21
32.52599999999999
 31
0.0
  0
LINE
  5
111
330
1E
100
AcDbEntity
  8
0
100
AcDbLine
 10
100.3271971083779
 20
35.0
 30
0.0
 11
100.329
 21
32.52599999999999
 31
0.0
  0
LINE
  5
112
330
1E
100
AcDbEntity
  8
0
100
AcDbLine
 10
100.3271971083779
 20
35.0
 30
0.0
 11
129.3060420838209
 21
35.0
 31
0.0
  0
LINE
  5
113
330
1E
100
AcDbEntity
  8
0
100
AcDbLine
 10
100.3271971083779
 20
35.0
 30
0.0
 11
129.3060420838209
 21
35.0
 31
0.0
  0
LINE
  5
114
330
1E
100
AcDbEntity
  8
0
100
AcDbLine
 10
100.1491
 20
52.55069999999999
 30
0.0
 11
100.7419999999999
 21
57.4316
 31
0.0
  0
LINE
  5
115
330
1E
100
AcDbEntity
  8
0
100
AcDbLine
 10
100.1491
 20
52.55069999999999
 30
0.0
 11
100.3239999999999
 21
39.38719999999999
 31
0.0
  0
LINE
  5
116
330
1E
100
AcDbEntity
  8
0
100
AcDbLine
 10
100.7419999999999
 20
57.4316
 30
0.0
 11
102.817
 21
61.522
 31
0.0
  0
LINE
  5
117
330
1E
100
AcDbEntity
  8
0
100
AcDbLine
 10
100.1491
 20
52.55069999999999
 30
0.0
 11
100.7419999999999
 21
57.4316
 31
0.0
  0
LINE
  5
118
330
1E
100
AcDbEntity
  8
0
100
AcDbLine
 10
102.817
 20
61.522
 30
0.0
 11
105.987
 21
63.9993
 31
0.0
  0
LINE
  5
119
330
1E
100
AcDbEntity
  8
0
100
AcDbLine
 10
100.972
 20
62.6166
 30
0.0
 11
104.776
 21
65.72759999999999
 31
0.0
  0
LINE
  5
11A
330
1E
100
AcDbEntity
  8
0
100
AcDbLine
 10
100.7419999999999
 20
57.4316
 30
0.0
 11
102.817
 21
61.522
 31
0.0
  0
LINE
  5
11B
330
1E
100
AcDbEntity
  8
0
100
AcDbLine
 10
102.801
 20
88.0175
 30
0.0
 11
110.25
 21
89.0
 31
0.0
  0
LINE
  5
11C
330
1E
100
AcDbEntity
  8
0
100
AcDbLine
 10
102.127
 20
90.1363
 30
0.0
 11
110.25
 21
91.0
 31
0.0
  0
LINE
  5
11D
330
1E
100
AcDbEntity
  8
0
100
AcDbLine
 10
110.25
 20
67.0
 30
0.0
 11
115.7239999999999
 21
65.72759999999999
 31
0.0
  0
LINE
  5
11E
330
1E
100
AcDbEntity
  8
0
100
AcDbLine
 10
110.25
 20
65.0
 30
0.0
 11
114.5129999999999
 21
63.9993
 31
0.0
  0
LINE
  5
11F
330
1E
100
AcDbEntity
  8
0
100
AcDbLine
 10
104.776
 20
65.72759999999999
 30
0.0
 11
110.25
 21
67.0
 31
0.0
  0
LINE
  5
120
330
1E
100
AcDbEntity
  8
0
100
AcDbLine
 10
110.25
 20
91.0
 30
0.0
 11
118.3729999999999
 21
90.1363
 31
0.0
  0
LINE
  5
121
330
1E
100
AcDbEntity
  8
0
100
AcDbLine
 10
110.25
 20
89.0
 30
0.0
 11
117.6989999999999
 21
88.0175
 31
0.0
  0
LINE
  5
122
330
1E
100
AcDbEntity
  8
0
100
AcDbLine
 10
105.987
 20
63.9993
 30
0.0
 11
110.25
 21
65.0
 31
0.0
  0
LINE
  5
123
330
1E
100
AcDbEntity
  8
0
100
AcDbLine
 10
105.987
 20
63.9993
 30
0.0
 11
110.25
 21
65.0
 31
0.0
  0
LINE
  5
124
330
1E
100
AcDbEntity
  8
0
100
AcDbLine
 10
110.25
 20
65.0
 30
0.0
 11
114.5129999999999
 21
63.9993
 31
0.0
  0
LINE
  5
125
330
1E
100
AcDbEntity
  8
0
100
AcDbLine
 10
107.65
 20
91.0
 30
0.0
 11
113.15
 21
91.0
 31
0.0
  0
LINE
  5
126
330
1E
100
AcDbEntity
  8
0
100
AcDbLine
 10
120.104
 20
53.0532
 30
0.0
 11
121.43
 21
48.4443
 31
0.0
  0
LINE
  5
127
330
1E
100
AcDbEntity
  8
0
100
AcDbLine
 10
123.909
 20
43.2304
 30
0.0
 11
136.013
 21
24.77199999999999
 31
0.0
  0
LINE
  5
128
330
1E
100
AcDbEntity
  8
0
100
AcDbLine
 10
121.43
 20
48.4443
 30
0.0
 11
123.909
 21
43.2304
 31
0.0
  0
LINE
  5
129
330
1E
100
AcDbEntity
  8
0
100
AcDbLine
 10
123.563
 20
48.9916
 30
0.0
 11
125.869
 21
43.92179999999999
 31
0.0
  0
LINE
  5
12A
330
1E
100
AcDbEntity
  8
0
100
AcDbLine
 10
122.641
 20
53.36999999999999
 30
0.0
 11
123.563
 21
48.9916
 31
0.0
  0
LINE
  5
12B
330
1E
100
AcDbEntity
  8
0
100
AcDbLine
 10
121.43
 20
48.4443
 30
0.0
 11
123.067626287424
 21
45.0
 31
0.0
  0
LINE
  5
12C
330
1E
100
AcDbEntity
  8
0
100
AcDbLine
 10
120.104
 20
53.0532
 30
0.0
 11
121.43
 21
48.4443
 31
0.0
  0
LINE
  5
12D
330
1E
100
AcDbEntity
  8
0
100
AcDbLine
 10
121.9489999999999
 20
57.7197
 30
0.0
 11
122.641
 21
53.36999999999999
 31
0.0
  0
LINE
  5
12E
330
1E
100
AcDbEntity
  8
0
100
AcDbLine
 10
119.758
 20
57.4316
 30
0.0
 11
120.104
 21
53.0532
 31
0.0
  0
LINE
  5
12F
330
1E
100
AcDbEntity
  8
0
100
AcDbLine
 10
119.5279999999999
 20
62.6166
 30
0.0
 11
121.9489999999999
 21
57.7197
 31
0.0
  0
LINE
  5
130
330
1E
100
AcDbEntity
  8
0
100
AcDbLine
 10
119.758
 20
57.4316
 30
0.0
 11
120.104
 21
53.0532
 31
0.0
  0
LINE
  5
131
330
1E
100
AcDbEntity
  8
0
100
AcDbLine
 10
117.683
 20
61.522
 30
0.0
 11
119.758
 21
57.4316
 31
0.0
  0
LINE
  5
132
330
1E
100
AcDbEntity
  8
0
100
AcDbLine
 10
117.683
 20
61.522
 30
0.0
 11
119.758
 21
57.4316
 31
0.0
  0
LINE
  5
133
330
1E
100
AcDbEntity
  8
0
100
AcDbLine
 10
115.7239999999999
 20
65.72759999999999
 30
0.0
 11
119.5279999999999
 21
62.6166
 31
0.0
  0
LINE
  5
134
330
1E
100
AcDbEntity
  8
0
100
AcDbLine
 10
124.1549999999999
 20
88.11379999999999
 30
0.0
 11
129.551
 21
85.3208
 31
0.0
  0
LINE
  5
135
330
1E
100
AcDbEntity
  8
0
100
AcDbLine
 10
123.577
 20
86.18759999999999
 30
0.0
 11
128.298
 21
83.6836
 31
0.0
  0
LINE
  5
136
330
1E
100
AcDbEntity
  8
0
100
AcDbLine
 10
118.3729999999999
 20
90.1363
 30
0.0
 11
124.1549999999999
 21
88.11379999999999
 31
0.0
  0
LINE
  5
137
330
1E
100
AcDbEntity
  8
0
100
AcDbLine
 10
117.6989999999999
 20
88.0175
 30
0.0
 11
123.577
 21
86.18759999999999
 31
0.0
  0
LINE
  5
138
330
1E
100
AcDbEntity
  8
0
100
AcDbLine
 10
114.5129999999999
 20
63.9993
 30
0.0
 11
117.683
 21
61.522
 31
0.0
  0
LINE
  5
139
330
1E
100
AcDbEntity
  8
0
100
AcDbLine
 10
136.013
 20
24.77199999999999
 30
0.0
 11
146.2739999999999
 21
12.0976
 31
0.0
  0
LINE
  5
13A
330
1E
100
AcDbEntity
  8
0
100
AcDbLine
 10
153.882
 20
8.525690000000009
 30
0.0
 11
158.25
 21
7.000000000000009
 31
0.0
  0
LINE
  5
13B
330
1E
100
AcDbEntity
  8
0
100
AcDbLine
 10
153.537
 20
6.566910000000009
 30
0.0
 11
158.25
 21
5.000000000000009
 31
0.0
  0
LINE
  5
13C
330
1E
100
AcDbEntity
  8
0
100
AcDbLine
 10
147.5419999999999
 20
13.8259
 30
0.0
 11
153.882
 21
8.525690000000009
 31
0.0
  0
LINE
  5
13D
330
1E
100
AcDbEntity
  8
0
100
AcDbLine
 10
146.2739999999999
 20
12.0976
 30
0.0
 11
153.537
 21
6.566910000000009
 31
0.0
  0
LINE
  5
13E
330
1E
100
AcDbEntity
  8
0
100
AcDbLine
 10
137.7429999999999
 20
25.9243
 30
0.0
 11
147.5419999999999
 21
13.8259
 31
0.0
  0
LINE
  5
13F
330
1E
100
AcDbEntity
  8
0
100
AcDbLine
 10
153.537
 20
6.56691
 30
0.0
 11
158.25
 21
5.0
 31
0.0
  0
LINE
  5
140
330
1E
100
AcDbEntity
  8
0
100
AcDbLine
 10
136.013
 20
24.77199999999999
 30
0.0
 11
146.2739999999999
 21
12.0976
 31
0.0
  0
LINE
  5
144
330
1E
100
AcDbEntity
  8
0
100
AcDbLine
 10
156.05
 20
45.32399999999999
 30
0.0
 11
159.2299999999999
 21
46.47969999999999
 31
0.0
  0
LINE
  5
145
330
1E
100
AcDbEntity
  8
0
100
AcDbLine
 10
143.932
 20
57.9604
 30
0.0
 11
144.872
 21
51.77669999999999
 31
0.0
  0
LINE
  5
146
330
1E
100
AcDbEntity
  8
0
100
AcDbLine
 10
146.8
 20
52.35459999999999
 30
0.0
 11
149.0159999999999
 21
48.7912
 31
0.0
  0
LINE
  5
147
330
1E
100
AcDbEntity
  8
0
100
AcDbLine
 10
144.872
 20
51.77669999999999
 30
0.0
 11
147.7629999999999
 21
47.5391
 31
0.0
  0
LINE
  5
148
330
1E
100
AcDbEntity
  8
0
100
AcDbLine
 10
149.0159999999999
 20
48.7912
 30
0.0
 11
152.388
 21
47.25019999999999
 31
0.0
  0
LINE
  5
149
330
1E
100
AcDbEntity
  8
0
100
AcDbLine
 10
147.7629999999999
 20
47.5391
 30
0.0
 11
151.7139999999999
 21
45.42029999999999
 31
0.0
  0
LINE
  5
14A
330
1E
100
AcDbEntity
  8
0
100
AcDbLine
 10
156.05
 20
47.25019999999999
 30
0.0
 11
158.459
 21
48.4059
 31
0.0
  0
LINE
  5
14B
330
1E
100
AcDbEntity
  8
0
100
AcDbLine
 10
152.388
 20
47.25019999999999
 30
0.0
 11
156.05
 21
47.25019999999999
 31
0.0
  0
LINE
  5
14C
330
1E
100
AcDbEntity
  8
0
100
AcDbLine
 10
151.7139999999999
 20
45.42029999999999
 30
0.0
 11
156.05
 21
45.32399999999999
 31
0.0
  0
LINE
  5
14D
330
1E
100
AcDbEntity
  8
0
100
AcDbLine
 10
125.869
 20
43.92179999999999
 30
0.0
 11
137.7429999999999
 21
25.9243
 31
0.0
  0
LINE
  5
14E
330
1E
100
AcDbEntity
  8
0
100
AcDbLine
 10
129.3060420838209
 20
35.0
 30
0.0
 11
136.013
 21
24.77199999999999
 31
0.0
  0
LINE
  5
14F
330
1E
100
AcDbEntity
  8
0
100
AcDbLine
 10
158.25
 20
7.000000000000009
 30
0.0
 11
166.25
 21
7.000000000000009
 31
0.0
  0
LINE
  5
150
330
1E
100
AcDbEntity
  8
0
100
AcDbLine
 10
158.25
 20
5.000000000000009
 30
0.0
 11
168.25
 21
5.000000000000009
 31
0.0
  0
LINE
  5
151
330
1E
100
AcDbEntity
  8
0
100
AcDbLine
 10
167.75
 20
5.000000000000009
 30
0.0
 11
172.75
 21
5.000000000000009
 31
0.0
  0
LINE
  5
153
330
1E
100
AcDbEntity
  8
0
100
AcDbLine
 10
166.25
 20
7.000000000000009
 30
0.0
 11
166.25
 21
53.0
 31
0.0
  0
LINE
  5
154
330
1E
100
AcDbEntity
  8
0
100
AcDbLine
 10
192.75
 20
5.000000000000009
 30
0.0
 11
202.7499999999999
 21
5.000000000000009
 31
0.0
  0
LINE
  5
155
330
1E
100
AcDbEntity
  8
0
100
AcDbLine
 10
182.75
 20
5.000000000000009
 30
0.0
 11
192.75
 21
5.000000000000009
 31
0.0
  0
LINE
  5
156
330
1E
100
AcDbEntity
  8
0
100
AcDbLine
 10
202.7499999999999
 20
5.000000000000009
 30
0.0
 11
212.7499999999999
 21
5.000000000000009
 31
0.0
  0
LINE
  5
157
330
1E
100
AcDbEntity
  8
0
100
AcDbLine
 10
172.75
 20
5.000000000000009
 30
0.0
 11
182.75
 21
5.000000000000009
 31
0.0
  0
LINE
  5
158
330
1E
100
AcDbEntity
  8
0
100
AcDbLine
 10
212.7499999999999
 20
5.000000000000009
 30
0.0
 11
262.7499999999999
 21
5.000000000000009
 31
0.0
  0
LINE
  5
159
330
1E
100
AcDbEntity
  8
0
100
AcDbLine
 10
262.7499999999999
 20
5.000000000000009
 30
0.0
 11
262.7499999999999
 21
5.900000000000009
 31
0.0
  0
LINE
  5
15A
330
1E
100
AcDbEntity
  8
0
100
AcDbLine
 10
262.7499999999999
 20
5.900000000000009
 30
0.0
 11
262.7499999999999
 21
8.300000000000009
 31
0.0
  0
LINE
  5
15B
330
1E
100
AcDbEntity
  8
0
100
AcDbLine
 10
262.7499999999999
 20
5.900000000000009
 30
0.0
 11
262.7499999999999
 21
5.000000000000009
 31
0.0
  0
LINE
  5
15D
330
1E
100
AcDbEntity
  8
0
100
AcDbLine
 10
262.7499999999999
 20
8.300000000000009
 30
0.0
 11
262.7499999999999
 21
12.3
 31
0.0
  0
LINE
  5
15E
330
1E
100
AcDbEntity
  8
0
100
AcDbLine
 10
262.7499999999999
 20
8.300000000000009
 30
0.0
 11
262.7499999999999
 21
5.900000000000009
 31
0.0
  0
LINE
  5
15F
330
1E
100
AcDbEntity
  8
0
100
AcDbLine
 10
262.7499999999999
 20
12.3
 30
0.0
 11
262.7499999999999
 21
17.6
 31
0.0
  0
LINE
  5
160
330
1E
100
AcDbEntity
  8
0
100
AcDbLine
 10
262.7499999999999
 20
12.3
 30
0.0
 11
262.7499999999999
 21
8.300000000000009
 31
0.0
  0
LINE
  5
161
330
1E
100
AcDbEntity
  8
0
100
AcDbLine
 10
262.7499999999999
 20
17.6
 30
0.0
 11
262.7499999999999
 21
23.6
 31
0.0
  0
LINE
  5
162
330
1E
100
AcDbEntity
  8
0
100
AcDbLine
 10
262.7499999999999
 20
17.6
 30
0.0
 11
262.7499999999999
 21
12.3
 31
0.0
  0
LINE
  5
163
330
1E
100
AcDbEntity
  8
0
100
AcDbLine
 10
262.7499999999999
 20
23.6
 30
0.0
 11
262.7499999999999
 21
30.0
 31
0.0
  0
LINE
  5
164
330
1E
100
AcDbEntity
  8
0
100
AcDbLine
 10
262.7499999999999
 20
23.6
 30
0.0
 11
262.7499999999999
 21
17.6
 31
0.0
  0
LINE
  5
165
330
1E
100
AcDbEntity
  8
0
100
AcDbLine
 10
262.7499999999999
 20
42.4
 30
0.0
 11
262.7499999999999
 21
47.7
 31
0.0
  0
LINE
  5
166
330
1E
100
AcDbEntity
  8
0
100
AcDbLine
 10
262.7499999999999
 20
42.4
 30
0.0
 11
262.7499999999999
 21
36.4
 31
0.0
  0
LINE
  5
167
330
1E
100
AcDbEntity
  8
0
100
AcDbLine
 10
262.7499999999999
 20
36.4
 30
0.0
 11
262.7499999999999
 21
42.4
 31
0.0
  0
LINE
  5
168
330
1E
100
AcDbEntity
  8
0
100
AcDbLine
 10
262.7499999999999
 20
36.4
 30
0.0
 11
262.7499999999999
 21
30.0
 31
0.0
  0
LINE
  5
169
330
1E
100
AcDbEntity
  8
0
100
AcDbLine
 10
262.7499999999999
 20
30.0
 30
0.0
 11
262.7499999999999
 21
36.4
 31
0.0
  0
LINE
  5
16A
330
1E
100
AcDbEntity
  8
0
100
AcDbLine
 10
262.7499999999999
 20
30.0
 30
0.0
 11
262.7499999999999
 21
23.6
 31
0.0
  0
LINE
  5
16B
330
1E
100
AcDbEntity
  8
0
100
AcDbLine
 10
168.25
 20
5.000000000000009
 30
0.0
 11
168.25
 21
55.0
 31
0.0
  0
LINE
  5
16C
330
1E
100
AcDbEntity
  8
0
100
AcDbLine
 10
262.7499999999999
 20
47.7
 30
0.0
 11
262.7499999999999
 21
51.7
 31
0.0
  0
LINE
  5
16D
330
1E
100
AcDbEntity
  8
0
100
AcDbLine
 10
262.7499999999999
 20
47.7
 30
0.0
 11
262.7499999999999
 21
42.4
 31
0.0
  0
LINE
  5
16F
330
1E
100
AcDbEntity
  8
0
100
AcDbLine
 10
262.7499999999999
 20
51.7
 30
0.0
 11
262.7499999999999
 21
54.1
 31
0.0
  0
LINE
  5
170
330
1E
100
AcDbEntity
  8
0
100
AcDbLine
 10
262.7499999999999
 20
51.7
 30
0.0
 11
262.7499999999999
 21
47.7
 31
0.0
  0
LINE
  5
171
330
1E
100
AcDbEntity
  8
0
100
AcDbLine
 10
168.25
 20
55.0
 30
0.0
 11
172.75
 21
55.0
 31
0.0
  0
LINE
  5
173
330
1E
100
AcDbEntity
  8
0
100
AcDbLine
 10
192.75
 20
55.0
 30
0.0
 11
202.7499999999999
 21
55.0
 31
0.0
  0
LINE
  5
174
330
1E
100
AcDbEntity
  8
0
100
AcDbLine
 10
182.75
 20
55.0
 30
0.0
 11
192.75
 21
55.0
 31
0.0
  0
LINE
  5
175
330
1E
100
AcDbEntity
  8
0
100
AcDbLine
 10
262.7499999999999
 20
55.0
 30
0.0
 11
262.7499999999999
 21
54.1
 31
0.0
  0
LINE
  5
176
330
1E
100
AcDbEntity
  8
0
100
AcDbLine
 10
212.7499999999999
 20
55.0
 30
0.0
 11
262.7499999999999
 21
55.0
 31
0.0
  0
LINE
  5
177
330
1E
100
AcDbEntity
  8
0
100
AcDbLine
 10
262.7499999999999
 20
54.1
 30
0.0
 11
262.7499999999999
 21
55.0
 31
0.0
  0
LINE
  5
178
330
1E
100
AcDbEntity
  8
0
100
AcDbLine
 10
262.7499999999999
 20
54.1
 30
0.0
 11
262.7499999999999
 21
51.7
 31
0.0
  0
LINE
  5
179
330
1E
100
AcDbEntity
  8
0
100
AcDbLine
 10
202.7499999999999
 20
55.0
 30
0.0
 11
212.7499999999999
 21
55.0
 31
0.0
  0
LINE
  5
17A
330
1E
100
AcDbEntity
  8
0
100
AcDbLine
 10
172.75
 20
55.0
 30
0.0
 11
182.75
 21
55.0
 31
0.0
  0
LINE
  5
17B
330
1E
100
AcDbEntity
  8
0
100
AcDbLine
 10
168.25
 20
55.0
 30
0.0
 11
168.25
 21
5.000000000000009
 31
0.0
  0
LINE
  5
17C
330
1E
100
AcDbEntity
  8
0
100
AcDbLine
 10
166.25
 20
53.0
 30
0.0
 11
166.25
 21
7.000000000000009
 31
0.0
  0
LINE
  5
17D
330
1E
100
AcDbEntity
  8
0
100
AcDbLine
 10
164.7499999999999
 20
55.0
 30
0.0
 11
168.25
 21
55.0
 31
0.0
  0
LINE
  5
17E
330
1E
100
AcDbEntity
  8
0
100
AcDbLine
 10
163.181
 20
49.9469
 30
0.0
 11
166.25
 21
53.0
 31
0.0
  0
LINE
  5
17F
330
1E
100
AcDbEntity
  8
0
100
AcDbLine
 10
161.639
 20
51.77669999999999
 30
0.0
 11
164.7499999999999
 21
55.0
 31
0.0
  0
LINE
  5
180
330
1E
100
AcDbEntity
  8
0
100
AcDbLine
 10
159.2299999999999
 20
46.47969999999999
 30
0.0
 11
163.181
 21
49.9469
 31
0.0
  0
LINE
  5
181
330
1E
100
AcDbEntity
  8
0
100
AcDbLine
 10
158.459
 20
48.4059
 30
0.0
 11
161.639
 21
51.77669999999999
 31
0.0
  0
LINE
  5
182
330
1E
100
AcDbEntity
  8
0
100
AcDbLine
 10
158.25
 20
5.0
 30
0.0
 11
168.25
 21
5.0
 31
0.0
  0
LINE
  5
183
330
1E
100
AcDbEntity
  8
0
100
AcDbLine
 10
142.367
 20
70.7782
 30
0.0
 11
144.793
 21
65.1298
 31
0.0
  0
LINE
  5
184
330
1E
100
AcDbEntity
  8
0
100
AcDbLine
 10
140.5359999999999
 20
70.0077
 30
0.0
 11
142.736
 21
64.5406
 31
0.0
  0
LINE
  5
185
330
1E
100
AcDbEntity
  8
0
100
AcDbLine
 10
142.736
 20
64.5406
 30
0.0
 11
143.932
 21
57.9604
 31
0.0
  0
LINE
  5
186
330
1E
100
AcDbEntity
  8
0
100
AcDbLine
 10
139.4759999999999
 20
76.0752
 30
0.0
 11
142.367
 21
70.7782
 31
0.0
  0
LINE
  5
187
330
1E
100
AcDbEntity
  8
0
100
AcDbLine
 10
137.742
 20
74.8232
 30
0.0
 11
140.5359999999999
 21
70.0077
 31
0.0
  0
LINE
  5
188
330
1E
100
AcDbEntity
  8
0
100
AcDbLine
 10
134.9469999999999
 20
81.0832
 30
0.0
 11
139.4759999999999
 21
76.0752
 31
0.0
  0
LINE
  5
189
330
1E
100
AcDbEntity
  8
0
100
AcDbLine
 10
133.309
 20
79.83119999999999
 30
0.0
 11
137.742
 21
74.8232
 31
0.0
  0
LINE
  5
18A
330
1E
100
AcDbEntity
  8
0
100
AcDbLine
 10
129.551
 20
85.3208
 30
0.0
 11
134.9469999999999
 21
81.0832
 31
0.0
  0
LINE
  5
18B
330
1E
100
AcDbEntity
  8
0
100
AcDbLine
 10
128.298
 20
83.6836
 30
0.0
 11
133.309
 21
79.83119999999999
 31
0.0
  0
LINE
  5
18C
330
1E
100
AcDbEntity
  8
0
100
AcDbLine
 10
144.793
 20
65.1298
 30
0.0
 11
145.929
 21
58.474
 31
0.0
  0
LINE
  5
18D
330
1E
100
AcDbEntity
  8
0
100
AcDbLine
 10
145.929
 20
58.474
 30
0.0
 11
146.8
 21
52.35459999999999
 31
0.0
  0
LINE
  5
18E
330
1E
100
AcDbEntity
  8
0
100
AcDbLine
 10
124.1549999999999
 20
88.11379999999999
 30
0.0
 11
129.551
 21
85.3208
 31
0.0
  0
LINE
  5
18F
330
1E
100
AcDbEntity
  8
0
100
AcDbLine
 10
115.25
 20
91.0
 30
0.0
 11
115.25
 21
93.0
 31
0.0
  0
LINE
  5
190
330
1E
100
AcDbEntity
  8
0
100
AcDbLine
 10
113.15
 20
91.0
 30
0.0
 11
115.25
 21
91.0
 31
0.0
  0
LINE
  5
191
330
1E
100
AcDbEntity
  8
0
100
AcDbLine
 10
101.65
 20
91.0
 30
0.0
 11
103.2499999999999
 21
91.0
 31
0.0
  0
LINE
  5
192
330
1E
100
AcDbEntity
  8
0
100
AcDbLine
 10
99.75000000000001
 20
91.0
 30
0.0
 11
104.4499999999999
 21
91.0
 31
0.0
  0
LINE
  5
193
330
1E
100
AcDbEntity
  8
0
100
AcDbLine
 10
104.4499999999999
 20
91.0
 30
0.0
 11
106.25
 21
91.0
 31
0.0
  0
LINE
  5
194
330
1E
100
AcDbEntity
  8
0
100
AcDbLine
 10
80.35
 20
91.0
 30
0.0
 11
89.84999999999999
 21
91.0
 31
0.0
  0
LINE
  5
195
330
1E
100
AcDbEntity
  8
0
100
AcDbLine
 10
81.85
 20
91.0
 30
0.0
 11
91.95
 21
91.0
 31
0.0
  0
LINE
  5
196
330
1E
100
AcDbEntity
  8
0
100
AcDbLine
 10
70.25
 20
91.0
 30
0.0
 11
81.85
 21
91.0
 31
0.0
  0
LINE
  5
197
330
1E
100
AcDbEntity
  8
0
100
AcDbLine
 10
57.75
 20
91.0
 30
0.0
 11
70.25
 21
91.0
 31
0.0
  0
LINE
  5
198
330
1E
100
AcDbEntity
  8
0
100
AcDbLine
 10
57.75
 20
91.0
 30
0.0
 11
69.45
 21
91.0
 31
0.0
  0
LINE
  5
199
330
1E
100
AcDbEntity
  8
0
100
AcDbLine
 10
57.75
 20
91.0
 30
0.0
 11
72.54999999999999
 21
91.0
 31
0.0
  0
LINE
  5
19A
330
1E
100
AcDbEntity
  8
0
100
AcDbLine
 10
46.04999999999999
 20
91.0
 30
0.0
 11
49.25
 21
91.0
 31
0.0
  0
LINE
  5
19B
330
1E
100
AcDbEntity
  8
0
100
AcDbLine
 10
51.25
 20
91.0
 30
0.0
 11
57.75
 21
91.0
 31
0.0
  0
LINE
  5
19C
330
1E
100
AcDbEntity
  8
0
100
AcDbLine
 10
51.25
 20
91.0
 30
0.0
 11
51.25
 21
26.0
 31
0.0
  0
LINE
  5
19D
330
1E
100
AcDbEntity
  8
0
100
AcDbLine
 10
45.25
 20
91.0
 30
0.0
 11
49.25
 21
91.0
 31
0.0
  0
LINE
  5
19E
330
1E
100
AcDbEntity
  8
0
100
AcDbLine
 10
17.25
 20
93.0
 30
0.0
 11
29.15
 21
93.0
 31
0.0
  0
LINE
  5
19F
330
1E
100
AcDbEntity
  8
0
100
AcDbLine
 10
29.15
 20
93.0
 30
0.0
 11
42.95
 21
93.0
 31
0.0
  0
LINE
  5
1A0
330
1E
100
AcDbEntity
  8
0
100
AcDbLine
 10
22.74999999999999
 20
95.0
 30
0.0
 11
45.04999999999999
 21
95.0
 31
0.0
  0
LINE
  5
1A1
330
1E
100
AcDbEntity
  8
0
100
AcDbLine
 10
45.04999999999999
 20
95.0
 30
0.0
 11
57.75
 21
95.0
 31
0.0
  0
LINE
  5
1A2
330
1E
100
AcDbEntity
  8
0
100
AcDbLine
 10
42.95
 20
93.0
 30
0.0
 11
57.75
 21
93.0
 31
0.0
  0
LINE
  5
1A3
330
1E
100
AcDbEntity
  8
0
100
AcDbLine
 10
23.54999999999999
 20
96.0
 30
0.0
 11
33.65
 21
96.0
 31
0.0
  0
LINE
  5
1A4
330
1E
100
AcDbEntity
  8
0
100
AcDbLine
 10
33.65
 20
96.0
 30
0.0
 11
45.25
 21
96.0
 31
0.0
  0
LINE
  5
1A5
330
1E
100
AcDbEntity
  8
0
100
AcDbLine
 10
57.75
 20
95.0
 30
0.0
 11
70.45
 21
95.0
 31
0.0
  0
LINE
  5
1A6
330
1E
100
AcDbEntity
  8
0
100
AcDbLine
 10
57.75
 20
93.0
 30
0.0
 11
72.54999999999999
 21
93.0
 31
0.0
  0
LINE
  5
1A7
330
1E
100
AcDbEntity
  8
0
100
AcDbLine
 10
98.25000000000001
 20
93.0
 30
0.0
 11
107.65
 21
93.0
 31
0.0
  0
LINE
  5
1A8
330
1E
100
AcDbEntity
  8
0
100
AcDbLine
 10
92.75
 20
95.0
 30
0.0
 11
100.65
 21
95.0
 31
0.0
  0
LINE
  5
1A9
330
1E
100
AcDbEntity
  8
0
100
AcDbLine
 10
70.45
 20
95.0
 30
0.0
 11
92.75
 21
95.0
 31
0.0
  0
LINE
  5
1AA
330
1E
100
AcDbEntity
  8
0
100
AcDbLine
 10
86.34999999999999
 20
93.0
 30
0.0
 11
98.25000000000001
 21
93.0
 31
0.0
  0
LINE
  5
1AB
330
1E
100
AcDbEntity
  8
0
100
AcDbLine
 10
72.54999999999999
 20
93.0
 30
0.0
 11
86.34999999999999
 21
93.0
 31
0.0
  0
LINE
  5
1AC
330
1E
100
AcDbEntity
  8
0
100
AcDbLine
 10
91.95
 20
96.0
 30
0.0
 11
99.75000000000001
 21
96.0
 31
0.0
  0
LINE
  5
1AD
330
1E
100
AcDbEntity
  8
0
100
AcDbLine
 10
100.65
 20
95.0
 30
0.0
 11
105.4499999999999
 21
95.0
 31
0.0
  0
LINE
  5
1AE
330
1E
100
AcDbEntity
  8
0
100
AcDbLine
 10
105.4499999999999
 20
95.0
 30
0.0
 11
107.25
 21
95.0
 31
0.0
  0
LINE
  5
1AF
330
1E
100
AcDbEntity
  8
0
100
AcDbLine
 10
106.25
 20
95.0
 30
0.0
 11
106.25
 21
96.0
 31
0.0
  0
LINE
  5
1B0
330
1E
100
AcDbEntity
  8
0
100
AcDbLine
 10
99.75000000000001
 20
96.0
 30
0.0
 11
104.4499999999999
 21
96.0
 31
0.0
  0
LINE
  5
1B1
330
1E
100
AcDbEntity
  8
0
100
AcDbLine
 10
104.4499999999999
 20
96.0
 30
0.0
 11
106.25
 21
96.0
 31
0.0
  0
LINE
  5
1B2
330
1E
100
AcDbEntity
  8
0
100
AcDbLine
 10
107.65
 20
93.0
 30
0.0
 11
113.15
 21
93.0
 31
0.0
  0
LINE
  5
1B3
330
1E
100
AcDbEntity
  8
0
100
AcDbLine
 10
113.15
 20
93.0
 30
0.0
 11
115.25
 21
93.0
 31
0.0
  0
LINE
  5
1B4
330
1E
100
AcDbEntity
  8
0
100
AcDbLine
 10
107.25
 20
95.0
 30
0.0
 11
113.25
 21
93.0
 31
0.0
  0
LINE
  5
1B5
330
1E
100
AcDbEntity
  8
0
100
AcDbLine
 10
115.25
 20
93.0
 30
0.0
 11
115.25
 21
91.0
 31
0.0
  0
LINE
  5
1B6
330
1E
100
AcDbEntity
  8
0
100
AcDbLine
 10
106.25
 20
96.0
 30
0.0
 11
113.25
 21
100.0
 31
0.0
  0
LINE
  5
1B7
330
1E
100
AcDbEntity
  8
0
100
AcDbLine
 10
106.25
 20
96.0
 30
0.0
 11
106.25
 21
95.0
 31
0.0
  0
LINE
  5
1B8
330
1E
100
AcDbEntity
  8
0
100
AcDbLine
 10
81.85
 20
96.0
 30
0.0
 11
91.95
 21
96.0
 31
0.0
  0
LINE
  5
1B9
330
1E
100
AcDbEntity
  8
0
100
AcDbLine
 10
70.25
 20
96.0
 30
0.0
 11
81.85
 21
96.0
 31
0.0
  0
LINE
  5
1BA
330
1E
100
AcDbEntity
  8
0
100
AcDbLine
 10
57.75
 20
96.0
 30
0.0
 11
70.25
 21
96.0
 31
0.0
  0
LINE
  5
1BB
330
1E
100
AcDbEntity
  8
0
100
AcDbLine
 10
45.25
 20
96.0
 30
0.0
 11
57.75
 21
96.0
 31
0.0
  0
LINE
  5
1BC
330
1E
100
AcDbEntity
  8
0
100
AcDbLine
 10
18.35
 20
91.0
 30
0.0
 11
25.64999999999999
 21
91.0
 31
0.0
  0
LINE
  5
1BD
330
1E
100
AcDbEntity
  8
0
100
AcDbLine
 10
15.75
 20
96.0
 30
0.0
 11
23.54999999999999
 21
96.0
 31
0.0
  0
LINE
  5
1BE
330
1E
100
AcDbEntity
  8
0
100
AcDbLine
 10
18.55
 20
100.0
 30
0.0
 11
30.15
 21
100.0
 31
0.0
  0
LINE
  5
1BF
330
1E
100
AcDbEntity
  8
0
100
AcDbLine
 10
30.15
 20
100.0
 30
0.0
 11
43.45
 21
100.0
 31
0.0
  0
LINE
  5
1C0
330
1E
100
AcDbEntity
  8
0
100
AcDbLine
 10
96.95
 20
100.0
 30
0.0
 11
105.8499999999999
 21
100.0
 31
0.0
  0
LINE
  5
1C1
330
1E
100
AcDbEntity
  8
0
100
AcDbLine
 10
105.8499999999999
 20
100.0
 30
0.0
 11
111.25
 21
100.0
 31
0.0
  0
LINE
  5
1C2
330
1E
100
AcDbEntity
  8
0
100
AcDbLine
 10
111.25
 20
100.0
 30
0.0
 11
113.25
 21
100.0
 31
0.0
  0
LINE
  5
1C3
330
1E
100
AcDbEntity
  8
0
100
AcDbLine
 10
113.25
 20
100.0
 30
0.0
 11
113.25
 21
102.0
 31
0.0
  0
LINE
  5
1C4
330
1E
100
AcDbEntity
  8
0
100
AcDbLine
 10
85.35
 20
100.0
 30
0.0
 11
96.95
 21
100.0
 31
0.0
  0
LINE
  5
1C5
330
1E
100
AcDbEntity
  8
0
100
AcDbLine
 10
72.05
 20
100.0
 30
0.0
 11
85.35
 21
100.0
 31
0.0
  0
LINE
  5
1C6
330
1E
100
AcDbEntity
  8
0
100
AcDbLine
 10
57.75
 20
100.0
 30
0.0
 11
72.05
 21
100.0
 31
0.0
  0
LINE
  5
1C7
330
1E
100
AcDbEntity
  8
0
100
AcDbLine
 10
43.45
 20
100.0
 30
0.0
 11
57.75
 21
100.0
 31
0.0
  0
LINE
  5
1C8
330
1E
100
AcDbEntity
  8
0
100
AcDbLine
 10
11.05
 20
96.0
 30
0.0
 11
15.75
 21
96.0
 31
0.0
  0
LINE
  5
1C9
330
1E
100
AcDbEntity
  8
0
100
AcDbLine
 10
9.65
 20
100.0
 30
0.0
 11
18.55
 21
100.0
 31
0.0
  0
LINE
  5
1CA
330
1E
100
AcDbEntity
  8
0
100
AcDbLine
 10
10.25
 20
102.0
 30
0.0
 11
10.25
 21
110.0
 31
0.0
  0
LINE
  5
1CB
330
1E
100
AcDbEntity
  8
0
100
AcDbLine
 10
23.4553
 20
102.0
 30
0.0
 11
23.4553
 21
110.0
 31
0.0
  0
LINE
  5
1CC
330
1E
100
AcDbEntity
  8
0
100
AcDbLine
 10
24.8695
 20
102.0
 30
0.0
 11
24.8695
 21
110.0
 31
0.0
  0
LINE
  5
1CD
330
1E
100
AcDbEntity
  8
0
100
AcDbLine
 10
18.55
 20
102.0
 30
0.0
 11
30.15
 21
102.0
 31
0.0
  0
LINE
  5
1CE
330
1E
100
AcDbEntity
  8
0
100
AcDbLine
 10
30.15
 20
102.0
 30
0.0
 11
43.45
 21
102.0
 31
0.0
  0
LINE
  5
1CF
330
1E
100
AcDbEntity
  8
0
100
AcDbLine
 10
58.75
 20
102.0
 30
0.0
 11
58.75
 21
110.0
 31
0.0
  0
LINE
  5
1D0
330
1E
100
AcDbEntity
  8
0
100
AcDbLine
 10
56.75
 20
102.0
 30
0.0
 11
56.75
 21
110.0
 31
0.0
  0
LINE
  5
1D1
330
1E
100
AcDbEntity
  8
0
100
AcDbLine
 10
49.4611222222222
 20
102.0
 30
0.0
 11
56.6893
 21
110.0
 31
0.0
  0
LINE
  5
1D2
330
1E
100
AcDbEntity
  8
0
100
AcDbLine
 10
49.4611222222222
 20
102.0
 30
0.0
 11
56.6893
 21
110.0
 31
0.0
  0
LINE
  5
1D3
330
1E
100
AcDbEntity
  8
0
100
AcDbLine
 10
90.6305
 20
102.0
 30
0.0
 11
90.6305
 21
110.0
 31
0.0
  0
LINE
  5
1D4
330
1E
100
AcDbEntity
  8
0
100
AcDbLine
 10
92.0447
 20
102.0
 30
0.0
 11
92.0447
 21
110.0
 31
0.0
  0
LINE
  5
1D5
330
1E
100
AcDbEntity
  8
0
100
AcDbLine
 10
73.9544
 20
102.0
 30
0.0
 11
73.9544
 21
105.0
 31
0.0
  0
LINE
  5
1D6
330
1E
100
AcDbEntity
  8
0
100
AcDbLine
 10
79.95269999999999
 20
102.0
 30
0.0
 11
79.95269999999999
 21
105.0
 31
0.0
  0
LINE
  5
1D7
330
1E
100
AcDbEntity
  8
0
100
AcDbLine
 10
105.2499999999999
 20
102.0
 30
0.0
 11
105.2499999999999
 21
110.0
 31
0.0
  0
LINE
  5
1D8
330
1E
100
AcDbEntity
  8
0
100
AcDbLine
 10
96.95
 20
102.0
 30
0.0
 11
105.8499999999999
 21
102.0
 31
0.0
  0
LINE
  5
1D9
330
1E
100
AcDbEntity
  8
0
100
AcDbLine
 10
105.8499999999999
 20
102.0
 30
0.0
 11
111.25
 21
102.0
 31
0.0
  0
LINE
  5
1DA
330
1E
100
AcDbEntity
  8
0
100
AcDbLine
 10
113.25
 20
102.0
 30
0.0
 11
113.25
 21
100.0
 31
0.0
  0
LINE
  5
1DB
330
1E
100
AcDbEntity
  8
0
100
AcDbLine
 10
111.25
 20
102.0
 30
0.0
 11
113.25
 21
102.0
 31
0.0
  0
LINE
  5
1DC
330
1E
100
AcDbEntity
  8
0
100
AcDbLine
 10
85.35
 20
102.0
 30
0.0
 11
96.95
 21
102.0
 31
0.0
  0
LINE
  5
1DD
330
1E
100
AcDbEntity
  8
0
100
AcDbLine
 10
72.05
 20
102.0
 30
0.0
 11
85.35
 21
102.0
 31
0.0
  0
LINE
  5
1DE
330
1E
100
AcDbEntity
  8
0
100
AcDbLine
 10
57.75
 20
102.0
 30
0.0
 11
72.05
 21
102.0
 31
0.0
  0
LINE
  5
1DF
330
1E
100
AcDbEntity
  8
0
100
AcDbLine
 10
43.45
 20
102.0
 30
0.0
 11
57.75
 21
102.0
 31
0.0
  0
LINE
  5
1EA
330
1E
100
AcDbEntity
  8
0
100
AcDbLine
 10
74.3555
 20
105.0
 30
0.0
 11
74.83299999999999
 21
105.0
 31
0.0
  0
LINE
  5
1EB
330
1E
100
AcDbEntity
  8
0
100
AcDbLine
 10
74.83299999999999
 20
105.0
 30
0.0
 11
75.44240000000001
 21
105.0
 31
0.0
  0
LINE
  5
1EC
330
1E
100
AcDbEntity
  8
0
100
AcDbLine
 10
75.44240000000001
 20
105.0
 30
0.0
 11
76.1761
 21
105.0
 31
0.0
  0
LINE
  5
1ED
330
1E
100
AcDbEntity
  8
0
100
AcDbLine
 10
76.1761
 20
105.0
 30
0.0
 11
76.9669
 21
105.0
 31
0.0
  0
LINE
  5
1EE
330
1E
100
AcDbEntity
  8
0
100
AcDbLine
 10
76.9669
 20
105.0
 30
0.0
 11
77.73439999999999
 21
105.0
 31
0.0
  0
LINE
  5
1EF
330
1E
100
AcDbEntity
  8
0
100
AcDbLine
 10
77.73439999999999
 20
105.0
 30
0.0
 11
78.4535
 21
105.0
 31
0.0
  0
LINE
  5
1F0
330
1E
100
AcDbEntity
  8
0
100
AcDbLine
 10
74.065
 20
105.0
 30
0.0
 11
74.3555
 21
105.0
 31
0.0
  0
LINE
  5
1F1
330
1E
100
AcDbEntity
  8
0
100
AcDbLine
 10
4.30064
 20
110.0
 30
0.0
 11
7.95471
 21
110.0
 31
0.0
  0
LINE
  5
1F2
330
1E
100
AcDbEntity
  8
0
100
AcDbLine
 10
10.25
 20
110.0
 30
0.0
 11
10.25
 21
102.0
 31
0.0
  0
LINE
  5
1F3
330
1E
100
AcDbEntity
  8
0
100
AcDbLine
 10
10.25
 20
110.0
 30
0.0
 11
23.4553
 21
110.0
 31
0.0
  0
LINE
  5
1F4
330
1E
100
AcDbEntity
  8
0
100
AcDbLine
 10
12.0924
 20
110.0
 30
0.0
 11
16.9435
 21
110.0
 31
0.0
  0
LINE
  5
1F5
330
1E
100
AcDbEntity
  8
0
100
AcDbLine
 10
7.95471
 20
110.0
 30
0.0
 11
12.0924
 21
110.0
 31
0.0
  0
LINE
  5
1F6
330
1E
100
AcDbEntity
  8
0
100
AcDbLine
 10
7.95471
 20
110.0
 30
0.0
 11
10.25
 21
110.0
 31
0.0
  0
LINE
  5
1F7
330
1E
100
AcDbEntity
  8
0
100
AcDbLine
 10
16.9435
 20
110.0
 30
0.0
 11
22.6507
 21
110.0
 31
0.0
  0
LINE
  5
1F8
330
1E
100
AcDbEntity
  8
0
100
AcDbLine
 10
24.8695
 20
110.0
 30
0.0
 11
56.6893
 21
110.0
 31
0.0
  0
LINE
  5
1F9
330
1E
100
AcDbEntity
  8
0
100
AcDbLine
 10
24.8695
 20
110.0
 30
0.0
 11
24.8695
 21
102.0
 31
0.0
  0
LINE
  5
1FA
330
1E
100
AcDbEntity
  8
0
100
AcDbLine
 10
23.4553
 20
110.0
 30
0.0
 11
23.4553
 21
102.0
 31
0.0
  0
LINE
  5
1FB
330
1E
100
AcDbEntity
  8
0
100
AcDbLine
 10
23.4553
 20
110.0
 30
0.0
 11
24.8695
 21
110.0
 31
0.0
  0
LINE
  5
1FC
330
1E
100
AcDbEntity
  8
0
100
AcDbLine
 10
22.6507
 20
110.0
 30
0.0
 11
29.2139
 21
110.0
 31
0.0
  0
LINE
  5
1FD
330
1E
100
AcDbEntity
  8
0
100
AcDbLine
 10
29.2139
 20
110.0
 30
0.0
 11
35.9463
 21
110.0
 31
0.0
  0
LINE
  5
1FE
330
1E
100
AcDbEntity
  8
0
100
AcDbLine
 10
16.9435
 20
111.0
 30
0.0
 11
22.6507
 21
111.0
 31
0.0
  0
LINE
  5
1FF
330
1E
100
AcDbEntity
  8
0
100
AcDbLine
 10
22.6507
 20
111.0
 30
0.0
 11
29.2139
 21
111.0
 31
0.0
  0
LINE
  5
200
330
1E
100
AcDbEntity
  8
0
100
AcDbLine
 10
35.9463
 20
110.0
 30
0.0
 11
43.0539
 21
110.0
 31
0.0
  0
LINE
  5
201
330
1E
100
AcDbEntity
  8
0
100
AcDbLine
 10
43.0539
 20
110.0
 30
0.0
 11
50.3307
 21
110.0
 31
0.0
  0
LINE
  5
202
330
1E
100
AcDbEntity
  8
0
100
AcDbLine
 10
29.2139
 20
111.0
 30
0.0
 11
35.9463
 21
111.0
 31
0.0
  0
LINE
  5
203
330
1E
100
AcDbEntity
  8
0
100
AcDbLine
 10
35.9463
 20
111.0
 30
0.0
 11
43.0539
 21
111.0
 31
0.0
  0
LINE
  5
204
330
1E
100
AcDbEntity
  8
0
100
AcDbLine
 10
56.75
 20
110.0
 30
0.0
 11
56.75
 21
102.0
 31
0.0
  0
LINE
  5
205
330
1E
100
AcDbEntity
  8
0
100
AcDbLine
 10
56.75
 20
110.0
 30
0.0
 11
58.75
 21
110.0
 31
0.0
  0
LINE
  5
206
330
1E
100
AcDbEntity
  8
0
100
AcDbLine
 10
56.6893
 20
110.0
 30
0.0
 11
56.75
 21
110.0
 31
0.0
  0
LINE
  5
207
330
1E
100
AcDbEntity
  8
0
100
AcDbLine
 10
58.8107
 20
110.0
 30
0.0
 11
66.0388777777778
 21
102.0
 31
0.0
  0
LINE
  5
208
330
1E
100
AcDbEntity
  8
0
100
AcDbLine
 10
58.8107
 20
110.0
 30
0.0
 11
66.0388777777778
 21
102.0
 31
0.0
  0
LINE
  5
209
330
1E
100
AcDbEntity
  8
0
100
AcDbLine
 10
58.8107
 20
110.0
 30
0.0
 11
90.6305
 21
110.0
 31
0.0
  0
LINE
  5
20A
330
1E
100
AcDbEntity
  8
0
100
AcDbLine
 10
58.75
 20
110.0
 30
0.0
 11
58.8107
 21
110.0
 31
0.0
  0
LINE
  5
20B
330
1E
100
AcDbEntity
  8
0
100
AcDbLine
 10
58.75
 20
110.0
 30
0.0
 11
58.75
 21
102.0
 31
0.0
  0
LINE
  5
20C
330
1E
100
AcDbEntity
  8
0
100
AcDbLine
 10
72.4461
 20
110.0
 30
0.0
 11
79.55370000000001
 21
110.0
 31
0.0
  0
LINE
  5
20D
330
1E
100
AcDbEntity
  8
0
100
AcDbLine
 10
65.16930000000001
 20
110.0
 30
0.0
 11
72.4461
 21
110.0
 31
0.0
  0
LINE
  5
20E
330
1E
100
AcDbEntity
  8
0
100
AcDbLine
 10
57.75
 20
110.0
 30
0.0
 11
65.16930000000001
 21
110.0
 31
0.0
  0
LINE
  5
20F
330
1E
100
AcDbEntity
  8
0
100
AcDbLine
 10
72.4461
 20
111.0
 30
0.0
 11
79.55370000000001
 21
111.0
 31
0.0
  0
LINE
  5
210
330
1E
100
AcDbEntity
  8
0
100
AcDbLine
 10
65.16930000000001
 20
111.0
 30
0.0
 11
72.4461
 21
111.0
 31
0.0
  0
LINE
  5
211
330
1E
100
AcDbEntity
  8
0
100
AcDbLine
 10
57.75
 20
111.0
 30
0.0
 11
65.16930000000001
 21
111.0
 31
0.0
  0
LINE
  5
212
330
1E
100
AcDbEntity
  8
0
100
AcDbLine
 10
50.3307
 20
110.0
 30
0.0
 11
57.75
 21
110.0
 31
0.0
  0
LINE
  5
213
330
1E
100
AcDbEntity
  8
0
100
AcDbLine
 10
43.0539
 20
111.0
 30
0.0
 11
50.3307
 21
111.0
 31
0.0
  0
LINE
  5
214
330
1E
100
AcDbEntity
  8
0
100
AcDbLine
 10
50.3307
 20
111.0
 30
0.0
 11
57.75
 21
111.0
 31
0.0
  0
LINE
  5
215
330
1E
100
AcDbEntity
  8
0
100
AcDbLine
 10
12.0924
 20
111.0
 30
0.0
 11
16.9435
 21
111.0
 31
0.0
  0
LINE
  5
216
330
1E
100
AcDbEntity
  8
0
100
AcDbLine
 10
5.9572
 20
111.637
 30
0.0
 11
15.3741
 21
112.481
 31
0.0
  0
LINE
  5
21E
330
1E
100
AcDbEntity
  8
0
100
AcDbLine
 10
68.8789
 20
113.887
 30
0.0
 11
79.5801
 21
113.606
 31
0.0
  0
LINE
  5
224
330
1E
100
AcDbEntity
  8
0
100
AcDbLine
 10
35.9199
 20
113.606
 30
0.0
 11
46.6211
 21
113.887
 31
0.0
  0
LINE
  5
225
330
1E
100
AcDbEntity
  8
0
100
AcDbLine
 10
25.219
 20
113.1
 30
0.0
 11
35.9199
 21
113.606
 31
0.0
  0
LINE
  5
226
330
1E
100
AcDbEntity
  8
0
100
AcDbLine
 10
15.3741
 20
112.481
 30
0.0
 11
25.219
 21
113.1
 31
0.0
  0
LINE
  5
227
330
1E
100
AcDbEntity
  8
0
100
AcDbLine
 10
5.9572
 20
111.637
 30
0.0
 11
15.3741
 21
112.481
 31
0.0
  0
LINE
  5
228
330
1E
100
AcDbEntity
  8
0
100
AcDbLine
 10
7.95471
 20
111.0
 30
0.0
 11
12.0924
 21
111.0
 31
0.0
  0
LINE
  5
229
330
1E
100
AcDbEntity
  8
0
100
AcDbLine
 10
4.30064
 20
111.0
 30
0.0
 11
7.95471
 21
111.0
 31
0.0
  0
LINE
  5
22A
330
1E
100
AcDbEntity
  8
0
100
AcDbLine
 10
73.9544
 20
105.0
 30
0.0
 11
73.9544
 21
102.0
 31
0.0
  0
LINE
  5
22B
330
1E
100
AcDbEntity
  8
0
100
AcDbLine
 10
73.9544
 20
105.0
 30
0.0
 11
74.065
 21
105.0
 31
0.0
  0
LINE
  5
22C
330
1E
100
AcDbEntity
  8
0
100
AcDbLine
 10
79.95269999999999
 20
105.0
 30
0.0
 11
79.95269999999999
 21
102.0
 31
0.0
  0
LINE
  5
22D
330
1E
100
AcDbEntity
  8
0
100
AcDbLine
 10
79.855
 20
105.0
 30
0.0
 11
79.95269999999999
 21
105.0
 31
0.0
  0
LINE
  5
22E
330
1E
100
AcDbEntity
  8
0
100
AcDbLine
 10
79.5442
 20
105.0
 30
0.0
 11
79.855
 21
105.0
 31
0.0
  0
LINE
  5
22F
330
1E
100
AcDbEntity
  8
0
100
AcDbLine
 10
86.2861
 20
110.0
 30
0.0
 11
92.84930000000001
 21
110.0
 31
0.0
  0
LINE
  5
230
330
1E
100
AcDbEntity
  8
0
100
AcDbLine
 10
79.55370000000001
 20
110.0
 30
0.0
 11
86.2861
 21
110.0
 31
0.0
  0
LINE
  5
231
330
1E
100
AcDbEntity
  8
0
100
AcDbLine
 10
90.6305
 20
110.0
 30
0.0
 11
90.6305
 21
102.0
 31
0.0
  0
LINE
  5
232
330
1E
100
AcDbEntity
  8
0
100
AcDbLine
 10
90.6305
 20
110.0
 30
0.0
 11
92.0447
 21
110.0
 31
0.0
  0
LINE
  5
233
330
1E
100
AcDbEntity
  8
0
100
AcDbLine
 10
92.0447
 20
110.0
 30
0.0
 11
105.2499999999999
 21
110.0
 31
0.0
  0
LINE
  5
234
330
1E
100
AcDbEntity
  8
0
100
AcDbLine
 10
92.0447
 20
110.0
 30
0.0
 11
92.0447
 21
102.0
 31
0.0
  0
LINE
  5
235
330
1E
100
AcDbEntity
  8
0
100
AcDbLine
 10
92.84930000000001
 20
110.0
 30
0.0
 11
98.5565
 21
110.0
 31
0.0
  0
LINE
  5
236
330
1E
100
AcDbEntity
  8
0
100
AcDbLine
 10
98.5565
 20
110.0
 30
0.0
 11
103.4079999999999
 21
110.0
 31
0.0
  0
LINE
  5
237
330
1E
100
AcDbEntity
  8
0
100
AcDbLine
 10
92.84930000000001
 20
111.0
 30
0.0
 11
98.5565
 21
111.0
 31
0.0
  0
LINE
  5
238
330
1E
100
AcDbEntity
  8
0
100
AcDbLine
 10
86.2861
 20
111.0
 30
0.0
 11
92.84930000000001
 21
111.0
 31
0.0
  0
LINE
  5
239
330
1E
100
AcDbEntity
  8
0
100
AcDbLine
 10
79.55370000000001
 20
111.0
 30
0.0
 11
86.2861
 21
111.0
 31
0.0
  0
LINE
  5
23A
330
1E
100
AcDbEntity
  8
0
100
AcDbLine
 10
105.2499999999999
 20
110.0
 30
0.0
 11
107.545
 21
110.0
 31
0.0
  0
LINE
  5
23B
330
1E
100
AcDbEntity
  8
0
100
AcDbLine
 10
105.2499999999999
 20
110.0
 30
0.0
 11
105.2499999999999
 21
102.0
 31
0.0
  0
LINE
  5
23C
330
1E
100
AcDbEntity
  8
0
100
AcDbLine
 10
103.4079999999999
 20
110.0
 30
0.0
 11
107.545
 21
110.0
 31
0.0
  0
LINE
  5
23D
330
1E
100
AcDbEntity
  8
0
100
AcDbLine
 10
107.545
 20
110.0
 30
0.0
 11
111.199
 21
110.0
 31
0.0
  0
LINE
  5
23E
330
1E
100
AcDbEntity
  8
0
100
AcDbLine
 10
98.5565
 20
111.0
 30
0.0
 11
103.4079999999999
 21
111.0
 31
0.0
  0
LINE
  5
23F
330
1E
100
AcDbEntity
  8
0
100
AcDbLine
 10
103.4079999999999
 20
111.0
 30
0.0
 11
107.545
 21
111.0
 31
0.0
  0
LINE
  5
240
330
1E
100
AcDbEntity
  8
0
100
AcDbLine
 10
111.199
 20
110.0
 30
0.0
 11
113.252
 21
110.0
 31
0.0
  0
LINE
  5
241
330
1E
100
AcDbEntity
  8
0
100
AcDbLine
 10
113.252
 20
110.0
 30
0.0
 11
114.822
 21
110.0
 31
0.0
  0
LINE
  5
242
330
1E
100
AcDbEntity
  8
0
100
AcDbLine
 10
107.545
 20
111.0
 30
0.0
 11
111.199
 21
111.0
 31
0.0
  0
LINE
  5
243
330
1E
100
AcDbEntity
  8
0
100
AcDbLine
 10
111.199
 20
111.0
 30
0.0
 11
113.252
 21
111.0
 31
0.0
  0
LINE
  5
244
330
1E
100
AcDbEntity
  8
0
100
AcDbLine
 10
114.822
 20
110.0
 30
0.0
 11
115.25
 21
110.0
 31
0.0
  0
LINE
  5
245
330
1E
100
AcDbEntity
  8
0
100
AcDbLine
 10
113.252
 20
111.0
 30
0.0
 11
114.822
 21
111.0
 31
0.0
  0
LINE
  5
246
330
1E
100
AcDbEntity
  8
0
100
AcDbLine
 10
79.5801
 20
113.606
 30
0.0
 11
90.281
 21
113.1
 31
0.0
  0
LINE
  5
247
330
1E
100
AcDbEntity
  8
0
100
AcDbLine
 10
90.281
 20
113.1
 30
0.0
 11
100.1259
 21
112.481
 31
0.0
  0
LINE
  5
248
330
1E
100
AcDbEntity
  8
0
100
AcDbLine
 10
100.1259
 20
112.481
 30
0.0
 11
109.5429999999999
 21
111.637
 31
0.0
  0
LINE
  5
249
330
1E
100
AcDbEntity
  8
0
100
AcDbLine
 10
109.5429999999999
 20
111.637
 30
0.0
 11
115.25
 21
111.0
 31
0.0
  0
LINE
  5
24A
330
1E
100
AcDbEntity
  8
0
100
AcDbLine
 10
115.25
 20
111.0
 30
0.0
 11
115.25
 21
110.0
 31
0.0
  0
LINE
  5
24B
330
1E
100
AcDbEntity
  8
0
100
AcDbLine
 10
115.25
 20
110.0
 30
0.0
 11
115.25
 21
111.0
 31
0.0
  0
LINE
  5
24C
330
1E
100
AcDbEntity
  8
0
100
AcDbLine
 10
114.822
 20
111.0
 30
0.0
 11
115.25
 21
111.0
 31
0.0
  0
LINE
  5
24D
330
1E
100
AcDbEntity
  8
0
100
AcDbLine
 10
79.0646
 20
105.0
 30
0.0
 11
79.5442
 21
105.0
 31
0.0
  0
LINE
  5
24E
330
1E
100
AcDbEntity
  8
0
100
AcDbLine
 10
78.4535
 20
105.0
 30
0.0
 11
79.0646
 21
105.0
 31
0.0
  0
LINE
  5
24F
330
1E
100
AcDbEntity
  8
0
100
AcDbLine
 10
9.65
 20
102.0
 30
0.0
 11
18.55
 21
102.0
 31
0.0
  0
LINE
  5
250
330
1E
100
AcDbEntity
  8
0
100
AcDbLine
 10
4.25
 20
102.0
 30
0.0
 11
9.65
 21
102.0
 31
0.0
  0
LINE
  5
251
330
1E
100
AcDbEntity
  8
0
100
AcDbLine
 10
4.25
 20
100.0
 30
0.0
 11
9.65
 21
100.0
 31
0.0
  0
LINE
  5
252
330
1E
100
AcDbEntity
  8
0
100
AcDbLine
 10
2.25
 20
100.0
 30
0.0
 11
4.25
 21
100.0
 31
0.0
  0
LINE
  5
253
330
1E
100
AcDbEntity
  8
0
100
AcDbLine
 10
2.25
 20
100.0
 30
0.0
 11
9.25
 21
96.0
 31
0.0
  0
LINE
  5
254
330
1E
100
AcDbEntity
  8
0
100
AcDbLine
 10
2.25
 20
100.0
 30
0.0
 11
2.25
 21
102.0
 31
0.0
  0
LINE
  5
259
330
1E
100
AcDbEntity
  8
0
100
AcDbLine
 10
68.8789
 20
113.887
 30
0.0
 11
46.6211
 21
113.887
 31
0.0
  0
ENDSEC
  0
SECTION
  2
OBJECTS
  0
DICTIONARY
  5
C
330
0
100
AcDbDictionary
281
     1
  3
ACAD_GROUP
350
D
  3
ACAD_LAYOUT
350
19
  3
ACAD_MLINESTYLE
350
16
  3
ACAD_PLOTSETTINGS
350
18
  3
ACAD_PLOTSTYLENAME
350
E
  3
AcDbVariableDictionary
350
25A
  0
DICTIONARY
  5
D
102
{ACAD_REACTORS
330
C
102
}
330
C
100
AcDbDictionary
281
     1
  0
DICTIONARY
  5
19
102
{ACAD_REACTORS
330
C
102
}
330
C
100
AcDbDictionary
281
     1
  3
Layout1
350
1D
  3
Model
350
21
  0
DICTIONARY
  5
16
102
{ACAD_REACTORS
330
C
102
}
330
C
100
AcDbDictionary
281
     1
  3
Standard
350
17
  0
DICTIONARY
  5
18
102
{ACAD_REACTORS
330
C
102
}
330
C
100
AcDbDictionary
281
     1
  0
ACDBDICTIONARYWDFLT
  5
E
102
{ACAD_REACTORS
330
C
102
}
330
C
100
AcDbDictionary
281
     1
  3
Normal
350
F
100
AcDbDictionaryWithDefault
340
F
  0
DICTIONARY
  5
25A
102
{ACAD_REACTORS
330
C
102
}
330
C
100
AcDbDictionary
281
     1
  3
DIMASSOC
350
25B
  0
LAYOUT
  5
1D
102
{ACAD_REACTORS
330
19
102
}
330
19
100
AcDbPlotSettings
  1

  2
hp deskjet 980c series
  4

  6

 40
0.0
 41
0.0
 42
0.0
 43
0.0
 44
0.0
 45
0.0
 46
0.0
 47
0.0
 48
0.0
 49
0.0
140
0.0
141
0.0
142
1.0
143
1.0
 70
   688
 72
     0
 73
     0
 74
     5
  7

 75
    16
147
1.0
148
0.0
149
0.0
100
AcDbLayout
  1
Layout1
 70
     1
 71
     1
 10
0.0
 20
0.0
 11
12.0
 21
9.0
 12
0.0
 22
0.0
 32
0.0
 14
1.000000000000000E+20
 24
1.000000000000000E+20
 34
1.000000000000000E+20
 15
-1.000000000000000E+20
 25
-1.000000000000000E+20
 35
-1.000000000000000E+20
146
0.0
 13
0.0
 23
0.0
 33
0.0
 16
1.0
 26
0.0
 36
0.0
 17
0.0
 27
1.0
 37
0.0
 76
     0
330
1A
  0
LAYOUT
  5
21
102
{ACAD_REACTORS
330
19
102
}
330
19
100
AcDbPlotSettings
  1

  2
hp deskjet 980c series
  4

  6

 40
0.0
 41
0.0
 42
0.0
 43
0.0
 44
0.0
 45
0.0
 46
0.0
 47
0.0
 48
0.0
 49
0.0
140
0.0
141
0.0
142
1.0
143
1.0
 70
  1712
 72
     0
 73
     0
 74
     0
  7

 75
     0
147
1.0
148
0.0
149
0.0
100
AcDbLayout
  1
Model
 70
     1
 71
     0
 10
0.0
 20
0.0
 11
12.0
 21
9.0
 12
0.0
 22
0.0
 32
0.0
 14
0.0
 24
0.0
 34
0.0
 15
0.0
 25
0.0
 35
0.0
146
0.0
 13
0.0
 23
0.0
 33
0.0
 16
1.0
 26
0.0
 36
0.0
 17
0.0
 27
1.0
 37
0.0
 76
     0
330
1E
  0
MLINESTYLE
  5
17
102
{ACAD_REACTORS
330
16
102
}
330
16
100
AcDbMlineStyle
  2
STANDARD
 70
     0
  3

 62
   256
 51
90.0
 52
90.0
 71
     2
 49
0.5
 62
   256
  6
BYLAYER
 49
-0.5
 62
   256
  6
BYLAYER
  0
ACDBPLACEHOLDER
  5
F
102
{ACAD_REACTORS
330
E
102
}
330
E
  0
DICTIONARYVAR
  5
25B
102
{ACAD_REACTORS
330
25A
102
}
330
25A
100
DictionaryVariables
280
     0
  1
1
  0
ENDSEC
  0
EOF
