  0
SECTION
  2
HEADER
  9
$ACADVER
  1
AC1015
  9
$ACADMAINTVER
 70
    13
  9
$DWGCODEPAGE
  3
ANSI_1252
  9
$INSBASE
 10
0.0
 20
0.0
 30
0.0
  9
$EXTMIN
 10
-0.0000000000000026
 20
-0.0000000000000085
 30
0.0
  9
$EXTMAX
 10
75.0
 20
105.0
 30
0.0
  9
$LIMMIN
 10
0.0
 20
0.0
  9
$LIMMAX
 10
12.0
 20
9.0
  9
$ORTHOMODE
 70
     0
  9
$REGENMODE
 70
     1
  9
$FILLMODE
 70
     1
  9
$QTEXTMODE
 70
     0
  9
$MIRRTEXT
 70
     1
  9
$LTSCALE
 40
1.0
  9
$ATTMODE
 70
     1
  9
$TEXTSIZE
 40
0.2
  9
$TRACEWID
 40
0.05
  9
$TEXTSTYLE
  7
Standard
  9
$CLAYER
  8
0
  9
$CELTYPE
  6
Continuous
  9
$CECOLOR
 62
   256
  9
$CELTSCALE
 40
1.0
  9
$DISPSILH
 70
     0
  9
$DIMSCALE
 40
1.0
  9
$DIMASZ
 40
0.18
  9
$DIMEXO
 40
0.0625
  9
$DIMDLI
 40
0.38
  9
$DIMRND
 40
0.0
  9
$DIMDLE
 40
0.0
  9
$DIMEXE
 40
0.18
  9
$DIMTP
 40
0.0
  9
$DIMTM
 40
0.0
  9
$DIMTXT
 40
0.18
  9
$DIMCEN
 40
0.09
  9
$DIMTSZ
 40
0.0
  9
$DIMTOL
 70
     0
  9
$DIMLIM
 70
     0
  9
$DIMTIH
 70
     1
  9
$DIMTOH
 70
     1
  9
$DIMSE1
 70
     0
  9
$DIMSE2
 70
     0
  9
$DIMTAD
 70
     0
  9
$DIMZIN
 70
     0
  9
$DIMBLK
  1

  9
$DIMASO
 70
     1
  9
$DIMSHO
 70
     1
  9
$DIMPOST
  1

  9
$DIMAPOST
  1

  9
$DIMALT
 70
     0
  9
$DIMALTD
 70
     2
  9
$DIMALTF
 40
25.4
  9
$DIMLFAC
 40
1.0
  9
$DIMTOFL
 70
     0
  9
$DIMTVP
 40
0.0
  9
$DIMTIX
 70
     0
  9
$DIMSOXD
 70
     0
  9
$DIMSAH
 70
     0
  9
$DIMBLK1
  1

  9
$DIMBLK2
  1

  9
$DIMSTYLE
  2
Standard
  9
$DIMCLRD
 70
     0
  9
$DIMCLRE
 70
     0
  9
$DIMCLRT
 70
     0
  9
$DIMTFAC
 40
1.0
  9
$DIMGAP
 40
0.09
  9
$DIMJUST
 70
     0
  9
$DIMSD1
 70
     0
  9
$DIMSD2
 70
     0
  9
$DIMTOLJ
 70
     1
  9
$DIMTZIN
 70
     0
  9
$DIMALTZ
 70
     0
  9
$DIMALTTZ
 70
     0
  9
$DIMUPT
 70
     0
  9
$DIMDEC
 70
     4
  9
$DIMTDEC
 70
     4
  9
$DIMALTU
 70
     2
  9
$DIMALTTD
 70
     2
  9
$DIMTXSTY
  7
Standard
  9
$DIMAUNIT
 70
     0
  9
$DIMADEC
 70
     0
  9
$DIMALTRND
 40
0.0
  9
$DIMAZIN
 70
     0
  9
$DIMDSEP
 70
    46
  9
$DIMATFIT
 70
     3
  9
$DIMFRAC
 70
     0
  9
$DIMLDRBLK
  1

  9
$DIMLUNIT
 70
     2
  9
$DIMLWD
 70
    -2
  9
$DIMLWE
 70
    -2
  9
$DIMTMOVE
 70
     0
  9
$LUNITS
 70
     2
  9
$LUPREC
 70
     4
  9
$SKETCHINC
 40
0.1
  9
$FILLETRAD
 40
0.0
  9
$AUNITS
 70
     0
  9
$AUPREC
 70
     0
  9
$MENU
  1
.
  9
$ELEVATION
 40
0.0
  9
$PELEVATION
 40
0.0
  9
$THICKNESS
 40
0.0
  9
$LIMCHECK
 70
     0
  9
$CHAMFERA
 40
0.0
  9
$CHAMFERB
 40
0.0
  9
$CHAMFERC
 40
0.0
  9
$CHAMFERD
 40
0.0
  9
$SKPOLY
 70
     0
  9
$TDCREATE
 40
2454780.841655255
  9
$TDUCREATE
 40
2454780.799988587
  9
$TDUPDATE
 40
2454780.842591840
  9
$TDUUPDATE
 40
2454780.800925174
  9
$TDINDWG
 40
0.0009365856
  9
$TDUSRTIMER
 40
0.0009365856
  9
$USRTIMER
 70
     1
  9
$ANGBASE
 50
0.0
  9
$ANGDIR
 70
     0
  9
$PDMODE
 70
     0
  9
$PDSIZE
 40
0.0
  9
$PLINEWID
 40
0.0
  9
$SPLFRAME
 70
     0
  9
$SPLINETYPE
 70
     6
  9
$SPLINESEGS
 70
     8
  9
$HANDSEED
  5
1AF
  9
$SURFTAB1
 70
     6
  9
$SURFTAB2
 70
     6
  9
$SURFTYPE
 70
     6
  9
$SURFU
 70
     6
  9
$SURFV
 70
     6
  9
$UCSBASE
  2

  9
$UCSNAME
  2

  9
$UCSORG
 10
0.0
 20
0.0
 30
0.0
  9
$UCSXDIR
 10
1.0
 20
0.0
 30
0.0
  9
$UCSYDIR
 10
0.0
 20
1.0
 30
0.0
  9
$UCSORTHOREF
  2

  9
$UCSORTHOVIEW
 70
     1
  9
$UCSORGTOP
 10
0.0
 20
0.0
 30
0.0
  9
$UCSORGBOTTOM
 10
0.0
 20
0.0
 30
0.0
  9
$UCSORGLEFT
 10
0.0
 20
0.0
 30
0.0
  9
$UCSORGRIGHT
 10
0.0
 20
0.0
 30
0.0
  9
$UCSORGFRONT
 10
0.0
 20
0.0
 30
0.0
  9
$UCSORGBACK
 10
0.0
 20
0.0
 30
0.0
  9
$PUCSBASE
  2

  9
$PUCSNAME
  2

  9
$PUCSORG
 10
0.0
 20
0.0
 30
0.0
  9
$PUCSXDIR
 10
1.0
 20
0.0
 30
0.0
  9
$PUCSYDIR
 10
0.0
 20
1.0
 30
0.0
  9
$PUCSORTHOREF
  2

  9
$PUCSORTHOVIEW
 70
     0
  9
$PUCSORGTOP
 10
0.0
 20
0.0
 30
0.0
  9
$PUCSORGBOTTOM
 10
0.0
 20
0.0
 30
0.0
  9
$PUCSORGLEFT
 10
0.0
 20
0.0
 30
0.0
  9
$PUCSORGRIGHT
 10
0.0
 20
0.0
 30
0.0
  9
$PUCSORGFRONT
 10
0.0
 20
0.0
 30
0.0
  9
$PUCSORGBACK
 10
0.0
 20
0.0
 30
0.0
  9
$USERI1
 70
     0
  9
$USERI2
 70
     0
  9
$USERI3
 70
     0
  9
$USERI4
 70
     0
  9
$USERI5
 70
     0
  9
$USERR1
 40
0.0
  9
$USERR2
 40
0.0
  9
$USERR3
 40
0.0
  9
$USERR4
 40
0.0
  9
$USERR5
 40
0.0
  9
$WORLDVIEW
 70
     1
  9
$SHADEDGE
 70
     3
  9
$SHADEDIF
 70
    70
  9
$TILEMODE
 70
     1
  9
$MAXACTVP
 70
    64
  9
$PINSBASE
 10
0.0
 20
0.0
 30
0.0
  9
$PLIMCHECK
 70
     0
  9
$PEXTMIN
 10
1.000000000000000E+20
 20
1.000000000000000E+20
 30
1.000000000000000E+20
  9
$PEXTMAX
 10
-1.000000000000000E+20
 20
-1.000000000000000E+20
 30
-1.000000000000000E+20
  9
$PLIMMIN
 10
0.0
 20
0.0
  9
$PLIMMAX
 10
12.0
 20
9.0
  9
$UNITMODE
 70
     0
  9
$VISRETAIN
 70
     1
  9
$PLINEGEN
 70
     0
  9
$PSLTSCALE
 70
     1
  9
$TREEDEPTH
 70
  3020
  9
$CMLSTYLE
  2
Standard
  9
$CMLJUST
 70
     0
  9
$CMLSCALE
 40
1.0
  9
$PROXYGRAPHICS
 70
     1
  9
$MEASUREMENT
 70
     0
  9
$CELWEIGHT
370
    -1
  9
$ENDCAPS
280
     0
  9
$JOINSTYLE
280
     0
  9
$LWDISPLAY
290
     0
  9
$INSUNITS
 70
     0
  9
$HYPERLINKBASE
  1

  9
$STYLESHEET
  1

  9
$XEDIT
290
     1
  9
$CEPSNTYPE
380
     0
  9
$PSTYLEMODE
290
     1
  9
$FINGERPRINTGUID
  2
{566B3400-D0FA-4BF3-8224-4004F7B9C0C1}
  9
$VERSIONGUID
  2
{082496A3-45F3-4E82-BD32-94734144A89E}
  9
$EXTNAMES
290
     1
  9
$PSVPSCALE
 40
0.0
  9
$OLESTARTUP
290
     0
  0
ENDSEC
  0
SECTION
  2
CLASSES
  0
CLASS
  1
ACDBDICTIONARYWDFLT
  2
AcDbDictionaryWithDefault
  3
AutoCAD 2000
 90
        0
280
     0
281
     0
  0
CLASS
  1
ACDBPLACEHOLDER
  2
AcDbPlaceHolder
  3
AutoCAD 2000
 90
        0
280
     0
281
     0
  0
CLASS
  1
LAYOUT
  2
AcDbLayout
  3
AutoCAD 2000
 90
        0
280
     0
281
     0
  0
CLASS
  1
DICTIONARYVAR
  2
AcDbDictionaryVar
  3
AutoCAD 2000
 90
        0
280
     0
281
     0
  0
ENDSEC
  0
SECTION
  2
TABLES
  0
TABLE
  2
VPORT
  5
8
330
0
100
AcDbSymbolTable
 70
     2
  0
VPORT
  5
1AE
330
8
100
AcDbSymbolTableRecord
100
AcDbViewportTableRecord
  2
*Active
 70
     0
 10
0.0
 20
0.0
 11
1.0
 21
1.0
 12
37.5
 22
52.5
 13
0.0
 23
0.0
 14
1.0
 24
1.0
 15
0.0
 25
0.0
 16
0.0
 26
0.0
 36
1.0
 17
0.0
 27
0.0
 37
0.0
 40
105.8056265984654
 41
2.078104993597951
 42
50.0
 43
0.0
 44
0.0
 50
0.0
 51
0.0
 71
     0
 72
   100
 73
     1
 74
     3
 75
     0
 76
     0
 77
     0
 78
     0
281
     0
 65
     1
110
0.0
120
0.0
130
0.0
111
1.0
121
0.0
131
0.0
112
0.0
122
1.0
132
0.0
 79
     1
146
0.0
  0
ENDTAB
  0
TABLE
  2
LTYPE
  5
5
330
0
100
AcDbSymbolTable
 70
     1
  0
LTYPE
  5
13
330
5
100
AcDbSymbolTableRecord
100
AcDbLinetypeTableRecord
  2
ByBlock
 70
     0
  3

 72
    65
 73
     0
 40
0.0
  0
LTYPE
  5
14
330
5
100
AcDbSymbolTableRecord
100
AcDbLinetypeTableRecord
  2
ByLayer
 70
     0
  3

 72
    65
 73
     0
 40
0.0
  0
LTYPE
  5
15
330
5
100
AcDbSymbolTableRecord
100
AcDbLinetypeTableRecord
  2
Continuous
 70
     0
  3
Solid line
 72
    65
 73
     0
 40
0.0
  0
ENDTAB
  0
TABLE
  2
LAYER
  5
2
330
0
100
AcDbSymbolTable
 70
     1
  0
LAYER
  5
10
330
2
100
AcDbSymbolTableRecord
100
AcDbLayerTableRecord
  2
0
 70
     0
 62
     7
  6
Continuous
370
    -3
390
F
  0
ENDTAB
  0
TABLE
  2
STYLE
  5
3
330
0
100
AcDbSymbolTable
 70
     1
  0
STYLE
  5
11
330
3
100
AcDbSymbolTableRecord
100
AcDbTextStyleTableRecord
  2
Standard
 70
     0
 40
0.0
 41
1.0
 50
0.0
 71
     0
 42
0.2
  3
txt
  4

  0
ENDTAB
  0
TABLE
  2
VIEW
  5
6
330
0
100
AcDbSymbolTable
 70
     0
  0
ENDTAB
  0
TABLE
  2
UCS
  5
7
330
0
100
AcDbSymbolTable
 70
     0
  0
ENDTAB
  0
TABLE
  2
APPID
  5
9
330
0
100
AcDbSymbolTable
 70
     1
  0
APPID
  5
12
330
9
100
AcDbSymbolTableRecord
100
AcDbRegAppTableRecord
  2
ACAD
 70
     0
  0
ENDTAB
  0
TABLE
  2
DIMSTYLE
  5
A
330
0
100
AcDbSymbolTable
 70
     1
100
AcDbDimStyleTable
 71
     0
  0
DIMSTYLE
105
1A8
330
A
100
AcDbSymbolTableRecord
100
AcDbDimStyleTableRecord
  2
Standard
 70
     0
340
11
  0
ENDTAB
  0
TABLE
  2
BLOCK_RECORD
  5
1
330
0
100
AcDbSymbolTable
 70
     0
  0
BLOCK_RECORD
  5
1E
330
1
100
AcDbSymbolTableRecord
100
AcDbBlockTableRecord
  2
*Model_Space
340
21
  0
BLOCK_RECORD
  5
1A
330
1
100
AcDbSymbolTableRecord
100
AcDbBlockTableRecord
  2
*Paper_Space
340
1D
  0
ENDTAB
  0
ENDSEC
  0
SECTION
  2
BLOCKS
  0
BLOCK
  5
1F
330
1E
100
AcDbEntity
  8
0
100
AcDbBlockBegin
  2
*Model_Space
 70
     0
 10
0.0
 20
0.0
 30
0.0
  3
*Model_Space
  1

  0
ENDBLK
  5
20
330
1E
100
AcDbEntity
  8
0
100
AcDbBlockEnd
  0
BLOCK
  5
1B
330
1A
100
AcDbEntity
 67
     1
  8
0
100
AcDbBlockBegin
  2
*Paper_Space
 70
     0
 10
0.0
 20
0.0
 30
0.0
  3
*Paper_Space
  1

  0
ENDBLK
  5
1C
330
1A
100
AcDbEntity
 67
     1
  8
0
100
AcDbBlockEnd
  0
ENDSEC
  0
SECTION
  2
ENTITIES
  0
LINE
  5
22
330
1E
100
AcDbEntity
  8
0
100
AcDbLine
 10
13.5
 20
-0.000000000000007
 30
0.0
 11
14.4
 21
-0.0000000000000067
 31
0.0
  0
LINE
  5
23
330
1E
100
AcDbEntity
  8
0
100
AcDbLine
 10
13.5
 20
-0.000000000000007
 30
0.0
 11
14.4
 21
-0.0000000000000074
 31
0.0
  0
LINE
  5
24
330
1E
100
AcDbEntity
  8
0
100
AcDbLine
 10
13.5
 20
-0.000000000000007
 30
0.0
 11
13.5
 21
2.99999999999999
 31
0.0
  0
LINE
  5
25
330
1E
100
AcDbEntity
  8
0
100
AcDbLine
 10
14.4
 20
-0.0000000000000074
 30
0.0
 11
16.69999999999999
 21
-0.0000000000000078
 31
0.0
  0
LINE
  5
26
330
1E
100
AcDbEntity
  8
0
100
AcDbLine
 10
14.4
 20
-0.0000000000000067
 30
0.0
 11
16.69999999999999
 21
-0.0000000000000063
 31
0.0
  0
LINE
  5
27
330
1E
100
AcDbEntity
  8
0
100
AcDbLine
 10
13.5
 20
2.99999999999999
 30
0.0
 11
14.4
 21
2.99999999999999
 31
0.0
  0
LINE
  5
28
330
1E
100
AcDbEntity
  8
0
100
AcDbLine
 10
13.5
 20
2.99999999999999
 30
0.0
 11
13.5
 21
-0.0000000000000069
 31
0.0
  0
LINE
  5
29
330
1E
100
AcDbEntity
  8
0
100
AcDbLine
 10
14.4
 20
2.99999999999999
 30
0.0
 11
16.69999999999999
 21
2.99999999999999
 31
0.0
  0
LINE
  5
2A
330
1E
100
AcDbEntity
  8
0
100
AcDbLine
 10
15.5
 20
2.99999999999999
 30
0.0
 11
15.5
 21
43.0
 31
0.0
  0
LINE
  5
2B
330
1E
100
AcDbEntity
  8
0
100
AcDbLine
 10
16.69999999999999
 20
-0.0000000000000078
 30
0.0
 11
20.6
 21
-0.0000000000000081
 31
0.0
  0
LINE
  5
2C
330
1E
100
AcDbEntity
  8
0
100
AcDbLine
 10
16.69999999999999
 20
-0.0000000000000063
 30
0.0
 11
20.6
 21
-0.000000000000006
 31
0.0
  0
LINE
  5
2D
330
1E
100
AcDbEntity
  8
0
100
AcDbLine
 10
16.69999999999999
 20
2.99999999999999
 30
0.0
 11
20.6
 21
2.99999999999999
 31
0.0
  0
LINE
  5
2E
330
1E
100
AcDbEntity
  8
0
100
AcDbLine
 10
18.5
 20
-0.000000000000007
 30
0.0
 11
19.19999999999999
 21
-0.0000000000000067
 31
0.0
  0
LINE
  5
2F
330
1E
100
AcDbEntity
  8
0
100
AcDbLine
 10
18.5
 20
-0.000000000000007
 30
0.0
 11
19.19999999999999
 21
-0.0000000000000073
 31
0.0
  0
LINE
  5
30
330
1E
100
AcDbEntity
  8
0
100
AcDbLine
 10
18.39999999999999
 20
43.0
 30
0.0
 11
22.0
 21
43.0
 31
0.0
  0
LINE
  5
31
330
1E
100
AcDbEntity
  8
0
100
AcDbLine
 10
16.3
 20
43.0
 30
0.0
 11
18.39999999999999
 21
43.0
 31
0.0
  0
LINE
  5
32
330
1E
100
AcDbEntity
  8
0
100
AcDbLine
 10
15.5
 20
43.0
 30
0.0
 11
16.3
 21
43.0
 31
0.0
  0
LINE
  5
33
330
1E
100
AcDbEntity
  8
0
100
AcDbLine
 10
15.5
 20
43.0
 30
0.0
 11
15.5
 21
3.0
 31
0.0
  0
LINE
  5
34
330
1E
100
AcDbEntity
  8
0
100
AcDbLine
 10
0.279155999999998
 20
101.0
 30
0.0
 11
1.302729999999999
 21
101.0
 31
0.0
  0
LINE
  5
35
330
1E
100
AcDbEntity
  8
0
100
AcDbLine
 10
0.279155999999998
 20
101.0
 30
0.0
 11
1.0
 21
101.0
 31
0.0
  0
LINE
  5
36
330
1E
100
AcDbEntity
  8
0
100
AcDbLine
 10
0.279155999999998
 20
101.0
 30
0.0
 11
1.302729999999999
 21
101.0
 31
0.0
  0
LINE
  5
37
330
1E
100
AcDbEntity
  8
0
100
AcDbLine
 10
0.279155999999998
 20
101.0
 30
0.0
 11
1.0
 21
101.0
 31
0.0
  0
LINE
  5
38
330
1E
100
AcDbEntity
  8
0
100
AcDbLine
 10
-0.0000000000000024
 20
101.0
 30
0.0
 11
0.279155999999998
 21
101.0
 31
0.0
  0
LINE
  5
39
330
1E
100
AcDbEntity
  8
0
100
AcDbLine
 10
-0.0000000000000024
 20
101.0
 30
0.0
 11
-0.0000000000000024
 21
102.0
 31
0.0
  0
LINE
  5
3A
330
1E
100
AcDbEntity
  8
0
100
AcDbLine
 10
5.243469999999999
 20
96.0
 30
0.0
 11
6.00884
 21
96.0
 31
0.0
  0
LINE
  5
3B
330
1E
100
AcDbEntity
  8
0
100
AcDbLine
 10
5.243469999999999
 20
96.0
 30
0.0
 11
13.5584
 21
96.0
 31
0.0
  0
LINE
  5
3C
330
1E
100
AcDbEntity
  8
0
100
AcDbLine
 10
5.243469999999999
 20
96.0
 30
0.0
 11
12.0
 21
96.0
 31
0.0
  0
LINE
  5
3D
330
1E
100
AcDbEntity
  8
0
100
AcDbLine
 10
6.00884
 20
96.0
 30
0.0
 11
14.3238
 21
96.0
 31
0.0
  0
LINE
  5
3E
330
1E
100
AcDbEntity
  8
0
100
AcDbLine
 10
6.00884
 20
96.0
 30
0.0
 11
12.0
 21
96.0
 31
0.0
  0
LINE
  5
3F
330
1E
100
AcDbEntity
  8
0
100
AcDbLine
 10
3.0
 20
96.0
 30
0.0
 11
12.0
 21
96.0
 31
0.0
  0
LINE
  5
40
330
1E
100
AcDbEntity
  8
0
100
AcDbLine
 10
12.0
 20
96.0
 30
0.0
 11
14.0
 21
95.5
 31
0.0
  0
LINE
  5
41
330
1E
100
AcDbEntity
  8
0
100
AcDbLine
 10
2.641729999999999
 20
101.0
 30
0.0
 11
5.024809999999999
 21
101.0
 31
0.0
  0
LINE
  5
42
330
1E
100
AcDbEntity
  8
0
100
AcDbLine
 10
1.302729999999999
 20
101.0
 30
0.0
 11
2.641729999999999
 21
101.0
 31
0.0
  0
LINE
  5
43
330
1E
100
AcDbEntity
  8
0
100
AcDbLine
 10
3.395709999999999
 20
101.0
 30
0.0
 11
5.243469999999999
 21
96.0
 31
0.0
  0
LINE
  5
44
330
1E
100
AcDbEntity
  8
0
100
AcDbLine
 10
3.395709999999999
 20
101.0
 30
0.0
 11
4.16108
 21
101.0
 31
0.0
  0
LINE
  5
45
330
1E
100
AcDbEntity
  8
0
100
AcDbLine
 10
4.16108
 20
101.0
 30
0.0
 11
6.00884
 21
96.0
 31
0.0
  0
LINE
  5
46
330
1E
100
AcDbEntity
  8
0
100
AcDbLine
 10
4.16108
 20
101.0
 30
0.0
 11
10.98349999999999
 21
101.0
 31
0.0
  0
LINE
  5
47
330
1E
100
AcDbEntity
  8
0
100
AcDbLine
 10
10.8871
 20
101.0
 30
0.0
 11
14.60919999999999
 21
101.0
 31
0.0
  0
LINE
  5
48
330
1E
100
AcDbEntity
  8
0
100
AcDbLine
 10
7.7233
 20
101.0
 30
0.0
 11
10.8871
 21
101.0
 31
0.0
  0
LINE
  5
49
330
1E
100
AcDbEntity
  8
0
100
AcDbLine
 10
5.024809999999999
 20
101.0
 30
0.0
 11
7.7233
 21
101.0
 31
0.0
  0
LINE
  5
4A
330
1E
100
AcDbEntity
  8
0
100
AcDbLine
 10
4.16108
 20
101.0
 30
0.0
 11
10.98349999999999
 21
101.0
 31
0.0
  0
LINE
  5
4B
330
1E
100
AcDbEntity
  8
0
100
AcDbLine
 10
3.0
 20
96.0
 30
0.0
 11
12.0
 21
96.0
 31
0.0
  0
LINE
  5
4C
330
1E
100
AcDbEntity
  8
0
100
AcDbLine
 10
0.9999999999999978
 20
101.0
 30
0.0
 11
3.395709999999999
 21
101.0
 31
0.0
  0
LINE
  5
4D
330
1E
100
AcDbEntity
  8
0
100
AcDbLine
 10
0.9999999999999978
 20
101.0
 30
0.0
 11
3.395709999999999
 21
101.0
 31
0.0
  0
LINE
  5
4E
330
1E
100
AcDbEntity
  8
0
100
AcDbLine
 10
0.9999999999999978
 20
101.0
 30
0.0
 11
3.0
 21
96.0
 31
0.0
  0
LINE
  5
4F
330
1E
100
AcDbEntity
  8
0
100
AcDbLine
 10
12.3977
 20
96.0
 30
0.0
 11
13.8119
 21
96.0
 31
0.0
  0
LINE
  5
50
330
1E
100
AcDbEntity
  8
0
100
AcDbLine
 10
12.3977
 20
96.0
 30
0.0
 11
18.7617
 21
96.0
 31
0.0
  0
LINE
  5
51
330
1E
100
AcDbEntity
  8
0
100
AcDbLine
 10
-0.0000000000000026
 20
102.0
 30
0.0
 11
3.72209
 21
102.637
 31
0.0
  0
LINE
  5
52
330
1E
100
AcDbEntity
  8
0
100
AcDbLine
 10
0.279155999999998
 20
102.0
 30
0.0
 11
1.302729999999999
 21
102.0
 31
0.0
  0
LINE
  5
53
330
1E
100
AcDbEntity
  8
0
100
AcDbLine
 10
10.8871
 20
102.0
 30
0.0
 11
14.60919999999999
 21
102.0
 31
0.0
  0
LINE
  5
54
330
1E
100
AcDbEntity
  8
0
100
AcDbLine
 10
7.7233
 20
102.0
 30
0.0
 11
10.8871
 21
102.0
 31
0.0
  0
LINE
  5
55
330
1E
100
AcDbEntity
  8
0
100
AcDbLine
 10
5.024809999999999
 20
102.0
 30
0.0
 11
7.7233
 21
102.0
 31
0.0
  0
LINE
  5
56
330
1E
100
AcDbEntity
  8
0
100
AcDbLine
 10
2.641729999999999
 20
102.0
 30
0.0
 11
5.024809999999999
 21
102.0
 31
0.0
  0
LINE
  5
57
330
1E
100
AcDbEntity
  8
0
100
AcDbLine
 10
1.302729999999999
 20
102.0
 30
0.0
 11
2.641729999999999
 21
102.0
 31
0.0
  0
LINE
  5
58
330
1E
100
AcDbEntity
  8
0
100
AcDbLine
 10
3.72209
 20
102.637
 30
0.0
 11
9.863519999999999
 21
103.481
 31
0.0
  0
LINE
  5
59
330
1E
100
AcDbEntity
  8
0
100
AcDbLine
 10
9.863519999999999
 20
103.481
 30
0.0
 11
16.28409999999999
 21
104.0999999999999
 31
0.0
  0
LINE
  5
5A
330
1E
100
AcDbEntity
  8
0
100
AcDbLine
 10
3.72209
 20
102.637
 30
0.0
 11
9.863519999999999
 21
103.481
 31
0.0
  0
LINE
  5
5B
330
1E
100
AcDbEntity
  8
0
100
AcDbLine
 10
0.279155999999998
 20
102.0
 30
0.0
 11
1.302729999999999
 21
102.0
 31
0.0
  0
LINE
  5
5C
330
1E
100
AcDbEntity
  8
0
100
AcDbLine
 10
-0.0000000000000024
 20
102.0
 30
0.0
 11
0.279155999999998
 21
102.0
 31
0.0
  0
LINE
  5
5D
330
1E
100
AcDbEntity
  8
0
100
AcDbLine
 10
-0.0000000000000024
 20
102.0
 30
0.0
 11
-0.0000000000000024
 21
101.0
 31
0.0
  0
LINE
  5
5E
330
1E
100
AcDbEntity
  8
0
100
AcDbLine
 10
-0.0000000000000024
 20
102.0
 30
0.0
 11
3.72209
 21
102.637
 31
0.0
  0
LINE
  5
5F
330
1E
100
AcDbEntity
  8
0
100
AcDbLine
 10
10.98349999999999
 20
101.0
 30
0.0
 11
12.3977
 21
96.0
 31
0.0
  0
LINE
  5
60
330
1E
100
AcDbEntity
  8
0
100
AcDbLine
 10
10.98349999999999
 20
101.0
 30
0.0
 11
12.3977
 21
101.0
 31
0.0
  0
LINE
  5
61
330
1E
100
AcDbEntity
  8
0
100
AcDbLine
 10
13.5584
 20
96.0
 30
0.0
 11
15.4061
 21
95.5
 31
0.0
  0
LINE
  5
62
330
1E
100
AcDbEntity
  8
0
100
AcDbLine
 10
16.792
 20
84.0
 30
0.0
 11
17.5573
 21
84.0
 31
0.0
  0
LINE
  5
63
330
1E
100
AcDbEntity
  8
0
100
AcDbLine
 10
16.792
 20
84.0
 30
0.0
 11
19.19999999999999
 21
84.0
 31
0.0
  0
LINE
  5
64
330
1E
100
AcDbEntity
  8
0
100
AcDbLine
 10
16.792
 20
84.0
 30
0.0
 11
18.5
 21
84.0
 31
0.0
  0
LINE
  5
65
330
1E
100
AcDbEntity
  8
0
100
AcDbLine
 10
16.33
 20
84.50000000000001
 30
0.0
 11
17.0954
 21
84.50000000000001
 31
0.0
  0
LINE
  5
66
330
1E
100
AcDbEntity
  8
0
100
AcDbLine
 10
16.33
 20
84.50000000000001
 30
0.0
 11
16.792
 21
84.0
 31
0.0
  0
LINE
  5
67
330
1E
100
AcDbEntity
  8
0
100
AcDbLine
 10
16.33
 20
84.50000000000001
 30
0.0
 11
16.33
 21
94.0
 31
0.0
  0
LINE
  5
68
330
1E
100
AcDbEntity
  8
0
100
AcDbLine
 10
17.5573
 20
84.0
 30
0.0
 11
21.0
 21
84.0
 31
0.0
  0
LINE
  5
69
330
1E
100
AcDbEntity
  8
0
100
AcDbLine
 10
17.5573
 20
84.0
 30
0.0
 11
18.5
 21
84.0
 31
0.0
  0
LINE
  5
6A
330
1E
100
AcDbEntity
  8
0
100
AcDbLine
 10
17.0954
 20
84.50000000000001
 30
0.0
 11
17.5573
 21
84.0
 31
0.0
  0
LINE
  5
6B
330
1E
100
AcDbEntity
  8
0
100
AcDbLine
 10
17.0954
 20
84.50000000000001
 30
0.0
 11
17.0954
 21
94.0
 31
0.0
  0
LINE
  5
6C
330
1E
100
AcDbEntity
  8
0
100
AcDbLine
 10
15.5
 20
84.0
 30
0.0
 11
18.5
 21
84.0
 31
0.0
  0
LINE
  5
6D
330
1E
100
AcDbEntity
  8
0
100
AcDbLine
 10
14.3238
 20
96.0
 30
0.0
 11
16.1715
 21
95.5
 31
0.0
  0
LINE
  5
6E
330
1E
100
AcDbEntity
  8
0
100
AcDbLine
 10
16.33
 20
94.0
 30
0.0
 11
16.33
 21
84.50000000000001
 31
0.0
  0
LINE
  5
70
330
1E
100
AcDbEntity
  8
0
100
AcDbLine
 10
15.4061
 20
95.5
 30
0.0
 11
16.33
 21
94.0
 31
0.0
  0
LINE
  5
71
330
1E
100
AcDbEntity
  8
0
100
AcDbLine
 10
17.0954
 20
94.0
 30
0.0
 11
17.0954
 21
84.50000000000001
 31
0.0
  0
LINE
  5
72
330
1E
100
AcDbEntity
  8
0
100
AcDbLine
 10
16.1715
 20
95.5
 30
0.0
 11
17.0954
 21
94.0
 31
0.0
  0
LINE
  5
73
330
1E
100
AcDbEntity
  8
0
100
AcDbLine
 10
15.0
 20
94.0
 30
0.0
 11
15.0
 21
84.50000000000001
 31
0.0
  0
LINE
  5
74
330
1E
100
AcDbEntity
  8
0
100
AcDbLine
 10
15.0
 20
84.50000000000001
 30
0.0
 11
15.0
 21
94.0
 31
0.0
  0
LINE
  5
75
330
1E
100
AcDbEntity
  8
0
100
AcDbLine
 10
15.0
 20
84.50000000000001
 30
0.0
 11
15.5
 21
84.0
 31
0.0
  0
LINE
  5
76
330
1E
100
AcDbEntity
  8
0
100
AcDbLine
 10
14.0
 20
95.5
 30
0.0
 11
15.0
 21
94.0
 31
0.0
  0
LINE
  5
77
330
1E
100
AcDbEntity
  8
0
100
AcDbLine
 10
14.60919999999999
 20
101.0
 30
0.0
 11
18.8895
 21
101.0
 31
0.0
  0
LINE
  5
78
330
1E
100
AcDbEntity
  8
0
100
AcDbLine
 10
14.60919999999999
 20
102.0
 30
0.0
 11
18.8895
 21
102.0
 31
0.0
  0
LINE
  5
79
330
1E
100
AcDbEntity
  8
0
100
AcDbLine
 10
16.28409999999999
 20
104.0999999999999
 30
0.0
 11
23.263
 21
104.606
 31
0.0
  0
LINE
  5
7A
330
1E
100
AcDbEntity
  8
0
100
AcDbLine
 10
13.8119
 20
96.0
 30
0.0
 11
20.17589999999999
 21
96.0
 31
0.0
  0
LINE
  5
7B
330
1E
100
AcDbEntity
  8
0
100
AcDbLine
 10
12.3977
 20
101.0
 30
0.0
 11
22.6082
 21
101.0
 31
0.0
  0
LINE
  5
7C
330
1E
100
AcDbEntity
  8
0
100
AcDbLine
 10
12.3977
 20
101.0
 30
0.0
 11
13.8119
 21
96.0
 31
0.0
  0
LINE
  5
7D
330
1E
100
AcDbEntity
  8
0
100
AcDbLine
 10
18.5
 20
43.0
 30
0.0
 11
18.5
 21
84.0
 31
0.0
  0
LINE
  5
7E
330
1E
100
AcDbEntity
  8
0
100
AcDbLine
 10
19.19999999999999
 20
-0.0000000000000073
 30
0.0
 11
21.0
 21
-0.0000000000000076
 31
0.0
  0
LINE
  5
7F
330
1E
100
AcDbEntity
  8
0
100
AcDbLine
 10
20.6
 20
-0.0000000000000081
 30
0.0
 11
25.6
 21
-0.0000000000000083
 31
0.0
  0
LINE
  5
80
330
1E
100
AcDbEntity
  8
0
100
AcDbLine
 10
21.0
 20
-0.0000000000000076
 30
0.0
 11
24.1
 21
-0.0000000000000079
 31
0.0
  0
LINE
  5
81
330
1E
100
AcDbEntity
  8
0
100
AcDbLine
 10
20.6
 20
-0.000000000000006
 30
0.0
 11
25.6
 21
-0.0000000000000058
 31
0.0
  0
LINE
  5
82
330
1E
100
AcDbEntity
  8
0
100
AcDbLine
 10
21.0
 20
-0.0000000000000065
 30
0.0
 11
24.1
 21
-0.0000000000000062
 31
0.0
  0
LINE
  5
83
330
1E
100
AcDbEntity
  8
0
100
AcDbLine
 10
19.19999999999999
 20
-0.0000000000000067
 30
0.0
 11
21.0
 21
-0.0000000000000065
 31
0.0
  0
LINE
  5
84
330
1E
100
AcDbEntity
  8
0
100
AcDbLine
 10
20.6
 20
2.99999999999999
 30
0.0
 11
25.6
 21
3.0
 31
0.0
  0
LINE
  5
85
330
1E
100
AcDbEntity
  8
0
100
AcDbLine
 10
24.1
 20
-0.0000000000000079
 30
0.0
 11
28.1
 21
-0.000000000000008
 31
0.0
  0
LINE
  5
86
330
1E
100
AcDbEntity
  8
0
100
AcDbLine
 10
25.6
 20
-0.0000000000000083
 30
0.0
 11
31.3
 21
-0.0000000000000084
 31
0.0
  0
LINE
  5
87
330
1E
100
AcDbEntity
  8
0
100
AcDbLine
 10
24.1
 20
-0.0000000000000062
 30
0.0
 11
28.1
 21
-0.000000000000006
 31
0.0
  0
LINE
  5
88
330
1E
100
AcDbEntity
  8
0
100
AcDbLine
 10
25.6
 20
-0.0000000000000058
 30
0.0
 11
31.3
 21
-0.0000000000000056
 31
0.0
  0
LINE
  5
89
330
1E
100
AcDbEntity
  8
0
100
AcDbLine
 10
25.6
 20
3.0
 30
0.0
 11
31.3
 21
3.0
 31
0.0
  0
LINE
  5
8A
330
1E
100
AcDbEntity
  8
0
100
AcDbLine
 10
21.2365
 20
84.0
 30
0.0
 11
22.6508
 21
84.0
 31
0.0
  0
LINE
  5
8B
330
1E
100
AcDbEntity
  8
0
100
AcDbLine
 10
21.2365
 20
84.0
 30
0.0
 11
24.1
 21
84.0
 31
0.0
  0
LINE
  5
8C
330
1E
100
AcDbEntity
  8
0
100
AcDbLine
 10
22.6508
 20
84.0
 30
0.0
 11
24.1
 21
84.0
 31
0.0
  0
LINE
  5
8D
330
1E
100
AcDbEntity
  8
0
100
AcDbLine
 10
26.1863
 20
84.0
 30
0.0
 11
26.1863
 21
96.0
 31
0.0
  0
LINE
  5
8E
330
1E
100
AcDbEntity
  8
0
100
AcDbLine
 10
22.0
 20
43.0
 30
0.0
 11
26.6
 21
43.0
 31
0.0
  0
LINE
  5
8F
330
1E
100
AcDbEntity
  8
0
100
AcDbLine
 10
28.1
 20
-0.000000000000008
 30
0.0
 11
32.6
 21
-0.0000000000000082
 31
0.0
  0
LINE
  5
90
330
1E
100
AcDbEntity
  8
0
100
AcDbLine
 10
28.1
 20
-0.000000000000006
 30
0.0
 11
32.6
 21
-0.0000000000000059
 31
0.0
  0
LINE
  5
91
330
1E
100
AcDbEntity
  8
0
100
AcDbLine
 10
26.6
 20
43.0
 30
0.0
 11
31.8
 21
43.0
 31
0.0
  0
LINE
  5
92
330
1E
100
AcDbEntity
  8
0
100
AcDbLine
 10
24.1
 20
84.0
 30
0.0
 11
28.1
 21
84.0
 31
0.0
  0
LINE
  5
93
330
1E
100
AcDbEntity
  8
0
100
AcDbLine
 10
31.3
 20
-0.0000000000000084
 30
0.0
 11
37.5
 21
-0.0000000000000085
 31
0.0
  0
LINE
  5
94
330
1E
100
AcDbEntity
  8
0
100
AcDbLine
 10
32.6
 20
-0.0000000000000082
 30
0.0
 11
37.5
 21
-0.0000000000000082
 31
0.0
  0
LINE
  5
95
330
1E
100
AcDbEntity
  8
0
100
AcDbLine
 10
37.5
 20
-0.0000000000000082
 30
0.0
 11
42.4
 21
-0.0000000000000082
 31
0.0
  0
LINE
  5
96
330
1E
100
AcDbEntity
  8
0
100
AcDbLine
 10
37.5
 20
-0.0000000000000085
 30
0.0
 11
43.7
 21
-0.0000000000000084
 31
0.0
  0
LINE
  5
97
330
1E
100
AcDbEntity
  8
0
100
AcDbLine
 10
37.5
 20
-0.0000000000000059
 30
0.0
 11
42.4
 21
-0.0000000000000059
 31
0.0
  0
LINE
  5
98
330
1E
100
AcDbEntity
  8
0
100
AcDbLine
 10
37.5
 20
-0.0000000000000056
 30
0.0
 11
43.7
 21
-0.0000000000000056
 31
0.0
  0
LINE
  5
99
330
1E
100
AcDbEntity
  8
0
100
AcDbLine
 10
37.5
 20
3.0
 30
0.0
 11
43.7
 21
3.0
 31
0.0
  0
LINE
  5
9A
330
1E
100
AcDbEntity
  8
0
100
AcDbLine
 10
32.6
 20
-0.0000000000000059
 30
0.0
 11
37.5
 21
-0.0000000000000059
 31
0.0
  0
LINE
  5
9B
330
1E
100
AcDbEntity
  8
0
100
AcDbLine
 10
31.3
 20
-0.0000000000000056
 30
0.0
 11
37.5
 21
-0.0000000000000056
 31
0.0
  0
LINE
  5
9C
330
1E
100
AcDbEntity
  8
0
100
AcDbLine
 10
31.3
 20
3.0
 30
0.0
 11
37.5
 21
3.0
 31
0.0
  0
LINE
  5
9D
330
1E
100
AcDbEntity
  8
0
100
AcDbLine
 10
42.4
 20
-0.0000000000000082
 30
0.0
 11
46.9
 21
-0.000000000000008
 31
0.0
  0
LINE
  5
9E
330
1E
100
AcDbEntity
  8
0
100
AcDbLine
 10
43.7
 20
-0.0000000000000084
 30
0.0
 11
49.4
 21
-0.0000000000000083
 31
0.0
  0
LINE
  5
9F
330
1E
100
AcDbEntity
  8
0
100
AcDbLine
 10
42.4
 20
-0.0000000000000059
 30
0.0
 11
46.9
 21
-0.000000000000006
 31
0.0
  0
LINE
  5
A0
330
1E
100
AcDbEntity
  8
0
100
AcDbLine
 10
46.9
 20
-0.000000000000008
 30
0.0
 11
50.89999999999999
 21
-0.0000000000000079
 31
0.0
  0
LINE
  5
A1
330
1E
100
AcDbEntity
  8
0
100
AcDbLine
 10
46.9
 20
-0.000000000000006
 30
0.0
 11
50.89999999999999
 21
-0.0000000000000062
 31
0.0
  0
LINE
  5
A2
330
1E
100
AcDbEntity
  8
0
100
AcDbLine
 10
43.7
 20
-0.0000000000000056
 30
0.0
 11
49.4
 21
-0.0000000000000058
 31
0.0
  0
LINE
  5
A3
330
1E
100
AcDbEntity
  8
0
100
AcDbLine
 10
43.7
 20
3.0
 30
0.0
 11
49.4
 21
3.0
 31
0.0
  0
LINE
  5
A4
330
1E
100
AcDbEntity
  8
0
100
AcDbLine
 10
50.89999999999999
 20
-0.0000000000000079
 30
0.0
 11
54.0
 21
-0.0000000000000076
 31
0.0
  0
LINE
  5
A5
330
1E
100
AcDbEntity
  8
0
100
AcDbLine
 10
54.0
 20
-0.0000000000000076
 30
0.0
 11
55.8
 21
-0.0000000000000073
 31
0.0
  0
LINE
  5
A6
330
1E
100
AcDbEntity
  8
0
100
AcDbLine
 10
55.8
 20
-0.0000000000000073
 30
0.0
 11
56.5
 21
-0.000000000000007
 31
0.0
  0
LINE
  5
A7
330
1E
100
AcDbEntity
  8
0
100
AcDbLine
 10
54.4
 20
-0.0000000000000081
 30
0.0
 11
58.3
 21
-0.0000000000000078
 31
0.0
  0
LINE
  5
A8
330
1E
100
AcDbEntity
  8
0
100
AcDbLine
 10
49.4
 20
-0.0000000000000083
 30
0.0
 11
54.4
 21
-0.0000000000000081
 31
0.0
  0
LINE
  5
A9
330
1E
100
AcDbEntity
  8
0
100
AcDbLine
 10
50.89999999999999
 20
-0.0000000000000062
 30
0.0
 11
54.0
 21
-0.0000000000000065
 31
0.0
  0
LINE
  5
AA
330
1E
100
AcDbEntity
  8
0
100
AcDbLine
 10
54.0
 20
-0.0000000000000065
 30
0.0
 11
55.8
 21
-0.0000000000000067
 31
0.0
  0
LINE
  5
AB
330
1E
100
AcDbEntity
  8
0
100
AcDbLine
 10
58.3
 20
-0.0000000000000078
 30
0.0
 11
60.6
 21
-0.0000000000000074
 31
0.0
  0
LINE
  5
AC
330
1E
100
AcDbEntity
  8
0
100
AcDbLine
 10
55.8
 20
-0.0000000000000067
 30
0.0
 11
56.5
 21
-0.000000000000007
 31
0.0
  0
LINE
  5
AD
330
1E
100
AcDbEntity
  8
0
100
AcDbLine
 10
49.4
 20
-0.0000000000000058
 30
0.0
 11
54.4
 21
-0.000000000000006
 31
0.0
  0
LINE
  5
AE
330
1E
100
AcDbEntity
  8
0
100
AcDbLine
 10
54.4
 20
-0.000000000000006
 30
0.0
 11
58.3
 21
-0.0000000000000063
 31
0.0
  0
LINE
  5
AF
330
1E
100
AcDbEntity
  8
0
100
AcDbLine
 10
58.3
 20
-0.0000000000000063
 30
0.0
 11
60.6
 21
-0.0000000000000067
 31
0.0
  0
LINE
  5
B0
330
1E
100
AcDbEntity
  8
0
100
AcDbLine
 10
58.3
 20
2.99999999999999
 30
0.0
 11
60.6
 21
2.99999999999999
 31
0.0
  0
LINE
  5
B1
330
1E
100
AcDbEntity
  8
0
100
AcDbLine
 10
60.6
 20
-0.0000000000000074
 30
0.0
 11
61.5
 21
-0.000000000000007
 31
0.0
  0
LINE
  5
B2
330
1E
100
AcDbEntity
  8
0
100
AcDbLine
 10
61.5
 20
2.99999999999999
 30
0.0
 11
61.5
 21
-0.0000000000000069
 31
0.0
  0
LINE
  5
B3
330
1E
100
AcDbEntity
  8
0
100
AcDbLine
 10
60.6
 20
-0.0000000000000067
 30
0.0
 11
61.5
 21
-0.000000000000007
 31
0.0
  0
LINE
  5
B4
330
1E
100
AcDbEntity
  8
0
100
AcDbLine
 10
61.5
 20
-0.000000000000007
 30
0.0
 11
61.5
 21
2.99999999999999
 31
0.0
  0
LINE
  5
B5
330
1E
100
AcDbEntity
  8
0
100
AcDbLine
 10
60.6
 20
2.99999999999999
 30
0.0
 11
61.5
 21
2.99999999999999
 31
0.0
  0
LINE
  5
B6
330
1E
100
AcDbEntity
  8
0
100
AcDbLine
 10
59.5
 20
2.99999999999999
 30
0.0
 11
59.5
 21
43.0
 31
0.0
  0
LINE
  5
B7
330
1E
100
AcDbEntity
  8
0
100
AcDbLine
 10
49.4
 20
3.0
 30
0.0
 11
54.4
 21
2.99999999999999
 31
0.0
  0
LINE
  5
B8
330
1E
100
AcDbEntity
  8
0
100
AcDbLine
 10
54.4
 20
2.99999999999999
 30
0.0
 11
58.3
 21
2.99999999999999
 31
0.0
  0
LINE
  5
B9
330
1E
100
AcDbEntity
  8
0
100
AcDbLine
 10
56.5
 20
43.0
 30
0.0
 11
56.5
 21
84.0
 31
0.0
  0
LINE
  5
BA
330
1E
100
AcDbEntity
  8
0
100
AcDbLine
 10
53.0
 20
43.0
 30
0.0
 11
56.6
 21
43.0
 31
0.0
  0
LINE
  5
BB
330
1E
100
AcDbEntity
  8
0
100
AcDbLine
 10
56.6
 20
43.0
 30
0.0
 11
58.7
 21
43.0
 31
0.0
  0
LINE
  5
BC
330
1E
100
AcDbEntity
  8
0
100
AcDbLine
 10
59.5
 20
43.0
 30
0.0
 11
59.5
 21
3.0
 31
0.0
  0
LINE
  5
BD
330
1E
100
AcDbEntity
  8
0
100
AcDbLine
 10
58.7
 20
43.0
 30
0.0
 11
59.5
 21
43.0
 31
0.0
  0
LINE
  5
BE
330
1E
100
AcDbEntity
  8
0
100
AcDbLine
 10
48.39999999999999
 20
43.0
 30
0.0
 11
53.0
 21
43.0
 31
0.0
  0
LINE
  5
BF
330
1E
100
AcDbEntity
  8
0
100
AcDbLine
 10
43.2
 20
43.0
 30
0.0
 11
48.39999999999999
 21
43.0
 31
0.0
  0
LINE
  5
C0
330
1E
100
AcDbEntity
  8
0
100
AcDbLine
 10
37.5
 20
43.0
 30
0.0
 11
43.2
 21
43.0
 31
0.0
  0
LINE
  5
C1
330
1E
100
AcDbEntity
  8
0
100
AcDbLine
 10
31.91829999999999
 20
84.0
 30
0.0
 11
31.91829999999999
 21
101.0
 31
0.0
  0
LINE
  5
C2
330
1E
100
AcDbEntity
  8
0
100
AcDbLine
 10
30.0048
 20
84.0
 30
0.0
 11
31.91829999999999
 21
84.0
 31
0.0
  0
LINE
  5
C3
330
1E
100
AcDbEntity
  8
0
100
AcDbLine
 10
28.1571
 20
84.0
 30
0.0
 11
30.0705
 21
84.0
 31
0.0
  0
LINE
  5
C4
330
1E
100
AcDbEntity
  8
0
100
AcDbLine
 10
28.1571
 20
84.0
 30
0.0
 11
30.0048
 21
84.0
 31
0.0
  0
LINE
  5
C5
330
1E
100
AcDbEntity
  8
0
100
AcDbLine
 10
36.5
 20
84.0
 30
0.0
 11
36.5
 21
101.0
 31
0.0
  0
LINE
  5
C6
330
1E
100
AcDbEntity
  8
0
100
AcDbLine
 10
36.5
 20
84.0
 30
0.0
 11
36.5
 21
84.50000000000001
 31
0.0
  0
LINE
  5
C7
330
1E
100
AcDbEntity
  8
0
100
AcDbLine
 10
36.5
 20
84.0
 30
0.0
 11
38.5
 21
84.0
 31
0.0
  0
LINE
  5
C8
330
1E
100
AcDbEntity
  8
0
100
AcDbLine
 10
36.5
 20
84.0
 30
0.0
 11
36.5
 21
101.0
 31
0.0
  0
LINE
  5
C9
330
1E
100
AcDbEntity
  8
0
100
AcDbLine
 10
43.08169999999999
 20
84.0
 30
0.0
 11
44.99519999999999
 21
84.0
 31
0.0
  0
LINE
  5
CA
330
1E
100
AcDbEntity
  8
0
100
AcDbLine
 10
43.08169999999999
 20
84.0
 30
0.0
 11
43.08169999999999
 21
101.0
 31
0.0
  0
LINE
  5
CB
330
1E
100
AcDbEntity
  8
0
100
AcDbLine
 10
43.08169999999999
 20
84.0
 30
0.0
 11
43.08169999999999
 21
101.0
 31
0.0
  0
LINE
  5
CC
330
1E
100
AcDbEntity
  8
0
100
AcDbLine
 10
44.99519999999999
 20
84.0
 30
0.0
 11
45.1865
 21
84.50000000000001
 31
0.0
  0
LINE
  5
CD
330
1E
100
AcDbEntity
  8
0
100
AcDbLine
 10
44.99519999999999
 20
84.0
 30
0.0
 11
46.84289999999999
 21
84.0
 31
0.0
  0
LINE
  5
CE
330
1E
100
AcDbEntity
  8
0
100
AcDbLine
 10
44.92949999999999
 20
84.0
 30
0.0
 11
46.84289999999999
 21
84.0
 31
0.0
  0
LINE
  5
CF
330
1E
100
AcDbEntity
  8
0
100
AcDbLine
 10
46.84289999999999
 20
84.0
 30
0.0
 11
47.03429999999999
 21
84.50000000000001
 31
0.0
  0
LINE
  5
D0
330
1E
100
AcDbEntity
  8
0
100
AcDbLine
 10
38.5
 20
84.0
 30
0.0
 11
38.5
 21
84.50000000000001
 31
0.0
  0
LINE
  5
D1
330
1E
100
AcDbEntity
  8
0
100
AcDbLine
 10
53.7635
 20
84.0
 30
0.0
 11
54.11699999999999
 21
84.50000000000001
 31
0.0
  0
LINE
  5
D2
330
1E
100
AcDbEntity
  8
0
100
AcDbLine
 10
52.3492
 20
84.0
 30
0.0
 11
52.7028
 21
84.50000000000001
 31
0.0
  0
LINE
  5
D3
330
1E
100
AcDbEntity
  8
0
100
AcDbLine
 10
52.3492
 20
84.0
 30
0.0
 11
53.7635
 21
84.0
 31
0.0
  0
LINE
  5
D4
330
1E
100
AcDbEntity
  8
0
100
AcDbLine
 10
48.8137
 20
84.0
 30
0.0
 11
48.8137
 21
96.0
 31
0.0
  0
LINE
  5
D5
330
1E
100
AcDbEntity
  8
0
100
AcDbLine
 10
50.89999999999999
 20
84.0
 30
0.0
 11
54.0
 21
84.0
 31
0.0
  0
LINE
  5
D6
330
1E
100
AcDbEntity
  8
0
100
AcDbLine
 10
50.89999999999999
 20
84.0
 30
0.0
 11
52.3492
 21
84.0
 31
0.0
  0
LINE
  5
D7
330
1E
100
AcDbEntity
  8
0
100
AcDbLine
 10
50.89999999999999
 20
84.0
 30
0.0
 11
53.7635
 21
84.0
 31
0.0
  0
LINE
  5
D8
330
1E
100
AcDbEntity
  8
0
100
AcDbLine
 10
59.5
 20
84.0
 30
0.0
 11
60.0
 21
84.50000000000001
 31
0.0
  0
LINE
  5
D9
330
1E
100
AcDbEntity
  8
0
100
AcDbLine
 10
58.208
 20
84.0
 30
0.0
 11
58.67
 21
84.50000000000001
 31
0.0
  0
LINE
  5
DA
330
1E
100
AcDbEntity
  8
0
100
AcDbLine
 10
57.4427
 20
84.0
 30
0.0
 11
57.9046
 21
84.50000000000001
 31
0.0
  0
LINE
  5
DB
330
1E
100
AcDbEntity
  8
0
100
AcDbLine
 10
57.4427
 20
84.0
 30
0.0
 11
58.208
 21
84.0
 31
0.0
  0
LINE
  5
DC
330
1E
100
AcDbEntity
  8
0
100
AcDbLine
 10
56.5
 20
84.0
 30
0.0
 11
56.5
 21
43.0
 31
0.0
  0
LINE
  5
DD
330
1E
100
AcDbEntity
  8
0
100
AcDbLine
 10
56.5
 20
84.0
 30
0.0
 11
59.5
 21
84.0
 31
0.0
  0
LINE
  5
DE
330
1E
100
AcDbEntity
  8
0
100
AcDbLine
 10
56.5
 20
84.0
 30
0.0
 11
57.4427
 21
84.0
 31
0.0
  0
LINE
  5
DF
330
1E
100
AcDbEntity
  8
0
100
AcDbLine
 10
56.5
 20
84.0
 30
0.0
 11
58.208
 21
84.0
 31
0.0
  0
LINE
  5
E0
330
1E
100
AcDbEntity
  8
0
100
AcDbLine
 10
54.0
 20
84.0
 30
0.0
 11
55.8
 21
84.0
 31
0.0
  0
LINE
  5
E1
330
1E
100
AcDbEntity
  8
0
100
AcDbLine
 10
54.0
 20
84.0
 30
0.0
 11
57.4427
 21
84.0
 31
0.0
  0
LINE
  5
E2
330
1E
100
AcDbEntity
  8
0
100
AcDbLine
 10
55.8
 20
84.0
 30
0.0
 11
56.5
 21
84.0
 31
0.0
  0
LINE
  5
E3
330
1E
100
AcDbEntity
  8
0
100
AcDbLine
 10
55.8
 20
84.0
 30
0.0
 11
58.208
 21
84.0
 31
0.0
  0
LINE
  5
E4
330
1E
100
AcDbEntity
  8
0
100
AcDbLine
 10
46.9
 20
84.0
 30
0.0
 11
50.89999999999999
 21
84.0
 31
0.0
  0
LINE
  5
E5
330
1E
100
AcDbEntity
  8
0
100
AcDbLine
 10
42.4
 20
84.0
 30
0.0
 11
46.9
 21
84.0
 31
0.0
  0
LINE
  5
E6
330
1E
100
AcDbEntity
  8
0
100
AcDbLine
 10
37.5
 20
84.0
 30
0.0
 11
42.4
 21
84.0
 31
0.0
  0
LINE
  5
E7
330
1E
100
AcDbEntity
  8
0
100
AcDbLine
 10
31.8
 20
43.0
 30
0.0
 11
37.5
 21
43.0
 31
0.0
  0
LINE
  5
E8
330
1E
100
AcDbEntity
  8
0
100
AcDbLine
 10
28.1
 20
84.0
 30
0.0
 11
32.6
 21
84.0
 31
0.0
  0
LINE
  5
E9
330
1E
100
AcDbEntity
  8
0
100
AcDbLine
 10
32.6
 20
84.0
 30
0.0
 11
37.5
 21
84.0
 31
0.0
  0
LINE
  5
EA
330
1E
100
AcDbEntity
  8
0
100
AcDbLine
 10
21.0
 20
84.0
 30
0.0
 11
24.1
 21
84.0
 31
0.0
  0
LINE
  5
EB
330
1E
100
AcDbEntity
  8
0
100
AcDbLine
 10
18.8895
 20
101.0
 30
0.0
 11
23.28019999999999
 21
101.0
 31
0.0
  0
LINE
  5
EC
330
1E
100
AcDbEntity
  8
0
100
AcDbLine
 10
18.8895
 20
102.0
 30
0.0
 11
23.28019999999999
 21
102.0
 31
0.0
  0
LINE
  5
ED
330
1E
100
AcDbEntity
  8
0
100
AcDbLine
 10
18.7617
 20
96.0
 30
0.0
 11
20.17589999999999
 21
95.5
 31
0.0
  0
LINE
  5
EF
330
1E
100
AcDbEntity
  8
0
100
AcDbLine
 10
20.17589999999999
 20
95.5
 30
0.0
 11
20.883
 21
94.0
 31
0.0
  0
LINE
  5
F0
330
1E
100
AcDbEntity
  8
0
100
AcDbLine
 10
20.883
 20
84.50000000000001
 30
0.0
 11
22.29719999999999
 21
84.50000000000001
 31
0.0
  0
LINE
  5
F1
330
1E
100
AcDbEntity
  8
0
100
AcDbLine
 10
20.883
 20
84.50000000000001
 30
0.0
 11
21.2365
 21
84.0
 31
0.0
  0
LINE
  5
F2
330
1E
100
AcDbEntity
  8
0
100
AcDbLine
 10
20.883
 20
84.50000000000001
 30
0.0
 11
20.883
 21
94.0
 31
0.0
  0
LINE
  5
F3
330
1E
100
AcDbEntity
  8
0
100
AcDbLine
 10
20.883
 20
94.0
 30
0.0
 11
20.883
 21
84.50000000000001
 31
0.0
  0
LINE
  5
F4
330
1E
100
AcDbEntity
  8
0
100
AcDbLine
 10
22.29719999999999
 20
84.50000000000001
 30
0.0
 11
22.6508
 21
84.0
 31
0.0
  0
LINE
  5
F5
330
1E
100
AcDbEntity
  8
0
100
AcDbLine
 10
22.29719999999999
 20
84.50000000000001
 30
0.0
 11
22.29719999999999
 21
94.0
 31
0.0
  0
LINE
  5
F6
330
1E
100
AcDbEntity
  8
0
100
AcDbLine
 10
29.8135
 20
84.50000000000001
 30
0.0
 11
30.0048
 21
84.0
 31
0.0
  0
LINE
  5
F7
330
1E
100
AcDbEntity
  8
0
100
AcDbLine
 10
29.8135
 20
84.50000000000001
 30
0.0
 11
29.8135
 21
94.0
 31
0.0
  0
LINE
  5
F8
330
1E
100
AcDbEntity
  8
0
100
AcDbLine
 10
27.9657
 20
84.50000000000001
 30
0.0
 11
28.1571
 21
84.0
 31
0.0
  0
LINE
  5
F9
330
1E
100
AcDbEntity
  8
0
100
AcDbLine
 10
27.9657
 20
84.50000000000001
 30
0.0
 11
27.9657
 21
94.0
 31
0.0
  0
LINE
  5
FA
330
1E
100
AcDbEntity
  8
0
100
AcDbLine
 10
27.9657
 20
84.50000000000001
 30
0.0
 11
29.8135
 21
84.50000000000001
 31
0.0
  0
LINE
  5
FB
330
1E
100
AcDbEntity
  8
0
100
AcDbLine
 10
29.8135
 20
94.0
 30
0.0
 11
29.8135
 21
84.50000000000001
 31
0.0
  0
LINE
  5
FC
330
1E
100
AcDbEntity
  8
0
100
AcDbLine
 10
29.4308
 20
95.5
 30
0.0
 11
29.8135
 21
94.0
 31
0.0
  0
LINE
  5
FD
330
1E
100
AcDbEntity
  8
0
100
AcDbLine
 10
27.9657
 20
94.0
 30
0.0
 11
27.9657
 21
84.50000000000001
 31
0.0
  0
LINE
  5
FE
330
1E
100
AcDbEntity
  8
0
100
AcDbLine
 10
27.5831
 20
95.5
 30
0.0
 11
27.9657
 21
94.0
 31
0.0
  0
LINE
  5
100
330
1E
100
AcDbEntity
  8
0
100
AcDbLine
 10
36.5
 20
84.50000000000001
 30
0.0
 11
36.5
 21
94.0
 31
0.0
  0
LINE
  5
101
330
1E
100
AcDbEntity
  8
0
100
AcDbLine
 10
36.5
 20
84.50000000000001
 30
0.0
 11
38.5
 21
84.50000000000001
 31
0.0
  0
LINE
  5
102
330
1E
100
AcDbEntity
  8
0
100
AcDbLine
 10
36.5
 20
84.50000000000001
 30
0.0
 11
36.5
 21
84.0
 31
0.0
  0
LINE
  5
103
330
1E
100
AcDbEntity
  8
0
100
AcDbLine
 10
38.5
 20
84.50000000000001
 30
0.0
 11
38.5
 21
94.0
 31
0.0
  0
LINE
  5
104
330
1E
100
AcDbEntity
  8
0
100
AcDbLine
 10
38.5
 20
84.50000000000001
 30
0.0
 11
38.5
 21
84.0
 31
0.0
  0
LINE
  5
105
330
1E
100
AcDbEntity
  8
0
100
AcDbLine
 10
45.1865
 20
84.50000000000001
 30
0.0
 11
45.1865
 21
94.0
 31
0.0
  0
LINE
  5
106
330
1E
100
AcDbEntity
  8
0
100
AcDbLine
 10
45.1865
 20
84.50000000000001
 30
0.0
 11
47.03429999999999
 21
84.50000000000001
 31
0.0
  0
LINE
  5
107
330
1E
100
AcDbEntity
  8
0
100
AcDbLine
 10
47.03429999999999
 20
84.50000000000001
 30
0.0
 11
47.03429999999999
 21
94.0
 31
0.0
  0
LINE
  5
108
330
1E
100
AcDbEntity
  8
0
100
AcDbLine
 10
54.11699999999999
 20
84.50000000000001
 30
0.0
 11
54.11699999999999
 21
94.0
 31
0.0
  0
LINE
  5
109
330
1E
100
AcDbEntity
  8
0
100
AcDbLine
 10
52.7028
 20
84.50000000000001
 30
0.0
 11
52.7028
 21
94.0
 31
0.0
  0
LINE
  5
10A
330
1E
100
AcDbEntity
  8
0
100
AcDbLine
 10
52.7028
 20
84.50000000000001
 30
0.0
 11
54.11699999999999
 21
84.50000000000001
 31
0.0
  0
LINE
  5
10B
330
1E
100
AcDbEntity
  8
0
100
AcDbLine
 10
45.1865
 20
94.0
 30
0.0
 11
45.5692
 21
95.5
 31
0.0
  0
LINE
  5
10C
330
1E
100
AcDbEntity
  8
0
100
AcDbLine
 10
45.1865
 20
94.0
 30
0.0
 11
45.1865
 21
84.50000000000001
 31
0.0
  0
LINE
  5
10D
330
1E
100
AcDbEntity
  8
0
100
AcDbLine
 10
47.03429999999999
 20
94.0
 30
0.0
 11
47.4169
 21
95.5
 31
0.0
  0
LINE
  5
10E
330
1E
100
AcDbEntity
  8
0
100
AcDbLine
 10
47.03429999999999
 20
94.0
 30
0.0
 11
47.03429999999999
 21
84.50000000000001
 31
0.0
  0
LINE
  5
10F
330
1E
100
AcDbEntity
  8
0
100
AcDbLine
 10
45.5692
 20
95.5
 30
0.0
 11
46.33449999999999
 21
96.0
 31
0.0
  0
LINE
  5
111
330
1E
100
AcDbEntity
  8
0
100
AcDbLine
 10
47.4169
 20
95.5
 30
0.0
 11
48.18229999999999
 21
96.0
 31
0.0
  0
LINE
  5
112
330
1E
100
AcDbEntity
  8
0
100
AcDbLine
 10
52.7028
 20
94.0
 30
0.0
 11
53.4099
 21
95.5
 31
0.0
  0
LINE
  5
113
330
1E
100
AcDbEntity
  8
0
100
AcDbLine
 10
52.7028
 20
94.0
 30
0.0
 11
52.7028
 21
84.50000000000001
 31
0.0
  0
LINE
  5
114
330
1E
100
AcDbEntity
  8
0
100
AcDbLine
 10
54.11699999999999
 20
94.0
 30
0.0
 11
54.8241
 21
95.5
 31
0.0
  0
LINE
  5
115
330
1E
100
AcDbEntity
  8
0
100
AcDbLine
 10
54.11699999999999
 20
94.0
 30
0.0
 11
54.11699999999999
 21
84.50000000000001
 31
0.0
  0
LINE
  5
116
330
1E
100
AcDbEntity
  8
0
100
AcDbLine
 10
54.8241
 20
95.5
 30
0.0
 11
56.2383
 21
96.0
 31
0.0
  0
LINE
  5
117
330
1E
100
AcDbEntity
  8
0
100
AcDbLine
 10
53.4099
 20
95.5
 30
0.0
 11
54.8241
 21
96.0
 31
0.0
  0
LINE
  5
119
330
1E
100
AcDbEntity
  8
0
100
AcDbLine
 10
57.9046
 20
84.50000000000001
 30
0.0
 11
57.9046
 21
94.0
 31
0.0
  0
LINE
  5
11A
330
1E
100
AcDbEntity
  8
0
100
AcDbLine
 10
57.9046
 20
84.50000000000001
 30
0.0
 11
58.67
 21
84.50000000000001
 31
0.0
  0
LINE
  5
11D
330
1E
100
AcDbEntity
  8
0
100
AcDbLine
 10
58.67
 20
84.50000000000001
 30
0.0
 11
58.67
 21
94.0
 31
0.0
  0
LINE
  5
11E
330
1E
100
AcDbEntity
  8
0
100
AcDbLine
 10
60.0
 20
84.50000000000001
 30
0.0
 11
60.0
 21
94.0
 31
0.0
  0
LINE
  5
120
330
1E
100
AcDbEntity
  8
0
100
AcDbLine
 10
60.0
 20
94.0
 30
0.0
 11
61.0
 21
95.5
 31
0.0
  0
LINE
  5
121
330
1E
100
AcDbEntity
  8
0
100
AcDbLine
 10
60.0
 20
94.0
 30
0.0
 11
60.0
 21
84.50000000000001
 31
0.0
  0
LINE
  5
122
330
1E
100
AcDbEntity
  8
0
100
AcDbLine
 10
61.0
 20
95.5
 30
0.0
 11
63.0
 21
96.0
 31
0.0
  0
LINE
  5
123
330
1E
100
AcDbEntity
  8
0
100
AcDbLine
 10
58.67
 20
94.0
 30
0.0
 11
59.59389999999999
 21
95.5
 31
0.0
  0
LINE
  5
124
330
1E
100
AcDbEntity
  8
0
100
AcDbLine
 10
58.67
 20
94.0
 30
0.0
 11
58.67
 21
84.50000000000001
 31
0.0
  0
LINE
  5
125
330
1E
100
AcDbEntity
  8
0
100
AcDbLine
 10
59.59389999999999
 20
95.5
 30
0.0
 11
61.4416
 21
96.0
 31
0.0
  0
LINE
  5
126
330
1E
100
AcDbEntity
  8
0
100
AcDbLine
 10
57.9046
 20
94.0
 30
0.0
 11
58.8285
 21
95.5
 31
0.0
  0
LINE
  5
127
330
1E
100
AcDbEntity
  8
0
100
AcDbLine
 10
57.9046
 20
94.0
 30
0.0
 11
57.9046
 21
84.50000000000001
 31
0.0
  0
LINE
  5
128
330
1E
100
AcDbEntity
  8
0
100
AcDbLine
 10
58.8285
 20
95.5
 30
0.0
 11
60.6762
 21
96.0
 31
0.0
  0
LINE
  5
12A
330
1E
100
AcDbEntity
  8
0
100
AcDbLine
 10
38.5
 20
94.0
 30
0.0
 11
38.5
 21
95.5
 31
0.0
  0
LINE
  5
12B
330
1E
100
AcDbEntity
  8
0
100
AcDbLine
 10
38.5
 20
94.0
 30
0.0
 11
38.5
 21
84.50000000000001
 31
0.0
  0
LINE
  5
12C
330
1E
100
AcDbEntity
  8
0
100
AcDbLine
 10
38.5
 20
95.5
 30
0.0
 11
38.5
 21
96.0
 31
0.0
  0
LINE
  5
12D
330
1E
100
AcDbEntity
  8
0
100
AcDbLine
 10
38.5
 20
95.5
 30
0.0
 11
38.5
 21
94.0
 31
0.0
  0
LINE
  5
12E
330
1E
100
AcDbEntity
  8
0
100
AcDbLine
 10
36.5
 20
94.0
 30
0.0
 11
36.5
 21
95.5
 31
0.0
  0
LINE
  5
12F
330
1E
100
AcDbEntity
  8
0
100
AcDbLine
 10
36.5
 20
94.0
 30
0.0
 11
36.5
 21
84.50000000000001
 31
0.0
  0
LINE
  5
130
330
1E
100
AcDbEntity
  8
0
100
AcDbLine
 10
36.5
 20
95.5
 30
0.0
 11
36.5
 21
96.0
 31
0.0
  0
LINE
  5
132
330
1E
100
AcDbEntity
  8
0
100
AcDbLine
 10
36.5
 20
95.5
 30
0.0
 11
36.5
 21
94.0
 31
0.0
  0
LINE
  5
133
330
1E
100
AcDbEntity
  8
0
100
AcDbLine
 10
22.29719999999999
 20
94.0
 30
0.0
 11
22.29719999999999
 21
84.50000000000001
 31
0.0
  0
LINE
  5
134
330
1E
100
AcDbEntity
  8
0
100
AcDbLine
 10
23.28019999999999
 20
101.0
 30
0.0
 11
27.9156
 21
101.0
 31
0.0
  0
LINE
  5
135
330
1E
100
AcDbEntity
  8
0
100
AcDbLine
 10
25.2213
 20
96.0
 30
0.0
 11
28.6655
 21
96.0
 31
0.0
  0
LINE
  5
136
330
1E
100
AcDbEntity
  8
0
100
AcDbLine
 10
24.4559
 20
101.0
 30
0.0
 11
25.2213
 21
96.0
 31
0.0
  0
LINE
  5
137
330
1E
100
AcDbEntity
  8
0
100
AcDbLine
 10
24.4559
 20
101.0
 30
0.0
 11
31.91829999999999
 21
101.0
 31
0.0
  0
LINE
  5
138
330
1E
100
AcDbEntity
  8
0
100
AcDbLine
 10
23.3735
 20
96.0
 30
0.0
 11
26.8177
 21
96.0
 31
0.0
  0
LINE
  5
139
330
1E
100
AcDbEntity
  8
0
100
AcDbLine
 10
23.3735
 20
96.0
 30
0.0
 11
25.2213
 21
96.0
 31
0.0
  0
LINE
  5
13A
330
1E
100
AcDbEntity
  8
0
100
AcDbLine
 10
23.28019999999999
 20
102.0
 30
0.0
 11
27.9156
 21
102.0
 31
0.0
  0
LINE
  5
13B
330
1E
100
AcDbEntity
  8
0
100
AcDbLine
 10
23.263
 20
104.606
 30
0.0
 11
30.24199999999999
 21
104.8869999999999
 31
0.0
  0
LINE
  5
13C
330
1E
100
AcDbEntity
  8
0
100
AcDbLine
 10
22.6082
 20
101.0
 30
0.0
 11
23.3735
 21
96.0
 31
0.0
  0
LINE
  5
13D
330
1E
100
AcDbEntity
  8
0
100
AcDbLine
 10
22.6082
 20
101.0
 30
0.0
 11
24.4559
 21
101.0
 31
0.0
  0
LINE
  5
13E
330
1E
100
AcDbEntity
  8
0
100
AcDbLine
 10
28.6655
 20
96.0
 30
0.0
 11
29.4308
 21
95.5
 31
0.0
  0
LINE
  5
13F
330
1E
100
AcDbEntity
  8
0
100
AcDbLine
 10
31.91829999999999
 20
101.0
 30
0.0
 11
32.66129999999999
 21
101.0
 31
0.0
  0
LINE
  5
140
330
1E
100
AcDbEntity
  8
0
100
AcDbLine
 10
27.9156
 20
101.0
 30
0.0
 11
32.66129999999999
 21
101.0
 31
0.0
  0
LINE
  5
141
330
1E
100
AcDbEntity
  8
0
100
AcDbLine
 10
32.66129999999999
 20
101.0
 30
0.0
 11
36.5
 21
101.0
 31
0.0
  0
LINE
  5
142
330
1E
100
AcDbEntity
  8
0
100
AcDbLine
 10
32.66129999999999
 20
101.0
 30
0.0
 11
37.5
 21
101.0
 31
0.0
  0
LINE
  5
143
330
1E
100
AcDbEntity
  8
0
100
AcDbLine
 10
36.5
 20
101.0
 30
0.0
 11
36.5
 21
96.0
 31
0.0
  0
LINE
  5
144
330
1E
100
AcDbEntity
  8
0
100
AcDbLine
 10
36.5
 20
101.0
 30
0.0
 11
36.5
 21
84.0
 31
0.0
  0
LINE
  5
145
330
1E
100
AcDbEntity
  8
0
100
AcDbLine
 10
31.91829999999999
 20
101.0
 30
0.0
 11
31.91829999999999
 21
84.0
 31
0.0
  0
LINE
  5
146
330
1E
100
AcDbEntity
  8
0
100
AcDbLine
 10
26.8177
 20
96.0
 30
0.0
 11
27.5831
 21
95.5
 31
0.0
  0
LINE
  5
147
330
1E
100
AcDbEntity
  8
0
100
AcDbLine
 10
46.33449999999999
 20
96.0
 30
0.0
 11
49.7787
 21
96.0
 31
0.0
  0
LINE
  5
148
330
1E
100
AcDbEntity
  8
0
100
AcDbLine
 10
49.7787
 20
96.0
 30
0.0
 11
50.5441
 21
101.0
 31
0.0
  0
LINE
  5
149
330
1E
100
AcDbEntity
  8
0
100
AcDbLine
 10
49.7787
 20
96.0
 30
0.0
 11
51.6265
 21
96.0
 31
0.0
  0
LINE
  5
14A
330
1E
100
AcDbEntity
  8
0
100
AcDbLine
 10
48.18229999999999
 20
96.0
 30
0.0
 11
51.6265
 21
96.0
 31
0.0
  0
LINE
  5
14B
330
1E
100
AcDbEntity
  8
0
100
AcDbLine
 10
48.18229999999999
 20
96.0
 30
0.0
 11
48.8137
 21
96.0
 31
0.0
  0
LINE
  5
14C
330
1E
100
AcDbEntity
  8
0
100
AcDbLine
 10
51.6265
 20
96.0
 30
0.0
 11
52.39180000000001
 21
101.0
 31
0.0
  0
LINE
  5
14D
330
1E
100
AcDbEntity
  8
0
100
AcDbLine
 10
48.8137
 20
96.0
 30
0.0
 11
48.8137
 21
84.0
 31
0.0
  0
LINE
  5
14F
330
1E
100
AcDbEntity
  8
0
100
AcDbLine
 10
56.2383
 20
96.0
 30
0.0
 11
62.60229999999999
 21
96.0
 31
0.0
  0
LINE
  5
150
330
1E
100
AcDbEntity
  8
0
100
AcDbLine
 10
54.8241
 20
96.0
 30
0.0
 11
61.18809999999999
 21
96.0
 31
0.0
  0
LINE
  5
151
330
1E
100
AcDbEntity
  8
0
100
AcDbLine
 10
61.18809999999999
 20
96.0
 30
0.0
 11
62.60229999999999
 21
101.0
 31
0.0
  0
LINE
  5
152
330
1E
100
AcDbEntity
  8
0
100
AcDbLine
 10
61.18809999999999
 20
96.0
 30
0.0
 11
62.60229999999999
 21
96.0
 31
0.0
  0
LINE
  5
153
330
1E
100
AcDbEntity
  8
0
100
AcDbLine
 10
63.0
 20
96.0
 30
0.0
 11
72.0
 21
96.0
 31
0.0
  0
LINE
  5
154
330
1E
100
AcDbEntity
  8
0
100
AcDbLine
 10
63.0
 20
96.0
 30
0.0
 11
68.9912
 21
96.0
 31
0.0
  0
LINE
  5
155
330
1E
100
AcDbEntity
  8
0
100
AcDbLine
 10
63.0
 20
96.0
 30
0.0
 11
69.7565
 21
96.0
 31
0.0
  0
LINE
  5
156
330
1E
100
AcDbEntity
  8
0
100
AcDbLine
 10
62.60229999999999
 20
96.0
 30
0.0
 11
64.0165
 21
101.0
 31
0.0
  0
LINE
  5
157
330
1E
100
AcDbEntity
  8
0
100
AcDbLine
 10
61.4416
 20
96.0
 30
0.0
 11
69.7565
 21
96.0
 31
0.0
  0
LINE
  5
158
330
1E
100
AcDbEntity
  8
0
100
AcDbLine
 10
60.6762
 20
96.0
 30
0.0
 11
68.9912
 21
96.0
 31
0.0
  0
LINE
  5
159
330
1E
100
AcDbEntity
  8
0
100
AcDbLine
 10
72.0
 20
96.0
 30
0.0
 11
74.0
 21
101.0
 31
0.0
  0
LINE
  5
15A
330
1E
100
AcDbEntity
  8
0
100
AcDbLine
 10
69.7565
 20
96.0
 30
0.0
 11
71.60429999999999
 21
101.0
 31
0.0
  0
LINE
  5
15B
330
1E
100
AcDbEntity
  8
0
100
AcDbLine
 10
68.9912
 20
96.0
 30
0.0
 11
70.8389
 21
101.0
 31
0.0
  0
LINE
  5
15C
330
1E
100
AcDbEntity
  8
0
100
AcDbLine
 10
68.9912
 20
96.0
 30
0.0
 11
69.7565
 21
96.0
 31
0.0
  0
LINE
  5
15D
330
1E
100
AcDbEntity
  8
0
100
AcDbLine
 10
38.5
 20
101.0
 30
0.0
 11
42.3387
 21
101.0
 31
0.0
  0
LINE
  5
15E
330
1E
100
AcDbEntity
  8
0
100
AcDbLine
 10
37.5
 20
101.0
 30
0.0
 11
42.3387
 21
101.0
 31
0.0
  0
LINE
  5
15F
330
1E
100
AcDbEntity
  8
0
100
AcDbLine
 10
42.3387
 20
101.0
 30
0.0
 11
43.08169999999999
 21
101.0
 31
0.0
  0
LINE
  5
160
330
1E
100
AcDbEntity
  8
0
100
AcDbLine
 10
47.0844
 20
101.0
 30
0.0
 11
51.7198
 21
101.0
 31
0.0
  0
LINE
  5
161
330
1E
100
AcDbEntity
  8
0
100
AcDbLine
 10
42.3387
 20
101.0
 30
0.0
 11
47.0844
 21
101.0
 31
0.0
  0
LINE
  5
162
330
1E
100
AcDbEntity
  8
0
100
AcDbLine
 10
43.08169999999999
 20
101.0
 30
0.0
 11
43.08169999999999
 21
84.0
 31
0.0
  0
LINE
  5
163
330
1E
100
AcDbEntity
  8
0
100
AcDbLine
 10
51.7198
 20
101.0
 30
0.0
 11
56.1105
 21
101.0
 31
0.0
  0
LINE
  5
164
330
1E
100
AcDbEntity
  8
0
100
AcDbLine
 10
50.5441
 20
101.0
 30
0.0
 11
52.39180000000001
 21
101.0
 31
0.0
  0
LINE
  5
165
330
1E
100
AcDbEntity
  8
0
100
AcDbLine
 10
43.08169999999999
 20
101.0
 30
0.0
 11
50.5441
 21
101.0
 31
0.0
  0
LINE
  5
166
330
1E
100
AcDbEntity
  8
0
100
AcDbLine
 10
43.08169999999999
 20
101.0
 30
0.0
 11
43.08169999999999
 21
84.0
 31
0.0
  0
LINE
  5
167
330
1E
100
AcDbEntity
  8
0
100
AcDbLine
 10
60.3908
 20
101.0
 30
0.0
 11
64.1129
 21
101.0
 31
0.0
  0
LINE
  5
168
330
1E
100
AcDbEntity
  8
0
100
AcDbLine
 10
56.1105
 20
101.0
 30
0.0
 11
60.3908
 21
101.0
 31
0.0
  0
LINE
  5
169
330
1E
100
AcDbEntity
  8
0
100
AcDbLine
 10
64.1129
 20
101.0
 30
0.0
 11
67.2767
 21
101.0
 31
0.0
  0
LINE
  5
16A
330
1E
100
AcDbEntity
  8
0
100
AcDbLine
 10
67.2767
 20
101.0
 30
0.0
 11
69.9752
 21
101.0
 31
0.0
  0
LINE
  5
16B
330
1E
100
AcDbEntity
  8
0
100
AcDbLine
 10
69.9752
 20
101.0
 30
0.0
 11
72.35829999999999
 21
101.0
 31
0.0
  0
LINE
  5
16D
330
1E
100
AcDbEntity
  8
0
100
AcDbLine
 10
52.39180000000001
 20
101.0
 30
0.0
 11
62.60229999999999
 21
101.0
 31
0.0
  0
LINE
  5
16E
330
1E
100
AcDbEntity
  8
0
100
AcDbLine
 10
62.60229999999999
 20
101.0
 30
0.0
 11
64.0165
 21
101.0
 31
0.0
  0
LINE
  5
16F
330
1E
100
AcDbEntity
  8
0
100
AcDbLine
 10
74.0
 20
101.0
 30
0.0
 11
74.7208
 21
101.0
 31
0.0
  0
LINE
  5
170
330
1E
100
AcDbEntity
  8
0
100
AcDbLine
 10
72.35829999999999
 20
101.0
 30
0.0
 11
73.6973
 21
101.0
 31
0.0
  0
LINE
  5
171
330
1E
100
AcDbEntity
  8
0
100
AcDbLine
 10
73.6973
 20
101.0
 30
0.0
 11
74.7208
 21
101.0
 31
0.0
  0
LINE
  5
172
330
1E
100
AcDbEntity
  8
0
100
AcDbLine
 10
75.0
 20
101.0
 30
0.0
 11
75.0
 21
102.0
 31
0.0
  0
LINE
  5
173
330
1E
100
AcDbEntity
  8
0
100
AcDbLine
 10
74.7208
 20
101.0
 30
0.0
 11
75.0
 21
101.0
 31
0.0
  0
LINE
  5
174
330
1E
100
AcDbEntity
  8
0
100
AcDbLine
 10
71.60429999999999
 20
101.0
 30
0.0
 11
74.0
 21
101.0
 31
0.0
  0
LINE
  5
175
330
1E
100
AcDbEntity
  8
0
100
AcDbLine
 10
70.8389
 20
101.0
 30
0.0
 11
71.60429999999999
 21
101.0
 31
0.0
  0
LINE
  5
176
330
1E
100
AcDbEntity
  8
0
100
AcDbLine
 10
64.0165
 20
101.0
 30
0.0
 11
70.8389
 21
101.0
 31
0.0
  0
LINE
  5
177
330
1E
100
AcDbEntity
  8
0
100
AcDbLine
 10
38.5
 20
101.0
 30
0.0
 11
38.5
 21
96.0
 31
0.0
  0
LINE
  5
178
330
1E
100
AcDbEntity
  8
0
100
AcDbLine
 10
38.5
 20
96.0
 30
0.0
 11
38.5
 21
101.0
 31
0.0
  0
LINE
  5
179
330
1E
100
AcDbEntity
  8
0
100
AcDbLine
 10
38.5
 20
96.0
 30
0.0
 11
38.5
 21
95.5
 31
0.0
  0
LINE
  5
17A
330
1E
100
AcDbEntity
  8
0
100
AcDbLine
 10
36.5
 20
96.0
 30
0.0
 11
36.5
 21
101.0
 31
0.0
  0
LINE
  5
17B
330
1E
100
AcDbEntity
  8
0
100
AcDbLine
 10
36.5
 20
96.0
 30
0.0
 11
38.5
 21
96.0
 31
0.0
  0
LINE
  5
17C
330
1E
100
AcDbEntity
  8
0
100
AcDbLine
 10
36.5
 20
96.0
 30
0.0
 11
36.5
 21
95.5
 31
0.0
  0
LINE
  5
17D
330
1E
100
AcDbEntity
  8
0
100
AcDbLine
 10
36.5
 20
96.0
 30
0.0
 11
36.5
 21
101.0
 31
0.0
  0
LINE
  5
17E
330
1E
100
AcDbEntity
  8
0
100
AcDbLine
 10
27.9156
 20
102.0
 30
0.0
 11
32.66129999999999
 21
102.0
 31
0.0
  0
LINE
  5
17F
330
1E
100
AcDbEntity
  8
0
100
AcDbLine
 10
32.66129999999999
 20
102.0
 30
0.0
 11
37.5
 21
102.0
 31
0.0
  0
LINE
  5
180
330
1E
100
AcDbEntity
  8
0
100
AcDbLine
 10
36.0518
 20
105.0
 30
0.0
 11
36.4855
 21
105.0
 31
0.0
  0
LINE
  5
181
330
1E
100
AcDbEntity
  8
0
100
AcDbLine
 10
60.3908
 20
102.0
 30
0.0
 11
64.1129
 21
102.0
 31
0.0
  0
LINE
  5
182
330
1E
100
AcDbEntity
  8
0
100
AcDbLine
 10
56.1105
 20
102.0
 30
0.0
 11
60.3908
 21
102.0
 31
0.0
  0
LINE
  5
183
330
1E
100
AcDbEntity
  8
0
100
AcDbLine
 10
51.7198
 20
102.0
 30
0.0
 11
56.1105
 21
102.0
 31
0.0
  0
LINE
  5
184
330
1E
100
AcDbEntity
  8
0
100
AcDbLine
 10
47.0844
 20
102.0
 30
0.0
 11
51.7198
 21
102.0
 31
0.0
  0
LINE
  5
185
330
1E
100
AcDbEntity
  8
0
100
AcDbLine
 10
42.3387
 20
102.0
 30
0.0
 11
47.0844
 21
102.0
 31
0.0
  0
LINE
  5
186
330
1E
100
AcDbEntity
  8
0
100
AcDbLine
 10
37.5
 20
102.0
 30
0.0
 11
42.3387
 21
102.0
 31
0.0
  0
LINE
  5
187
330
1E
100
AcDbEntity
  8
0
100
AcDbLine
 10
64.1129
 20
102.0
 30
0.0
 11
67.2767
 21
102.0
 31
0.0
  0
LINE
  5
188
330
1E
100
AcDbEntity
  8
0
100
AcDbLine
 10
67.2767
 20
102.0
 30
0.0
 11
69.9752
 21
102.0
 31
0.0
  0
LINE
  5
189
330
1E
100
AcDbEntity
  8
0
100
AcDbLine
 10
69.9752
 20
102.0
 30
0.0
 11
72.35829999999999
 21
102.0
 31
0.0
  0
LINE
  5
18A
330
1E
100
AcDbEntity
  8
0
100
AcDbLine
 10
72.35829999999999
 20
102.0
 30
0.0
 11
73.6973
 21
102.0
 31
0.0
  0
LINE
  5
18B
330
1E
100
AcDbEntity
  8
0
100
AcDbLine
 10
75.0
 20
102.0
 30
0.0
 11
75.0
 21
101.0
 31
0.0
  0
LINE
  5
18C
330
1E
100
AcDbEntity
  8
0
100
AcDbLine
 10
73.6973
 20
102.0
 30
0.0
 11
74.7208
 21
102.0
 31
0.0
  0
LINE
  5
18D
330
1E
100
AcDbEntity
  8
0
100
AcDbLine
 10
38.51449999999999
 20
105.0
 30
0.0
 11
38.9482
 21
105.0
 31
0.0
  0
LINE
  5
18E
330
1E
100
AcDbEntity
  8
0
100
AcDbLine
 10
38.0236
 20
105.0
 30
0.0
 11
38.51449999999999
 21
105.0
 31
0.0
  0
LINE
  5
18F
330
1E
100
AcDbEntity
  8
0
100
AcDbLine
 10
37.5
 20
105.0
 30
0.0
 11
38.0236
 21
105.0
 31
0.0
  0
LINE
  5
190
330
1E
100
AcDbEntity
  8
0
100
AcDbLine
 10
38.9482
 20
105.0
 30
0.0
 11
39.2755
 21
105.0
 31
0.0
  0
LINE
  5
191
330
1E
100
AcDbEntity
  8
0
100
AcDbLine
 10
39.2755
 20
105.0
 30
0.0
 11
39.4718
 21
105.0
 31
0.0
  0
LINE
  5
192
330
1E
100
AcDbEntity
  8
0
100
AcDbLine
 10
39.4718
 20
105.0
 30
0.0
 11
44.758
 21
104.8869999999999
 31
0.0
  0
LINE
  5
193
330
1E
100
AcDbEntity
  8
0
100
AcDbLine
 10
44.758
 20
104.8869999999999
 30
0.0
 11
51.737
 21
104.606
 31
0.0
  0
LINE
  5
194
330
1E
100
AcDbEntity
  8
0
100
AcDbLine
 10
51.737
 20
104.606
 30
0.0
 11
58.7159
 21
104.0999999999999
 31
0.0
  0
LINE
  5
195
330
1E
100
AcDbEntity
  8
0
100
AcDbLine
 10
58.7159
 20
104.0999999999999
 30
0.0
 11
65.1365
 21
103.481
 31
0.0
  0
LINE
  5
196
330
1E
100
AcDbEntity
  8
0
100
AcDbLine
 10
65.1365
 20
103.481
 30
0.0
 11
71.2779
 21
102.637
 31
0.0
  0
LINE
  5
197
330
1E
100
AcDbEntity
  8
0
100
AcDbLine
 10
71.2779
 20
102.637
 30
0.0
 11
75.0
 21
102.0
 31
0.0
  0
LINE
  5
198
330
1E
100
AcDbEntity
  8
0
100
AcDbLine
 10
74.7208
 20
102.0
 30
0.0
 11
75.0
 21
102.0
 31
0.0
  0
LINE
  5
199
330
1E
100
AcDbEntity
  8
0
100
AcDbLine
 10
36.4855
 20
105.0
 30
0.0
 11
36.97639999999999
 21
105.0
 31
0.0
  0
LINE
  5
19A
330
1E
100
AcDbEntity
  8
0
100
AcDbLine
 10
36.97639999999999
 20
105.0
 30
0.0
 11
37.5
 21
105.0
 31
0.0
  0
LINE
  5
19B
330
1E
100
AcDbEntity
  8
0
100
AcDbLine
 10
35.72449999999999
 20
105.0
 30
0.0
 11
36.0518
 21
105.0
 31
0.0
  0
LINE
  5
19C
330
1E
100
AcDbEntity
  8
0
100
AcDbLine
 10
35.5282
 20
105.0
 30
0.0
 11
35.72449999999999
 21
105.0
 31
0.0
  0
LINE
  5
19D
330
1E
100
AcDbEntity
  8
0
100
AcDbLine
 10
30.24199999999999
 20
104.8869999999999
 30
0.0
 11
35.5282
 21
105.0
 31
0.0
  0
LINE
  5
19E
330
1E
100
AcDbEntity
  8
0
100
AcDbLine
 10
36.5
 20
101.0
 30
0.0
 11
38.5
 21
101.0
 31
0.0
  0
LINE
  5
19F
330
1E
100
AcDbEntity
  8
0
100
AcDbLine
 10
36.5
 20
101.0
 30
0.0
 11
36.5
 21
84.0
 31
0.0
  0
LINE
  5
1A0
330
1E
100
AcDbEntity
  8
0
100
AcDbLine
 10
36.5
 20
101.0
 30
0.0
 11
36.5
 21
96.0
 31
0.0
  0
LINE
  5
1A1
330
1E
100
AcDbEntity
  8
0
100
AcDbLine
 10
26.1863
 20
96.0
 30
0.0
 11
26.1863
 21
84.0
 31
0.0
  0
LINE
  5
1A2
330
1E
100
AcDbEntity
  8
0
100
AcDbLine
 10
26.1863
 20
96.0
 30
0.0
 11
26.8177
 21
96.0
 31
0.0
  0
LINE
  5
1A3
330
1E
100
AcDbEntity
  8
0
100
AcDbLine
 10
21.59009999999999
 20
95.5
 30
0.0
 11
22.29719999999999
 21
94.0
 31
0.0
  0
LINE
  5
1A4
330
1E
100
AcDbEntity
  8
0
100
AcDbLine
 10
20.17589999999999
 20
96.0
 30
0.0
 11
21.59009999999999
 21
95.5
 31
0.0
  0
LINE
  5
1A5
330
1E
100
AcDbEntity
  8
0
100
AcDbLine
 10
19.19999999999999
 20
84.0
 30
0.0
 11
21.0
 21
84.0
 31
0.0
  0
LINE
  5
1A6
330
1E
100
AcDbEntity
  8
0
100
AcDbLine
 10
18.5
 20
84.0
 30
0.0
 11
19.19999999999999
 21
84.0
 31
0.0
  0
LINE
  5
1A7
330
1E
100
AcDbEntity
  8
0
100
AcDbLine
 10
18.5
 20
84.0
 30
0.0
 11
18.5
 21
43.0
 31
0.0
  0
ENDSEC
  0
SECTION
  2
OBJECTS
  0
DICTIONARY
  5
C
330
0
100
AcDbDictionary
281
     1
  3
ACAD_GROUP
350
D
  3
ACAD_LAYOUT
350
19
  3
ACAD_MLINESTYLE
350
16
  3
ACAD_PLOTSETTINGS
350
18
  3
ACAD_PLOTSTYLENAME
350
E
  3
AcDbVariableDictionary
350
1AC
  0
DICTIONARY
  5
D
102
{ACAD_REACTORS
330
C
102
}
330
C
100
AcDbDictionary
281
     1
  0
DICTIONARY
  5
19
102
{ACAD_REACTORS
330
C
102
}
330
C
100
AcDbDictionary
281
     1
  3
Layout1
350
1D
  3
Model
350
21
  0
DICTIONARY
  5
16
102
{ACAD_REACTORS
330
C
102
}
330
C
100
AcDbDictionary
281
     1
  3
Standard
350
17
  0
DICTIONARY
  5
18
102
{ACAD_REACTORS
330
C
102
}
330
C
100
AcDbDictionary
281
     1
  0
ACDBDICTIONARYWDFLT
  5
E
102
{ACAD_REACTORS
330
C
102
}
330
C
100
AcDbDictionary
281
     1
  3
Normal
350
F
100
AcDbDictionaryWithDefault
340
F
  0
DICTIONARY
  5
1AC
102
{ACAD_REACTORS
330
C
102
}
330
C
100
AcDbDictionary
281
     1
  3
DIMASSOC
350
1AD
  0
LAYOUT
  5
1D
102
{ACAD_REACTORS
330
19
102
}
330
19
100
AcDbPlotSettings
  1

  2
hp deskjet 980c series
  4

  6

 40
0.0
 41
0.0
 42
0.0
 43
0.0
 44
0.0
 45
0.0
 46
0.0
 47
0.0
 48
0.0
 49
0.0
140
0.0
141
0.0
142
1.0
143
1.0
 70
   688
 72
     0
 73
     0
 74
     5
  7

 75
    16
147
1.0
148
0.0
149
0.0
100
AcDbLayout
  1
Layout1
 70
     1
 71
     1
 10
0.0
 20
0.0
 11
12.0
 21
9.0
 12
0.0
 22
0.0
 32
0.0
 14
1.000000000000000E+20
 24
1.000000000000000E+20
 34
1.000000000000000E+20
 15
-1.000000000000000E+20
 25
-1.000000000000000E+20
 35
-1.000000000000000E+20
146
0.0
 13
0.0
 23
0.0
 33
0.0
 16
1.0
 26
0.0
 36
0.0
 17
0.0
 27
1.0
 37
0.0
 76
     0
330
1A
  0
LAYOUT
  5
21
102
{ACAD_REACTORS
330
19
102
}
330
19
100
AcDbPlotSettings
  1

  2
hp deskjet 980c series
  4

  6

 40
0.0
 41
0.0
 42
0.0
 43
0.0
 44
0.0
 45
0.0
 46
0.0
 47
0.0
 48
0.0
 49
0.0
140
0.0
141
0.0
142
1.0
143
1.0
 70
  1712
 72
     0
 73
     0
 74
     0
  7

 75
     0
147
1.0
148
0.0
149
0.0
100
AcDbLayout
  1
Model
 70
     1
 71
     0
 10
0.0
 20
0.0
 11
12.0
 21
9.0
 12
0.0
 22
0.0
 32
0.0
 14
0.0
 24
0.0
 34
0.0
 15
0.0
 25
0.0
 35
0.0
146
0.0
 13
0.0
 23
0.0
 33
0.0
 16
1.0
 26
0.0
 36
0.0
 17
0.0
 27
1.0
 37
0.0
 76
     0
330
1E
  0
MLINESTYLE
  5
17
102
{ACAD_REACTORS
330
16
102
}
330
16
100
AcDbMlineStyle
  2
STANDARD
 70
     0
  3

 62
   256
 51
90.0
 52
90.0
 71
     2
 49
0.5
 62
   256
  6
BYLAYER
 49
-0.5
 62
   256
  6
BYLAYER
  0
ACDBPLACEHOLDER
  5
F
102
{ACAD_REACTORS
330
E
102
}
330
E
  0
DICTIONARYVAR
  5
1AD
102
{ACAD_REACTORS
330
1AC
102
}
330
1AC
100
DictionaryVariables
280
     0
  1
1
  0
ENDSEC
  0
EOF
