  0
SECTION
  2
HEADER
  9
$ACADVER
  1
AC1015
  9
$ACADMAINTVER
 70
    13
  9
$DWGCODEPAGE
  3
ANSI_1252
  9
$INSBASE
 10
0.0
 20
0.0
 30
0.0
  9
$EXTMIN
 10
-0.189750000000067
 20
-0.0000000000000022
 30
0.0
  9
$EXTMAX
 10
595.18975
 20
80.0
 30
0.0
  9
$LIMMIN
 10
0.0
 20
0.0
  9
$LIMMAX
 10
12.0
 20
9.0
  9
$ORTHOMODE
 70
     0
  9
$REGENMODE
 70
     1
  9
$FILLMODE
 70
     1
  9
$QTEXTMODE
 70
     0
  9
$MIRRTEXT
 70
     1
  9
$LTSCALE
 40
1.0
  9
$ATTMODE
 70
     1
  9
$TEXTSIZE
 40
0.2
  9
$TRACEWID
 40
0.05
  9
$TEXTSTYLE
  7
Standard
  9
$CLAYER
  8
0
  9
$CELTYPE
  6
Continuous
  9
$CECOLOR
 62
   256
  9
$CELTSCALE
 40
1.0
  9
$DISPSILH
 70
     0
  9
$DIMSCALE
 40
1.0
  9
$DIMASZ
 40
0.18
  9
$DIMEXO
 40
0.0625
  9
$DIMDLI
 40
0.38
  9
$DIMRND
 40
0.0
  9
$DIMDLE
 40
0.0
  9
$DIMEXE
 40
0.18
  9
$DIMTP
 40
0.0
  9
$DIMTM
 40
0.0
  9
$DIMTXT
 40
0.18
  9
$DIMCEN
 40
0.09
  9
$DIMTSZ
 40
0.0
  9
$DIMTOL
 70
     0
  9
$DIMLIM
 70
     0
  9
$DIMTIH
 70
     1
  9
$DIMTOH
 70
     1
  9
$DIMSE1
 70
     0
  9
$DIMSE2
 70
     0
  9
$DIMTAD
 70
     0
  9
$DIMZIN
 70
     0
  9
$DIMBLK
  1

  9
$DIMASO
 70
     1
  9
$DIMSHO
 70
     1
  9
$DIMPOST
  1

  9
$DIMAPOST
  1

  9
$DIMALT
 70
     0
  9
$DIMALTD
 70
     2
  9
$DIMALTF
 40
25.4
  9
$DIMLFAC
 40
1.0
  9
$DIMTOFL
 70
     0
  9
$DIMTVP
 40
0.0
  9
$DIMTIX
 70
     0
  9
$DIMSOXD
 70
     0
  9
$DIMSAH
 70
     0
  9
$DIMBLK1
  1

  9
$DIMBLK2
  1

  9
$DIMSTYLE
  2
Standard
  9
$DIMCLRD
 70
     0
  9
$DIMCLRE
 70
     0
  9
$DIMCLRT
 70
     0
  9
$DIMTFAC
 40
1.0
  9
$DIMGAP
 40
0.09
  9
$DIMJUST
 70
     0
  9
$DIMSD1
 70
     0
  9
$DIMSD2
 70
     0
  9
$DIMTOLJ
 70
     1
  9
$DIMTZIN
 70
     0
  9
$DIMALTZ
 70
     0
  9
$DIMALTTZ
 70
     0
  9
$DIMUPT
 70
     0
  9
$DIMDEC
 70
     4
  9
$DIMTDEC
 70
     4
  9
$DIMALTU
 70
     2
  9
$DIMALTTD
 70
     2
  9
$DIMTXSTY
  7
Standard
  9
$DIMAUNIT
 70
     0
  9
$DIMADEC
 70
     0
  9
$DIMALTRND
 40
0.0
  9
$DIMAZIN
 70
     0
  9
$DIMDSEP
 70
    46
  9
$DIMATFIT
 70
     3
  9
$DIMFRAC
 70
     0
  9
$DIMLDRBLK
  1

  9
$DIMLUNIT
 70
     2
  9
$DIMLWD
 70
    -2
  9
$DIMLWE
 70
    -2
  9
$DIMTMOVE
 70
     0
  9
$LUNITS
 70
     2
  9
$LUPREC
 70
     4
  9
$SKETCHINC
 40
0.1
  9
$FILLETRAD
 40
0.0
  9
$AUNITS
 70
     0
  9
$AUPREC
 70
     0
  9
$MENU
  1
.
  9
$ELEVATION
 40
0.0
  9
$PELEVATION
 40
0.0
  9
$THICKNESS
 40
0.0
  9
$LIMCHECK
 70
     0
  9
$CHAMFERA
 40
0.0
  9
$CHAMFERB
 40
0.0
  9
$CHAMFERC
 40
0.0
  9
$CHAMFERD
 40
0.0
  9
$SKPOLY
 70
     0
  9
$TDCREATE
 40
2454781.390645613
  9
$TDUCREATE
 40
2454781.348978947
  9
$TDUPDATE
 40
2454781.391573704
  9
$TDUUPDATE
 40
2454781.349907036
  9
$TDINDWG
 40
0.0009284606
  9
$TDUSRTIMER
 40
0.0009284606
  9
$USRTIMER
 70
     1
  9
$ANGBASE
 50
0.0
  9
$ANGDIR
 70
     0
  9
$PDMODE
 70
     0
  9
$PDSIZE
 40
0.0
  9
$PLINEWID
 40
0.0
  9
$SPLFRAME
 70
     0
  9
$SPLINETYPE
 70
     6
  9
$SPLINESEGS
 70
     8
  9
$HANDSEED
  5
331
  9
$SURFTAB1
 70
     6
  9
$SURFTAB2
 70
     6
  9
$SURFTYPE
 70
     6
  9
$SURFU
 70
     6
  9
$SURFV
 70
     6
  9
$UCSBASE
  2

  9
$UCSNAME
  2

  9
$UCSORG
 10
0.0
 20
0.0
 30
0.0
  9
$UCSXDIR
 10
1.0
 20
0.0
 30
0.0
  9
$UCSYDIR
 10
0.0
 20
1.0
 30
0.0
  9
$UCSORTHOREF
  2

  9
$UCSORTHOVIEW
 70
     1
  9
$UCSORGTOP
 10
0.0
 20
0.0
 30
0.0
  9
$UCSORGBOTTOM
 10
0.0
 20
0.0
 30
0.0
  9
$UCSORGLEFT
 10
0.0
 20
0.0
 30
0.0
  9
$UCSORGRIGHT
 10
0.0
 20
0.0
 30
0.0
  9
$UCSORGFRONT
 10
0.0
 20
0.0
 30
0.0
  9
$UCSORGBACK
 10
0.0
 20
0.0
 30
0.0
  9
$PUCSBASE
  2

  9
$PUCSNAME
  2

  9
$PUCSORG
 10
0.0
 20
0.0
 30
0.0
  9
$PUCSXDIR
 10
1.0
 20
0.0
 30
0.0
  9
$PUCSYDIR
 10
0.0
 20
1.0
 30
0.0
  9
$PUCSORTHOREF
  2

  9
$PUCSORTHOVIEW
 70
     0
  9
$PUCSORGTOP
 10
0.0
 20
0.0
 30
0.0
  9
$PUCSORGBOTTOM
 10
0.0
 20
0.0
 30
0.0
  9
$PUCSORGLEFT
 10
0.0
 20
0.0
 30
0.0
  9
$PUCSORGRIGHT
 10
0.0
 20
0.0
 30
0.0
  9
$PUCSORGFRONT
 10
0.0
 20
0.0
 30
0.0
  9
$PUCSORGBACK
 10
0.0
 20
0.0
 30
0.0
  9
$USERI1
 70
     0
  9
$USERI2
 70
     0
  9
$USERI3
 70
     0
  9
$USERI4
 70
     0
  9
$USERI5
 70
     0
  9
$USERR1
 40
0.0
  9
$USERR2
 40
0.0
  9
$USERR3
 40
0.0
  9
$USERR4
 40
0.0
  9
$USERR5
 40
0.0
  9
$WORLDVIEW
 70
     1
  9
$SHADEDGE
 70
     3
  9
$SHADEDIF
 70
    70
  9
$TILEMODE
 70
     1
  9
$MAXACTVP
 70
    64
  9
$PINSBASE
 10
0.0
 20
0.0
 30
0.0
  9
$PLIMCHECK
 70
     0
  9
$PEXTMIN
 10
1.000000000000000E+20
 20
1.000000000000000E+20
 30
1.000000000000000E+20
  9
$PEXTMAX
 10
-1.000000000000000E+20
 20
-1.000000000000000E+20
 30
-1.000000000000000E+20
  9
$PLIMMIN
 10
0.0
 20
0.0
  9
$PLIMMAX
 10
12.0
 20
9.0
  9
$UNITMODE
 70
     0
  9
$VISRETAIN
 70
     1
  9
$PLINEGEN
 70
     0
  9
$PSLTSCALE
 70
     1
  9
$TREEDEPTH
 70
  3020
  9
$CMLSTYLE
  2
Standard
  9
$CMLJUST
 70
     0
  9
$CMLSCALE
 40
1.0
  9
$PROXYGRAPHICS
 70
     1
  9
$MEASUREMENT
 70
     0
  9
$CELWEIGHT
370
    -1
  9
$ENDCAPS
280
     0
  9
$JOINSTYLE
280
     0
  9
$LWDISPLAY
290
     0
  9
$INSUNITS
 70
     0
  9
$HYPERLINKBASE
  1

  9
$STYLESHEET
  1

  9
$XEDIT
290
     1
  9
$CEPSNTYPE
380
     0
  9
$PSTYLEMODE
290
     1
  9
$FINGERPRINTGUID
  2
{F33925BB-07D3-4231-966F-8EE0B8CF32A2}
  9
$VERSIONGUID
  2
{D738B889-12A3-4F3E-90FF-B7D008A0F92D}
  9
$EXTNAMES
290
     1
  9
$PSVPSCALE
 40
0.0
  9
$OLESTARTUP
290
     0
  0
ENDSEC
  0
SECTION
  2
CLASSES
  0
CLASS
  1
ACDBDICTIONARYWDFLT
  2
AcDbDictionaryWithDefault
  3
AutoCAD 2000
 90
        0
280
     0
281
     0
  0
CLASS
  1
ACDBPLACEHOLDER
  2
AcDbPlaceHolder
  3
AutoCAD 2000
 90
        0
280
     0
281
     0
  0
CLASS
  1
LAYOUT
  2
AcDbLayout
  3
AutoCAD 2000
 90
        0
280
     0
281
     0
  0
CLASS
  1
DICTIONARYVAR
  2
AcDbDictionaryVar
  3
AutoCAD 2000
 90
        0
280
     0
281
     0
  0
ENDSEC
  0
SECTION
  2
TABLES
  0
TABLE
  2
VPORT
  5
8
330
0
100
AcDbSymbolTable
 70
     2
  0
VPORT
  5
330
330
8
100
AcDbSymbolTableRecord
100
AcDbViewportTableRecord
  2
*Active
 70
     0
 10
0.0
 20
0.0
 11
1.0
 21
1.0
 12
297.5
 22
40.0
 13
0.0
 23
0.0
 14
1.0
 24
1.0
 15
0.0
 25
0.0
 16
0.0
 26
0.0
 36
1.0
 17
0.0
 27
0.0
 37
0.0
 40
287.55966604028
 41
2.078104993597951
 42
50.0
 43
0.0
 44
0.0
 50
0.0
 51
0.0
 71
     0
 72
   100
 73
     1
 74
     3
 75
     0
 76
     0
 77
     0
 78
     0
281
     0
 65
     1
110
0.0
120
0.0
130
0.0
111
1.0
121
0.0
131
0.0
112
0.0
122
1.0
132
0.0
 79
     1
146
0.0
  0
ENDTAB
  0
TABLE
  2
LTYPE
  5
5
330
0
100
AcDbSymbolTable
 70
     1
  0
LTYPE
  5
13
330
5
100
AcDbSymbolTableRecord
100
AcDbLinetypeTableRecord
  2
ByBlock
 70
     0
  3

 72
    65
 73
     0
 40
0.0
  0
LTYPE
  5
14
330
5
100
AcDbSymbolTableRecord
100
AcDbLinetypeTableRecord
  2
ByLayer
 70
     0
  3

 72
    65
 73
     0
 40
0.0
  0
LTYPE
  5
15
330
5
100
AcDbSymbolTableRecord
100
AcDbLinetypeTableRecord
  2
Continuous
 70
     0
  3
Solid line
 72
    65
 73
     0
 40
0.0
  0
ENDTAB
  0
TABLE
  2
LAYER
  5
2
330
0
100
AcDbSymbolTable
 70
     1
  0
LAYER
  5
10
330
2
100
AcDbSymbolTableRecord
100
AcDbLayerTableRecord
  2
0
 70
     0
 62
     7
  6
Continuous
370
    -3
390
F
  0
ENDTAB
  0
TABLE
  2
STYLE
  5
3
330
0
100
AcDbSymbolTable
 70
     1
  0
STYLE
  5
11
330
3
100
AcDbSymbolTableRecord
100
AcDbTextStyleTableRecord
  2
Standard
 70
     0
 40
0.0
 41
1.0
 50
0.0
 71
     0
 42
0.2
  3
txt
  4

  0
ENDTAB
  0
TABLE
  2
VIEW
  5
6
330
0
100
AcDbSymbolTable
 70
     0
  0
ENDTAB
  0
TABLE
  2
UCS
  5
7
330
0
100
AcDbSymbolTable
 70
     0
  0
ENDTAB
  0
TABLE
  2
APPID
  5
9
330
0
100
AcDbSymbolTable
 70
     1
  0
APPID
  5
12
330
9
100
AcDbSymbolTableRecord
100
AcDbRegAppTableRecord
  2
ACAD
 70
     0
  0
ENDTAB
  0
TABLE
  2
DIMSTYLE
  5
A
330
0
100
AcDbSymbolTable
 70
     1
100
AcDbDimStyleTable
 71
     0
  0
DIMSTYLE
105
329
330
A
100
AcDbSymbolTableRecord
100
AcDbDimStyleTableRecord
  2
Standard
 70
     0
340
11
  0
ENDTAB
  0
TABLE
  2
BLOCK_RECORD
  5
1
330
0
100
AcDbSymbolTable
 70
     0
  0
BLOCK_RECORD
  5
1E
330
1
100
AcDbSymbolTableRecord
100
AcDbBlockTableRecord
  2
*Model_Space
340
21
  0
BLOCK_RECORD
  5
1A
330
1
100
AcDbSymbolTableRecord
100
AcDbBlockTableRecord
  2
*Paper_Space
340
1D
  0
ENDTAB
  0
ENDSEC
  0
SECTION
  2
BLOCKS
  0
BLOCK
  5
1F
330
1E
100
AcDbEntity
  8
0
100
AcDbBlockBegin
  2
*Model_Space
 70
     0
 10
0.0
 20
0.0
 30
0.0
  3
*Model_Space
  1

  0
ENDBLK
  5
20
330
1E
100
AcDbEntity
  8
0
100
AcDbBlockEnd
  0
BLOCK
  5
1B
330
1A
100
AcDbEntity
 67
     1
  8
0
100
AcDbBlockBegin
  2
*Paper_Space
 70
     0
 10
0.0
 20
0.0
 30
0.0
  3
*Paper_Space
  1

  0
ENDBLK
  5
1C
330
1A
100
AcDbEntity
 67
     1
  8
0
100
AcDbBlockEnd
  0
ENDSEC
  0
SECTION
  2
ENTITIES
  0
LINE
  5
22
330
1E
100
AcDbEntity
  8
0
100
AcDbLine
 10
51.38556999999989
 20
-0.0000000000000021
 30
0.0
 11
55.32479999999989
 21
-0.000000000000002
 31
0.0
  0
LINE
  5
23
330
1E
100
AcDbEntity
  8
0
100
AcDbLine
 10
55.32479999999989
 20
-0.0000000000000019
 30
0.0
 11
57.10295999999989
 21
1.439999999999999
 31
0.0
  0
LINE
  5
24
330
1E
100
AcDbEntity
  8
0
100
AcDbLine
 10
55.32479999999989
 20
-0.000000000000002
 30
0.0
 11
57.10295999999989
 21
1.439999999999999
 31
0.0
  0
LINE
  5
25
330
1E
100
AcDbEntity
  8
0
100
AcDbLine
 10
89.18914999999989
 20
1.399999999999999
 30
0.0
 11
90.12185
 21
2.399999999999999
 31
0.0
  0
LINE
  5
26
330
1E
100
AcDbEntity
  8
0
100
AcDbLine
 10
88.38534999999991
 20
0.9999999999999978
 30
0.0
 11
90.12185
 21
2.399999999999999
 31
0.0
  0
LINE
  5
27
330
1E
100
AcDbEntity
  8
0
100
AcDbLine
 10
87.40054999999991
 20
-0.0000000000000017
 30
0.0
 11
89.18914999999989
 21
1.399999999999999
 31
0.0
  0
LINE
  5
28
330
1E
100
AcDbEntity
  8
0
100
AcDbLine
 10
67.21204999999989
 20
-0.0000000000000019
 30
0.0
 11
87.40054999999991
 21
-0.0000000000000017
 31
0.0
  0
LINE
  5
29
330
1E
100
AcDbEntity
  8
0
100
AcDbLine
 10
49.60740999999989
 20
1.439999999999999
 30
0.0
 11
51.38556999999989
 21
-0.0000000000000022
 31
0.0
  0
LINE
  5
2A
330
1E
100
AcDbEntity
  8
0
100
AcDbLine
 10
49.60740999999989
 20
1.439999999999999
 30
0.0
 11
51.38556999999989
 21
-0.0000000000000021
 31
0.0
  0
LINE
  5
2B
330
1E
100
AcDbEntity
  8
0
100
AcDbLine
 10
55.32479999999989
 20
2.0
 30
0.0
 11
59.2640499999999
 21
2.0
 31
0.0
  0
LINE
  5
2C
330
1E
100
AcDbEntity
  8
0
100
AcDbLine
 10
59.2640499999999
 20
2.0
 30
0.0
 11
60.9532499999999
 21
3.36799999999999
 31
0.0
  0
LINE
  5
2D
330
1E
100
AcDbEntity
  8
0
100
AcDbLine
 10
53.54663999999989
 20
1.439999999999999
 30
0.0
 11
55.32479999999989
 21
-0.0000000000000019
 31
0.0
  0
LINE
  5
2E
330
1E
100
AcDbEntity
  8
0
100
AcDbLine
 10
53.54663999999989
 20
1.439999999999999
 30
0.0
 11
55.32479999999989
 21
-0.000000000000002
 31
0.0
  0
LINE
  5
2F
330
1E
100
AcDbEntity
  8
0
100
AcDbLine
 10
57.10295999999989
 20
1.439999999999999
 30
0.0
 11
57.3460627083333
 21
2.0
 31
0.0
  0
LINE
  5
30
330
1E
100
AcDbEntity
  8
0
100
AcDbLine
 10
90.12185
 20
2.399999999999999
 30
0.0
 11
91.75414999999999
 21
6.2
 31
0.0
  0
LINE
  5
31
330
1E
100
AcDbEntity
  8
0
100
AcDbLine
 10
86.6489499999999
 20
2.399999999999999
 30
0.0
 11
88.38534999999991
 21
0.9999999999999978
 31
0.0
  0
LINE
  5
32
330
1E
100
AcDbEntity
  8
0
100
AcDbLine
 10
85.61204999999992
 20
1.399999999999999
 30
0.0
 11
87.40054999999991
 21
-0.0000000000000017
 31
0.0
  0
LINE
  5
33
330
1E
100
AcDbEntity
  8
0
100
AcDbLine
 10
65.42344999999989
 20
1.399999999999999
 30
0.0
 11
67.21204999999989
 21
-0.0000000000000019
 31
0.0
  0
LINE
  5
34
330
1E
100
AcDbEntity
  8
0
100
AcDbLine
 10
65.42344999999989
 20
1.399999999999999
 30
0.0
 11
67.21204999999989
 21
-0.0000000000000019
 31
0.0
  0
LINE
  5
35
330
1E
100
AcDbEntity
  8
0
100
AcDbLine
 10
258.5117499999999
 20
2.99999999999997
 30
0.0
 11
258.5117499999999
 21
4.999999999999969
 31
0.0
  0
LINE
  5
36
330
1E
100
AcDbEntity
  8
0
100
AcDbLine
 10
258.5117499999999
 20
2.99999999999997
 30
0.0
 11
288.51175
 21
2.99999999999997
 31
0.0
  0
LINE
  5
37
330
1E
100
AcDbEntity
  8
0
100
AcDbLine
 10
248.51175
 20
2.99999999999997
 30
0.0
 11
248.51175
 21
3.32399999999997
 31
0.0
  0
LINE
  5
38
330
1E
100
AcDbEntity
  8
0
100
AcDbLine
 10
238.51175
 20
2.99999999999997
 30
0.0
 11
238.51175
 21
3.32399999999997
 31
0.0
  0
LINE
  5
39
330
1E
100
AcDbEntity
  8
0
100
AcDbLine
 10
238.51175
 20
2.99999999999997
 30
0.0
 11
248.51175
 21
2.99999999999997
 31
0.0
  0
LINE
  5
3A
330
1E
100
AcDbEntity
  8
0
100
AcDbLine
 10
53.6355499999999
 20
3.36799999999999
 30
0.0
 11
55.32479999999989
 21
2.0
 31
0.0
  0
LINE
  5
3B
330
1E
100
AcDbEntity
  8
0
100
AcDbLine
 10
57.57474999999989
 20
3.36799999999999
 30
0.0
 11
59.2640499999999
 21
2.0
 31
0.0
  0
LINE
  5
3C
330
1E
100
AcDbEntity
  8
0
100
AcDbLine
 10
60.9532499999999
 20
3.36799999999999
 30
0.0
 11
62.53694999999989
 21
7.016
 31
0.0
  0
LINE
  5
3D
330
1E
100
AcDbEntity
  8
0
100
AcDbLine
 10
17.97784999999989
 20
5.0
 30
0.0
 11
48.0619426145833
 21
5.0
 31
0.0
  0
LINE
  5
3E
330
1E
100
AcDbEntity
  8
0
100
AcDbLine
 10
47.94038899999989
 20
5.27999999999999
 30
0.0
 11
49.60740999999989
 21
1.439999999999999
 31
0.0
  0
LINE
  5
3F
330
1E
100
AcDbEntity
  8
0
100
AcDbLine
 10
51.87961999999989
 20
5.27999999999999
 30
0.0
 11
53.54663999999989
 21
1.439999999999999
 31
0.0
  0
LINE
  5
40
330
1E
100
AcDbEntity
  8
0
100
AcDbLine
 10
17.97784999999989
 20
5.0
 30
0.0
 11
48.0619426145833
 21
5.0
 31
0.0
  0
LINE
  5
41
330
1E
100
AcDbEntity
  8
0
100
AcDbLine
 10
83.9449499999999
 20
5.4
 30
0.0
 11
85.61204999999992
 21
1.399999999999999
 31
0.0
  0
LINE
  5
42
330
1E
100
AcDbEntity
  8
0
100
AcDbLine
 10
83.9449499999999
 20
5.4
 30
0.0
 11
85.61204999999992
 21
1.399999999999999
 31
0.0
  0
LINE
  5
43
330
1E
100
AcDbEntity
  8
0
100
AcDbLine
 10
14.43094999999989
 20
7.77939999999999
 30
0.0
 11
15.0769499999999
 21
6.75
 31
0.0
  0
LINE
  5
44
330
1E
100
AcDbEntity
  8
0
100
AcDbLine
 10
52.05187999999989
 20
7.016
 30
0.0
 11
53.6355499999999
 21
3.36799999999999
 31
0.0
  0
LINE
  5
45
330
1E
100
AcDbEntity
  8
0
100
AcDbLine
 10
55.99110999999989
 20
7.016
 30
0.0
 11
57.57474999999989
 21
3.36799999999999
 31
0.0
  0
LINE
  5
46
330
1E
100
AcDbEntity
  8
0
100
AcDbLine
 10
62.53694999999989
 20
7.016
 30
0.0
 11
62.96932028579711
 21
8.895198897452619
 31
0.0
  0
LINE
  5
47
330
1E
100
AcDbEntity
  8
0
100
AcDbLine
 10
15.0769499999999
 20
6.75
 30
0.0
 11
16.61424999999989
 21
5.5147
 31
0.0
  0
LINE
  5
48
330
1E
100
AcDbEntity
  8
0
100
AcDbLine
 10
16.61424999999989
 20
5.5147
 30
0.0
 11
17.97784999999989
 21
5.0
 31
0.0
  0
LINE
  5
49
330
1E
100
AcDbEntity
  8
0
100
AcDbLine
 10
91.75414999999999
 20
6.2
 30
0.0
 11
93.1607499999999
 21
12.5
 31
0.0
  0
LINE
  5
4A
330
1E
100
AcDbEntity
  8
0
100
AcDbLine
 10
85.0166499999999
 20
6.2
 30
0.0
 11
86.6489499999999
 21
2.399999999999999
 31
0.0
  0
LINE
  5
4B
330
1E
100
AcDbEntity
  8
0
100
AcDbLine
 10
63.75644999999989
 20
5.4
 30
0.0
 11
65.42344999999989
 21
1.399999999999999
 31
0.0
  0
LINE
  5
4C
330
1E
100
AcDbEntity
  8
0
100
AcDbLine
 10
218.51175
 20
4.999999999999969
 30
0.0
 11
218.51175
 21
5.251999999999969
 31
0.0
  0
LINE
  5
4D
330
1E
100
AcDbEntity
  8
0
100
AcDbLine
 10
218.51175
 20
4.999999999999969
 30
0.0
 11
238.51175
 21
4.999999999999969
 31
0.0
  0
LINE
  5
4E
330
1E
100
AcDbEntity
  8
0
100
AcDbLine
 10
218.51175
 20
5.251999999999969
 30
0.0
 11
218.51175
 21
5.92399999999997
 31
0.0
  0
LINE
  5
4F
330
1E
100
AcDbEntity
  8
0
100
AcDbLine
 10
218.51175
 20
5.251999999999969
 30
0.0
 11
218.51175
 21
4.999999999999969
 31
0.0
  0
LINE
  5
50
330
1E
100
AcDbEntity
  8
0
100
AcDbLine
 10
218.51175
 20
5.251999999999969
 30
0.0
 11
218.51175
 21
5.92399999999997
 31
0.0
  0
LINE
  5
51
330
1E
100
AcDbEntity
  8
0
100
AcDbLine
 10
218.51175
 20
5.92399999999997
 30
0.0
 11
218.51175
 21
5.251999999999969
 31
0.0
  0
LINE
  5
52
330
1E
100
AcDbEntity
  8
0
100
AcDbLine
 10
218.51175
 20
5.92399999999997
 30
0.0
 11
218.51175
 21
7.04399999999997
 31
0.0
  0
LINE
  5
53
330
1E
100
AcDbEntity
  8
0
100
AcDbLine
 10
218.51175
 20
5.92399999999997
 30
0.0
 11
218.51175
 21
6.999999999999969
 31
0.0
  0
LINE
  5
54
330
1E
100
AcDbEntity
  8
0
100
AcDbLine
 10
218.51175
 20
5.92399999999997
 30
0.0
 11
218.51175
 21
5.251999999999969
 31
0.0
  0
LINE
  5
55
330
1E
100
AcDbEntity
  8
0
100
AcDbLine
 10
238.51175
 20
4.18799999999997
 30
0.0
 11
238.51175
 21
3.32399999999997
 31
0.0
  0
LINE
  5
56
330
1E
100
AcDbEntity
  8
0
100
AcDbLine
 10
238.51175
 20
4.18799999999997
 30
0.0
 11
238.51175
 21
5.627999999999969
 31
0.0
  0
LINE
  5
57
330
1E
100
AcDbEntity
  8
0
100
AcDbLine
 10
238.51175
 20
3.32399999999997
 30
0.0
 11
238.51175
 21
4.18799999999997
 31
0.0
  0
LINE
  5
58
330
1E
100
AcDbEntity
  8
0
100
AcDbLine
 10
238.51175
 20
3.32399999999997
 30
0.0
 11
238.51175
 21
2.99999999999997
 31
0.0
  0
LINE
  5
59
330
1E
100
AcDbEntity
  8
0
100
AcDbLine
 10
238.51175
 20
3.32399999999997
 30
0.0
 11
238.51175
 21
4.18799999999997
 31
0.0
  0
LINE
  5
5A
330
1E
100
AcDbEntity
  8
0
100
AcDbLine
 10
238.51175
 20
4.18799999999997
 30
0.0
 11
238.51175
 21
4.999999999999969
 31
0.0
  0
LINE
  5
5B
330
1E
100
AcDbEntity
  8
0
100
AcDbLine
 10
238.51175
 20
4.18799999999997
 30
0.0
 11
238.51175
 21
3.32399999999997
 31
0.0
  0
LINE
  5
5C
330
1E
100
AcDbEntity
  8
0
100
AcDbLine
 10
238.51175
 20
5.627999999999969
 30
0.0
 11
238.51175
 21
4.18799999999997
 31
0.0
  0
LINE
  5
5D
330
1E
100
AcDbEntity
  8
0
100
AcDbLine
 10
238.51175
 20
5.627999999999969
 30
0.0
 11
238.51175
 21
7.53599999999997
 31
0.0
  0
LINE
  5
5E
330
1E
100
AcDbEntity
  8
0
100
AcDbLine
 10
238.51175
 20
4.999999999999969
 30
0.0
 11
238.51175
 21
5.251999999999969
 31
0.0
  0
LINE
  5
5F
330
1E
100
AcDbEntity
  8
0
100
AcDbLine
 10
238.51175
 20
4.999999999999969
 30
0.0
 11
238.51175
 21
4.18799999999997
 31
0.0
  0
LINE
  5
60
330
1E
100
AcDbEntity
  8
0
100
AcDbLine
 10
248.51175
 20
3.32399999999997
 30
0.0
 11
248.51175
 21
2.99999999999997
 31
0.0
  0
LINE
  5
61
330
1E
100
AcDbEntity
  8
0
100
AcDbLine
 10
248.51175
 20
3.32399999999997
 30
0.0
 11
248.51175
 21
4.18799999999997
 31
0.0
  0
LINE
  5
62
330
1E
100
AcDbEntity
  8
0
100
AcDbLine
 10
258.5117499999999
 20
2.99999999999997
 30
0.0
 11
258.5117499999999
 21
40.0
 31
0.0
  0
LINE
  5
63
330
1E
100
AcDbEntity
  8
0
100
AcDbLine
 10
258.5117499999999
 20
2.99999999999997
 30
0.0
 11
288.51175
 21
2.99999999999997
 31
0.0
  0
LINE
  5
64
330
1E
100
AcDbEntity
  8
0
100
AcDbLine
 10
258.5117499999999
 20
4.999999999999969
 30
0.0
 11
258.5117499999999
 21
2.99999999999997
 31
0.0
  0
LINE
  5
65
330
1E
100
AcDbEntity
  8
0
100
AcDbLine
 10
248.51175
 20
4.18799999999997
 30
0.0
 11
248.51175
 21
3.32399999999997
 31
0.0
  0
LINE
  5
66
330
1E
100
AcDbEntity
  8
0
100
AcDbLine
 10
248.51175
 20
4.18799999999997
 30
0.0
 11
248.51175
 21
5.627999999999969
 31
0.0
  0
LINE
  5
67
330
1E
100
AcDbEntity
  8
0
100
AcDbLine
 10
248.51175
 20
5.627999999999969
 30
0.0
 11
248.51175
 21
4.18799999999997
 31
0.0
  0
LINE
  5
68
330
1E
100
AcDbEntity
  8
0
100
AcDbLine
 10
248.51175
 20
5.627999999999969
 30
0.0
 11
248.51175
 21
7.53599999999997
 31
0.0
  0
LINE
  5
69
330
1E
100
AcDbEntity
  8
0
100
AcDbLine
 10
248.51175
 20
4.999999999999969
 30
0.0
 11
258.5117499999999
 21
4.999999999999969
 31
0.0
  0
LINE
  5
6A
330
1E
100
AcDbEntity
  8
0
100
AcDbLine
 10
238.51175
 20
5.251999999999969
 30
0.0
 11
238.51175
 21
4.999999999999969
 31
0.0
  0
LINE
  5
6B
330
1E
100
AcDbEntity
  8
0
100
AcDbLine
 10
238.51175
 20
5.251999999999969
 30
0.0
 11
238.51175
 21
5.92399999999997
 31
0.0
  0
LINE
  5
6C
330
1E
100
AcDbEntity
  8
0
100
AcDbLine
 10
238.51175
 20
5.92399999999997
 30
0.0
 11
238.51175
 21
5.251999999999969
 31
0.0
  0
LINE
  5
6D
330
1E
100
AcDbEntity
  8
0
100
AcDbLine
 10
238.51175
 20
5.92399999999997
 30
0.0
 11
238.51175
 21
7.04399999999997
 31
0.0
  0
LINE
  5
6E
330
1E
100
AcDbEntity
  8
0
100
AcDbLine
 10
218.51175
 20
6.999999999999969
 30
0.0
 11
218.51175
 21
7.17999999999997
 31
0.0
  0
LINE
  5
6F
330
1E
100
AcDbEntity
  8
0
100
AcDbLine
 10
218.51175
 20
6.999999999999969
 30
0.0
 11
218.51175
 21
5.92399999999997
 31
0.0
  0
LINE
  5
70
330
1E
100
AcDbEntity
  8
0
100
AcDbLine
 10
218.51175
 20
7.04399999999997
 30
0.0
 11
218.51175
 21
5.92399999999997
 31
0.0
  0
LINE
  5
71
330
1E
100
AcDbEntity
  8
0
100
AcDbLine
 10
218.51175
 20
7.04399999999997
 30
0.0
 11
218.51175
 21
8.52799999999997
 31
0.0
  0
LINE
  5
72
330
1E
100
AcDbEntity
  8
0
100
AcDbLine
 10
174.7457499999999
 20
7.17999999999997
 30
0.0
 11
175.05475
 21
7.659999999999969
 31
0.0
  0
LINE
  5
73
330
1E
100
AcDbEntity
  8
0
100
AcDbLine
 10
238.51175
 20
7.53599999999997
 30
0.0
 11
238.51175
 21
5.627999999999969
 31
0.0
  0
LINE
  5
74
330
1E
100
AcDbEntity
  8
0
100
AcDbLine
 10
238.51175
 20
7.53599999999997
 30
0.0
 11
238.51175
 21
9.695999999999969
 31
0.0
  0
LINE
  5
75
330
1E
100
AcDbEntity
  8
0
100
AcDbLine
 10
288.51175
 20
7.130716981132069
 30
0.0
 11
288.51175
 21
2.99999999999997
 31
0.0
  0
LINE
  5
76
330
1E
100
AcDbEntity
  8
0
100
AcDbLine
 10
248.51175
 20
7.53599999999997
 30
0.0
 11
248.51175
 21
5.627999999999969
 31
0.0
  0
LINE
  5
77
330
1E
100
AcDbEntity
  8
0
100
AcDbLine
 10
248.51175
 20
7.53599999999997
 30
0.0
 11
248.51175
 21
9.695999999999969
 31
0.0
  0
LINE
  5
78
330
1E
100
AcDbEntity
  8
0
100
AcDbLine
 10
238.51175
 20
7.04399999999997
 30
0.0
 11
238.51175
 21
5.92399999999997
 31
0.0
  0
LINE
  5
79
330
1E
100
AcDbEntity
  8
0
100
AcDbLine
 10
238.51175
 20
7.04399999999997
 30
0.0
 11
238.51175
 21
8.52799999999997
 31
0.0
  0
LINE
  5
7A
330
1E
100
AcDbEntity
  8
0
100
AcDbLine
 10
218.51175
 20
7.17999999999997
 30
0.0
 11
218.51175
 21
6.999999999999969
 31
0.0
  0
LINE
  5
7B
330
1E
100
AcDbEntity
  8
0
100
AcDbLine
 10
218.51175
 20
7.17999999999997
 30
0.0
 11
218.51175
 21
7.659999999999969
 31
0.0
  0
LINE
  5
7C
330
1E
100
AcDbEntity
  8
0
100
AcDbLine
 10
174.4147499999999
 20
6.999999999999969
 30
0.0
 11
218.51175
 21
6.999999999999969
 31
0.0
  0
LINE
  5
7D
330
1E
100
AcDbEntity
  8
0
100
AcDbLine
 10
174.4147499999999
 20
6.999999999999969
 30
0.0
 11
174.7457499999999
 21
7.17999999999997
 31
0.0
  0
LINE
  5
7E
330
1E
100
AcDbEntity
  8
0
100
AcDbLine
 10
174.08475
 20
7.17999999999997
 30
0.0
 11
174.4147499999999
 21
6.999999999999969
 31
0.0
  0
LINE
  5
7F
330
1E
100
AcDbEntity
  8
0
100
AcDbLine
 10
175.05475
 20
7.659999999999969
 30
0.0
 11
175.32875
 21
8.45999999999997
 31
0.0
  0
LINE
  5
80
330
1E
100
AcDbEntity
  8
0
100
AcDbLine
 10
218.51175
 20
8.52799999999997
 30
0.0
 11
218.51175
 21
7.04399999999997
 31
0.0
  0
LINE
  5
81
330
1E
100
AcDbEntity
  8
0
100
AcDbLine
 10
218.51175
 20
8.52799999999997
 30
0.0
 11
218.51175
 21
10.208
 31
0.0
  0
LINE
  5
82
330
1E
100
AcDbEntity
  8
0
100
AcDbLine
 10
175.32875
 20
8.45999999999997
 30
0.0
 11
175.53475
 21
9.519999999999969
 31
0.0
  0
LINE
  5
83
330
1E
100
AcDbEntity
  8
0
100
AcDbLine
 10
218.51175
 20
7.659999999999969
 30
0.0
 11
218.51175
 21
7.17999999999997
 31
0.0
  0
LINE
  5
84
330
1E
100
AcDbEntity
  8
0
100
AcDbLine
 10
218.51175
 20
7.659999999999969
 30
0.0
 11
218.51175
 21
8.45999999999997
 31
0.0
  0
LINE
  5
85
330
1E
100
AcDbEntity
  8
0
100
AcDbLine
 10
238.51175
 20
8.52799999999997
 30
0.0
 11
238.51175
 21
7.04399999999997
 31
0.0
  0
LINE
  5
86
330
1E
100
AcDbEntity
  8
0
100
AcDbLine
 10
238.51175
 20
8.52799999999997
 30
0.0
 11
238.51175
 21
10.208
 31
0.0
  0
LINE
  5
87
330
1E
100
AcDbEntity
  8
0
100
AcDbLine
 10
218.51175
 20
8.45999999999997
 30
0.0
 11
218.51175
 21
7.659999999999969
 31
0.0
  0
LINE
  5
88
330
1E
100
AcDbEntity
  8
0
100
AcDbLine
 10
218.51175
 20
8.45999999999997
 30
0.0
 11
218.51175
 21
9.519999999999969
 31
0.0
  0
LINE
  5
89
330
1E
100
AcDbEntity
  8
0
100
AcDbLine
 10
173.77475
 20
7.659999999999969
 30
0.0
 11
174.08475
 21
7.17999999999997
 31
0.0
  0
LINE
  5
8A
330
1E
100
AcDbEntity
  8
0
100
AcDbLine
 10
173.5017499999999
 20
8.45999999999997
 30
0.0
 11
173.77475
 21
7.659999999999969
 31
0.0
  0
LINE
  5
8B
330
1E
100
AcDbEntity
  8
0
100
AcDbLine
 10
175.53475
 20
9.519999999999969
 30
0.0
 11
175.65875
 21
10.72
 31
0.0
  0
LINE
  5
8C
330
1E
100
AcDbEntity
  8
0
100
AcDbLine
 10
238.51175
 20
9.695999999999969
 30
0.0
 11
238.51175
 21
7.53599999999997
 31
0.0
  0
LINE
  5
8D
330
1E
100
AcDbEntity
  8
0
100
AcDbLine
 10
238.51175
 20
9.695999999999969
 30
0.0
 11
238.51175
 21
12.0
 31
0.0
  0
LINE
  5
8E
330
1E
100
AcDbEntity
  8
0
100
AcDbLine
 10
248.51175
 20
9.695999999999969
 30
0.0
 11
248.51175
 21
7.53599999999997
 31
0.0
  0
LINE
  5
8F
330
1E
100
AcDbEntity
  8
0
100
AcDbLine
 10
248.51175
 20
9.695999999999969
 30
0.0
 11
248.51175
 21
12.0
 31
0.0
  0
LINE
  5
90
330
1E
100
AcDbEntity
  8
0
100
AcDbLine
 10
218.51175
 20
9.519999999999969
 30
0.0
 11
218.51175
 21
8.45999999999997
 31
0.0
  0
LINE
  5
91
330
1E
100
AcDbEntity
  8
0
100
AcDbLine
 10
218.51175
 20
9.519999999999969
 30
0.0
 11
218.51175
 21
10.72
 31
0.0
  0
LINE
  5
92
330
1E
100
AcDbEntity
  8
0
100
AcDbLine
 10
173.2947499999999
 20
9.519999999999969
 30
0.0
 11
173.5017499999999
 21
8.45999999999997
 31
0.0
  0
LINE
  5
93
330
1E
100
AcDbEntity
  8
0
100
AcDbLine
 10
288.6637499999999
 20
7.015999999999981
 30
0.0
 11
297.78375
 21
3.36799999999997
 31
0.0
  0
LINE
  5
94
330
1E
100
AcDbEntity
  8
0
100
AcDbLine
 10
288.6637499999999
 20
7.015999999999981
 30
0.0
 11
297.78375
 21
3.36799999999997
 31
0.0
  0
LINE
  5
95
330
1E
100
AcDbEntity
  8
0
100
AcDbLine
 10
288.51175
 20
2.99999999999997
 30
0.0
 11
288.51175
 21
7.130716981132069
 31
0.0
  0
LINE
  5
96
330
1E
100
AcDbEntity
  8
0
100
AcDbLine
 10
288.51175
 20
2.99999999999997
 30
0.0
 11
290.51175
 21
2.99999999999997
 31
0.0
  0
LINE
  5
97
330
1E
100
AcDbEntity
  8
0
100
AcDbLine
 10
290.51175
 20
2.99999999999997
 30
0.0
 11
290.51175
 21
3.32399999999997
 31
0.0
  0
LINE
  5
98
330
1E
100
AcDbEntity
  8
0
100
AcDbLine
 10
290.51175
 20
3.32399999999997
 30
0.0
 11
290.51175
 21
2.99999999999997
 31
0.0
  0
LINE
  5
99
330
1E
100
AcDbEntity
  8
0
100
AcDbLine
 10
290.51175
 20
3.32399999999997
 30
0.0
 11
290.51175
 21
4.18799999999997
 31
0.0
  0
LINE
  5
9A
330
1E
100
AcDbEntity
  8
0
100
AcDbLine
 10
290.51175
 20
4.18799999999997
 30
0.0
 11
290.51175
 21
3.32399999999997
 31
0.0
  0
LINE
  5
9B
330
1E
100
AcDbEntity
  8
0
100
AcDbLine
 10
290.51175
 20
4.18799999999997
 30
0.0
 11
290.51175
 21
5.627999999999969
 31
0.0
  0
LINE
  5
9C
330
1E
100
AcDbEntity
  8
0
100
AcDbLine
 10
297.78375
 20
3.36799999999997
 30
0.0
 11
307.51175
 21
1.999999999999969
 31
0.0
  0
LINE
  5
9D
330
1E
100
AcDbEntity
  8
0
100
AcDbLine
 10
297.78375
 20
3.36799999999997
 30
0.0
 11
307.51175
 21
1.999999999999969
 31
0.0
  0
LINE
  5
9E
330
1E
100
AcDbEntity
  8
0
100
AcDbLine
 10
290.51175
 20
5.627999999999969
 30
0.0
 11
290.51175
 21
4.18799999999997
 31
0.0
  0
LINE
  5
9F
330
1E
100
AcDbEntity
  8
0
100
AcDbLine
 10
290.51175
 20
5.627999999999969
 30
0.0
 11
290.51175
 21
6.276799999999981
 31
0.0
  0
LINE
  5
A0
330
1E
100
AcDbEntity
  8
0
100
AcDbLine
 10
290.51175
 20
6.276799999999981
 30
0.0
 11
290.51175
 21
5.627999999999969
 31
0.0
  0
LINE
  5
A1
330
1E
100
AcDbEntity
  8
0
100
AcDbLine
 10
298.55175
 20
6.25999999999997
 30
0.0
 11
307.51175
 21
4.999999999999969
 31
0.0
  0
LINE
  5
A2
330
1E
100
AcDbEntity
  8
0
100
AcDbLine
 10
290.15175
 20
9.61999999999997
 30
0.0
 11
298.55175
 21
6.25999999999997
 31
0.0
  0
LINE
  5
A3
330
1E
100
AcDbEntity
  8
0
100
AcDbLine
 10
59.2640499999999
 20
10.0
 30
0.0
 11
62.72051562499989
 21
10.0
 31
0.0
  0
LINE
  5
A4
330
1E
100
AcDbEntity
  8
0
100
AcDbLine
 10
57.93044999999989
 20
11.08
 30
0.0
 11
59.2640499999999
 21
10.0
 31
0.0
  0
LINE
  5
A5
330
1E
100
AcDbEntity
  8
0
100
AcDbLine
 10
46.46784999999989
 20
11.67999999999999
 30
0.0
 11
47.94038899999989
 21
5.27999999999999
 31
0.0
  0
LINE
  5
A6
330
1E
100
AcDbEntity
  8
0
100
AcDbLine
 10
50.40707999999989
 20
11.67999999999999
 30
0.0
 11
51.87961999999989
 21
5.27999999999999
 31
0.0
  0
LINE
  5
A7
330
1E
100
AcDbEntity
  8
0
100
AcDbLine
 10
13.0366499999999
 20
11.0735
 30
0.0
 11
14.43094999999989
 21
7.77939999999999
 31
0.0
  0
LINE
  5
A8
330
1E
100
AcDbEntity
  8
0
100
AcDbLine
 10
13.6290499999999
 20
10.1471
 30
0.0
 11
15.0769499999999
 21
6.75
 31
0.0
  0
LINE
  5
A9
330
1E
100
AcDbEntity
  8
0
100
AcDbLine
 10
82.50374999999991
 20
11.8
 30
0.0
 11
83.9449499999999
 21
5.4
 31
0.0
  0
LINE
  5
AA
330
1E
100
AcDbEntity
  8
0
100
AcDbLine
 10
62.3151499999999
 20
11.8
 30
0.0
 11
63.75644999999989
 21
5.4
 31
0.0
  0
LINE
  5
AB
330
1E
100
AcDbEntity
  8
0
100
AcDbLine
 10
175.65875
 20
10.72
 30
0.0
 11
175.7057499999999
 21
12.0
 31
0.0
  0
LINE
  5
AC
330
1E
100
AcDbEntity
  8
0
100
AcDbLine
 10
173.1707499999999
 20
10.72
 30
0.0
 11
173.2947499999999
 21
9.519999999999969
 31
0.0
  0
LINE
  5
AD
330
1E
100
AcDbEntity
  8
0
100
AcDbLine
 10
93.1607499999999
 20
12.5
 30
0.0
 11
94.25474999999989
 21
20.6
 31
0.0
  0
LINE
  5
AE
330
1E
100
AcDbEntity
  8
0
100
AcDbLine
 10
50.6529699999999
 20
13.09599999999999
 30
0.0
 11
52.05187999999989
 21
7.016
 31
0.0
  0
LINE
  5
AF
330
1E
100
AcDbEntity
  8
0
100
AcDbLine
 10
54.59219999999989
 20
13.09599999999999
 30
0.0
 11
55.99110999999989
 21
7.016
 31
0.0
  0
LINE
  5
B0
330
1E
100
AcDbEntity
  8
0
100
AcDbLine
 10
83.61004999999989
 20
12.5
 30
0.0
 11
85.0166499999999
 21
6.2
 31
0.0
  0
LINE
  5
B1
330
1E
100
AcDbEntity
  8
0
100
AcDbLine
 10
173.1707499999999
 20
13.28
 30
0.0
 11
173.2947499999999
 21
14.48
 31
0.0
  0
LINE
  5
B2
330
1E
100
AcDbEntity
  8
0
100
AcDbLine
 10
173.12475
 20
12.0
 30
0.0
 11
173.1707499999999
 21
13.28
 31
0.0
  0
LINE
  5
B3
330
1E
100
AcDbEntity
  8
0
100
AcDbLine
 10
173.12475
 20
12.0
 30
0.0
 11
173.1707499999999
 21
10.72
 31
0.0
  0
LINE
  5
B4
330
1E
100
AcDbEntity
  8
0
100
AcDbLine
 10
218.51175
 20
10.208
 30
0.0
 11
218.51175
 21
8.52799999999997
 31
0.0
  0
LINE
  5
B5
330
1E
100
AcDbEntity
  8
0
100
AcDbLine
 10
218.51175
 20
10.208
 30
0.0
 11
218.51175
 21
12.0
 31
0.0
  0
LINE
  5
B6
330
1E
100
AcDbEntity
  8
0
100
AcDbLine
 10
248.51175
 20
12.0
 30
0.0
 11
248.51175
 21
14.304
 31
0.0
  0
LINE
  5
B7
330
1E
100
AcDbEntity
  8
0
100
AcDbLine
 10
248.51175
 20
12.0
 30
0.0
 11
248.51175
 21
9.695999999999969
 31
0.0
  0
LINE
  5
B8
330
1E
100
AcDbEntity
  8
0
100
AcDbLine
 10
238.51175
 20
10.208
 30
0.0
 11
238.51175
 21
8.52799999999997
 31
0.0
  0
LINE
  5
B9
330
1E
100
AcDbEntity
  8
0
100
AcDbLine
 10
238.51175
 20
10.208
 30
0.0
 11
238.51175
 21
12.0
 31
0.0
  0
LINE
  5
BA
330
1E
100
AcDbEntity
  8
0
100
AcDbLine
 10
238.51175
 20
12.0
 30
0.0
 11
238.51175
 21
13.79199999999999
 31
0.0
  0
LINE
  5
BB
330
1E
100
AcDbEntity
  8
0
100
AcDbLine
 10
238.51175
 20
12.0
 30
0.0
 11
238.51175
 21
10.208
 31
0.0
  0
LINE
  5
BC
330
1E
100
AcDbEntity
  8
0
100
AcDbLine
 10
238.51175
 20
12.0
 30
0.0
 11
238.51175
 21
14.304
 31
0.0
  0
LINE
  5
BD
330
1E
100
AcDbEntity
  8
0
100
AcDbLine
 10
238.51175
 20
12.0
 30
0.0
 11
238.51175
 21
9.695999999999969
 31
0.0
  0
LINE
  5
BE
330
1E
100
AcDbEntity
  8
0
100
AcDbLine
 10
218.51175
 20
10.72
 30
0.0
 11
218.51175
 21
9.519999999999969
 31
0.0
  0
LINE
  5
BF
330
1E
100
AcDbEntity
  8
0
100
AcDbLine
 10
218.51175
 20
10.72
 30
0.0
 11
218.51175
 21
12.0
 31
0.0
  0
LINE
  5
C0
330
1E
100
AcDbEntity
  8
0
100
AcDbLine
 10
280.60775
 20
13.09599999999999
 30
0.0
 11
288.6637499999999
 21
7.015999999999981
 31
0.0
  0
LINE
  5
C1
330
1E
100
AcDbEntity
  8
0
100
AcDbLine
 10
218.51175
 20
12.0
 30
0.0
 11
218.51175
 21
13.28
 31
0.0
  0
LINE
  5
C2
330
1E
100
AcDbEntity
  8
0
100
AcDbLine
 10
218.51175
 20
12.0
 30
0.0
 11
218.51175
 21
10.72
 31
0.0
  0
LINE
  5
C3
330
1E
100
AcDbEntity
  8
0
100
AcDbLine
 10
218.51175
 20
12.0
 30
0.0
 11
218.51175
 21
13.79199999999999
 31
0.0
  0
LINE
  5
C4
330
1E
100
AcDbEntity
  8
0
100
AcDbLine
 10
218.51175
 20
12.0
 30
0.0
 11
218.51175
 21
10.208
 31
0.0
  0
LINE
  5
C5
330
1E
100
AcDbEntity
  8
0
100
AcDbLine
 10
175.65875
 20
13.28
 30
0.0
 11
175.7057499999999
 21
12.0
 31
0.0
  0
LINE
  5
C6
330
1E
100
AcDbEntity
  8
0
100
AcDbLine
 10
56.68014999999989
 20
13.96
 30
0.0
 11
57.93044999999989
 21
11.08
 31
0.0
  0
LINE
  5
C7
330
1E
100
AcDbEntity
  8
0
100
AcDbLine
 10
61.60414999999989
 20
13.96
 30
0.0
 11
62.21404246228129
 21
12.55514493212009
 31
0.0
  0
LINE
  5
C8
330
1E
100
AcDbEntity
  8
0
100
AcDbLine
 10
173.5017499999999
 20
15.54
 30
0.0
 11
173.77475
 21
16.34
 31
0.0
  0
LINE
  5
C9
330
1E
100
AcDbEntity
  8
0
100
AcDbLine
 10
173.2947499999999
 20
14.48
 30
0.0
 11
173.5017499999999
 21
15.54
 31
0.0
  0
LINE
  5
CA
330
1E
100
AcDbEntity
  8
0
100
AcDbLine
 10
175.32875
 20
15.54
 30
0.0
 11
175.53475
 21
14.48
 31
0.0
  0
LINE
  5
CB
330
1E
100
AcDbEntity
  8
0
100
AcDbLine
 10
218.51175
 20
15.472
 30
0.0
 11
218.51175
 21
13.79199999999999
 31
0.0
  0
LINE
  5
CC
330
1E
100
AcDbEntity
  8
0
100
AcDbLine
 10
218.51175
 20
15.472
 30
0.0
 11
218.51175
 21
16.95599999999999
 31
0.0
  0
LINE
  5
CD
330
1E
100
AcDbEntity
  8
0
100
AcDbLine
 10
218.51175
 20
13.79199999999999
 30
0.0
 11
218.51175
 21
12.0
 31
0.0
  0
LINE
  5
CE
330
1E
100
AcDbEntity
  8
0
100
AcDbLine
 10
218.51175
 20
13.79199999999999
 30
0.0
 11
218.51175
 21
15.472
 31
0.0
  0
LINE
  5
CF
330
1E
100
AcDbEntity
  8
0
100
AcDbLine
 10
175.53475
 20
14.48
 30
0.0
 11
175.65875
 21
13.28
 31
0.0
  0
LINE
  5
D0
330
1E
100
AcDbEntity
  8
0
100
AcDbLine
 10
11.8211499999999
 20
16.32349999999999
 30
0.0
 11
13.0366499999999
 21
11.0735
 31
0.0
  0
LINE
  5
D1
330
1E
100
AcDbEntity
  8
0
100
AcDbLine
 10
12.3777499999999
 20
15.6029
 30
0.0
 11
13.6290499999999
 21
10.1471
 31
0.0
  0
LINE
  5
D2
330
1E
100
AcDbEntity
  8
0
100
AcDbLine
 10
174.08475
 20
16.82
 30
0.0
 11
174.4147499999999
 21
17.0
 31
0.0
  0
LINE
  5
D3
330
1E
100
AcDbEntity
  8
0
100
AcDbLine
 10
173.77475
 20
16.34
 30
0.0
 11
174.08475
 21
16.82
 31
0.0
  0
LINE
  5
D4
330
1E
100
AcDbEntity
  8
0
100
AcDbLine
 10
174.7457499999999
 20
16.82
 30
0.0
 11
175.05475
 21
16.34
 31
0.0
  0
LINE
  5
D5
330
1E
100
AcDbEntity
  8
0
100
AcDbLine
 10
175.05475
 20
16.34
 30
0.0
 11
175.32875
 21
15.54
 31
0.0
  0
LINE
  5
D6
330
1E
100
AcDbEntity
  8
0
100
AcDbLine
 10
218.51175
 20
16.95599999999999
 30
0.0
 11
218.51175
 21
15.472
 31
0.0
  0
LINE
  5
D7
330
1E
100
AcDbEntity
  8
0
100
AcDbLine
 10
218.51175
 20
16.95599999999999
 30
0.0
 11
218.51175
 21
18.076
 31
0.0
  0
LINE
  5
D8
330
1E
100
AcDbEntity
  8
0
100
AcDbLine
 10
55.5757399999999
 20
18.76
 30
0.0
 11
56.68014999999989
 21
13.96
 31
0.0
  0
LINE
  5
DA
330
1E
100
AcDbEntity
  8
0
100
AcDbLine
 10
152.51175
 20
20.0
 30
0.0
 11
185.6467499999999
 21
20.0
 31
0.0
  0
LINE
  5
DB
330
1E
100
AcDbEntity
  8
0
100
AcDbLine
 10
60.49974999999989
 20
18.76
 30
0.0
 11
61.60414999999989
 21
13.96
 31
0.0
  0
LINE
  5
DC
330
1E
100
AcDbEntity
  8
0
100
AcDbLine
 10
185.6467499999999
 20
20.0
 30
0.0
 11
212.5117499999999
 21
20.0
 31
0.0
  0
LINE
  5
DE
330
1E
100
AcDbEntity
  8
0
100
AcDbLine
 10
2.93334999999993
 20
21.0
 30
0.0
 11
3.81174999999993
 21
20.29409999999999
 31
0.0
  0
LINE
  5
DF
330
1E
100
AcDbEntity
  8
0
100
AcDbLine
 10
45.35649999999989
 20
20.16
 30
0.0
 11
46.46784999999989
 21
11.67999999999999
 31
0.0
  0
LINE
  5
E0
330
1E
100
AcDbEntity
  8
0
100
AcDbLine
 10
49.59718999999989
 20
21.15199999999999
 30
0.0
 11
50.6529699999999
 21
13.09599999999999
 31
0.0
  0
LINE
  5
E1
330
1E
100
AcDbEntity
  8
0
100
AcDbLine
 10
53.5364199999999
 20
21.15199999999999
 30
0.0
 11
54.59219999999989
 21
13.09599999999999
 31
0.0
  0
LINE
  5
E2
330
1E
100
AcDbEntity
  8
0
100
AcDbLine
 10
49.29573999999989
 20
20.16
 30
0.0
 11
50.40707999999989
 21
11.67999999999999
 31
0.0
  0
LINE
  5
E3
330
1E
100
AcDbEntity
  8
0
100
AcDbLine
 10
3.81174999999993
 20
20.29409999999999
 30
0.0
 11
5.17534999999994
 21
20.0
 31
0.0
  0
LINE
  5
E4
330
1E
100
AcDbEntity
  8
0
100
AcDbLine
 10
5.17534999999994
 20
20.0
 30
0.0
 11
11.34231213571419
 21
20.0
 31
0.0
  0
LINE
  5
E5
330
1E
100
AcDbEntity
  8
0
100
AcDbLine
 10
94.17371296296286
 20
20.0
 30
0.0
 11
127.65895
 21
20.0
 31
0.0
  0
LINE
  5
E7
330
1E
100
AcDbEntity
  8
0
100
AcDbLine
 10
127.65895
 20
20.0
 30
0.0
 11
152.51175
 21
20.0
 31
0.0
  0
LINE
  5
EB
330
1E
100
AcDbEntity
  8
0
100
AcDbLine
 10
94.25474999999989
 20
20.6
 30
0.0
 11
94.91454999999991
 21
30.0
 31
0.0
  0
LINE
  5
EC
330
1E
100
AcDbEntity
  8
0
100
AcDbLine
 10
82.51605000000001
 20
20.6
 30
0.0
 11
83.61004999999989
 21
12.5
 31
0.0
  0
LINE
  5
ED
330
1E
100
AcDbEntity
  8
0
100
AcDbLine
 10
81.3923499999999
 20
20.1
 30
0.0
 11
82.50374999999991
 21
11.8
 31
0.0
  0
LINE
  5
EE
330
1E
100
AcDbEntity
  8
0
100
AcDbLine
 10
61.20384999999989
 20
20.1
 30
0.0
 11
62.3151499999999
 21
11.8
 31
0.0
  0
LINE
  5
EF
330
1E
100
AcDbEntity
  8
0
100
AcDbLine
 10
2.27194999999993
 20
21.58819999999999
 30
0.0
 11
2.93334999999993
 21
21.0
 31
0.0
  0
LINE
  5
F2
330
1E
100
AcDbEntity
  8
0
100
AcDbLine
 10
212.5117499999999
 20
20.0
 30
0.0
 11
238.51175
 21
20.0
 31
0.0
  0
LINE
  5
F3
330
1E
100
AcDbEntity
  8
0
100
AcDbLine
 10
218.51175
 20
19.0
 30
0.0
 11
218.51175
 21
18.748
 31
0.0
  0
LINE
  5
F4
330
1E
100
AcDbEntity
  8
0
100
AcDbLine
 10
218.51175
 20
19.0
 30
0.0
 11
238.51175
 21
19.0
 31
0.0
  0
LINE
  5
F5
330
1E
100
AcDbEntity
  8
0
100
AcDbLine
 10
218.51175
 20
18.748
 30
0.0
 11
218.51175
 21
18.076
 31
0.0
  0
LINE
  5
F6
330
1E
100
AcDbEntity
  8
0
100
AcDbLine
 10
218.51175
 20
18.748
 30
0.0
 11
218.51175
 21
19.0
 31
0.0
  0
LINE
  5
F7
330
1E
100
AcDbEntity
  8
0
100
AcDbLine
 10
218.51175
 20
18.076
 30
0.0
 11
218.51175
 21
16.95599999999999
 31
0.0
  0
LINE
  5
F8
330
1E
100
AcDbEntity
  8
0
100
AcDbLine
 10
218.51175
 20
18.076
 30
0.0
 11
218.51175
 21
18.748
 31
0.0
  0
LINE
  5
F9
330
1E
100
AcDbEntity
  8
0
100
AcDbLine
 10
218.51175
 20
18.076
 30
0.0
 11
218.51175
 21
17.0
 31
0.0
  0
LINE
  5
FA
330
1E
100
AcDbEntity
  8
0
100
AcDbLine
 10
174.4147499999999
 20
17.0
 30
0.0
 11
174.7457499999999
 21
16.82
 31
0.0
  0
LINE
  5
FB
330
1E
100
AcDbEntity
  8
0
100
AcDbLine
 10
174.4147499999999
 20
17.0
 30
0.0
 11
218.51175
 21
17.0
 31
0.0
  0
LINE
  5
FC
330
1E
100
AcDbEntity
  8
0
100
AcDbLine
 10
218.51175
 20
17.0
 30
0.0
 11
218.51175
 21
16.82
 31
0.0
  0
LINE
  5
FD
330
1E
100
AcDbEntity
  8
0
100
AcDbLine
 10
218.51175
 20
17.0
 30
0.0
 11
218.51175
 21
18.076
 31
0.0
  0
LINE
  5
FE
330
1E
100
AcDbEntity
  8
0
100
AcDbLine
 10
218.51175
 20
16.82
 30
0.0
 11
218.51175
 21
16.34
 31
0.0
  0
LINE
  5
FF
330
1E
100
AcDbEntity
  8
0
100
AcDbLine
 10
218.51175
 20
16.82
 30
0.0
 11
218.51175
 21
17.0
 31
0.0
  0
LINE
  5
100
330
1E
100
AcDbEntity
  8
0
100
AcDbLine
 10
218.51175
 20
16.34
 30
0.0
 11
218.51175
 21
15.54
 31
0.0
  0
LINE
  5
101
330
1E
100
AcDbEntity
  8
0
100
AcDbLine
 10
218.51175
 20
16.34
 30
0.0
 11
218.51175
 21
16.82
 31
0.0
  0
LINE
  5
102
330
1E
100
AcDbEntity
  8
0
100
AcDbLine
 10
218.51175
 20
15.54
 30
0.0
 11
218.51175
 21
14.48
 31
0.0
  0
LINE
  5
103
330
1E
100
AcDbEntity
  8
0
100
AcDbLine
 10
218.51175
 20
15.54
 30
0.0
 11
218.51175
 21
16.34
 31
0.0
  0
LINE
  5
104
330
1E
100
AcDbEntity
  8
0
100
AcDbLine
 10
238.51175
 20
16.464
 30
0.0
 11
238.51175
 21
14.304
 31
0.0
  0
LINE
  5
105
330
1E
100
AcDbEntity
  8
0
100
AcDbLine
 10
238.51175
 20
16.464
 30
0.0
 11
238.51175
 21
18.372
 31
0.0
  0
LINE
  5
106
330
1E
100
AcDbEntity
  8
0
100
AcDbLine
 10
238.51175
 20
14.304
 30
0.0
 11
238.51175
 21
12.0
 31
0.0
  0
LINE
  5
107
330
1E
100
AcDbEntity
  8
0
100
AcDbLine
 10
238.51175
 20
14.304
 30
0.0
 11
238.51175
 21
16.464
 31
0.0
  0
LINE
  5
108
330
1E
100
AcDbEntity
  8
0
100
AcDbLine
 10
238.51175
 20
18.372
 30
0.0
 11
238.51175
 21
16.464
 31
0.0
  0
LINE
  5
109
330
1E
100
AcDbEntity
  8
0
100
AcDbLine
 10
238.51175
 20
18.372
 30
0.0
 11
238.51175
 21
19.812
 31
0.0
  0
LINE
  5
10A
330
1E
100
AcDbEntity
  8
0
100
AcDbLine
 10
238.51175
 20
21.0
 30
0.0
 11
238.51175
 21
20.676
 31
0.0
  0
LINE
  5
10B
330
1E
100
AcDbEntity
  8
0
100
AcDbLine
 10
238.51175
 20
21.0
 30
0.0
 11
248.51175
 21
21.0
 31
0.0
  0
LINE
  5
10C
330
1E
100
AcDbEntity
  8
0
100
AcDbLine
 10
238.51175
 20
20.676
 30
0.0
 11
238.51175
 21
19.812
 31
0.0
  0
LINE
  5
10D
330
1E
100
AcDbEntity
  8
0
100
AcDbLine
 10
238.51175
 20
20.676
 30
0.0
 11
238.51175
 21
21.0
 31
0.0
  0
LINE
  5
10E
330
1E
100
AcDbEntity
  8
0
100
AcDbLine
 10
238.51175
 20
19.812
 30
0.0
 11
238.51175
 21
18.372
 31
0.0
  0
LINE
  5
10F
330
1E
100
AcDbEntity
  8
0
100
AcDbLine
 10
238.51175
 20
19.812
 30
0.0
 11
238.51175
 21
20.676
 31
0.0
  0
LINE
  5
110
330
1E
100
AcDbEntity
  8
0
100
AcDbLine
 10
238.51175
 20
19.812
 30
0.0
 11
238.51175
 21
19.0
 31
0.0
  0
LINE
  5
111
330
1E
100
AcDbEntity
  8
0
100
AcDbLine
 10
238.51175
 20
19.0
 30
0.0
 11
238.51175
 21
18.748
 31
0.0
  0
LINE
  5
112
330
1E
100
AcDbEntity
  8
0
100
AcDbLine
 10
238.51175
 20
19.0
 30
0.0
 11
238.51175
 21
19.812
 31
0.0
  0
LINE
  5
113
330
1E
100
AcDbEntity
  8
0
100
AcDbLine
 10
238.51175
 20
18.748
 30
0.0
 11
238.51175
 21
18.076
 31
0.0
  0
LINE
  5
114
330
1E
100
AcDbEntity
  8
0
100
AcDbLine
 10
238.51175
 20
18.748
 30
0.0
 11
238.51175
 21
19.0
 31
0.0
  0
LINE
  5
115
330
1E
100
AcDbEntity
  8
0
100
AcDbLine
 10
238.51175
 20
18.076
 30
0.0
 11
238.51175
 21
16.95599999999999
 31
0.0
  0
LINE
  5
116
330
1E
100
AcDbEntity
  8
0
100
AcDbLine
 10
238.51175
 20
18.076
 30
0.0
 11
238.51175
 21
18.748
 31
0.0
  0
LINE
  5
117
330
1E
100
AcDbEntity
  8
0
100
AcDbLine
 10
238.51175
 20
16.95599999999999
 30
0.0
 11
238.51175
 21
15.472
 31
0.0
  0
LINE
  5
118
330
1E
100
AcDbEntity
  8
0
100
AcDbLine
 10
238.51175
 20
16.95599999999999
 30
0.0
 11
238.51175
 21
18.076
 31
0.0
  0
LINE
  5
119
330
1E
100
AcDbEntity
  8
0
100
AcDbLine
 10
248.51175
 20
18.372
 30
0.0
 11
248.51175
 21
16.464
 31
0.0
  0
LINE
  5
11A
330
1E
100
AcDbEntity
  8
0
100
AcDbLine
 10
248.51175
 20
18.372
 30
0.0
 11
248.51175
 21
19.812
 31
0.0
  0
LINE
  5
11B
330
1E
100
AcDbEntity
  8
0
100
AcDbLine
 10
248.51175
 20
16.464
 30
0.0
 11
248.51175
 21
14.304
 31
0.0
  0
LINE
  5
11C
330
1E
100
AcDbEntity
  8
0
100
AcDbLine
 10
248.51175
 20
16.464
 30
0.0
 11
248.51175
 21
18.372
 31
0.0
  0
LINE
  5
11D
330
1E
100
AcDbEntity
  8
0
100
AcDbLine
 10
258.5117499999999
 20
19.0
 30
0.0
 11
258.5117499999999
 21
20.0
 31
0.0
  0
LINE
  5
11E
330
1E
100
AcDbEntity
  8
0
100
AcDbLine
 10
248.51175
 20
14.304
 30
0.0
 11
248.51175
 21
12.0
 31
0.0
  0
LINE
  5
11F
330
1E
100
AcDbEntity
  8
0
100
AcDbLine
 10
248.51175
 20
14.304
 30
0.0
 11
248.51175
 21
16.464
 31
0.0
  0
LINE
  5
120
330
1E
100
AcDbEntity
  8
0
100
AcDbLine
 10
248.51175
 20
20.0
 30
0.0
 11
258.5117499999999
 21
20.0
 31
0.0
  0
LINE
  5
121
330
1E
100
AcDbEntity
  8
0
100
AcDbLine
 10
248.51175
 20
21.0
 30
0.0
 11
248.51175
 21
20.676
 31
0.0
  0
LINE
  5
122
330
1E
100
AcDbEntity
  8
0
100
AcDbLine
 10
248.51175
 20
20.676
 30
0.0
 11
248.51175
 21
19.812
 31
0.0
  0
LINE
  5
123
330
1E
100
AcDbEntity
  8
0
100
AcDbLine
 10
248.51175
 20
20.676
 30
0.0
 11
248.51175
 21
21.0
 31
0.0
  0
LINE
  5
124
330
1E
100
AcDbEntity
  8
0
100
AcDbLine
 10
274.52775
 20
21.15199999999999
 30
0.0
 11
280.60775
 21
13.09599999999999
 31
0.0
  0
LINE
  5
125
330
1E
100
AcDbEntity
  8
0
100
AcDbLine
 10
258.5117499999999
 20
20.0
 30
0.0
 11
258.5117499999999
 21
19.0
 31
0.0
  0
LINE
  5
126
330
1E
100
AcDbEntity
  8
0
100
AcDbLine
 10
248.51175
 20
19.812
 30
0.0
 11
248.51175
 21
18.372
 31
0.0
  0
LINE
  5
127
330
1E
100
AcDbEntity
  8
0
100
AcDbLine
 10
248.51175
 20
19.812
 30
0.0
 11
248.51175
 21
20.676
 31
0.0
  0
LINE
  5
128
330
1E
100
AcDbEntity
  8
0
100
AcDbLine
 10
248.51175
 20
19.0
 30
0.0
 11
258.5117499999999
 21
19.0
 31
0.0
  0
LINE
  5
129
330
1E
100
AcDbEntity
  8
0
100
AcDbLine
 10
238.51175
 20
15.472
 30
0.0
 11
238.51175
 21
13.79199999999999
 31
0.0
  0
LINE
  5
12A
330
1E
100
AcDbEntity
  8
0
100
AcDbLine
 10
238.51175
 20
15.472
 30
0.0
 11
238.51175
 21
16.95599999999999
 31
0.0
  0
LINE
  5
12B
330
1E
100
AcDbEntity
  8
0
100
AcDbLine
 10
238.51175
 20
13.79199999999999
 30
0.0
 11
238.51175
 21
12.0
 31
0.0
  0
LINE
  5
12C
330
1E
100
AcDbEntity
  8
0
100
AcDbLine
 10
238.51175
 20
13.79199999999999
 30
0.0
 11
238.51175
 21
15.472
 31
0.0
  0
LINE
  5
12D
330
1E
100
AcDbEntity
  8
0
100
AcDbLine
 10
218.51175
 20
14.48
 30
0.0
 11
218.51175
 21
13.28
 31
0.0
  0
LINE
  5
12E
330
1E
100
AcDbEntity
  8
0
100
AcDbLine
 10
218.51175
 20
14.48
 30
0.0
 11
218.51175
 21
15.54
 31
0.0
  0
LINE
  5
12F
330
1E
100
AcDbEntity
  8
0
100
AcDbLine
 10
218.51175
 20
13.28
 30
0.0
 11
218.51175
 21
12.0
 31
0.0
  0
LINE
  5
130
330
1E
100
AcDbEntity
  8
0
100
AcDbLine
 10
218.51175
 20
13.28
 30
0.0
 11
218.51175
 21
14.48
 31
0.0
  0
LINE
  5
131
330
1E
100
AcDbEntity
  8
0
100
AcDbLine
 10
282.7317499999999
 20
15.22
 30
0.0
 11
290.15175
 21
9.61999999999997
 31
0.0
  0
LINE
  5
132
330
1E
100
AcDbEntity
  8
0
100
AcDbLine
 10
1.475249999999929
 20
23.4706
 30
0.0
 11
2.27194999999993
 21
21.58819999999999
 31
0.0
  0
LINE
  5
133
330
1E
100
AcDbEntity
  8
0
100
AcDbLine
 10
10.9094499999999
 20
23.32349999999999
 30
0.0
 11
11.8211499999999
 21
16.32349999999999
 31
0.0
  0
LINE
  5
137
330
1E
100
AcDbEntity
  8
0
100
AcDbLine
 10
54.74222999999989
 20
25.12
 30
0.0
 11
55.5757399999999
 21
18.76
 31
0.0
  0
LINE
  5
139
330
1E
100
AcDbEntity
  8
0
100
AcDbLine
 10
59.66624999999989
 20
25.12
 30
0.0
 11
60.49974999999989
 21
18.76
 31
0.0
  0
LINE
  5
13A
330
1E
100
AcDbEntity
  8
0
100
AcDbLine
 10
11.4303499999999
 20
22.8088
 30
0.0
 11
12.3777499999999
 21
15.6029
 31
0.0
  0
LINE
  5
13B
330
1E
100
AcDbEntity
  8
0
100
AcDbLine
 10
0.25964999999993
 20
30.4706
 30
0.0
 11
0.7806499999999309
 21
26.4706
 31
0.0
  0
LINE
  5
13C
330
1E
100
AcDbEntity
  8
0
100
AcDbLine
 10
44.68968999999989
 20
29.76
 30
0.0
 11
45.35649999999989
 21
20.16
 31
0.0
  0
LINE
  5
13D
330
1E
100
AcDbEntity
  8
0
100
AcDbLine
 10
48.96371999999989
 20
30.272
 30
0.0
 11
49.59718999999989
 21
21.15199999999999
 31
0.0
  0
LINE
  5
13E
330
1E
100
AcDbEntity
  8
0
100
AcDbLine
 10
52.90294999999989
 20
30.272
 30
0.0
 11
53.5364199999999
 21
21.15199999999999
 31
0.0
  0
LINE
  5
13F
330
1E
100
AcDbEntity
  8
0
100
AcDbLine
 10
48.62892999999989
 20
29.76
 30
0.0
 11
49.29573999999989
 21
20.16
 31
0.0
  0
LINE
  5
140
330
1E
100
AcDbEntity
  8
0
100
AcDbLine
 10
0.7806499999999309
 20
26.4706
 30
0.0
 11
1.475249999999929
 21
23.4706
 31
0.0
  0
LINE
  5
141
330
1E
100
AcDbEntity
  8
0
100
AcDbLine
 10
54.2421299999999
 20
32.32
 30
0.0
 11
54.74222999999989
 21
25.12
 31
0.0
  0
LINE
  5
142
330
1E
100
AcDbEntity
  8
0
100
AcDbLine
 10
59.16614999999989
 20
32.32
 30
0.0
 11
59.66624999999989
 21
25.12
 31
0.0
  0
LINE
  5
143
330
1E
100
AcDbEntity
  8
0
100
AcDbLine
 10
10.33744999999989
 20
31.3529
 30
0.0
 11
10.9094499999999
 21
23.32349999999999
 31
0.0
  0
LINE
  5
144
330
1E
100
AcDbEntity
  8
0
100
AcDbLine
 10
10.84044999999989
 20
31.1471
 30
0.0
 11
11.4303499999999
 21
22.8088
 31
0.0
  0
LINE
  5
148
330
1E
100
AcDbEntity
  8
0
100
AcDbLine
 10
79.5322499999999
 20
34.81
 30
0.0
 11
80.9667499999999
 21
34.21
 31
0.0
  0
LINE
  5
149
330
1E
100
AcDbEntity
  8
0
100
AcDbLine
 10
80.59410876715791
 20
34.0912163647589
 30
0.0
 11
80.69774999999991
 21
29.7
 31
0.0
  0
LINE
  5
14A
330
1E
100
AcDbEntity
  8
0
100
AcDbLine
 10
94.91454999999991
 20
30.0
 30
0.0
 11
95.15764999999991
 21
40.0
 31
0.0
  0
LINE
  5
14B
330
1E
100
AcDbEntity
  8
0
100
AcDbLine
 10
80.9667499999999
 20
34.21
 30
0.0
 11
82.50594999999989
 21
34.0
 31
0.0
  0
LINE
  5
14F
330
1E
100
AcDbEntity
  8
0
100
AcDbLine
 10
85.47954999999991
 20
34.81
 30
0.0
 11
86.71984999999999
 21
35.77
 31
0.0
  0
LINE
  5
150
330
1E
100
AcDbEntity
  8
0
100
AcDbLine
 10
84.04504999999991
 20
34.21
 30
0.0
 11
85.47954999999991
 21
34.81
 31
0.0
  0
LINE
  5
151
330
1E
100
AcDbEntity
  8
0
100
AcDbLine
 10
82.50594999999989
 20
34.0
 30
0.0
 11
84.04504999999991
 21
34.21
 31
0.0
  0
LINE
  5
152
330
1E
100
AcDbEntity
  8
0
100
AcDbLine
 10
81.7590099999999
 20
34.0
 30
0.0
 11
81.85624999999991
 21
30.0
 31
0.0
  0
LINE
  5
153
330
1E
100
AcDbEntity
  8
0
100
AcDbLine
 10
81.7590099999999
 20
34.0
 30
0.0
 11
82.50594999999989
 21
34.0
 31
0.0
  0
LINE
  5
154
330
1E
100
AcDbEntity
  8
0
100
AcDbLine
 10
81.85624999999991
 20
30.0
 30
0.0
 11
82.51605000000001
 21
20.6
 31
0.0
  0
LINE
  5
155
330
1E
100
AcDbEntity
  8
0
100
AcDbLine
 10
80.59410876715791
 20
34.0912163647589
 30
0.0
 11
80.69774999999991
 21
29.7
 31
0.0
  0
LINE
  5
156
330
1E
100
AcDbEntity
  8
0
100
AcDbLine
 10
80.69774999999991
 20
29.7
 30
0.0
 11
81.3923499999999
 21
20.1
 31
0.0
  0
LINE
  5
157
330
1E
100
AcDbEntity
  8
0
100
AcDbLine
 10
60.50924999999989
 20
29.7
 30
0.0
 11
61.20384999999989
 21
20.1
 31
0.0
  0
LINE
  5
158
330
1E
100
AcDbEntity
  8
0
100
AcDbLine
 10
-0.0671500000000686
 20
35.05879999999999
 30
0.0
 11
0.25964999999993
 21
30.4706
 31
0.0
  0
LINE
  5
159
330
1E
100
AcDbEntity
  8
0
100
AcDbLine
 10
-0.0671500000000686
 20
35.05879999999999
 30
0.0
 11
0.25964999999993
 21
30.4706
 31
0.0
  0
LINE
  5
15C
330
1E
100
AcDbEntity
  8
0
100
AcDbLine
 10
76.7379499999999
 20
38.45499999999999
 30
0.0
 11
77.3356499999999
 21
37.015
 31
0.0
  0
LINE
  5
15D
330
1E
100
AcDbEntity
  8
0
100
AcDbLine
 10
77.3356499999999
 20
37.015
 30
0.0
 11
78.29204999999991
 21
35.77
 31
0.0
  0
LINE
  5
162
330
1E
100
AcDbEntity
  8
0
100
AcDbLine
 10
88.27384999999999
 20
38.45499999999999
 30
0.0
 11
88.4830499999999
 21
40.0
 31
0.0
  0
LINE
  5
163
330
1E
100
AcDbEntity
  8
0
100
AcDbLine
 10
87.67615000000001
 20
37.015
 30
0.0
 11
88.27384999999999
 21
38.45499999999999
 31
0.0
  0
LINE
  5
164
330
1E
100
AcDbEntity
  8
0
100
AcDbLine
 10
86.71984999999999
 20
35.77
 30
0.0
 11
87.67615000000001
 21
37.015
 31
0.0
  0
LINE
  5
167
330
1E
100
AcDbEntity
  8
0
100
AcDbLine
 10
78.29204999999991
 20
35.77
 30
0.0
 11
79.5322499999999
 21
34.81
 31
0.0
  0
LINE
  5
16C
330
1E
100
AcDbEntity
  8
0
100
AcDbLine
 10
269.51175
 20
40.0
 30
0.0
 11
270.87975
 21
30.272
 31
0.0
  0
LINE
  5
16D
330
1E
100
AcDbEntity
  8
0
100
AcDbLine
 10
269.51175
 20
40.0
 30
0.0
 11
270.87975
 21
49.728
 31
0.0
  0
LINE
  5
16E
330
1E
100
AcDbEntity
  8
0
100
AcDbLine
 10
270.87975
 20
30.272
 30
0.0
 11
274.52775
 21
21.15199999999999
 31
0.0
  0
LINE
  5
170
330
1E
100
AcDbEntity
  8
0
100
AcDbLine
 10
258.5117499999999
 20
40.0
 30
0.0
 11
258.5117499999999
 21
2.99999999999997
 31
0.0
  0
LINE
  5
171
330
1E
100
AcDbEntity
  8
0
100
AcDbLine
 10
258.5117499999999
 20
40.0
 30
0.0
 11
269.51175
 21
40.0
 31
0.0
  0
LINE
  5
172
330
1E
100
AcDbEntity
  8
0
100
AcDbLine
 10
273.77175
 20
31.04
 30
0.0
 11
277.13175
 21
22.64
 31
0.0
  0
LINE
  5
173
330
1E
100
AcDbEntity
  8
0
100
AcDbLine
 10
-0.189750000000067
 20
40.0
 30
0.0
 11
-0.0671500000000686
 21
44.9412
 31
0.0
  0
LINE
  5
174
330
1E
100
AcDbEntity
  8
0
100
AcDbLine
 10
-0.189750000000067
 20
40.0
 30
0.0
 11
-0.0671500000000686
 21
35.05879999999999
 31
0.0
  0
LINE
  5
175
330
1E
100
AcDbEntity
  8
0
100
AcDbLine
 10
48.7261699999999
 20
40.0
 30
0.0
 11
48.96371999999989
 21
49.728
 31
0.0
  0
LINE
  5
176
330
1E
100
AcDbEntity
  8
0
100
AcDbLine
 10
48.7261699999999
 20
40.0
 30
0.0
 11
48.96371999999989
 21
30.272
 31
0.0
  0
LINE
  5
177
330
1E
100
AcDbEntity
  8
0
100
AcDbLine
 10
52.66539999999989
 20
40.0
 30
0.0
 11
52.90294999999989
 21
49.728
 31
0.0
  0
LINE
  5
178
330
1E
100
AcDbEntity
  8
0
100
AcDbLine
 10
52.66539999999989
 20
40.0
 30
0.0
 11
52.90294999999989
 21
30.272
 31
0.0
  0
LINE
  5
179
330
1E
100
AcDbEntity
  8
0
100
AcDbLine
 10
54.05458999999989
 20
40.0
 30
0.0
 11
54.2421299999999
 21
47.67999999999999
 31
0.0
  0
LINE
  5
17A
330
1E
100
AcDbEntity
  8
0
100
AcDbLine
 10
54.05458999999989
 20
40.0
 30
0.0
 11
54.2421299999999
 21
32.32
 31
0.0
  0
LINE
  5
17B
330
1E
100
AcDbEntity
  8
0
100
AcDbLine
 10
58.97864999999989
 20
40.0
 30
0.0
 11
59.16614999999989
 21
47.67999999999999
 31
0.0
  0
LINE
  5
17C
330
1E
100
AcDbEntity
  8
0
100
AcDbLine
 10
58.97864999999989
 20
40.0
 30
0.0
 11
59.16614999999989
 21
32.32
 31
0.0
  0
LINE
  5
17D
330
1E
100
AcDbEntity
  8
0
100
AcDbLine
 10
44.43963999999989
 20
40.0
 30
0.0
 11
44.68968999999989
 21
50.24
 31
0.0
  0
LINE
  5
17E
330
1E
100
AcDbEntity
  8
0
100
AcDbLine
 10
44.43963999999989
 20
40.0
 30
0.0
 11
44.68968999999989
 21
29.76
 31
0.0
  0
LINE
  5
17F
330
1E
100
AcDbEntity
  8
0
100
AcDbLine
 10
48.37887299999989
 20
40.0
 30
0.0
 11
48.62892999999989
 21
50.24
 31
0.0
  0
LINE
  5
180
330
1E
100
AcDbEntity
  8
0
100
AcDbLine
 10
48.37887299999989
 20
40.0
 30
0.0
 11
48.62892999999989
 21
29.76
 31
0.0
  0
LINE
  5
181
330
1E
100
AcDbEntity
  8
0
100
AcDbLine
 10
10.12294999999989
 20
40.0
 30
0.0
 11
10.33744999999989
 21
48.6471
 31
0.0
  0
LINE
  5
182
330
1E
100
AcDbEntity
  8
0
100
AcDbLine
 10
10.12294999999989
 20
40.0
 30
0.0
 11
10.33744999999989
 21
31.3529
 31
0.0
  0
LINE
  5
183
330
1E
100
AcDbEntity
  8
0
100
AcDbLine
 10
10.62594999999989
 20
40.0
 30
0.0
 11
10.84044999999989
 21
48.8529
 31
0.0
  0
LINE
  5
184
330
1E
100
AcDbEntity
  8
0
100
AcDbLine
 10
10.62594999999989
 20
40.0
 30
0.0
 11
10.84044999999989
 21
31.1471
 31
0.0
  0
LINE
  5
185
330
1E
100
AcDbEntity
  8
0
100
AcDbLine
 10
76.5287499999999
 20
40.0
 30
0.0
 11
76.7379499999999
 21
38.45499999999999
 31
0.0
  0
LINE
  5
186
330
1E
100
AcDbEntity
  8
0
100
AcDbLine
 10
76.5287499999999
 20
40.0
 30
0.0
 11
76.7379499999999
 21
41.545
 31
0.0
  0
LINE
  5
189
330
1E
100
AcDbEntity
  8
0
100
AcDbLine
 10
76.7379499999999
 20
41.545
 30
0.0
 11
77.3356499999999
 21
42.98499999999999
 31
0.0
  0
LINE
  5
18A
330
1E
100
AcDbEntity
  8
0
100
AcDbLine
 10
-0.0671500000000686
 20
44.9412
 30
0.0
 11
0.25964999999993
 21
49.5294
 31
0.0
  0
LINE
  5
18B
330
1E
100
AcDbEntity
  8
0
100
AcDbLine
 10
-0.0671500000000686
 20
44.9412
 30
0.0
 11
0.25964999999993
 21
49.5294
 31
0.0
  0
LINE
  5
18C
330
1E
100
AcDbEntity
  8
0
100
AcDbLine
 10
77.3356499999999
 20
42.98499999999999
 30
0.0
 11
78.29204999999991
 21
44.23
 31
0.0
  0
LINE
  5
18F
330
1E
100
AcDbEntity
  8
0
100
AcDbLine
 10
78.29204999999991
 20
44.23
 30
0.0
 11
79.5322499999999
 21
45.19
 31
0.0
  0
LINE
  5
190
330
1E
100
AcDbEntity
  8
0
100
AcDbLine
 10
10.33744999999989
 20
48.6471
 30
0.0
 11
10.9094499999999
 21
56.6765
 31
0.0
  0
LINE
  5
191
330
1E
100
AcDbEntity
  8
0
100
AcDbLine
 10
54.2421299999999
 20
47.67999999999999
 30
0.0
 11
54.74222999999989
 21
54.88
 31
0.0
  0
LINE
  5
192
330
1E
100
AcDbEntity
  8
0
100
AcDbLine
 10
59.16614999999989
 20
47.67999999999999
 30
0.0
 11
59.66624999999989
 21
54.88
 31
0.0
  0
LINE
  5
193
330
1E
100
AcDbEntity
  8
0
100
AcDbLine
 10
10.84044999999989
 20
48.8529
 30
0.0
 11
11.4303499999999
 21
57.1912
 31
0.0
  0
LINE
  5
194
330
1E
100
AcDbEntity
  8
0
100
AcDbLine
 10
79.5322499999999
 20
45.19
 30
0.0
 11
80.9667499999999
 21
45.78999999999999
 31
0.0
  0
LINE
  5
199
330
1E
100
AcDbEntity
  8
0
100
AcDbLine
 10
88.27384999999999
 20
41.545
 30
0.0
 11
88.4830499999999
 21
40.0
 31
0.0
  0
LINE
  5
19B
330
1E
100
AcDbEntity
  8
0
100
AcDbLine
 10
87.67615000000001
 20
42.98499999999999
 30
0.0
 11
88.27384999999999
 21
41.545
 31
0.0
  0
LINE
  5
19C
330
1E
100
AcDbEntity
  8
0
100
AcDbLine
 10
86.71984999999999
 20
44.23
 30
0.0
 11
87.67615000000001
 21
42.98499999999999
 31
0.0
  0
LINE
  5
19D
330
1E
100
AcDbEntity
  8
0
100
AcDbLine
 10
85.47954999999991
 20
45.19
 30
0.0
 11
86.71984999999999
 21
44.23
 31
0.0
  0
LINE
  5
19E
330
1E
100
AcDbEntity
  8
0
100
AcDbLine
 10
84.04504999999991
 20
45.78999999999999
 30
0.0
 11
85.47954999999991
 21
45.19
 31
0.0
  0
LINE
  5
19F
330
1E
100
AcDbEntity
  8
0
100
AcDbLine
 10
82.50594999999989
 20
46.0
 30
0.0
 11
84.04504999999991
 21
45.78999999999999
 31
0.0
  0
LINE
  5
1A0
330
1E
100
AcDbEntity
  8
0
100
AcDbLine
 10
80.9667499999999
 20
45.78999999999999
 30
0.0
 11
82.50594999999989
 21
46.0
 31
0.0
  0
LINE
  5
1A1
330
1E
100
AcDbEntity
  8
0
100
AcDbLine
 10
81.7590099999999
 20
46.0
 30
0.0
 11
81.85624999999991
 21
50.0
 31
0.0
  0
LINE
  5
1A2
330
1E
100
AcDbEntity
  8
0
100
AcDbLine
 10
81.7590099999999
 20
46.0
 30
0.0
 11
82.50594999999989
 21
46.0
 31
0.0
  0
LINE
  5
1A3
330
1E
100
AcDbEntity
  8
0
100
AcDbLine
 10
80.593725522404
 20
45.8925457867611
 30
0.0
 11
80.69774999999991
 21
50.3
 31
0.0
  0
LINE
  5
1A4
330
1E
100
AcDbEntity
  8
0
100
AcDbLine
 10
60.26614999999989
 20
40.0
 30
0.0
 11
60.50924999999989
 21
29.7
 31
0.0
  0
LINE
  5
1A5
330
1E
100
AcDbEntity
  8
0
100
AcDbLine
 10
60.26614999999989
 20
40.0
 30
0.0
 11
60.50924999999989
 21
50.3
 31
0.0
  0
LINE
  5
1A8
330
1E
100
AcDbEntity
  8
0
100
AcDbLine
 10
44.68968999999989
 20
50.24
 30
0.0
 11
45.35649999999989
 21
59.84
 31
0.0
  0
LINE
  5
1A9
330
1E
100
AcDbEntity
  8
0
100
AcDbLine
 10
48.96371999999989
 20
49.728
 30
0.0
 11
49.59718999999989
 21
58.848
 31
0.0
  0
LINE
  5
1AA
330
1E
100
AcDbEntity
  8
0
100
AcDbLine
 10
52.90294999999989
 20
49.728
 30
0.0
 11
53.5364199999999
 21
58.848
 31
0.0
  0
LINE
  5
1AB
330
1E
100
AcDbEntity
  8
0
100
AcDbLine
 10
48.62892999999989
 20
50.24
 30
0.0
 11
49.29573999999989
 21
59.84
 31
0.0
  0
LINE
  5
1AC
330
1E
100
AcDbEntity
  8
0
100
AcDbLine
 10
0.25964999999993
 20
49.5294
 30
0.0
 11
0.7806499999999309
 21
53.5294
 31
0.0
  0
LINE
  5
1AE
330
1E
100
AcDbEntity
  8
0
100
AcDbLine
 10
94.91454999999991
 20
50.0
 30
0.0
 11
95.15764999999991
 21
40.0
 31
0.0
  0
LINE
  5
1AF
330
1E
100
AcDbEntity
  8
0
100
AcDbLine
 10
81.85624999999991
 20
50.0
 30
0.0
 11
82.51605000000001
 21
59.4
 31
0.0
  0
LINE
  5
1B0
330
1E
100
AcDbEntity
  8
0
100
AcDbLine
 10
80.69774999999991
 20
50.3
 30
0.0
 11
81.3923499999999
 21
59.9
 31
0.0
  0
LINE
  5
1B1
330
1E
100
AcDbEntity
  8
0
100
AcDbLine
 10
0.7806499999999309
 20
53.5294
 30
0.0
 11
1.475249999999929
 21
56.5294
 31
0.0
  0
LINE
  5
1B2
330
1E
100
AcDbEntity
  8
0
100
AcDbLine
 10
1.475249999999929
 20
56.5294
 30
0.0
 11
2.27194999999993
 21
58.4118
 31
0.0
  0
LINE
  5
1B3
330
1E
100
AcDbEntity
  8
0
100
AcDbLine
 10
2.27194999999993
 20
58.4118
 30
0.0
 11
2.93334999999993
 21
59.0
 31
0.0
  0
LINE
  5
1B4
330
1E
100
AcDbEntity
  8
0
100
AcDbLine
 10
2.93334999999993
 20
59.0
 30
0.0
 11
3.81174999999993
 21
59.7059
 31
0.0
  0
LINE
  5
1B5
330
1E
100
AcDbEntity
  8
0
100
AcDbLine
 10
10.9094499999999
 20
56.6765
 30
0.0
 11
11.8211499999999
 21
63.6765
 31
0.0
  0
LINE
  5
1B9
330
1E
100
AcDbEntity
  8
0
100
AcDbLine
 10
54.74222999999989
 20
54.88
 30
0.0
 11
55.5757399999999
 21
61.24
 31
0.0
  0
LINE
  5
1BA
330
1E
100
AcDbEntity
  8
0
100
AcDbLine
 10
49.59718999999989
 20
58.848
 30
0.0
 11
50.6529699999999
 21
66.904
 31
0.0
  0
LINE
  5
1C0
330
1E
100
AcDbEntity
  8
0
100
AcDbLine
 10
53.5364199999999
 20
58.848
 30
0.0
 11
54.59219999999989
 21
66.904
 31
0.0
  0
LINE
  5
1C1
330
1E
100
AcDbEntity
  8
0
100
AcDbLine
 10
59.66624999999989
 20
54.88
 30
0.0
 11
60.49974999999989
 21
61.24
 31
0.0
  0
LINE
  5
1C2
330
1E
100
AcDbEntity
  8
0
100
AcDbLine
 10
11.4303499999999
 20
57.1912
 30
0.0
 11
12.3777499999999
 21
64.39709999999999
 31
0.0
  0
LINE
  5
1C3
330
1E
100
AcDbEntity
  8
0
100
AcDbLine
 10
60.50924999999989
 20
50.3
 30
0.0
 11
61.20384999999989
 21
59.9
 31
0.0
  0
LINE
  5
1CB
330
1E
100
AcDbEntity
  8
0
100
AcDbLine
 10
45.35649999999989
 20
59.84
 30
0.0
 11
46.46784999999989
 21
68.31999999999999
 31
0.0
  0
LINE
  5
1CC
330
1E
100
AcDbEntity
  8
0
100
AcDbLine
 10
49.29573999999989
 20
59.84
 30
0.0
 11
50.40707999999989
 21
68.31999999999999
 31
0.0
  0
LINE
  5
1CD
330
1E
100
AcDbEntity
  8
0
100
AcDbLine
 10
3.81174999999993
 20
59.7059
 30
0.0
 11
5.17534999999994
 21
60.0
 31
0.0
  0
LINE
  5
1CE
330
1E
100
AcDbEntity
  8
0
100
AcDbLine
 10
5.17534999999994
 20
60.0
 30
0.0
 11
11.34231213571419
 21
60.0
 31
0.0
  0
LINE
  5
1CF
330
1E
100
AcDbEntity
  8
0
100
AcDbLine
 10
5.17534999999994
 20
60.0
 30
0.0
 11
11.34231213571419
 21
60.0
 31
0.0
  0
LINE
  5
1D0
330
1E
100
AcDbEntity
  8
0
100
AcDbLine
 10
11.8211499999999
 20
63.6765
 30
0.0
 11
13.0366499999999
 21
68.9265
 31
0.0
  0
LINE
  5
1D1
330
1E
100
AcDbEntity
  8
0
100
AcDbLine
 10
13.0366499999999
 20
68.9265
 30
0.0
 11
14.43094999999989
 21
72.2206
 31
0.0
  0
LINE
  5
1D2
330
1E
100
AcDbEntity
  8
0
100
AcDbLine
 10
12.3777499999999
 20
64.39709999999999
 30
0.0
 11
13.6290499999999
 21
69.8529
 31
0.0
  0
LINE
  5
1D3
330
1E
100
AcDbEntity
  8
0
100
AcDbLine
 10
14.43094999999989
 20
72.2206
 30
0.0
 11
15.0769499999999
 21
73.25
 31
0.0
  0
LINE
  5
1D4
330
1E
100
AcDbEntity
  8
0
100
AcDbLine
 10
13.6290499999999
 20
69.8529
 30
0.0
 11
15.0769499999999
 21
73.25
 31
0.0
  0
LINE
  5
1D5
330
1E
100
AcDbEntity
  8
0
100
AcDbLine
 10
46.46784999999989
 20
68.31999999999999
 30
0.0
 11
47.94038899999989
 21
74.72
 31
0.0
  0
LINE
  5
1D6
330
1E
100
AcDbEntity
  8
0
100
AcDbLine
 10
55.5757399999999
 20
61.24
 30
0.0
 11
56.68014999999989
 21
66.04
 31
0.0
  0
LINE
  5
1D7
330
1E
100
AcDbEntity
  8
0
100
AcDbLine
 10
50.6529699999999
 20
66.904
 30
0.0
 11
52.05187999999989
 21
72.98399999999999
 31
0.0
  0
LINE
  5
1D8
330
1E
100
AcDbEntity
  8
0
100
AcDbLine
 10
52.05187999999989
 20
72.98399999999999
 30
0.0
 11
53.6355499999999
 21
76.632
 31
0.0
  0
LINE
  5
1D9
330
1E
100
AcDbEntity
  8
0
100
AcDbLine
 10
55.99110999999989
 20
72.98399999999999
 30
0.0
 11
57.57474999999989
 21
76.632
 31
0.0
  0
LINE
  5
1DA
330
1E
100
AcDbEntity
  8
0
100
AcDbLine
 10
54.59219999999989
 20
66.904
 30
0.0
 11
55.99110999999989
 21
72.98399999999999
 31
0.0
  0
LINE
  5
1DB
330
1E
100
AcDbEntity
  8
0
100
AcDbLine
 10
59.2640499999999
 20
70.0
 30
0.0
 11
62.72051562499989
 21
70.0
 31
0.0
  0
LINE
  5
1DC
330
1E
100
AcDbEntity
  8
0
100
AcDbLine
 10
57.93044999999989
 20
68.92
 30
0.0
 11
59.2640499999999
 21
70.0
 31
0.0
  0
LINE
  5
1DD
330
1E
100
AcDbEntity
  8
0
100
AcDbLine
 10
56.68014999999989
 20
66.04
 30
0.0
 11
57.93044999999989
 21
68.92
 31
0.0
  0
LINE
  5
1DE
330
1E
100
AcDbEntity
  8
0
100
AcDbLine
 10
61.60414999999989
 20
66.04
 30
0.0
 11
62.21404246228129
 21
67.4448550678799
 31
0.0
  0
LINE
  5
1DF
330
1E
100
AcDbEntity
  8
0
100
AcDbLine
 10
60.49974999999989
 20
61.24
 30
0.0
 11
61.60414999999989
 21
66.04
 31
0.0
  0
LINE
  5
1E0
330
1E
100
AcDbEntity
  8
0
100
AcDbLine
 10
50.40707999999989
 20
68.31999999999999
 30
0.0
 11
51.87961999999989
 21
74.72
 31
0.0
  0
LINE
  5
1E1
330
1E
100
AcDbEntity
  8
0
100
AcDbLine
 10
16.61424999999989
 20
74.48529999999999
 30
0.0
 11
17.97784999999989
 21
75.0
 31
0.0
  0
LINE
  5
1E2
330
1E
100
AcDbEntity
  8
0
100
AcDbLine
 10
15.0769499999999
 20
73.25
 30
0.0
 11
16.61424999999989
 21
74.48529999999999
 31
0.0
  0
LINE
  5
1E3
330
1E
100
AcDbEntity
  8
0
100
AcDbLine
 10
61.20384999999989
 20
59.9
 30
0.0
 11
62.3151499999999
 21
68.2
 31
0.0
  0
LINE
  5
1E4
330
1E
100
AcDbEntity
  8
0
100
AcDbLine
 10
62.53694999999989
 20
72.98399999999999
 30
0.0
 11
62.96932028579711
 21
71.10480110254741
 31
0.0
  0
LINE
  5
1E5
330
1E
100
AcDbEntity
  8
0
100
AcDbLine
 10
81.3923499999999
 20
59.9
 30
0.0
 11
82.50374999999991
 21
68.2
 31
0.0
  0
LINE
  5
1E6
330
1E
100
AcDbEntity
  8
0
100
AcDbLine
 10
82.51605000000001
 20
59.4
 30
0.0
 11
83.61004999999989
 21
67.5
 31
0.0
  0
LINE
  5
1E7
330
1E
100
AcDbEntity
  8
0
100
AcDbLine
 10
127.65895
 20
60.0
 30
0.0
 11
152.51175
 21
60.0
 31
0.0
  0
LINE
  5
1E9
330
1E
100
AcDbEntity
  8
0
100
AcDbLine
 10
152.51175
 20
60.0
 30
0.0
 11
185.6467499999999
 21
60.0
 31
0.0
  0
LINE
  5
1EA
330
1E
100
AcDbEntity
  8
0
100
AcDbLine
 10
94.17371296296286
 20
60.0
 30
0.0
 11
127.65895
 21
60.0
 31
0.0
  0
LINE
  5
1EC
330
1E
100
AcDbEntity
  8
0
100
AcDbLine
 10
94.25474999999989
 20
59.4
 30
0.0
 11
94.91454999999991
 21
50.0
 31
0.0
  0
LINE
  5
1ED
330
1E
100
AcDbEntity
  8
0
100
AcDbLine
 10
93.1607499999999
 20
67.5
 30
0.0
 11
94.25474999999989
 21
59.4
 31
0.0
  0
LINE
  5
1EE
330
1E
100
AcDbEntity
  8
0
100
AcDbLine
 10
91.75414999999999
 20
73.79999999999999
 30
0.0
 11
93.1607499999999
 21
67.5
 31
0.0
  0
LINE
  5
1EF
330
1E
100
AcDbEntity
  8
0
100
AcDbLine
 10
83.61004999999989
 20
67.5
 30
0.0
 11
85.0166499999999
 21
73.79999999999999
 31
0.0
  0
LINE
  5
1F0
330
1E
100
AcDbEntity
  8
0
100
AcDbLine
 10
85.0166499999999
 20
73.79999999999999
 30
0.0
 11
86.6489499999999
 21
77.59999999999999
 31
0.0
  0
LINE
  5
1F1
330
1E
100
AcDbEntity
  8
0
100
AcDbLine
 10
82.50374999999991
 20
68.2
 30
0.0
 11
83.9449499999999
 21
74.59999999999999
 31
0.0
  0
LINE
  5
1F2
330
1E
100
AcDbEntity
  8
0
100
AcDbLine
 10
83.9449499999999
 20
74.59999999999999
 30
0.0
 11
85.61204999999992
 21
78.59999999999999
 31
0.0
  0
LINE
  5
1F3
330
1E
100
AcDbEntity
  8
0
100
AcDbLine
 10
62.3151499999999
 20
68.2
 30
0.0
 11
63.75644999999989
 21
74.59999999999999
 31
0.0
  0
LINE
  5
1F4
330
1E
100
AcDbEntity
  8
0
100
AcDbLine
 10
47.94038899999989
 20
74.72
 30
0.0
 11
49.60740999999989
 21
78.56
 31
0.0
  0
LINE
  5
1F5
330
1E
100
AcDbEntity
  8
0
100
AcDbLine
 10
51.87961999999989
 20
74.72
 30
0.0
 11
53.54663999999989
 21
78.56
 31
0.0
  0
LINE
  5
1F6
330
1E
100
AcDbEntity
  8
0
100
AcDbLine
 10
63.75644999999989
 20
74.59999999999999
 30
0.0
 11
65.42344999999989
 21
78.59999999999999
 31
0.0
  0
LINE
  5
1F7
330
1E
100
AcDbEntity
  8
0
100
AcDbLine
 10
185.6467499999999
 20
60.0
 30
0.0
 11
212.5117499999999
 21
60.0
 31
0.0
  0
LINE
  5
1FA
330
1E
100
AcDbEntity
  8
0
100
AcDbLine
 10
270.87975
 20
49.728
 30
0.0
 11
274.52775
 21
58.848
 31
0.0
  0
LINE
  5
1FB
330
1E
100
AcDbEntity
  8
0
100
AcDbLine
 10
212.5117499999999
 20
60.0
 30
0.0
 11
275.3971839622639
 21
60.0
 31
0.0
  0
LINE
  5
1FC
330
1E
100
AcDbEntity
  8
0
100
AcDbLine
 10
273.77175
 20
48.96
 30
0.0
 11
277.13175
 21
57.36
 31
0.0
  0
LINE
  5
1FD
330
1E
100
AcDbEntity
  8
0
100
AcDbLine
 10
273.81175
 20
48.9
 30
0.0
 11
277.2117499999999
 21
57.4
 31
0.0
  0
LINE
  5
1FE
330
1E
100
AcDbEntity
  8
0
100
AcDbLine
 10
272.51175
 20
40.0
 30
0.0
 11
273.81175
 21
31.1
 31
0.0
  0
LINE
  5
1FF
330
1E
100
AcDbEntity
  8
0
100
AcDbLine
 10
272.51175
 20
40.0
 30
0.0
 11
273.81175
 21
48.9
 31
0.0
  0
LINE
  5
200
330
1E
100
AcDbEntity
  8
0
100
AcDbLine
 10
272.51175
 20
40.0
 30
0.0
 11
273.77175
 21
31.04
 31
0.0
  0
LINE
  5
201
330
1E
100
AcDbEntity
  8
0
100
AcDbLine
 10
272.51175
 20
40.0
 30
0.0
 11
273.77175
 21
48.96
 31
0.0
  0
LINE
  5
202
330
1E
100
AcDbEntity
  8
0
100
AcDbLine
 10
274.52775
 20
58.848
 30
0.0
 11
280.60775
 21
66.904
 31
0.0
  0
LINE
  5
203
330
1E
100
AcDbEntity
  8
0
100
AcDbLine
 10
277.13175
 20
57.36
 30
0.0
 11
282.7317499999999
 21
64.78
 31
0.0
  0
LINE
  5
204
330
1E
100
AcDbEntity
  8
0
100
AcDbLine
 10
277.13175
 20
22.64
 30
0.0
 11
282.7317499999999
 21
15.22
 31
0.0
  0
LINE
  5
205
330
1E
100
AcDbEntity
  8
0
100
AcDbLine
 10
277.2117499999999
 20
57.4
 30
0.0
 11
282.81175
 21
64.7
 31
0.0
  0
LINE
  5
206
330
1E
100
AcDbEntity
  8
0
100
AcDbLine
 10
280.60775
 20
66.904
 30
0.0
 11
288.6637499999999
 21
72.98399999999999
 31
0.0
  0
LINE
  5
207
330
1E
100
AcDbEntity
  8
0
100
AcDbLine
 10
282.7317499999999
 20
64.78
 30
0.0
 11
290.15175
 21
70.38
 31
0.0
  0
LINE
  5
208
330
1E
100
AcDbEntity
  8
0
100
AcDbLine
 10
282.81175
 20
64.7
 30
0.0
 11
290.1117499999999
 21
70.3
 31
0.0
  0
LINE
  5
209
330
1E
100
AcDbEntity
  8
0
100
AcDbLine
 10
273.81175
 20
31.1
 30
0.0
 11
277.2117499999999
 21
22.6
 31
0.0
  0
LINE
  5
20A
330
1E
100
AcDbEntity
  8
0
100
AcDbLine
 10
277.2117499999999
 20
22.6
 30
0.0
 11
282.81175
 21
15.3
 31
0.0
  0
LINE
  5
20B
330
1E
100
AcDbEntity
  8
0
100
AcDbLine
 10
288.6637499999999
 20
72.98399999999999
 30
0.0
 11
297.78375
 21
76.632
 31
0.0
  0
LINE
  5
20C
330
1E
100
AcDbEntity
  8
0
100
AcDbLine
 10
290.15175
 20
70.38
 30
0.0
 11
298.55175
 21
73.73999999999999
 31
0.0
  0
LINE
  5
20D
330
1E
100
AcDbEntity
  8
0
100
AcDbLine
 10
290.1117499999999
 20
70.3
 30
0.0
 11
298.6117499999999
 21
73.7
 31
0.0
  0
LINE
  5
20E
330
1E
100
AcDbEntity
  8
0
100
AcDbLine
 10
298.55175
 20
73.73999999999999
 30
0.0
 11
307.51175
 21
75.0
 31
0.0
  0
LINE
  5
20F
330
1E
100
AcDbEntity
  8
0
100
AcDbLine
 10
298.6117499999999
 20
73.7
 30
0.0
 11
307.51175
 21
75.0
 31
0.0
  0
LINE
  5
210
330
1E
100
AcDbEntity
  8
0
100
AcDbLine
 10
282.81175
 20
15.3
 30
0.0
 11
290.1117499999999
 21
9.69999999999997
 31
0.0
  0
LINE
  5
211
330
1E
100
AcDbEntity
  8
0
100
AcDbLine
 10
290.1117499999999
 20
9.69999999999997
 30
0.0
 11
298.6117499999999
 21
6.29999999999997
 31
0.0
  0
LINE
  5
212
330
1E
100
AcDbEntity
  8
0
100
AcDbLine
 10
307.51175
 20
1.999999999999969
 30
0.0
 11
317.23975
 21
3.36799999999997
 31
0.0
  0
LINE
  5
213
330
1E
100
AcDbEntity
  8
0
100
AcDbLine
 10
307.51175
 20
1.999999999999969
 30
0.0
 11
317.23975
 21
3.36799999999997
 31
0.0
  0
LINE
  5
214
330
1E
100
AcDbEntity
  8
0
100
AcDbLine
 10
298.6117499999999
 20
6.29999999999997
 30
0.0
 11
307.51175
 21
4.999999999999969
 31
0.0
  0
LINE
  5
215
330
1E
100
AcDbEntity
  8
0
100
AcDbLine
 10
17.97784999999989
 20
75.0
 30
0.0
 11
48.0619426145833
 21
75.0
 31
0.0
  0
LINE
  5
216
330
1E
100
AcDbEntity
  8
0
100
AcDbLine
 10
17.97784999999989
 20
75.0
 30
0.0
 11
48.0619426145833
 21
75.0
 31
0.0
  0
LINE
  5
217
330
1E
100
AcDbEntity
  8
0
100
AcDbLine
 10
55.32479999999989
 20
78.0
 30
0.0
 11
59.2640499999999
 21
78.0
 31
0.0
  0
LINE
  5
218
330
1E
100
AcDbEntity
  8
0
100
AcDbLine
 10
53.6355499999999
 20
76.632
 30
0.0
 11
55.32479999999989
 21
78.0
 31
0.0
  0
LINE
  5
219
330
1E
100
AcDbEntity
  8
0
100
AcDbLine
 10
59.2640499999999
 20
78.0
 30
0.0
 11
60.9532499999999
 21
76.632
 31
0.0
  0
LINE
  5
21A
330
1E
100
AcDbEntity
  8
0
100
AcDbLine
 10
60.9532499999999
 20
76.632
 30
0.0
 11
62.53694999999989
 21
72.98399999999999
 31
0.0
  0
LINE
  5
21B
330
1E
100
AcDbEntity
  8
0
100
AcDbLine
 10
57.57474999999989
 20
76.632
 30
0.0
 11
59.2640499999999
 21
78.0
 31
0.0
  0
LINE
  5
21C
330
1E
100
AcDbEntity
  8
0
100
AcDbLine
 10
57.10295999999989
 20
78.56
 30
0.0
 11
57.3460627083333
 21
78.0
 31
0.0
  0
LINE
  5
21D
330
1E
100
AcDbEntity
  8
0
100
AcDbLine
 10
49.60740999999989
 20
78.56
 30
0.0
 11
51.38556999999989
 21
80.0
 31
0.0
  0
LINE
  5
21E
330
1E
100
AcDbEntity
  8
0
100
AcDbLine
 10
55.32479999999989
 20
80.0
 30
0.0
 11
57.10295999999989
 21
78.56
 31
0.0
  0
LINE
  5
21F
330
1E
100
AcDbEntity
  8
0
100
AcDbLine
 10
51.38556999999989
 20
80.0
 30
0.0
 11
55.32479999999989
 21
80.0
 31
0.0
  0
LINE
  5
220
330
1E
100
AcDbEntity
  8
0
100
AcDbLine
 10
53.54663999999989
 20
78.56
 30
0.0
 11
55.32479999999989
 21
80.0
 31
0.0
  0
LINE
  5
221
330
1E
100
AcDbEntity
  8
0
100
AcDbLine
 10
90.12185
 20
77.59999999999999
 30
0.0
 11
91.75414999999999
 21
73.79999999999999
 31
0.0
  0
LINE
  5
222
330
1E
100
AcDbEntity
  8
0
100
AcDbLine
 10
88.38534999999991
 20
79.0
 30
0.0
 11
90.12185
 21
77.59999999999999
 31
0.0
  0
LINE
  5
223
330
1E
100
AcDbEntity
  8
0
100
AcDbLine
 10
89.18914999999989
 20
78.59999999999999
 30
0.0
 11
90.12185
 21
77.59999999999999
 31
0.0
  0
LINE
  5
224
330
1E
100
AcDbEntity
  8
0
100
AcDbLine
 10
87.40054999999991
 20
80.0
 30
0.0
 11
89.18914999999989
 21
78.59999999999999
 31
0.0
  0
LINE
  5
225
330
1E
100
AcDbEntity
  8
0
100
AcDbLine
 10
86.6489499999999
 20
77.59999999999999
 30
0.0
 11
88.38534999999991
 21
79.0
 31
0.0
  0
LINE
  5
226
330
1E
100
AcDbEntity
  8
0
100
AcDbLine
 10
85.61204999999992
 20
78.59999999999999
 30
0.0
 11
87.40054999999991
 21
80.0
 31
0.0
  0
LINE
  5
227
330
1E
100
AcDbEntity
  8
0
100
AcDbLine
 10
67.21204999999989
 20
80.0
 30
0.0
 11
87.40054999999991
 21
80.0
 31
0.0
  0
LINE
  5
228
330
1E
100
AcDbEntity
  8
0
100
AcDbLine
 10
65.42344999999989
 20
78.59999999999999
 30
0.0
 11
67.21204999999989
 21
80.0
 31
0.0
  0
LINE
  5
229
330
1E
100
AcDbEntity
  8
0
100
AcDbLine
 10
297.78375
 20
76.632
 30
0.0
 11
307.51175
 21
78.0
 31
0.0
  0
LINE
  5
22A
330
1E
100
AcDbEntity
  8
0
100
AcDbLine
 10
307.51175
 20
78.0
 30
0.0
 11
317.23975
 21
76.632
 31
0.0
  0
LINE
  5
22B
330
1E
100
AcDbEntity
  8
0
100
AcDbLine
 10
307.51175
 20
75.0
 30
0.0
 11
316.4117499999999
 21
73.7
 31
0.0
  0
LINE
  5
22C
330
1E
100
AcDbEntity
  8
0
100
AcDbLine
 10
307.51175
 20
75.0
 30
0.0
 11
316.47175
 21
73.73999999999999
 31
0.0
  0
LINE
  5
22D
330
1E
100
AcDbEntity
  8
0
100
AcDbLine
 10
317.23975
 20
3.36799999999997
 30
0.0
 11
326.35975
 21
7.015999999999981
 31
0.0
  0
LINE
  5
22E
330
1E
100
AcDbEntity
  8
0
100
AcDbLine
 10
317.23975
 20
3.36799999999997
 30
0.0
 11
326.35975
 21
7.015999999999981
 31
0.0
  0
LINE
  5
22F
330
1E
100
AcDbEntity
  8
0
100
AcDbLine
 10
316.47175
 20
6.25999999999997
 30
0.0
 11
324.87175
 21
9.61999999999997
 31
0.0
  0
LINE
  5
230
330
1E
100
AcDbEntity
  8
0
100
AcDbLine
 10
324.87175
 20
70.38
 30
0.0
 11
332.2917499999999
 21
64.78
 31
0.0
  0
LINE
  5
231
330
1E
100
AcDbEntity
  8
0
100
AcDbLine
 10
324.87175
 20
9.61999999999997
 30
0.0
 11
332.2917499999999
 21
15.22
 31
0.0
  0
LINE
  5
232
330
1E
100
AcDbEntity
  8
0
100
AcDbLine
 10
324.91175
 20
70.3
 30
0.0
 11
332.21175
 21
64.7
 31
0.0
  0
LINE
  5
233
330
1E
100
AcDbEntity
  8
0
100
AcDbLine
 10
317.23975
 20
76.632
 30
0.0
 11
326.35975
 21
72.98399999999999
 31
0.0
  0
LINE
  5
234
330
1E
100
AcDbEntity
  8
0
100
AcDbLine
 10
316.47175
 20
73.73999999999999
 30
0.0
 11
324.87175
 21
70.38
 31
0.0
  0
LINE
  5
235
330
1E
100
AcDbEntity
  8
0
100
AcDbLine
 10
316.4117499999999
 20
73.7
 30
0.0
 11
324.91175
 21
70.3
 31
0.0
  0
LINE
  5
236
330
1E
100
AcDbEntity
  8
0
100
AcDbLine
 10
326.35975
 20
7.015999999999981
 30
0.0
 11
334.41575
 21
13.09599999999999
 31
0.0
  0
LINE
  5
237
330
1E
100
AcDbEntity
  8
0
100
AcDbLine
 10
334.41575
 20
13.09599999999999
 30
0.0
 11
340.49575
 21
21.15199999999999
 31
0.0
  0
LINE
  5
238
330
1E
100
AcDbEntity
  8
0
100
AcDbLine
 10
334.2885499999999
 20
13.0
 30
0.0
 11
380.51175
 21
13.0
 31
0.0
  0
LINE
  5
239
330
1E
100
AcDbEntity
  8
0
100
AcDbLine
 10
334.832353773585
 20
13.648
 30
0.0
 11
380.51175
 21
13.648
 31
0.0
  0
LINE
  5
23A
330
1E
100
AcDbEntity
  8
0
100
AcDbLine
 10
380.51175
 20
13.648
 30
0.0
 11
385.225891732283
 21
14.3214488188976
 31
0.0
  0
LINE
  5
23B
330
1E
100
AcDbEntity
  8
0
100
AcDbLine
 10
380.51175
 20
13.0
 30
0.0
 11
387.4237499999999
 21
13.972
 31
0.0
  0
LINE
  5
23C
330
1E
100
AcDbEntity
  8
0
100
AcDbLine
 10
387.4237499999999
 20
13.972
 30
0.0
 11
387.498432080925
 21
14.0018728323699
 31
0.0
  0
LINE
  5
23D
330
1E
100
AcDbEntity
  8
0
100
AcDbLine
 10
387.4237499999999
 20
13.972
 30
0.0
 11
387.498432080925
 21
14.0018728323699
 31
0.0
  0
LINE
  5
23E
330
1E
100
AcDbEntity
  8
0
100
AcDbLine
 10
387.4237499999999
 20
13.972
 30
0.0
 11
387.498432080925
 21
14.0018728323699
 31
0.0
  0
LINE
  5
23F
330
1E
100
AcDbEntity
  8
0
100
AcDbLine
 10
387.5117499999999
 20
14.0
 30
0.0
 11
394.16775
 21
14.93599999999999
 31
0.0
  0
LINE
  5
240
330
1E
100
AcDbEntity
  8
0
100
AcDbLine
 10
387.5117499999999
 20
14.0
 30
0.0
 11
394.16775
 21
14.93599999999999
 31
0.0
  0
LINE
  5
241
330
1E
100
AcDbEntity
  8
0
100
AcDbLine
 10
434.5117499999999
 20
14.0
 30
0.0
 11
434.5117499999999
 21
14.93599999999999
 31
0.0
  0
LINE
  5
242
330
1E
100
AcDbEntity
  8
0
100
AcDbLine
 10
380.85575
 20
14.93599999999999
 30
0.0
 11
387.5117499999999
 21
14.0
 31
0.0
  0
LINE
  5
243
330
1E
100
AcDbEntity
  8
0
100
AcDbLine
 10
394.16775
 20
14.93599999999999
 30
0.0
 11
400.40775
 21
17.432
 31
0.0
  0
LINE
  5
244
330
1E
100
AcDbEntity
  8
0
100
AcDbLine
 10
448.51175
 20
14.5
 30
0.0
 11
448.51175
 21
17.0
 31
0.0
  0
LINE
  5
245
330
1E
100
AcDbEntity
  8
0
100
AcDbLine
 10
434.5117499999999
 20
14.5
 30
0.0
 11
448.51175
 21
14.5
 31
0.0
  0
LINE
  5
246
330
1E
100
AcDbEntity
  8
0
100
AcDbLine
 10
432.51175
 20
14.0
 30
0.0
 11
432.51175
 21
14.93599999999999
 31
0.0
  0
LINE
  5
247
330
1E
100
AcDbEntity
  8
0
100
AcDbLine
 10
432.51175
 20
14.0
 30
0.0
 11
434.5117499999999
 21
14.0
 31
0.0
  0
LINE
  5
248
330
1E
100
AcDbEntity
  8
0
100
AcDbLine
 10
432.51175
 20
14.0
 30
0.0
 11
432.51175
 21
14.93599999999999
 31
0.0
  0
LINE
  5
249
330
1E
100
AcDbEntity
  8
0
100
AcDbLine
 10
546.86275
 20
14.93599999999999
 30
0.0
 11
551.27575
 21
17.432
 31
0.0
  0
LINE
  5
24A
330
1E
100
AcDbEntity
  8
0
100
AcDbLine
 10
542.8637499999999
 20
14.0
 30
0.0
 11
547.5697499999999
 21
14.93599999999999
 31
0.0
  0
LINE
  5
24B
330
1E
100
AcDbEntity
  8
0
100
AcDbLine
 10
547.5697499999999
 20
14.93599999999999
 30
0.0
 11
551.9827499999999
 21
17.432
 31
0.0
  0
LINE
  5
24C
330
1E
100
AcDbEntity
  8
0
100
AcDbLine
 10
542.15675
 20
14.0
 30
0.0
 11
542.8637499999999
 21
14.0
 31
0.0
  0
LINE
  5
24D
330
1E
100
AcDbEntity
  8
0
100
AcDbLine
 10
542.15675
 20
14.0
 30
0.0
 11
546.86275
 21
14.93599999999999
 31
0.0
  0
LINE
  5
24E
330
1E
100
AcDbEntity
  8
0
100
AcDbLine
 10
380.85575
 20
14.93599999999999
 30
0.0
 11
387.5117499999999
 21
14.0
 31
0.0
  0
LINE
  5
24F
330
1E
100
AcDbEntity
  8
0
100
AcDbLine
 10
394.16775
 20
14.93599999999999
 30
0.0
 11
400.40775
 21
17.432
 31
0.0
  0
LINE
  5
250
330
1E
100
AcDbEntity
  8
0
100
AcDbLine
 10
434.5117499999999
 20
14.93599999999999
 30
0.0
 11
434.5117499999999
 21
17.432
 31
0.0
  0
LINE
  5
251
330
1E
100
AcDbEntity
  8
0
100
AcDbLine
 10
434.5117499999999
 20
14.93599999999999
 30
0.0
 11
434.5117499999999
 21
14.0
 31
0.0
  0
LINE
  5
252
330
1E
100
AcDbEntity
  8
0
100
AcDbLine
 10
432.51175
 20
14.93599999999999
 30
0.0
 11
432.51175
 21
17.432
 31
0.0
  0
LINE
  5
253
330
1E
100
AcDbEntity
  8
0
100
AcDbLine
 10
432.51175
 20
14.93599999999999
 30
0.0
 11
432.51175
 21
14.0
 31
0.0
  0
LINE
  5
254
330
1E
100
AcDbEntity
  8
0
100
AcDbLine
 10
432.51175
 20
14.93599999999999
 30
0.0
 11
432.51175
 21
14.0
 31
0.0
  0
LINE
  5
255
330
1E
100
AcDbEntity
  8
0
100
AcDbLine
 10
432.51175
 20
14.93599999999999
 30
0.0
 11
432.51175
 21
17.432
 31
0.0
  0
LINE
  5
256
330
1E
100
AcDbEntity
  8
0
100
AcDbLine
 10
577.51175
 20
15.0
 30
0.0
 11
582.0377499999999
 21
15.9
 31
0.0
  0
LINE
  5
257
330
1E
100
AcDbEntity
  8
0
100
AcDbLine
 10
547.682903846154
 20
15.0
 30
0.0
 11
577.51175
 21
15.0
 31
0.0
  0
LINE
  5
258
330
1E
100
AcDbEntity
  8
0
100
AcDbLine
 10
537.44975
 20
14.93599999999999
 30
0.0
 11
542.15675
 21
14.0
 31
0.0
  0
LINE
  5
259
330
1E
100
AcDbEntity
  8
0
100
AcDbLine
 10
332.2917499999999
 20
15.22
 30
0.0
 11
337.89175
 21
22.64
 31
0.0
  0
LINE
  5
25A
330
1E
100
AcDbEntity
  8
0
100
AcDbLine
 10
337.81175
 20
57.4
 30
0.0
 11
341.2117499999999
 21
48.9
 31
0.0
  0
LINE
  5
25B
330
1E
100
AcDbEntity
  8
0
100
AcDbLine
 10
326.35975
 20
72.98399999999999
 30
0.0
 11
334.41575
 21
66.904
 31
0.0
  0
LINE
  5
25C
330
1E
100
AcDbEntity
  8
0
100
AcDbLine
 10
334.41575
 20
66.904
 30
0.0
 11
340.49575
 21
58.848
 31
0.0
  0
LINE
  5
25D
330
1E
100
AcDbEntity
  8
0
100
AcDbLine
 10
334.832353773585
 20
66.35200000000001
 30
0.0
 11
380.51175
 21
66.35200000000001
 31
0.0
  0
LINE
  5
25E
330
1E
100
AcDbEntity
  8
0
100
AcDbLine
 10
334.2885499999999
 20
67.0
 30
0.0
 11
380.51175
 21
67.0
 31
0.0
  0
LINE
  5
25F
330
1E
100
AcDbEntity
  8
0
100
AcDbLine
 10
332.2917499999999
 20
64.78
 30
0.0
 11
337.89175
 21
57.36
 31
0.0
  0
LINE
  5
260
330
1E
100
AcDbEntity
  8
0
100
AcDbLine
 10
332.21175
 20
64.7
 30
0.0
 11
337.81175
 21
57.4
 31
0.0
  0
LINE
  5
261
330
1E
100
AcDbEntity
  8
0
100
AcDbLine
 10
340.49575
 20
21.15199999999999
 30
0.0
 11
344.14375
 21
30.272
 31
0.0
  0
LINE
  5
262
330
1E
100
AcDbEntity
  8
0
100
AcDbLine
 10
337.89175
 20
22.64
 30
0.0
 11
341.25175
 21
31.04
 31
0.0
  0
LINE
  5
263
330
1E
100
AcDbEntity
  8
0
100
AcDbLine
 10
374.6157499999999
 20
17.432
 30
0.0
 11
380.85575
 21
14.93599999999999
 31
0.0
  0
LINE
  5
264
330
1E
100
AcDbEntity
  8
0
100
AcDbLine
 10
374.6157499999999
 20
17.432
 30
0.0
 11
380.85575
 21
14.93599999999999
 31
0.0
  0
LINE
  5
265
330
1E
100
AcDbEntity
  8
0
100
AcDbLine
 10
400.40775
 20
17.432
 30
0.0
 11
403.81035
 21
20.0
 31
0.0
  0
LINE
  5
266
330
1E
100
AcDbEntity
  8
0
100
AcDbLine
 10
448.51175
 20
17.0
 30
0.0
 11
448.51175
 21
17.82799999999999
 31
0.0
  0
LINE
  5
267
330
1E
100
AcDbEntity
  8
0
100
AcDbLine
 10
448.51175
 20
17.0
 30
0.0
 11
448.51175
 21
14.5
 31
0.0
  0
LINE
  5
268
330
1E
100
AcDbEntity
  8
0
100
AcDbLine
 10
448.51175
 20
17.82799999999999
 30
0.0
 11
448.51175
 21
20.036
 31
0.0
  0
LINE
  5
269
330
1E
100
AcDbEntity
  8
0
100
AcDbLine
 10
448.51175
 20
17.82799999999999
 30
0.0
 11
448.51175
 21
17.0
 31
0.0
  0
LINE
  5
26A
330
1E
100
AcDbEntity
  8
0
100
AcDbLine
 10
434.5117499999999
 20
17.432
 30
0.0
 11
434.5117499999999
 21
21.59199999999999
 31
0.0
  0
LINE
  5
26B
330
1E
100
AcDbEntity
  8
0
100
AcDbLine
 10
434.5117499999999
 20
17.432
 30
0.0
 11
434.5117499999999
 21
14.93599999999999
 31
0.0
  0
LINE
  5
26C
330
1E
100
AcDbEntity
  8
0
100
AcDbLine
 10
432.51175
 20
17.432
 30
0.0
 11
432.51175
 21
21.59199999999999
 31
0.0
  0
LINE
  5
26D
330
1E
100
AcDbEntity
  8
0
100
AcDbLine
 10
432.51175
 20
17.432
 30
0.0
 11
432.51175
 21
14.93599999999999
 31
0.0
  0
LINE
  5
26E
330
1E
100
AcDbEntity
  8
0
100
AcDbLine
 10
432.51175
 20
17.432
 30
0.0
 11
432.51175
 21
14.93599999999999
 31
0.0
  0
LINE
  5
26F
330
1E
100
AcDbEntity
  8
0
100
AcDbLine
 10
432.51175
 20
17.432
 30
0.0
 11
432.51175
 21
20.0
 31
0.0
  0
LINE
  5
270
330
1E
100
AcDbEntity
  8
0
100
AcDbLine
 10
582.0377499999999
 20
15.9
 30
0.0
 11
586.27975
 21
18.3
 31
0.0
  0
LINE
  5
271
330
1E
100
AcDbEntity
  8
0
100
AcDbLine
 10
551.27575
 20
17.432
 30
0.0
 11
555.1727499999999
 21
21.59199999999999
 31
0.0
  0
LINE
  5
272
330
1E
100
AcDbEntity
  8
0
100
AcDbLine
 10
538.59175
 20
20.0
 30
0.0
 11
542.12775
 21
20.0
 31
0.0
  0
LINE
  5
273
330
1E
100
AcDbEntity
  8
0
100
AcDbLine
 10
586.27975
 20
18.3
 30
0.0
 11
590.0277499999999
 21
22.29999999999999
 31
0.0
  0
LINE
  5
274
330
1E
100
AcDbEntity
  8
0
100
AcDbLine
 10
551.9827499999999
 20
17.432
 30
0.0
 11
555.8797499999999
 21
21.59199999999999
 31
0.0
  0
LINE
  5
275
330
1E
100
AcDbEntity
  8
0
100
AcDbLine
 10
533.0377499999999
 20
17.432
 30
0.0
 11
537.44975
 21
14.93599999999999
 31
0.0
  0
LINE
  5
276
330
1E
100
AcDbEntity
  8
0
100
AcDbLine
 10
391.66475
 20
20.0
 30
0.0
 11
396.59175
 21
20.0
 31
0.0
  0
LINE
  5
277
330
1E
100
AcDbEntity
  8
0
100
AcDbLine
 10
388.5677499999999
 20
20.0
 30
0.0
 11
391.66475
 21
20.0
 31
0.0
  0
LINE
  5
278
330
1E
100
AcDbEntity
  8
0
100
AcDbLine
 10
396.59175
 20
20.0
 30
0.0
 11
403.01175
 21
20.0
 31
0.0
  0
LINE
  5
279
330
1E
100
AcDbEntity
  8
0
100
AcDbLine
 10
410.48875
 20
20.0
 30
0.0
 11
418.51175
 21
20.0
 31
0.0
  0
LINE
  5
27A
330
1E
100
AcDbEntity
  8
0
100
AcDbLine
 10
403.01175
 20
20.0
 30
0.0
 11
410.48875
 21
20.0
 31
0.0
  0
LINE
  5
27B
330
1E
100
AcDbEntity
  8
0
100
AcDbLine
 10
418.51175
 20
20.0
 30
0.0
 11
432.51175
 21
20.0
 31
0.0
  0
LINE
  5
27C
330
1E
100
AcDbEntity
  8
0
100
AcDbLine
 10
387.5117499999999
 20
20.0
 30
0.0
 11
388.5677499999999
 21
20.0
 31
0.0
  0
LINE
  5
27D
330
1E
100
AcDbEntity
  8
0
100
AcDbLine
 10
448.51175
 20
20.0
 30
0.0
 11
470.51175
 21
20.0
 31
0.0
  0
LINE
  5
27E
330
1E
100
AcDbEntity
  8
0
100
AcDbLine
 10
470.51175
 20
20.0
 30
0.0
 11
478.5347499999999
 21
20.0
 31
0.0
  0
LINE
  5
27F
330
1E
100
AcDbEntity
  8
0
100
AcDbLine
 10
492.4317499999999
 20
20.0
 30
0.0
 11
538.59175
 21
20.0
 31
0.0
  0
LINE
  5
280
330
1E
100
AcDbEntity
  8
0
100
AcDbLine
 10
486.01175
 20
20.0
 30
0.0
 11
492.4317499999999
 21
20.0
 31
0.0
  0
LINE
  5
281
330
1E
100
AcDbEntity
  8
0
100
AcDbLine
 10
478.5347499999999
 20
20.0
 30
0.0
 11
486.01175
 21
20.0
 31
0.0
  0
LINE
  5
282
330
1E
100
AcDbEntity
  8
0
100
AcDbLine
 10
382.39175
 20
20.72
 30
0.0
 11
387.5117499999999
 21
20.0
 31
0.0
  0
LINE
  5
283
330
1E
100
AcDbEntity
  8
0
100
AcDbLine
 10
369.10375
 20
21.59199999999999
 30
0.0
 11
374.6157499999999
 21
17.432
 31
0.0
  0
LINE
  5
284
330
1E
100
AcDbEntity
  8
0
100
AcDbLine
 10
448.51175
 20
20.036
 30
0.0
 11
448.51175
 21
23.71599999999999
 31
0.0
  0
LINE
  5
285
330
1E
100
AcDbEntity
  8
0
100
AcDbLine
 10
448.51175
 20
20.036
 30
0.0
 11
448.51175
 21
17.82799999999999
 31
0.0
  0
LINE
  5
286
330
1E
100
AcDbEntity
  8
0
100
AcDbLine
 10
432.51175
 20
20.0
 30
0.0
 11
432.51175
 21
17.432
 31
0.0
  0
LINE
  5
287
330
1E
100
AcDbEntity
  8
0
100
AcDbLine
 10
555.1727499999999
 20
21.59199999999999
 30
0.0
 11
558.1147499999999
 21
27.10399999999999
 31
0.0
  0
LINE
  5
288
330
1E
100
AcDbEntity
  8
0
100
AcDbLine
 10
434.5117499999999
 20
21.59199999999999
 30
0.0
 11
434.5117499999999
 21
27.10399999999999
 31
0.0
  0
LINE
  5
289
330
1E
100
AcDbEntity
  8
0
100
AcDbLine
 10
434.5117499999999
 20
21.59199999999999
 30
0.0
 11
434.5117499999999
 21
17.432
 31
0.0
  0
LINE
  5
28A
330
1E
100
AcDbEntity
  8
0
100
AcDbLine
 10
373.35175
 20
25.84
 30
0.0
 11
377.5917499999999
 21
22.64
 31
0.0
  0
LINE
  5
28B
330
1E
100
AcDbEntity
  8
0
100
AcDbLine
 10
377.5917499999999
 20
22.64
 30
0.0
 11
382.39175
 21
20.72
 31
0.0
  0
LINE
  5
28C
330
1E
100
AcDbEntity
  8
0
100
AcDbLine
 10
344.14375
 20
30.272
 30
0.0
 11
345.51175
 21
40.0
 31
0.0
  0
LINE
  5
28D
330
1E
100
AcDbEntity
  8
0
100
AcDbLine
 10
370.15175
 20
30.08
 30
0.0
 11
373.35175
 21
25.84
 31
0.0
  0
LINE
  5
28E
330
1E
100
AcDbEntity
  8
0
100
AcDbLine
 10
364.94375
 20
27.10399999999999
 30
0.0
 11
369.10375
 21
21.59199999999999
 31
0.0
  0
LINE
  5
28F
330
1E
100
AcDbEntity
  8
0
100
AcDbLine
 10
434.5117499999999
 20
26.384
 30
0.0
 11
448.51175
 21
26.384
 31
0.0
  0
LINE
  5
290
330
1E
100
AcDbEntity
  8
0
100
AcDbLine
 10
448.51175
 20
26.384
 30
0.0
 11
448.51175
 21
23.71599999999999
 31
0.0
  0
LINE
  5
291
330
1E
100
AcDbEntity
  8
0
100
AcDbLine
 10
448.51175
 20
26.384
 30
0.0
 11
448.51175
 21
28.116
 31
0.0
  0
LINE
  5
292
330
1E
100
AcDbEntity
  8
0
100
AcDbLine
 10
448.51175
 20
23.71599999999999
 30
0.0
 11
448.51175
 21
26.384
 31
0.0
  0
LINE
  5
293
330
1E
100
AcDbEntity
  8
0
100
AcDbLine
 10
448.51175
 20
23.71599999999999
 30
0.0
 11
448.51175
 21
20.036
 31
0.0
  0
LINE
  5
294
330
1E
100
AcDbEntity
  8
0
100
AcDbLine
 10
448.51175
 20
28.116
 30
0.0
 11
448.51175
 21
26.384
 31
0.0
  0
LINE
  5
295
330
1E
100
AcDbEntity
  8
0
100
AcDbLine
 10
448.51175
 20
28.116
 30
0.0
 11
448.51175
 21
29.616
 31
0.0
  0
LINE
  5
296
330
1E
100
AcDbEntity
  8
0
100
AcDbLine
 10
434.5117499999999
 20
28.116
 30
0.0
 11
448.51175
 21
28.116
 31
0.0
  0
LINE
  5
297
330
1E
100
AcDbEntity
  8
0
100
AcDbLine
 10
448.51175
 20
29.616
 30
0.0
 11
448.51175
 21
34.11199999999999
 31
0.0
  0
LINE
  5
298
330
1E
100
AcDbEntity
  8
0
100
AcDbLine
 10
448.51175
 20
29.616
 30
0.0
 11
448.51175
 21
28.116
 31
0.0
  0
LINE
  5
299
330
1E
100
AcDbEntity
  8
0
100
AcDbLine
 10
434.5117499999999
 20
27.10399999999999
 30
0.0
 11
434.5117499999999
 21
33.344
 31
0.0
  0
LINE
  5
29A
330
1E
100
AcDbEntity
  8
0
100
AcDbLine
 10
434.5117499999999
 20
27.10399999999999
 30
0.0
 11
434.5117499999999
 21
21.59199999999999
 31
0.0
  0
LINE
  5
29B
330
1E
100
AcDbEntity
  8
0
100
AcDbLine
 10
432.51175
 20
27.10399999999999
 30
0.0
 11
432.51175
 21
33.344
 31
0.0
  0
LINE
  5
29C
330
1E
100
AcDbEntity
  8
0
100
AcDbLine
 10
432.51175
 20
27.10399999999999
 30
0.0
 11
432.51175
 21
21.59199999999999
 31
0.0
  0
LINE
  5
29D
330
1E
100
AcDbEntity
  8
0
100
AcDbLine
 10
432.51175
 20
21.59199999999999
 30
0.0
 11
432.51175
 21
27.10399999999999
 31
0.0
  0
LINE
  5
29E
330
1E
100
AcDbEntity
  8
0
100
AcDbLine
 10
432.51175
 20
21.59199999999999
 30
0.0
 11
432.51175
 21
17.432
 31
0.0
  0
LINE
  5
29F
330
1E
100
AcDbEntity
  8
0
100
AcDbLine
 10
558.1147499999999
 20
27.10399999999999
 30
0.0
 11
559.8797499999999
 21
33.344
 31
0.0
  0
LINE
  5
2A0
330
1E
100
AcDbEntity
  8
0
100
AcDbLine
 10
555.8797499999999
 20
21.59199999999999
 30
0.0
 11
558.8217499999999
 21
27.10399999999999
 31
0.0
  0
LINE
  5
2A1
330
1E
100
AcDbEntity
  8
0
100
AcDbLine
 10
590.0277499999999
 20
22.29999999999999
 30
0.0
 11
592.8557499999999
 21
27.6
 31
0.0
  0
LINE
  5
2A2
330
1E
100
AcDbEntity
  8
0
100
AcDbLine
 10
592.8557499999999
 20
27.6
 30
0.0
 11
594.5527499999999
 21
33.6
 31
0.0
  0
LINE
  5
2A3
330
1E
100
AcDbEntity
  8
0
100
AcDbLine
 10
558.8217499999999
 20
27.10399999999999
 30
0.0
 11
560.58675
 21
33.344
 31
0.0
  0
LINE
  5
2A4
330
1E
100
AcDbEntity
  8
0
100
AcDbLine
 10
530.631484615385
 20
20.0
 30
0.0
 11
533.0377499999999
 21
17.432
 31
0.0
  0
LINE
  5
2A5
330
1E
100
AcDbEntity
  8
0
100
AcDbLine
 10
341.25175
 20
31.04
 30
0.0
 11
342.51175
 21
40.0
 31
0.0
  0
LINE
  5
2A6
330
1E
100
AcDbEntity
  8
0
100
AcDbLine
 10
340.49575
 20
58.848
 30
0.0
 11
344.14375
 21
49.728
 31
0.0
  0
LINE
  5
2A7
330
1E
100
AcDbEntity
  8
0
100
AcDbLine
 10
337.89175
 20
57.36
 30
0.0
 11
341.25175
 21
48.96
 31
0.0
  0
LINE
  5
2A8
330
1E
100
AcDbEntity
  8
0
100
AcDbLine
 10
362.4477499999999
 20
33.344
 30
0.0
 11
364.94375
 21
27.10399999999999
 31
0.0
  0
LINE
  5
2A9
330
1E
100
AcDbEntity
  8
0
100
AcDbLine
 10
361.51175
 20
40.0
 30
0.0
 11
362.4477499999999
 21
46.656
 31
0.0
  0
LINE
  5
2AA
330
1E
100
AcDbEntity
  8
0
100
AcDbLine
 10
361.51175
 20
40.0
 30
0.0
 11
362.4477499999999
 21
33.344
 31
0.0
  0
LINE
  5
2AB
330
1E
100
AcDbEntity
  8
0
100
AcDbLine
 10
368.2317499999999
 20
45.11999999999999
 30
0.0
 11
370.15175
 21
49.92
 31
0.0
  0
LINE
  5
2AC
330
1E
100
AcDbEntity
  8
0
100
AcDbLine
 10
367.51175
 20
40.0
 30
0.0
 11
368.2317499999999
 21
34.88
 31
0.0
  0
LINE
  5
2AD
330
1E
100
AcDbEntity
  8
0
100
AcDbLine
 10
367.51175
 20
40.0
 30
0.0
 11
368.2317499999999
 21
45.11999999999999
 31
0.0
  0
LINE
  5
2AE
330
1E
100
AcDbEntity
  8
0
100
AcDbLine
 10
368.2317499999999
 20
34.88
 30
0.0
 11
370.15175
 21
30.08
 31
0.0
  0
LINE
  5
2AF
330
1E
100
AcDbEntity
  8
0
100
AcDbLine
 10
362.4477499999999
 20
46.656
 30
0.0
 11
364.94375
 21
52.896
 31
0.0
  0
LINE
  5
2B0
330
1E
100
AcDbEntity
  8
0
100
AcDbLine
 10
432.51175
 20
33.344
 30
0.0
 11
432.51175
 21
40.0
 31
0.0
  0
LINE
  5
2B1
330
1E
100
AcDbEntity
  8
0
100
AcDbLine
 10
432.51175
 20
33.344
 30
0.0
 11
432.51175
 21
27.10399999999999
 31
0.0
  0
LINE
  5
2B2
330
1E
100
AcDbEntity
  8
0
100
AcDbLine
 10
448.51175
 20
34.11199999999999
 30
0.0
 11
448.51175
 21
40.0
 31
0.0
  0
LINE
  5
2B3
330
1E
100
AcDbEntity
  8
0
100
AcDbLine
 10
448.51175
 20
34.11199999999999
 30
0.0
 11
448.51175
 21
29.616
 31
0.0
  0
LINE
  5
2B4
330
1E
100
AcDbEntity
  8
0
100
AcDbLine
 10
448.51175
 20
40.0
 30
0.0
 11
448.51175
 21
45.888
 31
0.0
  0
LINE
  5
2B5
330
1E
100
AcDbEntity
  8
0
100
AcDbLine
 10
448.51175
 20
40.0
 30
0.0
 11
448.51175
 21
34.11199999999999
 31
0.0
  0
LINE
  5
2B6
330
1E
100
AcDbEntity
  8
0
100
AcDbLine
 10
434.5117499999999
 20
33.344
 30
0.0
 11
434.5117499999999
 21
40.0
 31
0.0
  0
LINE
  5
2B7
330
1E
100
AcDbEntity
  8
0
100
AcDbLine
 10
434.5117499999999
 20
33.344
 30
0.0
 11
434.5117499999999
 21
27.10399999999999
 31
0.0
  0
LINE
  5
2B8
330
1E
100
AcDbEntity
  8
0
100
AcDbLine
 10
448.51175
 20
45.888
 30
0.0
 11
448.51175
 21
50.38399999999999
 31
0.0
  0
LINE
  5
2B9
330
1E
100
AcDbEntity
  8
0
100
AcDbLine
 10
448.51175
 20
45.888
 30
0.0
 11
448.51175
 21
40.0
 31
0.0
  0
LINE
  5
2BA
330
1E
100
AcDbEntity
  8
0
100
AcDbLine
 10
434.5117499999999
 20
40.0
 30
0.0
 11
434.5117499999999
 21
46.656
 31
0.0
  0
LINE
  5
2BB
330
1E
100
AcDbEntity
  8
0
100
AcDbLine
 10
434.5117499999999
 20
40.0
 30
0.0
 11
434.5117499999999
 21
33.344
 31
0.0
  0
LINE
  5
2BC
330
1E
100
AcDbEntity
  8
0
100
AcDbLine
 10
432.51175
 20
40.0
 30
0.0
 11
432.51175
 21
46.656
 31
0.0
  0
LINE
  5
2BD
330
1E
100
AcDbEntity
  8
0
100
AcDbLine
 10
432.51175
 20
40.0
 30
0.0
 11
432.51175
 21
33.344
 31
0.0
  0
LINE
  5
2BE
330
1E
100
AcDbEntity
  8
0
100
AcDbLine
 10
434.5117499999999
 20
46.656
 30
0.0
 11
434.5117499999999
 21
52.896
 31
0.0
  0
LINE
  5
2BF
330
1E
100
AcDbEntity
  8
0
100
AcDbLine
 10
434.5117499999999
 20
46.656
 30
0.0
 11
434.5117499999999
 21
40.0
 31
0.0
  0
LINE
  5
2C0
330
1E
100
AcDbEntity
  8
0
100
AcDbLine
 10
432.51175
 20
46.656
 30
0.0
 11
432.51175
 21
52.896
 31
0.0
  0
LINE
  5
2C1
330
1E
100
AcDbEntity
  8
0
100
AcDbLine
 10
432.51175
 20
46.656
 30
0.0
 11
432.51175
 21
40.0
 31
0.0
  0
LINE
  5
2C2
330
1E
100
AcDbEntity
  8
0
100
AcDbLine
 10
559.8797499999999
 20
46.656
 30
0.0
 11
560.54075
 21
40.0
 31
0.0
  0
LINE
  5
2C3
330
1E
100
AcDbEntity
  8
0
100
AcDbLine
 10
560.58675
 20
46.656
 30
0.0
 11
561.2487499999999
 21
40.0
 31
0.0
  0
LINE
  5
2C4
330
1E
100
AcDbEntity
  8
0
100
AcDbLine
 10
559.8797499999999
 20
33.344
 30
0.0
 11
560.54075
 21
40.0
 31
0.0
  0
LINE
  5
2C5
330
1E
100
AcDbEntity
  8
0
100
AcDbLine
 10
594.5527499999999
 20
46.39999999999999
 30
0.0
 11
595.18975
 21
40.0
 31
0.0
  0
LINE
  5
2C6
330
1E
100
AcDbEntity
  8
0
100
AcDbLine
 10
594.5527499999999
 20
33.6
 30
0.0
 11
595.18975
 21
40.0
 31
0.0
  0
LINE
  5
2C7
330
1E
100
AcDbEntity
  8
0
100
AcDbLine
 10
560.58675
 20
33.344
 30
0.0
 11
561.2487499999999
 21
40.0
 31
0.0
  0
LINE
  5
2C8
330
1E
100
AcDbEntity
  8
0
100
AcDbLine
 10
344.14375
 20
49.728
 30
0.0
 11
345.51175
 21
40.0
 31
0.0
  0
LINE
  5
2C9
330
1E
100
AcDbEntity
  8
0
100
AcDbLine
 10
370.15175
 20
49.92
 30
0.0
 11
373.35175
 21
54.16
 31
0.0
  0
LINE
  5
2CA
330
1E
100
AcDbEntity
  8
0
100
AcDbLine
 10
364.94375
 20
52.896
 30
0.0
 11
369.10375
 21
58.408
 31
0.0
  0
LINE
  5
2CB
330
1E
100
AcDbEntity
  8
0
100
AcDbLine
 10
373.35175
 20
54.16
 30
0.0
 11
377.5917499999999
 21
57.36
 31
0.0
  0
LINE
  5
2CC
330
1E
100
AcDbEntity
  8
0
100
AcDbLine
 10
377.5917499999999
 20
57.36
 30
0.0
 11
382.39175
 21
59.28
 31
0.0
  0
LINE
  5
2CD
330
1E
100
AcDbEntity
  8
0
100
AcDbLine
 10
369.10375
 20
58.408
 30
0.0
 11
374.6157499999999
 21
62.56800000000001
 31
0.0
  0
LINE
  5
2CE
330
1E
100
AcDbEntity
  8
0
100
AcDbLine
 10
432.51175
 20
52.896
 30
0.0
 11
432.51175
 21
58.408
 31
0.0
  0
LINE
  5
2CF
330
1E
100
AcDbEntity
  8
0
100
AcDbLine
 10
432.51175
 20
52.896
 30
0.0
 11
432.51175
 21
46.656
 31
0.0
  0
LINE
  5
2D0
330
1E
100
AcDbEntity
  8
0
100
AcDbLine
 10
434.5117499999999
 20
51.88399999999999
 30
0.0
 11
448.51175
 21
51.88399999999999
 31
0.0
  0
LINE
  5
2D1
330
1E
100
AcDbEntity
  8
0
100
AcDbLine
 10
434.5117499999999
 20
53.61600000000001
 30
0.0
 11
448.51175
 21
53.61600000000001
 31
0.0
  0
LINE
  5
2D2
330
1E
100
AcDbEntity
  8
0
100
AcDbLine
 10
448.51175
 20
51.88399999999999
 30
0.0
 11
448.51175
 21
50.38399999999999
 31
0.0
  0
LINE
  5
2D3
330
1E
100
AcDbEntity
  8
0
100
AcDbLine
 10
448.51175
 20
51.88399999999999
 30
0.0
 11
448.51175
 21
53.61600000000001
 31
0.0
  0
LINE
  5
2D4
330
1E
100
AcDbEntity
  8
0
100
AcDbLine
 10
448.51175
 20
50.38399999999999
 30
0.0
 11
448.51175
 21
45.888
 31
0.0
  0
LINE
  5
2D5
330
1E
100
AcDbEntity
  8
0
100
AcDbLine
 10
448.51175
 20
50.38399999999999
 30
0.0
 11
448.51175
 21
51.88399999999999
 31
0.0
  0
LINE
  5
2D6
330
1E
100
AcDbEntity
  8
0
100
AcDbLine
 10
448.51175
 20
53.61600000000001
 30
0.0
 11
448.51175
 21
56.284
 31
0.0
  0
LINE
  5
2D7
330
1E
100
AcDbEntity
  8
0
100
AcDbLine
 10
448.51175
 20
53.61600000000001
 30
0.0
 11
448.51175
 21
51.88399999999999
 31
0.0
  0
LINE
  5
2D8
330
1E
100
AcDbEntity
  8
0
100
AcDbLine
 10
448.51175
 20
56.284
 30
0.0
 11
448.51175
 21
59.964
 31
0.0
  0
LINE
  5
2D9
330
1E
100
AcDbEntity
  8
0
100
AcDbLine
 10
448.51175
 20
56.284
 30
0.0
 11
448.51175
 21
53.61600000000001
 31
0.0
  0
LINE
  5
2DA
330
1E
100
AcDbEntity
  8
0
100
AcDbLine
 10
434.5117499999999
 20
52.896
 30
0.0
 11
434.5117499999999
 21
58.408
 31
0.0
  0
LINE
  5
2DB
330
1E
100
AcDbEntity
  8
0
100
AcDbLine
 10
434.5117499999999
 20
52.896
 30
0.0
 11
434.5117499999999
 21
46.656
 31
0.0
  0
LINE
  5
2DC
330
1E
100
AcDbEntity
  8
0
100
AcDbLine
 10
434.5117499999999
 20
58.408
 30
0.0
 11
434.5117499999999
 21
62.56800000000001
 31
0.0
  0
LINE
  5
2DD
330
1E
100
AcDbEntity
  8
0
100
AcDbLine
 10
434.5117499999999
 20
58.408
 30
0.0
 11
434.5117499999999
 21
52.896
 31
0.0
  0
LINE
  5
2DE
330
1E
100
AcDbEntity
  8
0
100
AcDbLine
 10
432.51175
 20
58.408
 30
0.0
 11
432.51175
 21
62.56800000000001
 31
0.0
  0
LINE
  5
2DF
330
1E
100
AcDbEntity
  8
0
100
AcDbLine
 10
432.51175
 20
58.408
 30
0.0
 11
432.51175
 21
52.896
 31
0.0
  0
LINE
  5
2E0
330
1E
100
AcDbEntity
  8
0
100
AcDbLine
 10
555.1727499999999
 20
58.408
 30
0.0
 11
558.1147499999999
 21
52.896
 31
0.0
  0
LINE
  5
2E1
330
1E
100
AcDbEntity
  8
0
100
AcDbLine
 10
558.1147499999999
 20
52.896
 30
0.0
 11
559.8797499999999
 21
46.656
 31
0.0
  0
LINE
  5
2E2
330
1E
100
AcDbEntity
  8
0
100
AcDbLine
 10
418.51175
 20
60.0
 30
0.0
 11
432.51175
 21
60.0
 31
0.0
  0
LINE
  5
2E3
330
1E
100
AcDbEntity
  8
0
100
AcDbLine
 10
410.48875
 20
60.0
 30
0.0
 11
418.51175
 21
60.0
 31
0.0
  0
LINE
  5
2E4
330
1E
100
AcDbEntity
  8
0
100
AcDbLine
 10
396.59175
 20
60.0
 30
0.0
 11
403.01175
 21
60.0
 31
0.0
  0
LINE
  5
2E5
330
1E
100
AcDbEntity
  8
0
100
AcDbLine
 10
403.01175
 20
60.0
 30
0.0
 11
410.48875
 21
60.0
 31
0.0
  0
LINE
  5
2E6
330
1E
100
AcDbEntity
  8
0
100
AcDbLine
 10
391.66475
 20
60.0
 30
0.0
 11
396.59175
 21
60.0
 31
0.0
  0
LINE
  5
2E7
330
1E
100
AcDbEntity
  8
0
100
AcDbLine
 10
388.5677499999999
 20
60.0
 30
0.0
 11
391.66475
 21
60.0
 31
0.0
  0
LINE
  5
2E8
330
1E
100
AcDbEntity
  8
0
100
AcDbLine
 10
387.5117499999999
 20
60.0
 30
0.0
 11
388.5677499999999
 21
60.0
 31
0.0
  0
LINE
  5
2E9
330
1E
100
AcDbEntity
  8
0
100
AcDbLine
 10
382.39175
 20
59.28
 30
0.0
 11
387.5117499999999
 21
60.0
 31
0.0
  0
LINE
  5
2EA
330
1E
100
AcDbEntity
  8
0
100
AcDbLine
 10
374.6157499999999
 20
62.56800000000001
 30
0.0
 11
380.85575
 21
65.06399999999999
 31
0.0
  0
LINE
  5
2EB
330
1E
100
AcDbEntity
  8
0
100
AcDbLine
 10
400.40775
 20
62.56800000000001
 30
0.0
 11
403.81035
 21
60.0
 31
0.0
  0
LINE
  5
2EC
330
1E
100
AcDbEntity
  8
0
100
AcDbLine
 10
448.51175
 20
60.0
 30
0.0
 11
470.51175
 21
60.0
 31
0.0
  0
LINE
  5
2ED
330
1E
100
AcDbEntity
  8
0
100
AcDbLine
 10
470.51175
 20
60.0
 30
0.0
 11
478.5347499999999
 21
60.0
 31
0.0
  0
LINE
  5
2EE
330
1E
100
AcDbEntity
  8
0
100
AcDbLine
 10
486.01175
 20
60.0
 30
0.0
 11
492.4317499999999
 21
60.0
 31
0.0
  0
LINE
  5
2EF
330
1E
100
AcDbEntity
  8
0
100
AcDbLine
 10
478.5347499999999
 20
60.0
 30
0.0
 11
486.01175
 21
60.0
 31
0.0
  0
LINE
  5
2F0
330
1E
100
AcDbEntity
  8
0
100
AcDbLine
 10
492.4317499999999
 20
60.0
 30
0.0
 11
538.59175
 21
60.0
 31
0.0
  0
LINE
  5
2F1
330
1E
100
AcDbEntity
  8
0
100
AcDbLine
 10
448.51175
 20
59.964
 30
0.0
 11
448.51175
 21
62.172
 31
0.0
  0
LINE
  5
2F2
330
1E
100
AcDbEntity
  8
0
100
AcDbLine
 10
448.51175
 20
59.964
 30
0.0
 11
448.51175
 21
56.284
 31
0.0
  0
LINE
  5
2F3
330
1E
100
AcDbEntity
  8
0
100
AcDbLine
 10
448.51175
 20
62.172
 30
0.0
 11
448.51175
 21
63.0
 31
0.0
  0
LINE
  5
2F4
330
1E
100
AcDbEntity
  8
0
100
AcDbLine
 10
448.51175
 20
62.172
 30
0.0
 11
448.51175
 21
59.964
 31
0.0
  0
LINE
  5
2F5
330
1E
100
AcDbEntity
  8
0
100
AcDbLine
 10
432.51175
 20
60.0
 30
0.0
 11
432.51175
 21
62.56800000000001
 31
0.0
  0
LINE
  5
2F6
330
1E
100
AcDbEntity
  8
0
100
AcDbLine
 10
448.51175
 20
63.0
 30
0.0
 11
448.51175
 21
62.172
 31
0.0
  0
LINE
  5
2F7
330
1E
100
AcDbEntity
  8
0
100
AcDbLine
 10
448.51175
 20
63.0
 30
0.0
 11
448.51175
 21
65.5
 31
0.0
  0
LINE
  5
2F8
330
1E
100
AcDbEntity
  8
0
100
AcDbLine
 10
434.5117499999999
 20
62.56800000000001
 30
0.0
 11
434.5117499999999
 21
65.06399999999999
 31
0.0
  0
LINE
  5
2F9
330
1E
100
AcDbEntity
  8
0
100
AcDbLine
 10
434.5117499999999
 20
62.56800000000001
 30
0.0
 11
434.5117499999999
 21
58.408
 31
0.0
  0
LINE
  5
2FA
330
1E
100
AcDbEntity
  8
0
100
AcDbLine
 10
432.51175
 20
62.56800000000001
 30
0.0
 11
432.51175
 21
65.06399999999999
 31
0.0
  0
LINE
  5
2FB
330
1E
100
AcDbEntity
  8
0
100
AcDbLine
 10
432.51175
 20
62.56800000000001
 30
0.0
 11
432.51175
 21
58.408
 31
0.0
  0
LINE
  5
2FC
330
1E
100
AcDbEntity
  8
0
100
AcDbLine
 10
432.51175
 20
62.56800000000001
 30
0.0
 11
432.51175
 21
60.0
 31
0.0
  0
LINE
  5
2FD
330
1E
100
AcDbEntity
  8
0
100
AcDbLine
 10
432.51175
 20
62.56800000000001
 30
0.0
 11
432.51175
 21
65.06399999999999
 31
0.0
  0
LINE
  5
2FE
330
1E
100
AcDbEntity
  8
0
100
AcDbLine
 10
538.59175
 20
60.0
 30
0.0
 11
542.12775
 21
60.0
 31
0.0
  0
LINE
  5
2FF
330
1E
100
AcDbEntity
  8
0
100
AcDbLine
 10
547.682903846154
 20
65.0
 30
0.0
 11
577.51175
 21
65.0
 31
0.0
  0
LINE
  5
300
330
1E
100
AcDbEntity
  8
0
100
AcDbLine
 10
537.44975
 20
65.06399999999999
 30
0.0
 11
542.15675
 21
66.0
 31
0.0
  0
LINE
  5
301
330
1E
100
AcDbEntity
  8
0
100
AcDbLine
 10
533.0377499999999
 20
62.56800000000001
 30
0.0
 11
537.44975
 21
65.06399999999999
 31
0.0
  0
LINE
  5
302
330
1E
100
AcDbEntity
  8
0
100
AcDbLine
 10
530.631484615385
 20
60.0
 30
0.0
 11
533.0377499999999
 21
62.56800000000001
 31
0.0
  0
LINE
  5
303
330
1E
100
AcDbEntity
  8
0
100
AcDbLine
 10
546.86275
 20
65.06399999999999
 30
0.0
 11
551.27575
 21
62.56800000000001
 31
0.0
  0
LINE
  5
304
330
1E
100
AcDbEntity
  8
0
100
AcDbLine
 10
551.27575
 20
62.56800000000001
 30
0.0
 11
555.1727499999999
 21
58.408
 31
0.0
  0
LINE
  5
305
330
1E
100
AcDbEntity
  8
0
100
AcDbLine
 10
380.85575
 20
65.06399999999999
 30
0.0
 11
387.5117499999999
 21
66.0
 31
0.0
  0
LINE
  5
306
330
1E
100
AcDbEntity
  8
0
100
AcDbLine
 10
394.16775
 20
65.06399999999999
 30
0.0
 11
400.40775
 21
62.56800000000001
 31
0.0
  0
LINE
  5
307
330
1E
100
AcDbEntity
  8
0
100
AcDbLine
 10
387.5117499999999
 20
66.0
 30
0.0
 11
394.16775
 21
65.06399999999999
 31
0.0
  0
LINE
  5
308
330
1E
100
AcDbEntity
  8
0
100
AcDbLine
 10
432.51175
 20
65.06399999999999
 30
0.0
 11
432.51175
 21
62.56800000000001
 31
0.0
  0
LINE
  5
309
330
1E
100
AcDbEntity
  8
0
100
AcDbLine
 10
432.51175
 20
65.06399999999999
 30
0.0
 11
432.51175
 21
66.0
 31
0.0
  0
LINE
  5
30A
330
1E
100
AcDbEntity
  8
0
100
AcDbLine
 10
432.51175
 20
65.06399999999999
 30
0.0
 11
432.51175
 21
62.56800000000001
 31
0.0
  0
LINE
  5
30B
330
1E
100
AcDbEntity
  8
0
100
AcDbLine
 10
434.5117499999999
 20
65.5
 30
0.0
 11
448.51175
 21
65.5
 31
0.0
  0
LINE
  5
30C
330
1E
100
AcDbEntity
  8
0
100
AcDbLine
 10
448.51175
 20
65.5
 30
0.0
 11
448.51175
 21
63.0
 31
0.0
  0
LINE
  5
30D
330
1E
100
AcDbEntity
  8
0
100
AcDbLine
 10
434.5117499999999
 20
66.0
 30
0.0
 11
434.5117499999999
 21
65.06399999999999
 31
0.0
  0
LINE
  5
30E
330
1E
100
AcDbEntity
  8
0
100
AcDbLine
 10
434.5117499999999
 20
65.06399999999999
 30
0.0
 11
434.5117499999999
 21
66.0
 31
0.0
  0
LINE
  5
30F
330
1E
100
AcDbEntity
  8
0
100
AcDbLine
 10
434.5117499999999
 20
65.06399999999999
 30
0.0
 11
434.5117499999999
 21
62.56800000000001
 31
0.0
  0
LINE
  5
310
330
1E
100
AcDbEntity
  8
0
100
AcDbLine
 10
432.51175
 20
66.0
 30
0.0
 11
432.51175
 21
65.06399999999999
 31
0.0
  0
LINE
  5
311
330
1E
100
AcDbEntity
  8
0
100
AcDbLine
 10
432.51175
 20
66.0
 30
0.0
 11
434.5117499999999
 21
66.0
 31
0.0
  0
LINE
  5
312
330
1E
100
AcDbEntity
  8
0
100
AcDbLine
 10
380.51175
 20
66.35200000000001
 30
0.0
 11
385.225891732283
 21
65.67855118110229
 31
0.0
  0
LINE
  5
313
330
1E
100
AcDbEntity
  8
0
100
AcDbLine
 10
387.4237499999999
 20
66.02800000000001
 30
0.0
 11
387.498432080925
 21
65.99812716763
 31
0.0
  0
LINE
  5
314
330
1E
100
AcDbEntity
  8
0
100
AcDbLine
 10
542.15675
 20
66.0
 30
0.0
 11
546.86275
 21
65.06399999999999
 31
0.0
  0
LINE
  5
315
330
1E
100
AcDbEntity
  8
0
100
AcDbLine
 10
542.15675
 20
66.0
 30
0.0
 11
542.8637499999999
 21
66.0
 31
0.0
  0
LINE
  5
316
330
1E
100
AcDbEntity
  8
0
100
AcDbLine
 10
542.8637499999999
 20
66.0
 30
0.0
 11
547.5697499999999
 21
65.06399999999999
 31
0.0
  0
LINE
  5
317
330
1E
100
AcDbEntity
  8
0
100
AcDbLine
 10
547.5697499999999
 20
65.06399999999999
 30
0.0
 11
551.9827499999999
 21
62.56800000000001
 31
0.0
  0
LINE
  5
318
330
1E
100
AcDbEntity
  8
0
100
AcDbLine
 10
551.9827499999999
 20
62.56800000000001
 30
0.0
 11
555.8797499999999
 21
58.408
 31
0.0
  0
LINE
  5
319
330
1E
100
AcDbEntity
  8
0
100
AcDbLine
 10
555.8797499999999
 20
58.408
 30
0.0
 11
558.8217499999999
 21
52.896
 31
0.0
  0
LINE
  5
31A
330
1E
100
AcDbEntity
  8
0
100
AcDbLine
 10
577.51175
 20
65.0
 30
0.0
 11
582.0377499999999
 21
64.1
 31
0.0
  0
LINE
  5
31B
330
1E
100
AcDbEntity
  8
0
100
AcDbLine
 10
582.0377499999999
 20
64.1
 30
0.0
 11
586.27975
 21
61.7
 31
0.0
  0
LINE
  5
31C
330
1E
100
AcDbEntity
  8
0
100
AcDbLine
 10
586.27975
 20
61.7
 30
0.0
 11
590.0277499999999
 21
57.7
 31
0.0
  0
LINE
  5
31D
330
1E
100
AcDbEntity
  8
0
100
AcDbLine
 10
590.0277499999999
 20
57.7
 30
0.0
 11
592.8557499999999
 21
52.4
 31
0.0
  0
LINE
  5
31E
330
1E
100
AcDbEntity
  8
0
100
AcDbLine
 10
592.8557499999999
 20
52.4
 30
0.0
 11
594.5527499999999
 21
46.39999999999999
 31
0.0
  0
LINE
  5
31F
330
1E
100
AcDbEntity
  8
0
100
AcDbLine
 10
558.8217499999999
 20
52.896
 30
0.0
 11
560.58675
 21
46.656
 31
0.0
  0
LINE
  5
320
330
1E
100
AcDbEntity
  8
0
100
AcDbLine
 10
341.25175
 20
48.96
 30
0.0
 11
342.51175
 21
40.0
 31
0.0
  0
LINE
  5
321
330
1E
100
AcDbEntity
  8
0
100
AcDbLine
 10
341.2117499999999
 20
48.9
 30
0.0
 11
342.51175
 21
40.0
 31
0.0
  0
LINE
  5
322
330
1E
100
AcDbEntity
  8
0
100
AcDbLine
 10
341.2117499999999
 20
31.1
 30
0.0
 11
342.51175
 21
40.0
 31
0.0
  0
LINE
  5
323
330
1E
100
AcDbEntity
  8
0
100
AcDbLine
 10
337.81175
 20
22.6
 30
0.0
 11
341.2117499999999
 21
31.1
 31
0.0
  0
LINE
  5
324
330
1E
100
AcDbEntity
  8
0
100
AcDbLine
 10
332.21175
 20
15.3
 30
0.0
 11
337.81175
 21
22.6
 31
0.0
  0
LINE
  5
325
330
1E
100
AcDbEntity
  8
0
100
AcDbLine
 10
324.91175
 20
9.69999999999997
 30
0.0
 11
332.21175
 21
15.3
 31
0.0
  0
LINE
  5
326
330
1E
100
AcDbEntity
  8
0
100
AcDbLine
 10
316.4117499999999
 20
6.29999999999997
 30
0.0
 11
324.91175
 21
9.69999999999997
 31
0.0
  0
LINE
  5
327
330
1E
100
AcDbEntity
  8
0
100
AcDbLine
 10
307.51175
 20
4.999999999999969
 30
0.0
 11
316.4117499999999
 21
6.29999999999997
 31
0.0
  0
LINE
  5
328
330
1E
100
AcDbEntity
  8
0
100
AcDbLine
 10
307.51175
 20
4.999999999999969
 30
0.0
 11
316.47175
 21
6.25999999999997
 31
0.0
  0
LINE
  5
32D
330
1E
100
AcDbEntity
  8
0
100
AcDbLine
 10
380.51175
 20
67.0
 30
0.0
 11
387.4237499999999
 21
66.02800000000001
 31
0.0
  0
ENDSEC
  0
SECTION
  2
OBJECTS
  0
DICTIONARY
  5
C
330
0
100
AcDbDictionary
281
     1
  3
ACAD_GROUP
350
D
  3
ACAD_LAYOUT
350
19
  3
ACAD_MLINESTYLE
350
16
  3
ACAD_PLOTSETTINGS
350
18
  3
ACAD_PLOTSTYLENAME
350
E
  3
AcDbVariableDictionary
350
32E
  0
DICTIONARY
  5
D
102
{ACAD_REACTORS
330
C
102
}
330
C
100
AcDbDictionary
281
     1
  0
DICTIONARY
  5
19
102
{ACAD_REACTORS
330
C
102
}
330
C
100
AcDbDictionary
281
     1
  3
Layout1
350
1D
  3
Model
350
21
  0
DICTIONARY
  5
16
102
{ACAD_REACTORS
330
C
102
}
330
C
100
AcDbDictionary
281
     1
  3
Standard
350
17
  0
DICTIONARY
  5
18
102
{ACAD_REACTORS
330
C
102
}
330
C
100
AcDbDictionary
281
     1
  0
ACDBDICTIONARYWDFLT
  5
E
102
{ACAD_REACTORS
330
C
102
}
330
C
100
AcDbDictionary
281
     1
  3
Normal
350
F
100
AcDbDictionaryWithDefault
340
F
  0
DICTIONARY
  5
32E
102
{ACAD_REACTORS
330
C
102
}
330
C
100
AcDbDictionary
281
     1
  3
DIMASSOC
350
32F
  0
LAYOUT
  5
1D
102
{ACAD_REACTORS
330
19
102
}
330
19
100
AcDbPlotSettings
  1

  2
hp deskjet 980c series
  4

  6

 40
0.0
 41
0.0
 42
0.0
 43
0.0
 44
0.0
 45
0.0
 46
0.0
 47
0.0
 48
0.0
 49
0.0
140
0.0
141
0.0
142
1.0
143
1.0
 70
   688
 72
     0
 73
     0
 74
     5
  7

 75
    16
147
1.0
148
0.0
149
0.0
100
AcDbLayout
  1
Layout1
 70
     1
 71
     1
 10
0.0
 20
0.0
 11
12.0
 21
9.0
 12
0.0
 22
0.0
 32
0.0
 14
1.000000000000000E+20
 24
1.000000000000000E+20
 34
1.000000000000000E+20
 15
-1.000000000000000E+20
 25
-1.000000000000000E+20
 35
-1.000000000000000E+20
146
0.0
 13
0.0
 23
0.0
 33
0.0
 16
1.0
 26
0.0
 36
0.0
 17
0.0
 27
1.0
 37
0.0
 76
     0
330
1A
  0
LAYOUT
  5
21
102
{ACAD_REACTORS
330
19
102
}
330
19
100
AcDbPlotSettings
  1

  2
hp deskjet 980c series
  4

  6

 40
0.0
 41
0.0
 42
0.0
 43
0.0
 44
0.0
 45
0.0
 46
0.0
 47
0.0
 48
0.0
 49
0.0
140
0.0
141
0.0
142
1.0
143
1.0
 70
  1712
 72
     0
 73
     0
 74
     0
  7

 75
     0
147
1.0
148
0.0
149
0.0
100
AcDbLayout
  1
Model
 70
     1
 71
     0
 10
0.0
 20
0.0
 11
12.0
 21
9.0
 12
0.0
 22
0.0
 32
0.0
 14
0.0
 24
0.0
 34
0.0
 15
0.0
 25
0.0
 35
0.0
146
0.0
 13
0.0
 23
0.0
 33
0.0
 16
1.0
 26
0.0
 36
0.0
 17
0.0
 27
1.0
 37
0.0
 76
     0
330
1E
  0
MLINESTYLE
  5
17
102
{ACAD_REACTORS
330
16
102
}
330
16
100
AcDbMlineStyle
  2
STANDARD
 70
     0
  3

 62
   256
 51
90.0
 52
90.0
 71
     2
 49
0.5
 62
   256
  6
BYLAYER
 49
-0.5
 62
   256
  6
BYLAYER
  0
ACDBPLACEHOLDER
  5
F
102
{ACAD_REACTORS
330
E
102
}
330
E
  0
DICTIONARYVAR
  5
32F
102
{ACAD_REACTORS
330
32E
102
}
330
32E
100
DictionaryVariables
280
     0
  1
1
  0
ENDSEC
  0
EOF
