  0
SECTION
  2
HEADER
  9
$ACADVER
  1
AC1012
  9
$DWGCODEPAGE
  3
ANSI_1252
  9
$INSBASE
 10
0.0
 20
0.0
 30
0.0
  9
$EXTMIN
 10
-0.0000000000000111
 20
0.238999999999965
 30
0.0
  9
$EXTMAX
 10
100.0
 20
603.7609999999999
 30
0.0
  9
$LIMMIN
 10
0.0
 20
0.0
  9
$LIMMAX
 10
12.0
 20
9.0
  9
$ORTHOMODE
 70
     0
  9
$REGENMODE
 70
     1
  9
$FILLMODE
 70
     1
  9
$QTEXTMODE
 70
     0
  9
$MIRRTEXT
 70
     1
  9
$DRAGMODE
 70
     2
  9
$LTSCALE
 40
1.0
  9
$OSMODE
 70
    37
  9
$ATTMODE
 70
     1
  9
$TEXTSIZE
 40
0.2
  9
$TRACEWID
 40
0.05
  9
$TEXTSTYLE
  7
STANDARD
  9
$CLAYER
  8
0
  9
$CELTYPE
  6
CONTINUOUS
  9
$CECOLOR
 62
   256
  9
$CELTSCALE
 40
1.0
  9
$DELOBJ
 70
     1
  9
$DISPSILH
 70
     0
  9
$DIMSCALE
 40
1.0
  9
$DIMASZ
 40
0.18
  9
$DIMEXO
 40
0.0625
  9
$DIMDLI
 40
0.38
  9
$DIMRND
 40
0.0
  9
$DIMDLE
 40
0.0
  9
$DIMEXE
 40
0.18
  9
$DIMTP
 40
0.0
  9
$DIMTM
 40
0.0
  9
$DIMTXT
 40
0.18
  9
$DIMCEN
 40
0.09
  9
$DIMTSZ
 40
0.0
  9
$DIMTOL
 70
     0
  9
$DIMLIM
 70
     0
  9
$DIMTIH
 70
     1
  9
$DIMTOH
 70
     1
  9
$DIMSE1
 70
     0
  9
$DIMSE2
 70
     0
  9
$DIMTAD
 70
     0
  9
$DIMZIN
 70
     0
  9
$DIMBLK
  1

  9
$DIMASO
 70
     1
  9
$DIMSHO
 70
     1
  9
$DIMPOST
  1

  9
$DIMAPOST
  1

  9
$DIMALT
 70
     0
  9
$DIMALTD
 70
     2
  9
$DIMALTF
 40
25.4
  9
$DIMLFAC
 40
1.0
  9
$DIMTOFL
 70
     0
  9
$DIMTVP
 40
0.0
  9
$DIMTIX
 70
     0
  9
$DIMSOXD
 70
     0
  9
$DIMSAH
 70
     0
  9
$DIMBLK1
  1

  9
$DIMBLK2
  1

  9
$DIMSTYLE
  2
STANDARD
  9
$DIMCLRD
 70
     0
  9
$DIMCLRE
 70
     0
  9
$DIMCLRT
 70
     0
  9
$DIMTFAC
 40
1.0
  9
$DIMGAP
 40
0.09
  9
$DIMJUST
 70
     0
  9
$DIMSD1
 70
     0
  9
$DIMSD2
 70
     0
  9
$DIMTOLJ
 70
     1
  9
$DIMTZIN
 70
     0
  9
$DIMALTZ
 70
     0
  9
$DIMALTTZ
 70
     0
  9
$DIMFIT
 70
     3
  9
$DIMUPT
 70
     0
  9
$DIMUNIT
 70
     2
  9
$DIMDEC
 70
     4
  9
$DIMTDEC
 70
     4
  9
$DIMALTU
 70
     2
  9
$DIMALTTD
 70
     2
  9
$DIMTXSTY
  7
STANDARD
  9
$DIMAUNIT
 70
     0
  9
$LUNITS
 70
     2
  9
$LUPREC
 70
     4
  9
$SKETCHINC
 40
0.1
  9
$FILLETRAD
 40
0.0
  9
$AUNITS
 70
     0
  9
$AUPREC
 70
     0
  9
$MENU
  1
.
  9
$ELEVATION
 40
0.0
  9
$PELEVATION
 40
0.0
  9
$THICKNESS
 40
0.0
  9
$LIMCHECK
 70
     0
  9
$BLIPMODE
 70
     0
  9
$CHAMFERA
 40
0.0
  9
$CHAMFERB
 40
0.0
  9
$CHAMFERC
 40
0.0
  9
$CHAMFERD
 40
0.0
  9
$SKPOLY
 70
     0
  9
$TDCREATE
 40
2454781.437015694
  9
$TDUPDATE
 40
2454781.442741608
  9
$TDINDWG
 40
0.0057259144
  9
$TDUSRTIMER
 40
0.0057259144
  9
$USRTIMER
 70
     1
  9
$ANGBASE
 50
0.0
  9
$ANGDIR
 70
     0
  9
$PDMODE
 70
     0
  9
$PDSIZE
 40
0.0
  9
$PLINEWID
 40
0.0
  9
$COORDS
 70
     1
  9
$SPLFRAME
 70
     0
  9
$SPLINETYPE
 70
     6
  9
$SPLINESEGS
 70
     8
  9
$ATTDIA
 70
     0
  9
$ATTREQ
 70
     1
  9
$HANDLING
 70
 22529
  9
$HANDSEED
  5
2EB
  9
$SURFTAB1
 70
     6
  9
$SURFTAB2
 70
     6
  9
$SURFTYPE
 70
     6
  9
$SURFU
 70
     6
  9
$SURFV
 70
     6
  9
$UCSNAME
  2

  9
$UCSORG
 10
0.0
 20
0.0
 30
0.0
  9
$UCSXDIR
 10
1.0
 20
0.0
 30
0.0
  9
$UCSYDIR
 10
0.0
 20
1.0
 30
0.0
  9
$PUCSNAME
  2

  9
$PUCSORG
 10
0.0
 20
0.0
 30
0.0
  9
$PUCSXDIR
 10
1.0
 20
0.0
 30
0.0
  9
$PUCSYDIR
 10
0.0
 20
1.0
 30
0.0
  9
$USERI1
 70
     0
  9
$USERI2
 70
     0
  9
$USERI3
 70
     0
  9
$USERI4
 70
     0
  9
$USERI5
 70
     0
  9
$USERR1
 40
0.0
  9
$USERR2
 40
0.0
  9
$USERR3
 40
0.0
  9
$USERR4
 40
0.0
  9
$USERR5
 40
0.0
  9
$WORLDVIEW
 70
     1
  9
$SHADEDGE
 70
     3
  9
$SHADEDIF
 70
    70
  9
$TILEMODE
 70
     1
  9
$MAXACTVP
 70
    64
  9
$PINSBASE
 10
0.0
 20
0.0
 30
0.0
  9
$PLIMCHECK
 70
     0
  9
$PEXTMIN
 10
1.000000000000000E+20
 20
1.000000000000000E+20
 30
1.000000000000000E+20
  9
$PEXTMAX
 10
-1.000000000000000E+20
 20
-1.000000000000000E+20
 30
-1.000000000000000E+20
  9
$PLIMMIN
 10
0.0
 20
0.0
  9
$PLIMMAX
 10
12.0
 20
9.0
  9
$UNITMODE
 70
     0
  9
$VISRETAIN
 70
     1
  9
$PLINEGEN
 70
     0
  9
$PSLTSCALE
 70
     1
  9
$TREEDEPTH
 70
  3020
  9
$PICKSTYLE
 70
     1
  9
$CMLSTYLE
  2
STANDARD
  9
$CMLJUST
 70
     0
  9
$CMLSCALE
 40
1.0
  9
$SAVEIMAGES
 70
     1
  0
ENDSEC
  0
SECTION
  2
CLASSES
  0
CLASS
  1
ACDBDICTIONARYWDFLT
  2
AcDbDictionaryWithDefault
  3
AutoCAD 2000
 90
    32768
280
     0
281
     0
  0
CLASS
  1
ACDBPLACEHOLDER
  2
AcDbPlaceHolder
  3
AutoCAD 2000
 90
    32768
280
     0
281
     0
  0
CLASS
  1
LAYOUT
  2
AcDbLayout
  3
AutoCAD 2000
 90
    32768
280
     0
281
     0
  0
CLASS
  1
DICTIONARYVAR
  2
AcDbDictionaryVar
  3
AutoCAD 2000
 90
    32768
280
     0
281
     0
  0
CLASS
  1
LONG_TRANSACTION
  2
AcDbLongTransaction
  3
AutoCAD 2000
 90
    32768
280
     0
281
     0
  0
CLASS
  1
LWPOLYLINE
  2
AcDbPolyline
  3
AutoCAD 2000
 90
    32768
280
     0
281
     1
  0
CLASS
  1
HATCH
  2
AcDbHatch
  3
AutoCAD 2000
 90
    32768
280
     0
281
     1
  0
CLASS
  1
XRECORD
  2
AcDbXrecord
  3
AutoCAD 2000
 90
    32768
280
     0
281
     0
  0
ENDSEC
  0
SECTION
  2
TABLES
  0
TABLE
  2
VPORT
  5
8
330
0
100
AcDbSymbolTable
 70
     2
  0
VPORT
  5
2E6
330
8
100
AcDbSymbolTableRecord
100
AcDbViewportTableRecord
  2
*ACTIVE
 70
     0
 10
0.0
 20
0.0
 11
1.0
 21
1.0
 12
50.0
 22
302.0
 13
0.0
 23
0.0
 14
1.0
 24
1.0
 15
0.0
 25
0.0
 16
0.0
 26
0.0
 36
1.0
 17
0.0
 27
0.0
 37
0.0
 40
608.1526035805628
 41
2.078104993597951
 42
50.0
 43
0.0
 44
0.0
 50
0.0
 51
0.0
 71
     0
 72
   100
 73
     1
 74
     3
 75
     0
 76
     0
 77
     0
 78
     0
  0
ENDTAB
  0
TABLE
  2
LTYPE
  5
5
330
0
100
AcDbSymbolTable
 70
     1
  0
LTYPE
  5
13
330
5
100
AcDbSymbolTableRecord
100
AcDbLinetypeTableRecord
  2
BYBLOCK
 70
     0
  3

 72
    65
 73
     0
 40
0.0
  0
LTYPE
  5
14
330
5
100
AcDbSymbolTableRecord
100
AcDbLinetypeTableRecord
  2
BYLAYER
 70
     0
  3

 72
    65
 73
     0
 40
0.0
  0
LTYPE
  5
15
330
5
100
AcDbSymbolTableRecord
100
AcDbLinetypeTableRecord
  2
CONTINUOUS
 70
     0
  3
Solid line
 72
    65
 73
     0
 40
0.0
  0
ENDTAB
  0
TABLE
  2
LAYER
  5
2
330
0
100
AcDbSymbolTable
 70
     1
  0
LAYER
  5
10
330
2
100
AcDbSymbolTableRecord
100
AcDbLayerTableRecord
  2
0
 70
     0
 62
     7
  6
CONTINUOUS
  0
ENDTAB
  0
TABLE
  2
STYLE
  5
3
330
0
100
AcDbSymbolTable
 70
     1
  0
STYLE
  5
11
330
3
100
AcDbSymbolTableRecord
100
AcDbTextStyleTableRecord
  2
STANDARD
 70
     0
 40
0.0
 41
1.0
 50
0.0
 71
     0
 42
0.2
  3
txt
  4

  0
ENDTAB
  0
TABLE
  2
VIEW
  5
6
330
0
100
AcDbSymbolTable
 70
     0
  0
ENDTAB
  0
TABLE
  2
UCS
  5
7
330
0
100
AcDbSymbolTable
 70
     0
  0
ENDTAB
  0
TABLE
  2
APPID
  5
9
330
0
100
AcDbSymbolTable
 70
     1
  0
APPID
  5
12
330
9
100
AcDbSymbolTableRecord
100
AcDbRegAppTableRecord
  2
ACAD
 70
     0
  0
ENDTAB
  0
TABLE
  2
DIMSTYLE
  5
A
330
0
100
AcDbSymbolTable
 70
     1
  0
DIMSTYLE
105
2DB
330
A
100
AcDbSymbolTableRecord
100
AcDbDimStyleTableRecord
  2
STANDARD
 70
     0
  3

  4

  5

  6

  7

 40
1.0
 41
0.18
 42
0.0625
 43
0.38
 44
0.18
 45
0.0
 46
0.0
 47
0.0
 48
0.0
140
0.18
141
0.09
142
0.0
143
25.4
144
1.0
145
0.0
146
1.0
147
0.09
 71
     0
 72
     0
 73
     1
 74
     1
 75
     0
 76
     0
 77
     0
 78
     0
170
     0
171
     2
172
     0
173
     0
174
     0
175
     0
176
     0
177
     0
178
     0
270
     2
271
     4
272
     4
273
     2
274
     2
340
11
275
     0
280
     0
281
     0
282
     0
283
     1
284
     0
285
     0
286
     0
287
     3
288
     0
  0
ENDTAB
  0
TABLE
  2
BLOCK_RECORD
  5
1
330
0
100
AcDbSymbolTable
 70
     0
  0
BLOCK_RECORD
  5
1E
102
{ACAD_XDICTIONARY
360
2E9
102
}
330
1
100
AcDbSymbolTableRecord
100
AcDbBlockTableRecord
  2
*MODEL_SPACE
  0
BLOCK_RECORD
  5
1A
102
{ACAD_XDICTIONARY
360
2E7
102
}
330
1
100
AcDbSymbolTableRecord
100
AcDbBlockTableRecord
  2
*PAPER_SPACE
  0
ENDTAB
  0
ENDSEC
  0
SECTION
  2
BLOCKS
  0
BLOCK
  5
1F
330
1E
100
AcDbEntity
  8
0
100
AcDbBlockBegin
  2
*MODEL_SPACE
 70
     0
 10
0.0
 20
0.0
 30
0.0
  3
*MODEL_SPACE
  1

  0
ENDBLK
  5
20
330
1E
100
AcDbEntity
  8
0
100
AcDbBlockEnd
  0
BLOCK
  5
1B
330
1A
100
AcDbEntity
 67
     1
  8
0
100
AcDbBlockBegin
  2
*PAPER_SPACE
 70
     0
 10
0.0
 20
0.0
 30
0.0
  3
*PAPER_SPACE
  1

  0
ENDBLK
  5
1C
330
1A
100
AcDbEntity
 67
     1
  8
0
100
AcDbBlockEnd
  0
ENDSEC
  0
SECTION
  2
ENTITIES
  0
LINE
  5
22
330
1E
100
AcDbEntity
  8
0
100
AcDbLine
 10
23.0
 20
96.917
 30
0.0
 11
35.0
 21
96.917
 31
0.0
  0
LINE
  5
23
330
1E
100
AcDbEntity
  8
0
100
AcDbLine
 10
23.0
 20
96.917
 30
0.0
 11
35.0
 21
96.917
 31
0.0
  0
LINE
  5
24
330
1E
100
AcDbEntity
  8
0
100
AcDbLine
 10
23.0
 20
96.917
 30
0.0
 11
23.0
 21
131.9169999999999
 31
0.0
  0
LINE
  5
25
330
1E
100
AcDbEntity
  8
0
100
AcDbLine
 10
22.0
 20
140.917
 30
0.0
 11
23.368
 21
140.917
 31
0.0
  0
LINE
  5
26
330
1E
100
AcDbEntity
  8
0
100
AcDbLine
 10
22.0
 20
136.9169999999999
 30
0.0
 11
23.368
 21
136.9169999999999
 31
0.0
  0
LINE
  5
27
330
1E
100
AcDbEntity
  8
0
100
AcDbLine
 10
22.0
 20
136.9169999999999
 30
0.0
 11
22.0
 21
140.917
 31
0.0
  0
LINE
  5
28
330
1E
100
AcDbEntity
  8
0
100
AcDbLine
 10
23.0
 20
131.9169999999999
 30
0.0
 11
30.0
 21
131.9169999999999
 31
0.0
  0
LINE
  5
29
330
1E
100
AcDbEntity
  8
0
100
AcDbLine
 10
23.324
 20
124.221
 30
0.0
 11
24.188
 21
126.381
 31
0.0
  0
LINE
  5
2A
330
1E
100
AcDbEntity
  8
0
100
AcDbLine
 10
23.0
 20
121.917
 30
0.0
 11
23.324
 21
119.6129999999999
 31
0.0
  0
LINE
  5
2B
330
1E
100
AcDbEntity
  8
0
100
AcDbLine
 10
23.0
 20
121.917
 30
0.0
 11
23.324
 21
124.221
 31
0.0
  0
LINE
  5
2C
330
1E
100
AcDbEntity
  8
0
100
AcDbLine
 10
23.368
 20
140.917
 30
0.0
 11
27.016
 21
140.917
 31
0.0
  0
LINE
  5
2D
330
1E
100
AcDbEntity
  8
0
100
AcDbLine
 10
23.368
 20
136.9169999999999
 30
0.0
 11
27.016
 21
136.9169999999999
 31
0.0
  0
LINE
  5
2E
330
1E
100
AcDbEntity
  8
0
100
AcDbLine
 10
24.188
 20
126.381
 30
0.0
 11
25.628
 21
128.2889999999999
 31
0.0
  0
LINE
  5
2F
330
1E
100
AcDbEntity
  8
0
100
AcDbLine
 10
23.324
 20
119.6129999999999
 30
0.0
 11
24.188
 21
117.4529999999999
 31
0.0
  0
LINE
  5
30
330
1E
100
AcDbEntity
  8
0
100
AcDbLine
 10
24.188
 20
117.4529999999999
 30
0.0
 11
25.628
 21
115.545
 31
0.0
  0
LINE
  5
31
330
1E
100
AcDbEntity
  8
0
100
AcDbLine
 10
25.628
 20
128.2889999999999
 30
0.0
 11
27.536
 21
129.7289999999999
 31
0.0
  0
LINE
  5
32
330
1E
100
AcDbEntity
  8
0
100
AcDbLine
 10
25.628
 20
115.545
 30
0.0
 11
27.536
 21
114.105
 31
0.0
  0
LINE
  5
33
330
1E
100
AcDbEntity
  8
0
100
AcDbLine
 10
25.0
 20
152.917
 30
0.0
 11
25.0
 21
150.917
 31
0.0
  0
LINE
  5
34
330
1E
100
AcDbEntity
  8
0
100
AcDbLine
 10
25.0
 20
152.917
 30
0.0
 11
26.26
 21
152.917
 31
0.0
  0
LINE
  5
35
330
1E
100
AcDbEntity
  8
0
100
AcDbLine
 10
26.26
 20
152.917
 30
0.0
 11
29.62
 21
152.917
 31
0.0
  0
LINE
  5
36
330
1E
100
AcDbEntity
  8
0
100
AcDbLine
 10
25.0
 20
150.917
 30
0.0
 11
25.0
 21
152.917
 31
0.0
  0
LINE
  5
37
330
1E
100
AcDbEntity
  8
0
100
AcDbLine
 10
25.0
 20
150.917
 30
0.0
 11
26.26
 21
150.917
 31
0.0
  0
LINE
  5
38
330
1E
100
AcDbEntity
  8
0
100
AcDbLine
 10
26.26
 20
150.917
 30
0.0
 11
29.62
 21
150.917
 31
0.0
  0
LINE
  5
39
330
1E
100
AcDbEntity
  8
0
100
AcDbLine
 10
25.0
 20
154.917
 30
0.0
 11
25.0
 21
155.9169999999999
 31
0.0
  0
LINE
  5
3A
330
1E
100
AcDbEntity
  8
0
100
AcDbLine
 10
25.0
 20
154.917
 30
0.0
 11
26.3
 21
154.917
 31
0.0
  0
LINE
  5
3B
330
1E
100
AcDbEntity
  8
0
100
AcDbLine
 10
27.016
 20
140.917
 30
0.0
 11
33.09599999999999
 21
140.917
 31
0.0
  0
LINE
  5
3C
330
1E
100
AcDbEntity
  8
0
100
AcDbLine
 10
27.016
 20
136.9169999999999
 30
0.0
 11
30.0
 21
136.9169999999999
 31
0.0
  0
LINE
  5
3D
330
1E
100
AcDbEntity
  8
0
100
AcDbLine
 10
27.016
 20
136.9169999999999
 30
0.0
 11
33.09599999999999
 21
136.9169999999999
 31
0.0
  0
LINE
  5
3E
330
1E
100
AcDbEntity
  8
0
100
AcDbLine
 10
27.536
 20
129.7289999999999
 30
0.0
 11
29.69599999999999
 21
130.5929999999999
 31
0.0
  0
LINE
  5
3F
330
1E
100
AcDbEntity
  8
0
100
AcDbLine
 10
29.69599999999999
 20
130.5929999999999
 30
0.0
 11
30.0
 21
130.63575
 31
0.0
  0
LINE
  5
40
330
1E
100
AcDbEntity
  8
0
100
AcDbLine
 10
27.536
 20
114.105
 30
0.0
 11
29.69599999999999
 21
113.2409999999999
 31
0.0
  0
LINE
  5
41
330
1E
100
AcDbEntity
  8
0
100
AcDbLine
 10
30.0
 20
129.9169999999999
 30
0.0
 11
31.08
 21
129.9169999999999
 31
0.0
  0
LINE
  5
42
330
1E
100
AcDbEntity
  8
0
100
AcDbLine
 10
30.0
 20
129.9169999999999
 30
0.0
 11
30.0
 21
136.9169999999999
 31
0.0
  0
LINE
  5
43
330
1E
100
AcDbEntity
  8
0
100
AcDbLine
 10
30.0
 20
136.9169999999999
 30
0.0
 11
30.0
 21
129.9169999999999
 31
0.0
  0
LINE
  5
44
330
1E
100
AcDbEntity
  8
0
100
AcDbLine
 10
31.08
 20
129.9169999999999
 30
0.0
 11
33.96
 21
129.9169999999999
 31
0.0
  0
LINE
  5
45
330
1E
100
AcDbEntity
  8
0
100
AcDbLine
 10
29.69599999999999
 20
113.2409999999999
 30
0.0
 11
32.0
 21
112.917
 31
0.0
  0
LINE
  5
46
330
1E
100
AcDbEntity
  8
0
100
AcDbLine
 10
32.0
 20
112.917
 30
0.0
 11
34.1838107098381
 21
113.224098381071
 31
0.0
  0
LINE
  5
47
330
1E
100
AcDbEntity
  8
0
100
AcDbLine
 10
33.0
 20
61.9555
 30
0.0
 11
33.648
 21
62.917
 31
0.0
  0
LINE
  5
48
330
1E
100
AcDbEntity
  8
0
100
AcDbLine
 10
33.0
 20
38.879
 30
0.0
 11
33.0
 21
61.9555
 31
0.0
  0
LINE
  5
49
330
1E
100
AcDbEntity
  8
0
100
AcDbLine
 10
33.0
 20
38.879
 30
0.0
 11
33.648
 21
37.917
 31
0.0
  0
LINE
  5
4A
330
1E
100
AcDbEntity
  8
0
100
AcDbLine
 10
33.0
 20
150.917
 30
0.0
 11
33.0
 21
140.917
 31
0.0
  0
LINE
  5
4B
330
1E
100
AcDbEntity
  8
0
100
AcDbLine
 10
33.0
 20
150.917
 30
0.0
 11
33.972
 21
150.917
 31
0.0
  0
LINE
  5
4C
330
1E
100
AcDbEntity
  8
0
100
AcDbLine
 10
33.09599999999999
 20
140.917
 30
0.0
 11
41.152
 21
140.917
 31
0.0
  0
LINE
  5
4D
330
1E
100
AcDbEntity
  8
0
100
AcDbLine
 10
33.09599999999999
 20
136.9169999999999
 30
0.0
 11
41.152
 21
136.9169999999999
 31
0.0
  0
LINE
  5
4E
330
1E
100
AcDbEntity
  8
0
100
AcDbLine
 10
33.96
 20
129.9169999999999
 30
0.0
 11
38.75999999999999
 21
129.9169999999999
 31
0.0
  0
LINE
  5
4F
330
1E
100
AcDbEntity
  8
0
100
AcDbLine
 10
33.96
 20
129.9169999999999
 30
0.0
 11
35.0
 21
129.9169999999999
 31
0.0
  0
LINE
  5
50
330
1E
100
AcDbEntity
  8
0
100
AcDbLine
 10
33.648
 20
62.917
 30
0.0
 11
34.61999999999999
 21
62.917
 31
0.0
  0
LINE
  5
53
330
1E
100
AcDbEntity
  8
0
100
AcDbLine
 10
33.648
 20
37.917
 30
0.0
 11
34.61999999999999
 21
37.917
 31
0.0
  0
LINE
  5
54
330
1E
100
AcDbEntity
  8
0
100
AcDbLine
 10
34.61999999999999
 20
37.917
 30
0.0
 11
35.0
 21
37.917
 31
0.0
  0
LINE
  5
55
330
1E
100
AcDbEntity
  8
0
100
AcDbLine
 10
35.0
 20
17.917
 30
0.0
 11
35.89999999999999
 21
13.392
 31
0.0
  0
LINE
  5
56
330
1E
100
AcDbEntity
  8
0
100
AcDbLine
 10
35.0
 20
17.917
 30
0.0
 11
35.0
 21
52.5652
 31
0.0
  0
LINE
  5
57
330
1E
100
AcDbEntity
  8
0
100
AcDbLine
 10
35.0
 20
17.917
 30
0.0
 11
35.89999999999999
 21
22.44199999999999
 31
0.0
  0
LINE
  5
58
330
1E
100
AcDbEntity
  8
0
100
AcDbLine
 10
34.0
 20
53.2723
 30
0.0
 11
34.0
 21
52.5652
 31
0.0
  0
LINE
  5
59
330
1E
100
AcDbEntity
  8
0
100
AcDbLine
 10
34.0
 20
53.2723
 30
0.0
 11
34.936
 21
57.9788
 31
0.0
  0
LINE
  5
5A
330
1E
100
AcDbEntity
  8
0
100
AcDbLine
 10
35.0
 20
52.5652
 30
0.0
 11
35.89999999999999
 21
57.0907
 31
0.0
  0
LINE
  5
5B
330
1E
100
AcDbEntity
  8
0
100
AcDbLine
 10
35.0
 20
52.5652
 30
0.0
 11
35.0
 21
17.917
 31
0.0
  0
LINE
  5
5C
330
1E
100
AcDbEntity
  8
0
100
AcDbLine
 10
34.0
 20
84.91699999999999
 30
0.0
 11
34.0
 21
86.917
 31
0.0
  0
LINE
  5
5D
330
1E
100
AcDbEntity
  8
0
100
AcDbLine
 10
34.0
 20
84.91699999999999
 30
0.0
 11
34.936
 21
84.91699999999999
 31
0.0
  0
LINE
  5
5E
330
1E
100
AcDbEntity
  8
0
100
AcDbLine
 10
34.0
 20
84.91699999999999
 30
0.0
 11
34.5
 21
84.91699999999999
 31
0.0
  0
LINE
  5
5F
330
1E
100
AcDbEntity
  8
0
100
AcDbLine
 10
34.0
 20
86.917
 30
0.0
 11
34.936
 21
86.917
 31
0.0
  0
LINE
  5
60
330
1E
100
AcDbEntity
  8
0
100
AcDbLine
 10
34.0
 20
86.917
 30
0.0
 11
34.0
 21
84.91699999999999
 31
0.0
  0
LINE
  5
61
330
1E
100
AcDbEntity
  8
0
100
AcDbLine
 10
34.0
 20
90.91700000000001
 30
0.0
 11
34.936
 21
90.91700000000001
 31
0.0
  0
LINE
  5
62
330
1E
100
AcDbEntity
  8
0
100
AcDbLine
 10
34.0
 20
90.91700000000001
 30
0.0
 11
34.0
 21
88.917
 31
0.0
  0
LINE
  5
63
330
1E
100
AcDbEntity
  8
0
100
AcDbLine
 10
34.61999999999999
 20
62.917
 30
0.0
 11
37.21199999999999
 21
62.917
 31
0.0
  0
LINE
  5
64
330
1E
100
AcDbEntity
  8
0
100
AcDbLine
 10
34.5
 20
70.917
 30
0.0
 11
34.5
 21
84.91699999999999
 31
0.0
  0
LINE
  5
65
330
1E
100
AcDbEntity
  8
0
100
AcDbLine
 10
34.5
 20
70.917
 30
0.0
 11
37.5
 21
70.917
 31
0.0
  0
LINE
  5
66
330
1E
100
AcDbEntity
  8
0
100
AcDbLine
 10
34.5
 20
84.91699999999999
 30
0.0
 11
34.5
 21
74.917
 31
0.0
  0
LINE
  5
67
330
1E
100
AcDbEntity
  8
0
100
AcDbLine
 10
34.5
 20
84.91699999999999
 30
0.0
 11
37.0
 21
84.91699999999999
 31
0.0
  0
LINE
  5
68
330
1E
100
AcDbEntity
  8
0
100
AcDbLine
 10
34.5
 20
84.91699999999999
 30
0.0
 11
34.5
 21
70.917
 31
0.0
  0
LINE
  5
69
330
1E
100
AcDbEntity
  8
0
100
AcDbLine
 10
34.5
 20
88.917
 30
0.0
 11
34.5
 21
86.917
 31
0.0
  0
LINE
  5
6A
330
1E
100
AcDbEntity
  8
0
100
AcDbLine
 10
34.5
 20
88.917
 30
0.0
 11
35.08
 21
88.917
 31
0.0
  0
LINE
  5
6B
330
1E
100
AcDbEntity
  8
0
100
AcDbLine
 10
34.936
 20
84.91699999999999
 30
0.0
 11
37.43199999999999
 21
84.91699999999999
 31
0.0
  0
LINE
  5
6C
330
1E
100
AcDbEntity
  8
0
100
AcDbLine
 10
34.936
 20
86.917
 30
0.0
 11
37.43199999999999
 21
86.917
 31
0.0
  0
LINE
  5
6D
330
1E
100
AcDbEntity
  8
0
100
AcDbLine
 10
34.5
 20
86.917
 30
0.0
 11
34.5
 21
88.917
 31
0.0
  0
LINE
  5
6E
330
1E
100
AcDbEntity
  8
0
100
AcDbLine
 10
34.5
 20
74.917
 30
0.0
 11
34.5
 21
84.91699999999999
 31
0.0
  0
LINE
  5
6F
330
1E
100
AcDbEntity
  8
0
100
AcDbLine
 10
34.936
 20
88.917
 30
0.0
 11
37.43199999999999
 21
88.917
 31
0.0
  0
LINE
  5
70
330
1E
100
AcDbEntity
  8
0
100
AcDbLine
 10
34.936
 20
90.91700000000001
 30
0.0
 11
37.43199999999999
 21
90.91700000000001
 31
0.0
  0
LINE
  5
71
330
1E
100
AcDbEntity
  8
0
100
AcDbLine
 10
34.0
 20
88.917
 30
0.0
 11
34.0
 21
90.91700000000001
 31
0.0
  0
LINE
  5
72
330
1E
100
AcDbEntity
  8
0
100
AcDbLine
 10
34.0
 20
88.917
 30
0.0
 11
34.5
 21
88.917
 31
0.0
  0
LINE
  5
73
330
1E
100
AcDbEntity
  8
0
100
AcDbLine
 10
34.0
 20
88.917
 30
0.0
 11
34.936
 21
88.917
 31
0.0
  0
LINE
  5
74
330
1E
100
AcDbEntity
  8
0
100
AcDbLine
 10
34.5
 20
110.9169999999999
 30
0.0
 11
37.5
 21
110.9169999999999
 31
0.0
  0
LINE
  5
75
330
1E
100
AcDbEntity
  8
0
100
AcDbLine
 10
34.5
 20
110.9169999999999
 30
0.0
 11
37.140625
 21
110.9169999999999
 31
0.0
  0
LINE
  5
76
330
1E
100
AcDbEntity
  8
0
100
AcDbLine
 10
34.5
 20
110.9169999999999
 30
0.0
 11
34.5
 21
112.917
 31
0.0
  0
LINE
  5
77
330
1E
100
AcDbEntity
  8
0
100
AcDbLine
 10
34.936
 20
105.261
 30
0.0
 11
37.43199999999999
 21
99.021
 31
0.0
  0
LINE
  5
78
330
1E
100
AcDbEntity
  8
0
100
AcDbLine
 10
34.5
 20
112.917
 30
0.0
 11
34.5
 21
110.9169999999999
 31
0.0
  0
LINE
  5
79
330
1E
100
AcDbEntity
  8
0
100
AcDbLine
 10
34.5
 20
112.917
 30
0.0
 11
37.5
 21
112.917
 31
0.0
  0
LINE
  5
7A
330
1E
100
AcDbEntity
  8
0
100
AcDbLine
 10
34.936
 20
118.5729999999999
 30
0.0
 11
37.43199999999999
 21
124.8129999999999
 31
0.0
  0
LINE
  5
7B
330
1E
100
AcDbEntity
  8
0
100
AcDbLine
 10
34.0
 20
111.9169999999999
 30
0.0
 11
34.936
 21
105.261
 31
0.0
  0
LINE
  5
7C
330
1E
100
AcDbEntity
  8
0
100
AcDbLine
 10
34.0
 20
111.9169999999999
 30
0.0
 11
34.936
 21
118.5729999999999
 31
0.0
  0
LINE
  5
7D
330
1E
100
AcDbEntity
  8
0
100
AcDbLine
 10
35.0
 20
90.91700000000001
 30
0.0
 11
35.0
 21
105.1009999999999
 31
0.0
  0
LINE
  5
7E
330
1E
100
AcDbEntity
  8
0
100
AcDbLine
 10
35.0
 20
118.733
 30
0.0
 11
35.0
 21
129.9169999999999
 31
0.0
  0
LINE
  5
7F
330
1E
100
AcDbEntity
  8
0
100
AcDbLine
 10
35.0
 20
105.1009999999999
 30
0.0
 11
35.0
 21
90.91700000000001
 31
0.0
  0
LINE
  5
80
330
1E
100
AcDbEntity
  8
0
100
AcDbLine
 10
35.0
 20
129.9169999999999
 30
0.0
 11
35.89999999999999
 21
129.9169999999999
 31
0.0
  0
LINE
  5
81
330
1E
100
AcDbEntity
  8
0
100
AcDbLine
 10
35.0
 20
129.9169999999999
 30
0.0
 11
35.0
 21
118.733
 31
0.0
  0
LINE
  5
82
330
1E
100
AcDbEntity
  8
0
100
AcDbLine
 10
34.936
 20
57.9788
 30
0.0
 11
37.43199999999999
 21
62.39119999999999
 31
0.0
  0
LINE
  5
83
330
1E
100
AcDbEntity
  8
0
100
AcDbLine
 10
34.936
 20
57.2717
 30
0.0
 11
37.43199999999999
 21
61.6841
 31
0.0
  0
LINE
  5
84
330
1E
100
AcDbEntity
  8
0
100
AcDbLine
 10
34.0
 20
52.5652
 30
0.0
 11
34.936
 21
47.8587
 31
0.0
  0
LINE
  5
85
330
1E
100
AcDbEntity
  8
0
100
AcDbLine
 10
34.0
 20
52.5652
 30
0.0
 11
34.0
 21
53.2723
 31
0.0
  0
LINE
  5
86
330
1E
100
AcDbEntity
  8
0
100
AcDbLine
 10
34.0
 20
52.5652
 30
0.0
 11
34.936
 21
57.2717
 31
0.0
  0
LINE
  5
87
330
1E
100
AcDbEntity
  8
0
100
AcDbLine
 10
34.936
 20
47.8587
 30
0.0
 11
35.0
 21
47.7455641025641
 31
0.0
  0
LINE
  5
88
330
1E
100
AcDbEntity
  8
0
100
AcDbLine
 10
33.972
 20
150.917
 30
0.0
 11
36.564
 21
150.917
 31
0.0
  0
LINE
  5
89
330
1E
100
AcDbEntity
  8
0
100
AcDbLine
 10
35.22
 20
150.917
 30
0.0
 11
42.64
 21
150.917
 31
0.0
  0
LINE
  5
8A
330
1E
100
AcDbEntity
  8
0
100
AcDbLine
 10
33.0
 20
140.917
 30
0.0
 11
33.0
 21
150.917
 31
0.0
  0
LINE
  5
8B
330
1E
100
AcDbEntity
  8
0
100
AcDbLine
 10
29.62
 20
152.917
 30
0.0
 11
35.22
 21
152.917
 31
0.0
  0
LINE
  5
8C
330
1E
100
AcDbEntity
  8
0
100
AcDbLine
 10
35.22
 20
152.917
 30
0.0
 11
42.64
 21
152.917
 31
0.0
  0
LINE
  5
8D
330
1E
100
AcDbEntity
  8
0
100
AcDbLine
 10
29.62
 20
150.917
 30
0.0
 11
33.0
 21
150.917
 31
0.0
  0
LINE
  5
8E
330
1E
100
AcDbEntity
  8
0
100
AcDbLine
 10
29.62
 20
150.917
 30
0.0
 11
35.22
 21
150.917
 31
0.0
  0
LINE
  5
8F
330
1E
100
AcDbEntity
  8
0
100
AcDbLine
 10
26.3
 20
154.917
 30
0.0
 11
29.7
 21
154.917
 31
0.0
  0
LINE
  5
90
330
1E
100
AcDbEntity
  8
0
100
AcDbLine
 10
29.7
 20
154.917
 30
0.0
 11
35.29999999999999
 21
154.917
 31
0.0
  0
LINE
  5
91
330
1E
100
AcDbEntity
  8
0
100
AcDbLine
 10
35.89999999999999
 20
57.0907
 30
0.0
 11
38.3
 21
61.3334
 31
0.0
  0
LINE
  5
92
330
1E
100
AcDbEntity
  8
0
100
AcDbLine
 10
35.89999999999999
 20
129.9169999999999
 30
0.0
 11
38.3
 21
129.9169999999999
 31
0.0
  0
LINE
  5
94
330
1E
100
AcDbEntity
  8
0
100
AcDbLine
 10
35.89999999999999
 20
22.44199999999999
 30
0.0
 11
38.3
 21
26.68499999999999
 31
0.0
  0
LINE
  5
95
330
1E
100
AcDbEntity
  8
0
100
AcDbLine
 10
35.89999999999999
 20
13.392
 30
0.0
 11
38.3
 21
9.14899999999996
 31
0.0
  0
LINE
  5
96
330
1E
100
AcDbEntity
  8
0
100
AcDbLine
 10
37.21199999999999
 20
62.917
 30
0.0
 11
37.9931986863711
 21
62.917
 31
0.0
  0
LINE
  5
97
330
1E
100
AcDbEntity
  8
0
100
AcDbLine
 10
37.43199999999999
 20
62.39119999999999
 30
0.0
 11
41.592
 21
66.28879999999999
 31
0.0
  0
LINE
  5
98
330
1E
100
AcDbEntity
  8
0
100
AcDbLine
 10
38.3
 20
61.3334
 30
0.0
 11
42.29999999999999
 21
65.081
 31
0.0
  0
LINE
  5
99
330
1E
100
AcDbEntity
  8
0
100
AcDbLine
 10
38.3
 20
26.68499999999999
 30
0.0
 11
42.29999999999999
 21
30.433
 31
0.0
  0
LINE
  5
9A
330
1E
100
AcDbEntity
  8
0
100
AcDbLine
 10
39.3429
 20
21.796
 30
0.0
 11
41.39999999999999
 21
25.433
 31
0.0
  0
LINE
  5
9B
330
1E
100
AcDbEntity
  8
0
100
AcDbLine
 10
38.57139999999999
 20
17.917
 30
0.0
 11
39.3429
 21
14.038
 31
0.0
  0
LINE
  5
9C
330
1E
100
AcDbEntity
  8
0
100
AcDbLine
 10
38.57139999999999
 20
17.917
 30
0.0
 11
39.3429
 21
21.796
 31
0.0
  0
LINE
  5
9D
330
1E
100
AcDbEntity
  8
0
100
AcDbLine
 10
41.39999999999999
 20
25.433
 30
0.0
 11
44.8286
 21
28.64499999999999
 31
0.0
  0
LINE
  5
9E
330
1E
100
AcDbEntity
  8
0
100
AcDbLine
 10
40.0
 20
64.7972184615384
 30
0.0
 11
40.0
 21
70.917
 31
0.0
  0
LINE
  5
9F
330
1E
100
AcDbEntity
  8
0
100
AcDbLine
 10
40.0
 20
64.7972184615384
 30
0.0
 11
40.0
 21
102.8372999999999
 31
0.0
  0
LINE
  5
A0
330
1E
100
AcDbEntity
  8
0
100
AcDbLine
 10
40.0
 20
64.7972184615384
 30
0.0
 11
40.0
 21
70.917
 31
0.0
  0
LINE
  5
A1
330
1E
100
AcDbEntity
  8
0
100
AcDbLine
 10
42.29999999999999
 20
65.081
 30
0.0
 11
47.6
 21
67.90939999999989
 31
0.0
  0
LINE
  5
A2
330
1E
100
AcDbEntity
  8
0
100
AcDbLine
 10
42.29999999999999
 20
30.433
 30
0.0
 11
47.6
 21
33.26099999999999
 31
0.0
  0
LINE
  5
A3
330
1E
100
AcDbEntity
  8
0
100
AcDbLine
 10
39.3429
 20
14.038
 30
0.0
 11
41.39999999999999
 21
10.401
 31
0.0
  0
LINE
  5
A4
330
1E
100
AcDbEntity
  8
0
100
AcDbLine
 10
41.39999999999999
 20
10.401
 30
0.0
 11
44.8286
 21
7.18899999999995
 31
0.0
  0
LINE
  5
A5
330
1E
100
AcDbEntity
  8
0
100
AcDbLine
 10
38.3
 20
9.14899999999996
 30
0.0
 11
42.29999999999999
 21
5.40099999999997
 31
0.0
  0
LINE
  5
A6
330
1E
100
AcDbEntity
  8
0
100
AcDbLine
 10
42.29999999999999
 20
5.40099999999997
 30
0.0
 11
47.6
 21
2.57299999999997
 31
0.0
  0
LINE
  5
A7
330
1E
100
AcDbEntity
  8
0
100
AcDbLine
 10
37.43199999999999
 20
61.6841
 30
0.0
 11
41.592
 21
65.5817
 31
0.0
  0
LINE
  5
A8
330
1E
100
AcDbEntity
  8
0
100
AcDbLine
 10
37.0
 20
70.917
 30
0.0
 11
37.828
 21
70.917
 31
0.0
  0
LINE
  5
A9
330
1E
100
AcDbEntity
  8
0
100
AcDbLine
 10
37.0
 20
84.91699999999999
 30
0.0
 11
37.828
 21
84.91699999999999
 31
0.0
  0
LINE
  5
AA
330
1E
100
AcDbEntity
  8
0
100
AcDbLine
 10
37.43199999999999
 20
84.91699999999999
 30
0.0
 11
40.0
 21
84.91699999999999
 31
0.0
  0
LINE
  5
AB
330
1E
100
AcDbEntity
  8
0
100
AcDbLine
 10
37.43199999999999
 20
86.917
 30
0.0
 11
40.0
 21
86.917
 31
0.0
  0
LINE
  5
AC
330
1E
100
AcDbEntity
  8
0
100
AcDbLine
 10
37.43199999999999
 20
88.917
 30
0.0
 11
40.0
 21
88.917
 31
0.0
  0
LINE
  5
AD
330
1E
100
AcDbEntity
  8
0
100
AcDbLine
 10
40.0
 20
70.917
 30
0.0
 11
40.0
 21
64.7972184615384
 31
0.0
  0
LINE
  5
AE
330
1E
100
AcDbEntity
  8
0
100
AcDbLine
 10
37.828
 20
70.917
 30
0.0
 11
40.0
 21
70.917
 31
0.0
  0
LINE
  5
AF
330
1E
100
AcDbEntity
  8
0
100
AcDbLine
 10
40.0
 20
95.6184
 30
0.0
 11
40.0
 21
88.9404
 31
0.0
  0
LINE
  5
B0
330
1E
100
AcDbEntity
  8
0
100
AcDbLine
 10
40.0
 20
88.9404
 30
0.0
 11
40.0
 21
86.917
 31
0.0
  0
LINE
  5
B1
330
1E
100
AcDbEntity
  8
0
100
AcDbLine
 10
40.0
 20
88.9404
 30
0.0
 11
40.0
 21
95.6184
 31
0.0
  0
LINE
  5
B2
330
1E
100
AcDbEntity
  8
0
100
AcDbLine
 10
40.0
 20
86.917
 30
0.0
 11
40.0
 21
88.9404
 31
0.0
  0
LINE
  5
B3
330
1E
100
AcDbEntity
  8
0
100
AcDbLine
 10
37.828
 20
84.91699999999999
 30
0.0
 11
40.0
 21
84.91699999999999
 31
0.0
  0
LINE
  5
B4
330
1E
100
AcDbEntity
  8
0
100
AcDbLine
 10
37.43199999999999
 20
90.91700000000001
 30
0.0
 11
40.0
 21
90.91700000000001
 31
0.0
  0
LINE
  5
B5
330
1E
100
AcDbEntity
  8
0
100
AcDbLine
 10
37.140625
 20
112.917
 30
0.0
 11
37.828
 21
117.805
 31
0.0
  0
LINE
  5
B8
330
1E
100
AcDbEntity
  8
0
100
AcDbLine
 10
37.140625
 20
110.9169999999999
 30
0.0
 11
37.828
 21
106.0289999999999
 31
0.0
  0
LINE
  5
B9
330
1E
100
AcDbEntity
  8
0
100
AcDbLine
 10
40.0
 20
102.8372999999999
 30
0.0
 11
40.0
 21
107.7638
 31
0.0
  0
LINE
  5
BA
330
1E
100
AcDbEntity
  8
0
100
AcDbLine
 10
40.0
 20
102.8372999999999
 30
0.0
 11
40.0
 21
64.7972184615384
 31
0.0
  0
LINE
  5
BB
330
1E
100
AcDbEntity
  8
0
100
AcDbLine
 10
37.5
 20
110.9169999999999
 30
0.0
 11
37.5
 21
112.917
 31
0.0
  0
LINE
  5
BC
330
1E
100
AcDbEntity
  8
0
100
AcDbLine
 10
37.5
 20
112.917
 30
0.0
 11
37.5
 21
110.9169999999999
 31
0.0
  0
LINE
  5
BD
330
1E
100
AcDbEntity
  8
0
100
AcDbLine
 10
40.0
 20
111.9169999999999
 30
0.0
 11
40.0
 21
110.8606999999999
 31
0.0
  0
LINE
  5
BE
330
1E
100
AcDbEntity
  8
0
100
AcDbLine
 10
40.0
 20
111.9169999999999
 30
0.0
 11
40.72
 21
117.037
 31
0.0
  0
LINE
  5
BF
330
1E
100
AcDbEntity
  8
0
100
AcDbLine
 10
40.0
 20
107.7638
 30
0.0
 11
40.0
 21
110.8606999999999
 31
0.0
  0
LINE
  5
C0
330
1E
100
AcDbEntity
  8
0
100
AcDbLine
 10
40.0
 20
107.7638
 30
0.0
 11
40.0
 21
102.8372999999999
 31
0.0
  0
LINE
  5
C1
330
1E
100
AcDbEntity
  8
0
100
AcDbLine
 10
40.72
 20
117.037
 30
0.0
 11
42.64
 21
121.8369999999999
 31
0.0
  0
LINE
  5
C2
330
1E
100
AcDbEntity
  8
0
100
AcDbLine
 10
40.0
 20
110.8606999999999
 30
0.0
 11
40.0
 21
107.7638
 31
0.0
  0
LINE
  5
C3
330
1E
100
AcDbEntity
  8
0
100
AcDbLine
 10
40.0
 20
110.8606999999999
 30
0.0
 11
40.0
 21
111.9169999999999
 31
0.0
  0
LINE
  5
C4
330
1E
100
AcDbEntity
  8
0
100
AcDbLine
 10
41.152
 20
140.917
 30
0.0
 11
50.272
 21
140.917
 31
0.0
  0
LINE
  5
C5
330
1E
100
AcDbEntity
  8
0
100
AcDbLine
 10
41.152
 20
136.9169999999999
 30
0.0
 11
50.272
 21
136.9169999999999
 31
0.0
  0
LINE
  5
C6
330
1E
100
AcDbEntity
  8
0
100
AcDbLine
 10
38.75999999999999
 20
129.9169999999999
 30
0.0
 11
41.2840754716981
 21
129.9169999999999
 31
0.0
  0
LINE
  5
C7
330
1E
100
AcDbEntity
  8
0
100
AcDbLine
 10
38.3
 20
129.9169999999999
 30
0.0
 11
41.2840754716981
 21
129.9169999999999
 31
0.0
  0
LINE
  5
C8
330
1E
100
AcDbEntity
  8
0
100
AcDbLine
 10
40.036
 20
123.3249999999999
 30
0.0
 11
43.71599999999999
 21
128.2009999999999
 31
0.0
  0
LINE
  5
C9
330
1E
100
AcDbEntity
  8
0
100
AcDbLine
 10
37.828
 20
117.805
 30
0.0
 11
40.036
 21
123.3249999999999
 31
0.0
  0
LINE
  5
CA
330
1E
100
AcDbEntity
  8
0
100
AcDbLine
 10
37.828
 20
106.0289999999999
 30
0.0
 11
40.0
 21
100.5989999999999
 31
0.0
  0
LINE
  5
CB
330
1E
100
AcDbEntity
  8
0
100
AcDbLine
 10
37.43199999999999
 20
124.8129999999999
 30
0.0
 11
41.592
 21
130.325
 31
0.0
  0
LINE
  5
CC
330
1E
100
AcDbEntity
  8
0
100
AcDbLine
 10
37.43199999999999
 20
99.021
 30
0.0
 11
40.0
 21
95.6184
 31
0.0
  0
LINE
  5
CD
330
1E
100
AcDbEntity
  8
0
100
AcDbLine
 10
42.64
 20
121.8369999999999
 30
0.0
 11
45.84
 21
126.077
 31
0.0
  0
LINE
  5
CE
330
1E
100
AcDbEntity
  8
0
100
AcDbLine
 10
41.592
 20
130.325
 30
0.0
 11
47.10399999999999
 21
134.485
 31
0.0
  0
LINE
  5
CF
330
1E
100
AcDbEntity
  8
0
100
AcDbLine
 10
41.592
 20
66.28879999999999
 30
0.0
 11
47.10399999999999
 21
69.2303
 31
0.0
  0
LINE
  5
D0
330
1E
100
AcDbEntity
  8
0
100
AcDbLine
 10
41.592
 20
65.5817
 30
0.0
 11
47.10399999999999
 21
68.5232
 31
0.0
  0
LINE
  5
D1
330
1E
100
AcDbEntity
  8
0
100
AcDbLine
 10
36.564
 20
150.917
 30
0.0
 11
40.884
 21
150.917
 31
0.0
  0
LINE
  5
D2
330
1E
100
AcDbEntity
  8
0
100
AcDbLine
 10
40.884
 20
150.917
 30
0.0
 11
46.608
 21
150.917
 31
0.0
  0
LINE
  5
D3
330
1E
100
AcDbEntity
  8
0
100
AcDbLine
 10
44.8286
 20
28.64499999999999
 30
0.0
 11
49.3714
 21
31.069
 31
0.0
  0
LINE
  5
D4
330
1E
100
AcDbEntity
  8
0
100
AcDbLine
 10
44.8286
 20
7.18899999999995
 30
0.0
 11
49.3714
 21
4.764999999999949
 31
0.0
  0
LINE
  5
D5
330
1E
100
AcDbEntity
  8
0
100
AcDbLine
 10
45.84
 20
126.077
 30
0.0
 11
50.08
 21
129.277
 31
0.0
  0
LINE
  5
D6
330
1E
100
AcDbEntity
  8
0
100
AcDbLine
 10
46.38399999999999
 20
133.5005999999999
 30
0.0
 11
48.11600000000001
 21
134.5005999999999
 31
0.0
  0
LINE
  5
D7
330
1E
100
AcDbEntity
  8
0
100
AcDbLine
 10
46.38399999999999
 20
133.5005999999999
 30
0.0
 11
47.88399999999999
 21
130.9026
 31
0.0
  0
LINE
  5
D8
330
1E
100
AcDbEntity
  8
0
100
AcDbLine
 10
43.71599999999999
 20
128.2009999999999
 30
0.0
 11
47.7054270539318
 21
131.2118883425899
 31
0.0
  0
LINE
  5
DA
330
1E
100
AcDbEntity
  8
0
100
AcDbLine
 10
47.10399999999999
 20
134.485
 30
0.0
 11
53.34399999999999
 21
136.9809999999999
 31
0.0
  0
LINE
  5
DB
330
1E
100
AcDbEntity
  8
0
100
AcDbLine
 10
47.10399999999999
 20
69.2303
 30
0.0
 11
53.34399999999999
 21
70.9953
 31
0.0
  0
LINE
  5
DC
330
1E
100
AcDbEntity
  8
0
100
AcDbLine
 10
49.3714
 20
31.069
 30
0.0
 11
54.5143
 21
32.524
 31
0.0
  0
LINE
  5
DD
330
1E
100
AcDbEntity
  8
0
100
AcDbLine
 10
47.88399999999999
 20
130.9026
 30
0.0
 11
49.616
 21
131.9026
 31
0.0
  0
LINE
  5
DE
330
1E
100
AcDbEntity
  8
0
100
AcDbLine
 10
48.11600000000001
 20
134.5005999999999
 30
0.0
 11
49.616
 21
131.9026
 31
0.0
  0
LINE
  5
DF
330
1E
100
AcDbEntity
  8
0
100
AcDbLine
 10
48.11600000000001
 20
134.5005999999999
 30
0.0
 11
49.4340112570356
 21
132.217804502814
 31
0.0
  0
LINE
  5
E0
330
1E
100
AcDbEntity
  8
0
100
AcDbLine
 10
49.43401125703548
 20
132.2178045028141
 30
0.0
 11
54.112
 21
134.0889999999999
 31
0.0
  0
LINE
  5
E1
330
1E
100
AcDbEntity
  8
0
100
AcDbLine
 10
47.6
 20
67.90939999999989
 30
0.0
 11
53.6
 21
69.6065
 31
0.0
  0
LINE
  5
E2
330
1E
100
AcDbEntity
  8
0
100
AcDbLine
 10
47.6
 20
33.26099999999999
 30
0.0
 11
53.6
 21
34.958
 31
0.0
  0
LINE
  5
E3
330
1E
100
AcDbEntity
  8
0
100
AcDbLine
 10
50.272
 20
140.917
 30
0.0
 11
60.0
 21
140.917
 31
0.0
  0
LINE
  5
E4
330
1E
100
AcDbEntity
  8
0
100
AcDbLine
 10
50.272
 20
136.9169999999999
 30
0.0
 11
53.184
 21
136.9169999999999
 31
0.0
  0
LINE
  5
E5
330
1E
100
AcDbEntity
  8
0
100
AcDbLine
 10
49.3714
 20
4.764999999999949
 30
0.0
 11
54.5143
 21
3.30999999999996
 31
0.0
  0
LINE
  5
E6
330
1E
100
AcDbEntity
  8
0
100
AcDbLine
 10
47.6
 20
2.57299999999997
 30
0.0
 11
53.6
 21
0.8759999999999658
 31
0.0
  0
LINE
  5
E7
330
1E
100
AcDbEntity
  8
0
100
AcDbLine
 10
47.6
 20
2.57299999999997
 30
0.0
 11
53.6
 21
0.8759999999999658
 31
0.0
  0
LINE
  5
E8
330
1E
100
AcDbEntity
  8
0
100
AcDbLine
 10
47.10399999999999
 20
68.5232
 30
0.0
 11
53.34399999999999
 21
70.2882
 31
0.0
  0
LINE
  5
E9
330
1E
100
AcDbEntity
  8
0
100
AcDbLine
 10
46.608
 20
150.917
 30
0.0
 11
53.088
 21
150.917
 31
0.0
  0
LINE
  5
EA
330
1E
100
AcDbEntity
  8
0
100
AcDbLine
 10
42.64
 20
150.917
 30
0.0
 11
51.04
 21
150.917
 31
0.0
  0
LINE
  5
EB
330
1E
100
AcDbEntity
  8
0
100
AcDbLine
 10
40.0
 20
152.917
 30
0.0
 11
40.0
 21
154.917
 31
0.0
  0
LINE
  5
EC
330
1E
100
AcDbEntity
  8
0
100
AcDbLine
 10
42.64
 20
152.917
 30
0.0
 11
51.04
 21
152.917
 31
0.0
  0
LINE
  5
ED
330
1E
100
AcDbEntity
  8
0
100
AcDbLine
 10
51.04
 20
152.917
 30
0.0
 11
60.0
 21
152.917
 31
0.0
  0
LINE
  5
EE
330
1E
100
AcDbEntity
  8
0
100
AcDbLine
 10
51.04
 20
150.917
 30
0.0
 11
60.0
 21
150.917
 31
0.0
  0
LINE
  5
EF
330
1E
100
AcDbEntity
  8
0
100
AcDbLine
 10
35.29999999999999
 20
154.917
 30
0.0
 11
42.6
 21
154.917
 31
0.0
  0
LINE
  5
F0
330
1E
100
AcDbEntity
  8
0
100
AcDbLine
 10
22.5
 20
517.1569999999999
 30
0.0
 11
22.5
 21
517.8519999999999
 31
0.0
  0
LINE
  5
F1
330
1E
100
AcDbEntity
  8
0
100
AcDbLine
 10
22.5
 20
517.1569999999999
 30
0.0
 11
32.4
 21
512.3949999999999
 31
0.0
  0
LINE
  5
F2
330
1E
100
AcDbEntity
  8
0
100
AcDbLine
 10
22.5
 20
517.8519999999999
 30
0.0
 11
23.3772908569824
 21
517.927885659129
 31
0.0
  0
LINE
  5
F3
330
1E
100
AcDbEntity
  8
0
100
AcDbLine
 10
22.5
 20
517.8519999999999
 30
0.0
 11
22.5
 21
518.373
 31
0.0
  0
LINE
  5
F4
330
1E
100
AcDbEntity
  8
0
100
AcDbLine
 10
22.5
 20
517.8519999999999
 30
0.0
 11
32.4
 21
512.829
 31
0.0
  0
LINE
  5
F5
330
1E
100
AcDbEntity
  8
0
100
AcDbLine
 10
22.5
 20
517.8519999999999
 30
0.0
 11
22.5
 21
517.1569999999999
 31
0.0
  0
LINE
  5
F6
330
1E
100
AcDbEntity
  8
0
100
AcDbLine
 10
-0.0000000000000111
 20
526.039
 30
0.0
 11
22.5
 21
526.039
 31
0.0
  0
LINE
  5
F7
330
1E
100
AcDbEntity
  8
0
100
AcDbLine
 10
-0.0000000000000059
 20
526.039
 30
0.0
 11
-0.0000000000000059
 21
526.1829999999999
 31
0.0
  0
LINE
  5
F8
330
1E
100
AcDbEntity
  8
0
100
AcDbLine
 10
-0.0000000000000059
 20
526.039
 30
0.0
 11
22.5
 21
526.039
 31
0.0
  0
LINE
  5
F9
330
1E
100
AcDbEntity
  8
0
100
AcDbLine
 10
-0.0000000000000059
 20
526.1829999999999
 30
0.0
 11
-0.0000000000000058
 21
527.4619999999999
 31
0.0
  0
LINE
  5
FA
330
1E
100
AcDbEntity
  8
0
100
AcDbLine
 10
-0.0000000000000058
 20
527.4619999999999
 30
0.0
 11
-0.0000000000000057
 21
529.6409999999999
 31
0.0
  0
LINE
  5
FB
330
1E
100
AcDbEntity
  8
0
100
AcDbLine
 10
-0.0000000000000057
 20
529.6409999999999
 30
0.0
 11
-0.0000000000000055
 21
532.751
 31
0.0
  0
LINE
  5
FC
330
1E
100
AcDbEntity
  8
0
100
AcDbLine
 10
-0.0000000000000055
 20
532.751
 30
0.0
 11
-0.0000000000000052
 21
536.5359999999999
 31
0.0
  0
LINE
  5
FD
330
1E
100
AcDbEntity
  8
0
100
AcDbLine
 10
-0.0000000000000052
 20
536.5359999999999
 30
0.0
 11
-0.000000000000005
 21
540.585
 31
0.0
  0
LINE
  5
FE
330
1E
100
AcDbEntity
  8
0
100
AcDbLine
 10
21.44
 20
535.849
 30
0.0
 11
22.5
 21
533.2393020833329
 31
0.0
  0
LINE
  5
FF
330
1E
100
AcDbEntity
  8
0
100
AcDbLine
 10
-0.0000000000000051
 20
539.1619999999999
 30
0.0
 11
-0.0000000000000048
 21
543.2949999999999
 31
0.0
  0
LINE
  5
100
330
1E
100
AcDbEntity
  8
0
100
AcDbLine
 10
-0.0000000000000047
 20
544.7180000000001
 30
0.0
 11
-0.0000000000000045
 21
548.6519999999999
 31
0.0
  0
LINE
  5
101
330
1E
100
AcDbEntity
  8
0
100
AcDbLine
 10
-0.0000000000000048
 20
543.2949999999999
 30
0.0
 11
-0.0000000000000046
 21
547.344
 31
0.0
  0
LINE
  5
102
330
1E
100
AcDbEntity
  8
0
100
AcDbLine
 10
-0.000000000000005
 20
540.585
 30
0.0
 11
-0.0000000000000047
 21
544.7180000000001
 31
0.0
  0
LINE
  5
103
330
1E
100
AcDbEntity
  8
0
100
AcDbLine
 10
-0.0000000000000045
 20
548.6519999999999
 30
0.0
 11
-0.0000000000000043
 21
552.1669999999999
 31
0.0
  0
LINE
  5
104
330
1E
100
AcDbEntity
  8
0
100
AcDbLine
 10
-0.0000000000000041
 20
555.0629999999999
 30
0.0
 11
-0.000000000000004
 21
556.995
 31
0.0
  0
LINE
  5
105
330
1E
100
AcDbEntity
  8
0
100
AcDbLine
 10
-0.0000000000000043
 20
552.1669999999999
 30
0.0
 11
-0.0000000000000041
 21
555.0629999999999
 31
0.0
  0
LINE
  5
106
330
1E
100
AcDbEntity
  8
0
100
AcDbLine
 10
-0.0000000000000043
 20
551.129
 30
0.0
 11
-0.0000000000000042
 21
554.239
 31
0.0
  0
LINE
  5
107
330
1E
100
AcDbEntity
  8
0
100
AcDbLine
 10
-0.0000000000000039
 20
557.8409999999999
 30
0.0
 11
21.757224455257
 21
557.8409999999999
 31
0.0
  0
LINE
  5
108
330
1E
100
AcDbEntity
  8
0
100
AcDbLine
 10
0.0
 20
557.8409999999999
 30
0.0
 11
21.757224455257
 21
557.8409999999999
 31
0.0
  0
LINE
  5
109
330
1E
100
AcDbEntity
  8
0
100
AcDbLine
 10
-0.0000000000000039
 20
557.697
 30
0.0
 11
-0.0000000000000039
 21
557.8409999999999
 31
0.0
  0
LINE
  5
10A
330
1E
100
AcDbEntity
  8
0
100
AcDbLine
 10
-0.000000000000004
 20
556.995
 30
0.0
 11
-0.0000000000000039
 21
557.8409999999999
 31
0.0
  0
LINE
  5
10B
330
1E
100
AcDbEntity
  8
0
100
AcDbLine
 10
-0.000000000000004
 20
556.418
 30
0.0
 11
-0.000000000000004
 21
556.995
 31
0.0
  0
LINE
  5
10C
330
1E
100
AcDbEntity
  8
0
100
AcDbLine
 10
-0.000000000000004
 20
556.418
 30
0.0
 11
-0.0000000000000039
 21
557.697
 31
0.0
  0
LINE
  5
10D
330
1E
100
AcDbEntity
  8
0
100
AcDbLine
 10
-0.0000000000000046
 20
547.344
 30
0.0
 11
-0.0000000000000045
 21
548.6519999999999
 31
0.0
  0
LINE
  5
10E
330
1E
100
AcDbEntity
  8
0
100
AcDbLine
 10
20.0
 20
545.934
 30
0.0
 11
21.44
 21
535.849
 31
0.0
  0
LINE
  5
10F
330
1E
100
AcDbEntity
  8
0
100
AcDbLine
 10
20.0
 20
545.934
 30
0.0
 11
20.0
 21
546.9759999999999
 31
0.0
  0
LINE
  5
110
330
1E
100
AcDbEntity
  8
0
100
AcDbLine
 10
21.44
 20
557.0599999999999
 30
0.0
 11
22.5
 21
559.669697916667
 31
0.0
  0
LINE
  5
111
330
1E
100
AcDbEntity
  8
0
100
AcDbLine
 10
20.0
 20
546.9759999999999
 30
0.0
 11
21.44
 21
536.8909999999999
 31
0.0
  0
LINE
  5
112
330
1E
100
AcDbEntity
  8
0
100
AcDbLine
 10
20.0
 20
546.9759999999999
 30
0.0
 11
20.0
 21
545.934
 31
0.0
  0
LINE
  5
113
330
1E
100
AcDbEntity
  8
0
100
AcDbLine
 10
20.0
 20
546.9759999999999
 30
0.0
 11
21.44
 21
557.0599999999999
 31
0.0
  0
LINE
  5
114
330
1E
100
AcDbEntity
  8
0
100
AcDbLine
 10
21.44
 20
536.8909999999999
 30
0.0
 11
22.5
 21
534.281302083333
 31
0.0
  0
LINE
  5
115
330
1E
100
AcDbEntity
  8
0
100
AcDbLine
 10
22.5
 20
553.683
 30
0.0
 11
22.5
 21
517.1569999999999
 31
0.0
  0
LINE
  5
116
330
1E
100
AcDbEntity
  8
0
100
AcDbLine
 10
22.5
 20
518.373
 30
0.0
 11
22.5
 21
522.3669999999999
 31
0.0
  0
LINE
  5
117
330
1E
100
AcDbEntity
  8
0
100
AcDbLine
 10
22.5
 20
518.373
 30
0.0
 11
32.4
 21
513.35
 31
0.0
  0
LINE
  5
118
330
1E
100
AcDbEntity
  8
0
100
AcDbLine
 10
22.5
 20
522.3669999999999
 30
0.0
 11
24.5
 21
522.714
 31
0.0
  0
LINE
  5
119
330
1E
100
AcDbEntity
  8
0
100
AcDbLine
 10
22.5
 20
522.3669999999999
 30
0.0
 11
22.5
 21
560.2819999999999
 31
0.0
  0
LINE
  5
11A
330
1E
100
AcDbEntity
  8
0
100
AcDbLine
 10
22.5
 20
522.3669999999999
 30
0.0
 11
22.5
 21
518.373
 31
0.0
  0
LINE
  5
11B
330
1E
100
AcDbEntity
  8
0
100
AcDbLine
 10
22.5
 20
560.2819999999999
 30
0.0
 11
23.8
 21
569.244
 31
0.0
  0
LINE
  5
11D
330
1E
100
AcDbEntity
  8
0
100
AcDbLine
 10
24.5
 20
522.714
 30
0.0
 11
33.5
 21
518.775
 31
0.0
  0
LINE
  5
11E
330
1E
100
AcDbEntity
  8
0
100
AcDbLine
 10
23.8
 20
569.244
 30
0.0
 11
27.5
 21
577.5689999999999
 31
0.0
  0
LINE
  5
120
330
1E
100
AcDbEntity
  8
0
100
AcDbLine
 10
26.3
 20
155.9169999999999
 30
0.0
 11
29.7
 21
155.9169999999999
 31
0.0
  0
LINE
  5
121
330
1E
100
AcDbEntity
  8
0
100
AcDbLine
 10
29.7
 20
155.9169999999999
 30
0.0
 11
35.29999999999999
 21
155.9169999999999
 31
0.0
  0
LINE
  5
122
330
1E
100
AcDbEntity
  8
0
100
AcDbLine
 10
35.29999999999999
 20
155.9169999999999
 30
0.0
 11
42.6
 21
155.9169999999999
 31
0.0
  0
LINE
  5
123
330
1E
100
AcDbEntity
  8
0
100
AcDbLine
 10
42.6
 20
155.9169999999999
 30
0.0
 11
51.1
 21
155.9169999999999
 31
0.0
  0
LINE
  5
124
330
1E
100
AcDbEntity
  8
0
100
AcDbLine
 10
51.1
 20
155.9169999999999
 30
0.0
 11
60.0
 21
155.9169999999999
 31
0.0
  0
LINE
  5
125
330
1E
100
AcDbEntity
  8
0
100
AcDbLine
 10
40.0
 20
157.0708461538459
 30
0.0
 11
40.0
 21
267.242
 31
0.0
  0
LINE
  5
126
330
1E
100
AcDbEntity
  8
0
100
AcDbLine
 10
49.0
 20
157.417
 30
0.0
 11
49.4
 21
157.417
 31
0.0
  0
LINE
  5
127
330
1E
100
AcDbEntity
  8
0
100
AcDbLine
 10
37.828
 20
266.22
 30
0.0
 11
40.0
 21
265.2766358695649
 31
0.0
  0
LINE
  5
129
330
1E
100
AcDbEntity
  8
0
100
AcDbLine
 10
37.0
 20
267.242
 30
0.0
 11
37.828
 21
268.2649999999999
 31
0.0
  0
LINE
  5
12A
330
1E
100
AcDbEntity
  8
0
100
AcDbLine
 10
37.0
 20
267.242
 30
0.0
 11
37.0
 21
296.787
 31
0.0
  0
LINE
  5
12C
330
1E
100
AcDbEntity
  8
0
100
AcDbLine
 10
37.0
 20
267.242
 30
0.0
 11
37.828
 21
266.22
 31
0.0
  0
LINE
  5
12D
330
1E
100
AcDbEntity
  8
0
100
AcDbLine
 10
37.828
 20
268.2649999999999
 30
0.0
 11
40.036
 21
269.223
 31
0.0
  0
LINE
  5
130
330
1E
100
AcDbEntity
  8
0
100
AcDbLine
 10
37.0
 20
296.787
 30
0.0
 11
37.828
 21
297.809
 31
0.0
  0
LINE
  5
131
330
1E
100
AcDbEntity
  8
0
100
AcDbLine
 10
40.036
 20
269.223
 30
0.0
 11
43.71599999999999
 21
270.0699999999999
 31
0.0
  0
LINE
  5
135
330
1E
100
AcDbEntity
  8
0
100
AcDbLine
 10
39.0
 20
298.31803442029
 30
0.0
 11
39.0
 21
316.483
 31
0.0
  0
LINE
  5
136
330
1E
100
AcDbEntity
  8
0
100
AcDbLine
 10
43.71599999999999
 20
270.0699999999999
 30
0.0
 11
48.592
 21
270.7089999999999
 31
0.0
  0
LINE
  5
139
330
1E
100
AcDbEntity
  8
0
100
AcDbLine
 10
37.828
 20
297.809
 30
0.0
 11
40.036
 21
298.7679999999999
 31
0.0
  0
LINE
  5
13C
330
1E
100
AcDbEntity
  8
0
100
AcDbLine
 10
39.0
 20
316.483
 30
0.0
 11
39.756
 21
317.416
 31
0.0
  0
LINE
  5
13D
330
1E
100
AcDbEntity
  8
0
100
AcDbLine
 10
39.756
 20
317.416
 30
0.0
 11
41.772
 21
318.291
 31
0.0
  0
LINE
  5
13F
330
1E
100
AcDbEntity
  8
0
100
AcDbLine
 10
41.772
 20
318.291
 30
0.0
 11
45.132
 21
319.065
 31
0.0
  0
LINE
  5
141
330
1E
100
AcDbEntity
  8
0
100
AcDbLine
 10
40.036
 20
298.7679999999999
 30
0.0
 11
43.71599999999999
 21
299.614
 31
0.0
  0
LINE
  5
144
330
1E
100
AcDbEntity
  8
0
100
AcDbLine
 10
43.71599999999999
 20
299.614
 30
0.0
 11
48.592
 21
300.253
 31
0.0
  0
LINE
  5
146
330
1E
100
AcDbEntity
  8
0
100
AcDbLine
 10
45.132
 20
319.065
 30
0.0
 11
49.584
 21
319.6479999999999
 31
0.0
  0
LINE
  5
148
330
1E
100
AcDbEntity
  8
0
100
AcDbLine
 10
42.0
 20
318.343521428571
 30
0.0
 11
42.0
 21
509.942636363636
 31
0.0
  0
LINE
  5
149
330
1E
100
AcDbEntity
  8
0
100
AcDbLine
 10
45.6
 20
509.023
 30
0.0
 11
60.0
 21
507.8299999999999
 31
0.0
  0
LINE
  5
14A
330
1E
100
AcDbEntity
  8
0
100
AcDbLine
 10
32.4
 20
512.3949999999999
 30
0.0
 11
45.6
 21
509.023
 31
0.0
  0
LINE
  5
14B
330
1E
100
AcDbEntity
  8
0
100
AcDbLine
 10
45.6
 20
509.2839999999999
 30
0.0
 11
60.0
 21
508.004
 31
0.0
  0
LINE
  5
14C
330
1E
100
AcDbEntity
  8
0
100
AcDbLine
 10
32.4
 20
512.829
 30
0.0
 11
45.6
 21
509.2839999999999
 31
0.0
  0
LINE
  5
14D
330
1E
100
AcDbEntity
  8
0
100
AcDbLine
 10
45.6
 20
509.8049999999999
 30
0.0
 11
60.0
 21
508.525
 31
0.0
  0
LINE
  5
14E
330
1E
100
AcDbEntity
  8
0
100
AcDbLine
 10
32.4
 20
513.35
 30
0.0
 11
45.6
 21
509.8049999999999
 31
0.0
  0
LINE
  5
151
330
1E
100
AcDbEntity
  8
0
100
AcDbLine
 10
48.592
 20
270.7089999999999
 30
0.0
 11
54.112
 21
271.0919999999999
 31
0.0
  0
LINE
  5
155
330
1E
100
AcDbEntity
  8
0
100
AcDbLine
 10
49.584
 20
319.6479999999999
 30
0.0
 11
54.62399999999999
 21
319.998
 31
0.0
  0
LINE
  5
157
330
1E
100
AcDbEntity
  8
0
100
AcDbLine
 10
48.592
 20
300.253
 30
0.0
 11
54.112
 21
300.6369999999999
 31
0.0
  0
LINE
  5
15B
330
1E
100
AcDbEntity
  8
0
100
AcDbLine
 10
46.29999999999999
 20
515.82
 30
0.0
 11
60.0
 21
514.835
 31
0.0
  0
LINE
  5
15C
330
1E
100
AcDbEntity
  8
0
100
AcDbLine
 10
27.5
 20
577.5689999999999
 30
0.0
 11
33.5
 21
584.7819999999999
 31
0.0
  0
LINE
  5
15D
330
1E
100
AcDbEntity
  8
0
100
AcDbLine
 10
33.5
 20
584.7819999999999
 30
0.0
 11
41.29999999999999
 21
590.326
 31
0.0
  0
LINE
  5
15E
330
1E
100
AcDbEntity
  8
0
100
AcDbLine
 10
41.2
 20
596.479
 30
0.0
 11
42.0
 21
594.944
 31
0.0
  0
LINE
  5
15F
330
1E
100
AcDbEntity
  8
0
100
AcDbLine
 10
40.6
 20
597.69
 30
0.0
 11
41.2
 21
596.479
 31
0.0
  0
LINE
  5
160
330
1E
100
AcDbEntity
  8
0
100
AcDbLine
 10
42.9
 20
593.317
 30
0.0
 11
44.0377216888181
 21
591.370897111232
 31
0.0
  0
LINE
  5
161
330
1E
100
AcDbEntity
  8
0
100
AcDbLine
 10
42.0
 20
594.944
 30
0.0
 11
42.9
 21
593.317
 31
0.0
  0
LINE
  5
166
330
1E
100
AcDbEntity
  8
0
100
AcDbLine
 10
40.4
 20
598.2459999999999
 30
0.0
 11
46.1
 21
601.102
 31
0.0
  0
LINE
  5
167
330
1E
100
AcDbEntity
  8
0
100
AcDbLine
 10
40.4
 20
598.2459999999999
 30
0.0
 11
40.6
 21
597.69
 31
0.0
  0
LINE
  5
16C
330
1E
100
AcDbEntity
  8
0
100
AcDbLine
 10
46.1
 20
601.102
 30
0.0
 11
53.0
 21
603.071
 31
0.0
  0
LINE
  5
16D
330
1E
100
AcDbEntity
  8
0
100
AcDbLine
 10
41.29999999999999
 20
590.326
 30
0.0
 11
50.3
 21
593.7609999999999
 31
0.0
  0
LINE
  5
16E
330
1E
100
AcDbEntity
  8
0
100
AcDbLine
 10
50.3
 20
593.7609999999999
 30
0.0
 11
60.0
 21
594.955
 31
0.0
  0
LINE
  5
16F
330
1E
100
AcDbEntity
  8
0
100
AcDbLine
 10
33.5
 20
518.775
 30
0.0
 11
46.29999999999999
 21
515.82
 31
0.0
  0
LINE
  5
171
330
1E
100
AcDbEntity
  8
0
100
AcDbLine
 10
49.4
 20
157.417
 30
0.0
 11
50.5
 21
157.417
 31
0.0
  0
LINE
  5
173
330
1E
100
AcDbEntity
  8
0
100
AcDbLine
 10
50.5
 20
157.417
 30
0.0
 11
52.2
 21
157.417
 31
0.0
  0
LINE
  5
174
330
1E
100
AcDbEntity
  8
0
100
AcDbLine
 10
36.0
 20
156.9169999999999
 30
0.0
 11
49.0
 21
157.417
 31
0.0
  0
LINE
  5
175
330
1E
100
AcDbEntity
  8
0
100
AcDbLine
 10
25.0
 20
155.9169999999999
 30
0.0
 11
36.0
 21
156.9169999999999
 31
0.0
  0
LINE
  5
176
330
1E
100
AcDbEntity
  8
0
100
AcDbLine
 10
25.0
 20
155.9169999999999
 30
0.0
 11
25.0
 21
154.917
 31
0.0
  0
LINE
  5
177
330
1E
100
AcDbEntity
  8
0
100
AcDbLine
 10
25.0
 20
155.9169999999999
 30
0.0
 11
26.3
 21
155.9169999999999
 31
0.0
  0
LINE
  5
178
330
1E
100
AcDbEntity
  8
0
100
AcDbLine
 10
42.6
 20
154.917
 30
0.0
 11
51.1
 21
154.917
 31
0.0
  0
LINE
  5
179
330
1E
100
AcDbEntity
  8
0
100
AcDbLine
 10
53.6
 20
69.6065
 30
0.0
 11
60.0
 21
70.2429
 31
0.0
  0
LINE
  5
17A
330
1E
100
AcDbEntity
  8
0
100
AcDbLine
 10
53.6
 20
34.958
 30
0.0
 11
60.0
 21
35.59499999999999
 31
0.0
  0
LINE
  5
17B
330
1E
100
AcDbEntity
  8
0
100
AcDbLine
 10
53.6
 20
0.8759999999999658
 30
0.0
 11
60.0
 21
0.238999999999965
 31
0.0
  0
LINE
  5
17C
330
1E
100
AcDbEntity
  8
0
100
AcDbLine
 10
53.6
 20
0.8759999999999658
 30
0.0
 11
60.0
 21
0.238999999999965
 31
0.0
  0
LINE
  5
17D
330
1E
100
AcDbEntity
  8
0
100
AcDbLine
 10
54.112
 20
134.0889999999999
 30
0.0
 11
60.0
 21
134.9169999999999
 31
0.0
  0
LINE
  5
17E
330
1E
100
AcDbEntity
  8
0
100
AcDbLine
 10
53.34399999999999
 20
136.9809999999999
 30
0.0
 11
60.0
 21
137.917
 31
0.0
  0
LINE
  5
17F
330
1E
100
AcDbEntity
  8
0
100
AcDbLine
 10
53.34399999999999
 20
70.9953
 30
0.0
 11
60.0
 21
71.6571
 31
0.0
  0
LINE
  5
180
330
1E
100
AcDbEntity
  8
0
100
AcDbLine
 10
53.34399999999999
 20
70.2882
 30
0.0
 11
60.0
 21
70.9499999999999
 31
0.0
  0
LINE
  5
181
330
1E
100
AcDbEntity
  8
0
100
AcDbLine
 10
53.088
 20
150.917
 30
0.0
 11
60.0
 21
150.917
 31
0.0
  0
LINE
  5
182
330
1E
100
AcDbEntity
  8
0
100
AcDbLine
 10
52.2
 20
157.417
 30
0.0
 11
54.5
 21
157.417
 31
0.0
  0
LINE
  5
183
330
1E
100
AcDbEntity
  8
0
100
AcDbLine
 10
60.0
 20
0.238999999999965
 30
0.0
 11
66.4
 21
0.8759999999999649
 31
0.0
  0
LINE
  5
184
330
1E
100
AcDbEntity
  8
0
100
AcDbLine
 10
60.0
 20
0.238999999999965
 30
0.0
 11
66.4
 21
0.8759999999999649
 31
0.0
  0
LINE
  5
185
330
1E
100
AcDbEntity
  8
0
100
AcDbLine
 10
66.4
 20
0.8759999999999649
 30
0.0
 11
72.40000000000001
 21
2.57299999999997
 31
0.0
  0
LINE
  5
186
330
1E
100
AcDbEntity
  8
0
100
AcDbLine
 10
66.4
 20
0.8759999999999649
 30
0.0
 11
72.40000000000001
 21
2.57299999999997
 31
0.0
  0
LINE
  5
187
330
1E
100
AcDbEntity
  8
0
100
AcDbLine
 10
65.48569999999999
 20
3.30999999999996
 30
0.0
 11
70.6285999999999
 21
4.764999999999949
 31
0.0
  0
LINE
  5
188
330
1E
100
AcDbEntity
  8
0
100
AcDbLine
 10
60.0
 20
2.764999999999949
 30
0.0
 11
65.48569999999999
 21
3.30999999999996
 31
0.0
  0
LINE
  5
189
330
1E
100
AcDbEntity
  8
0
100
AcDbLine
 10
65.48569999999999
 20
32.524
 30
0.0
 11
70.6285999999999
 21
31.069
 31
0.0
  0
LINE
  5
18A
330
1E
100
AcDbEntity
  8
0
100
AcDbLine
 10
60.0
 20
33.069
 30
0.0
 11
65.48569999999999
 21
32.524
 31
0.0
  0
LINE
  5
18B
330
1E
100
AcDbEntity
  8
0
100
AcDbLine
 10
66.4
 20
34.958
 30
0.0
 11
72.40000000000001
 21
33.26099999999999
 31
0.0
  0
LINE
  5
18C
330
1E
100
AcDbEntity
  8
0
100
AcDbLine
 10
66.4
 20
69.6065
 30
0.0
 11
72.40000000000001
 21
67.90939999999989
 31
0.0
  0
LINE
  5
18D
330
1E
100
AcDbEntity
  8
0
100
AcDbLine
 10
60.0
 20
70.2429
 30
0.0
 11
66.4
 21
69.6065
 31
0.0
  0
LINE
  5
18E
330
1E
100
AcDbEntity
  8
0
100
AcDbLine
 10
60.0
 20
35.59499999999999
 30
0.0
 11
66.4
 21
34.958
 31
0.0
  0
LINE
  5
18F
330
1E
100
AcDbEntity
  8
0
100
AcDbLine
 10
54.5143
 20
32.524
 30
0.0
 11
60.0
 21
33.069
 31
0.0
  0
LINE
  5
190
330
1E
100
AcDbEntity
  8
0
100
AcDbLine
 10
54.5143
 20
3.30999999999996
 30
0.0
 11
60.0
 21
2.764999999999949
 31
0.0
  0
LINE
  5
191
330
1E
100
AcDbEntity
  8
0
100
AcDbLine
 10
66.65600000000001
 20
70.2882
 30
0.0
 11
72.896
 21
68.5232
 31
0.0
  0
LINE
  5
192
330
1E
100
AcDbEntity
  8
0
100
AcDbLine
 10
54.88
 20
131.197
 30
0.0
 11
60.0
 21
131.9169999999999
 31
0.0
  0
LINE
  5
193
330
1E
100
AcDbEntity
  8
0
100
AcDbLine
 10
60.0
 20
134.9169999999999
 30
0.0
 11
65.888
 21
134.0889999999999
 31
0.0
  0
LINE
  5
194
330
1E
100
AcDbEntity
  8
0
100
AcDbLine
 10
65.888
 20
134.0889999999999
 30
0.0
 11
70.56598874296442
 21
132.2178045028142
 31
0.0
  0
LINE
  5
195
330
1E
100
AcDbEntity
  8
0
100
AcDbLine
 10
60.0
 20
140.917
 30
0.0
 11
69.72800000000001
 21
140.917
 31
0.0
  0
LINE
  5
196
330
1E
100
AcDbEntity
  8
0
100
AcDbLine
 10
60.0
 20
137.917
 30
0.0
 11
66.65600000000001
 21
136.9809999999999
 31
0.0
  0
LINE
  5
197
330
1E
100
AcDbEntity
  8
0
100
AcDbLine
 10
66.816
 20
136.9169999999999
 30
0.0
 11
69.72800000000001
 21
136.9169999999999
 31
0.0
  0
LINE
  5
198
330
1E
100
AcDbEntity
  8
0
100
AcDbLine
 10
66.65600000000001
 20
136.9809999999999
 30
0.0
 11
72.896
 21
134.485
 31
0.0
  0
LINE
  5
199
330
1E
100
AcDbEntity
  8
0
100
AcDbLine
 10
66.65600000000001
 20
70.9953
 30
0.0
 11
72.896
 21
69.2303
 31
0.0
  0
LINE
  5
19A
330
1E
100
AcDbEntity
  8
0
100
AcDbLine
 10
60.0
 20
71.6571
 30
0.0
 11
66.65600000000001
 21
70.9953
 31
0.0
  0
LINE
  5
19B
330
1E
100
AcDbEntity
  8
0
100
AcDbLine
 10
60.0
 20
70.9499999999999
 30
0.0
 11
66.65600000000001
 21
70.2882
 31
0.0
  0
LINE
  5
19C
330
1E
100
AcDbEntity
  8
0
100
AcDbLine
 10
66.91199999999999
 20
150.917
 30
0.0
 11
73.39199999999999
 21
150.917
 31
0.0
  0
LINE
  5
19D
330
1E
100
AcDbEntity
  8
0
100
AcDbLine
 10
60.0
 20
152.917
 30
0.0
 11
68.95999999999999
 21
152.917
 31
0.0
  0
LINE
  5
19E
330
1E
100
AcDbEntity
  8
0
100
AcDbLine
 10
60.0
 20
150.917
 30
0.0
 11
66.91199999999999
 21
150.917
 31
0.0
  0
LINE
  5
19F
330
1E
100
AcDbEntity
  8
0
100
AcDbLine
 10
60.0
 20
150.917
 30
0.0
 11
68.95999999999999
 21
150.917
 31
0.0
  0
LINE
  5
1A0
330
1E
100
AcDbEntity
  8
0
100
AcDbLine
 10
70.6285999999999
 20
4.764999999999949
 30
0.0
 11
75.1713999999999
 21
7.18899999999995
 31
0.0
  0
LINE
  5
1A1
330
1E
100
AcDbEntity
  8
0
100
AcDbLine
 10
72.40000000000001
 20
2.57299999999997
 30
0.0
 11
77.7
 21
5.40099999999997
 31
0.0
  0
LINE
  5
1A2
330
1E
100
AcDbEntity
  8
0
100
AcDbLine
 10
70.6285999999999
 20
31.069
 30
0.0
 11
75.1713999999999
 21
28.64499999999999
 31
0.0
  0
LINE
  5
1A3
330
1E
100
AcDbEntity
  8
0
100
AcDbLine
 10
72.40000000000001
 20
67.90939999999989
 30
0.0
 11
77.7
 21
65.081
 31
0.0
  0
LINE
  5
1A4
330
1E
100
AcDbEntity
  8
0
100
AcDbLine
 10
75.1713999999999
 20
7.18899999999995
 30
0.0
 11
78.59999999999999
 21
10.401
 31
0.0
  0
LINE
  5
1A5
330
1E
100
AcDbEntity
  8
0
100
AcDbLine
 10
75.1713999999999
 20
28.64499999999999
 30
0.0
 11
78.59999999999999
 21
25.433
 31
0.0
  0
LINE
  5
1A6
330
1E
100
AcDbEntity
  8
0
100
AcDbLine
 10
72.40000000000001
 20
33.26099999999999
 30
0.0
 11
77.7
 21
30.433
 31
0.0
  0
LINE
  5
1A7
330
1E
100
AcDbEntity
  8
0
100
AcDbLine
 10
69.92
 20
129.277
 30
0.0
 11
74.16
 21
126.077
 31
0.0
  0
LINE
  5
1A8
330
1E
100
AcDbEntity
  8
0
100
AcDbLine
 10
70.5659887429643
 20
132.217804502814
 30
0.0
 11
71.884
 21
134.5005999999999
 31
0.0
  0
LINE
  5
1A9
330
1E
100
AcDbEntity
  8
0
100
AcDbLine
 10
70.384
 20
131.9026
 30
0.0
 11
71.884
 21
134.5005999999999
 31
0.0
  0
LINE
  5
1AA
330
1E
100
AcDbEntity
  8
0
100
AcDbLine
 10
70.384
 20
131.9026
 30
0.0
 11
72.116
 21
130.9026
 31
0.0
  0
LINE
  5
1AB
330
1E
100
AcDbEntity
  8
0
100
AcDbLine
 10
72.116
 20
130.9026
 30
0.0
 11
73.616
 21
133.5005999999999
 31
0.0
  0
LINE
  5
1AC
330
1E
100
AcDbEntity
  8
0
100
AcDbLine
 10
72.29457294606816
 20
131.21188834259
 30
0.0
 11
76.28399999999999
 21
128.2009999999999
 31
0.0
  0
LINE
  5
1AD
330
1E
100
AcDbEntity
  8
0
100
AcDbLine
 10
69.72800000000001
 20
140.917
 30
0.0
 11
78.848
 21
140.917
 31
0.0
  0
LINE
  5
1AE
330
1E
100
AcDbEntity
  8
0
100
AcDbLine
 10
69.72800000000001
 20
136.9169999999999
 30
0.0
 11
78.848
 21
136.9169999999999
 31
0.0
  0
LINE
  5
1AF
330
1E
100
AcDbEntity
  8
0
100
AcDbLine
 10
71.884
 20
134.5005999999999
 30
0.0
 11
73.616
 21
133.5005999999999
 31
0.0
  0
LINE
  5
1B0
330
1E
100
AcDbEntity
  8
0
100
AcDbLine
 10
72.896
 20
134.485
 30
0.0
 11
78.408
 21
130.325
 31
0.0
  0
LINE
  5
1B1
330
1E
100
AcDbEntity
  8
0
100
AcDbLine
 10
74.16
 20
126.077
 30
0.0
 11
77.36
 21
121.8369999999999
 31
0.0
  0
LINE
  5
1B2
330
1E
100
AcDbEntity
  8
0
100
AcDbLine
 10
77.36
 20
121.8369999999999
 30
0.0
 11
79.28
 21
117.037
 31
0.0
  0
LINE
  5
1B3
330
1E
100
AcDbEntity
  8
0
100
AcDbLine
 10
76.28399999999999
 20
128.2009999999999
 30
0.0
 11
79.964
 21
123.3249999999999
 31
0.0
  0
LINE
  5
1B4
330
1E
100
AcDbEntity
  8
0
100
AcDbLine
 10
72.896
 20
69.2303
 30
0.0
 11
78.408
 21
66.28879999999999
 31
0.0
  0
LINE
  5
1B5
330
1E
100
AcDbEntity
  8
0
100
AcDbLine
 10
72.896
 20
68.5232
 30
0.0
 11
78.408
 21
65.5817
 31
0.0
  0
LINE
  5
1B6
330
1E
100
AcDbEntity
  8
0
100
AcDbLine
 10
77.7
 20
5.40099999999997
 30
0.0
 11
81.69999999999999
 21
9.14899999999996
 31
0.0
  0
LINE
  5
1B7
330
1E
100
AcDbEntity
  8
0
100
AcDbLine
 10
77.7
 20
65.081
 30
0.0
 11
81.69999999999999
 21
61.3334
 31
0.0
  0
LINE
  5
1B8
330
1E
100
AcDbEntity
  8
0
100
AcDbLine
 10
78.59999999999999
 20
10.401
 30
0.0
 11
80.65710000000001
 21
14.038
 31
0.0
  0
LINE
  5
1B9
330
1E
100
AcDbEntity
  8
0
100
AcDbLine
 10
78.59999999999999
 20
25.433
 30
0.0
 11
80.65710000000001
 21
21.796
 31
0.0
  0
LINE
  5
1BA
330
1E
100
AcDbEntity
  8
0
100
AcDbLine
 10
77.7
 20
30.433
 30
0.0
 11
81.69999999999999
 21
26.68499999999999
 31
0.0
  0
LINE
  5
1BB
330
1E
100
AcDbEntity
  8
0
100
AcDbLine
 10
78.71592452830191
 20
129.9169999999999
 30
0.0
 11
81.69999999999999
 21
129.9169999999999
 31
0.0
  0
LINE
  5
1BC
330
1E
100
AcDbEntity
  8
0
100
AcDbLine
 10
78.71592452830191
 20
129.9169999999999
 30
0.0
 11
81.24
 21
129.9169999999999
 31
0.0
  0
LINE
  5
1BD
330
1E
100
AcDbEntity
  8
0
100
AcDbLine
 10
78.848
 20
140.917
 30
0.0
 11
86.904
 21
140.917
 31
0.0
  0
LINE
  5
1BE
330
1E
100
AcDbEntity
  8
0
100
AcDbLine
 10
78.848
 20
136.9169999999999
 30
0.0
 11
86.904
 21
136.9169999999999
 31
0.0
  0
LINE
  5
1BF
330
1E
100
AcDbEntity
  8
0
100
AcDbLine
 10
78.408
 20
130.325
 30
0.0
 11
82.568
 21
124.8129999999999
 31
0.0
  0
LINE
  5
1C0
330
1E
100
AcDbEntity
  8
0
100
AcDbLine
 10
78.408
 20
66.28879999999999
 30
0.0
 11
82.568
 21
62.39119999999999
 31
0.0
  0
LINE
  5
1C1
330
1E
100
AcDbEntity
  8
0
100
AcDbLine
 10
78.408
 20
65.5817
 30
0.0
 11
82.568
 21
61.6841
 31
0.0
  0
LINE
  5
1C2
330
1E
100
AcDbEntity
  8
0
100
AcDbLine
 10
77.36
 20
150.917
 30
0.0
 11
84.77999999999999
 21
150.917
 31
0.0
  0
LINE
  5
1C3
330
1E
100
AcDbEntity
  8
0
100
AcDbLine
 10
68.95999999999999
 20
150.917
 30
0.0
 11
77.36
 21
150.917
 31
0.0
  0
LINE
  5
1C4
330
1E
100
AcDbEntity
  8
0
100
AcDbLine
 10
80.65710000000001
 20
14.038
 30
0.0
 11
81.4286
 21
17.917
 31
0.0
  0
LINE
  5
1C5
330
1E
100
AcDbEntity
  8
0
100
AcDbLine
 10
81.69999999999999
 20
9.14899999999996
 30
0.0
 11
84.1
 21
13.392
 31
0.0
  0
LINE
  5
1C6
330
1E
100
AcDbEntity
  8
0
100
AcDbLine
 10
80.65710000000001
 20
21.796
 30
0.0
 11
81.4286
 21
17.917
 31
0.0
  0
LINE
  5
1C7
330
1E
100
AcDbEntity
  8
0
100
AcDbLine
 10
81.69999999999999
 20
61.3334
 30
0.0
 11
84.1
 21
57.0907
 31
0.0
  0
LINE
  5
1C8
330
1E
100
AcDbEntity
  8
0
100
AcDbLine
 10
81.69999999999999
 20
26.68499999999999
 30
0.0
 11
84.1
 21
22.44199999999999
 31
0.0
  0
LINE
  5
1C9
330
1E
100
AcDbEntity
  8
0
100
AcDbLine
 10
80.0
 20
64.7972184615384
 30
0.0
 11
80.0
 21
102.8372999999999
 31
0.0
  0
LINE
  5
1CA
330
1E
100
AcDbEntity
  8
0
100
AcDbLine
 10
82.0068013136289
 20
62.917
 30
0.0
 11
82.788
 21
62.917
 31
0.0
  0
LINE
  5
1CB
330
1E
100
AcDbEntity
  8
0
100
AcDbLine
 10
80.0
 20
70.917
 30
0.0
 11
82.17200000000001
 21
70.917
 31
0.0
  0
LINE
  5
1CC
330
1E
100
AcDbEntity
  8
0
100
AcDbLine
 10
82.17200000000001
 20
70.917
 30
0.0
 11
83.0
 21
70.917
 31
0.0
  0
LINE
  5
1CD
330
1E
100
AcDbEntity
  8
0
100
AcDbLine
 10
82.5
 20
70.917
 30
0.0
 11
85.5
 21
70.917
 31
0.0
  0
LINE
  5
1CE
330
1E
100
AcDbEntity
  8
0
100
AcDbLine
 10
82.17200000000001
 20
84.91699999999999
 30
0.0
 11
83.0
 21
84.91699999999999
 31
0.0
  0
LINE
  5
1CF
330
1E
100
AcDbEntity
  8
0
100
AcDbLine
 10
80.0
 20
84.91699999999999
 30
0.0
 11
82.568
 21
84.91699999999999
 31
0.0
  0
LINE
  5
1D0
330
1E
100
AcDbEntity
  8
0
100
AcDbLine
 10
80.0
 20
84.91699999999999
 30
0.0
 11
82.17200000000001
 21
84.91699999999999
 31
0.0
  0
LINE
  5
1D1
330
1E
100
AcDbEntity
  8
0
100
AcDbLine
 10
82.568
 20
84.91699999999999
 30
0.0
 11
85.06399999999999
 21
84.91699999999999
 31
0.0
  0
LINE
  5
1D2
330
1E
100
AcDbEntity
  8
0
100
AcDbLine
 10
80.0
 20
86.917
 30
0.0
 11
82.568
 21
86.917
 31
0.0
  0
LINE
  5
1D3
330
1E
100
AcDbEntity
  8
0
100
AcDbLine
 10
82.568
 20
86.917
 30
0.0
 11
85.06399999999999
 21
86.917
 31
0.0
  0
LINE
  5
1D4
330
1E
100
AcDbEntity
  8
0
100
AcDbLine
 10
80.0
 20
88.917
 30
0.0
 11
82.568
 21
88.917
 31
0.0
  0
LINE
  5
1D5
330
1E
100
AcDbEntity
  8
0
100
AcDbLine
 10
82.568
 20
88.917
 30
0.0
 11
85.06399999999999
 21
88.917
 31
0.0
  0
LINE
  5
1D6
330
1E
100
AcDbEntity
  8
0
100
AcDbLine
 10
80.0
 20
90.91700000000001
 30
0.0
 11
82.568
 21
90.91700000000001
 31
0.0
  0
LINE
  5
1D7
330
1E
100
AcDbEntity
  8
0
100
AcDbLine
 10
82.568
 20
90.91700000000001
 30
0.0
 11
85.06399999999999
 21
90.91700000000001
 31
0.0
  0
LINE
  5
1D8
330
1E
100
AcDbEntity
  8
0
100
AcDbLine
 10
80.0
 20
102.8372999999999
 30
0.0
 11
80.0
 21
64.7972184615384
 31
0.0
  0
LINE
  5
1D9
330
1E
100
AcDbEntity
  8
0
100
AcDbLine
 10
80.0
 20
102.8372999999999
 30
0.0
 11
80.0
 21
107.7638
 31
0.0
  0
LINE
  5
1DA
330
1E
100
AcDbEntity
  8
0
100
AcDbLine
 10
80.0
 20
100.5989999999999
 30
0.0
 11
82.17200000000001
 21
106.0289999999999
 31
0.0
  0
LINE
  5
1DB
330
1E
100
AcDbEntity
  8
0
100
AcDbLine
 10
80.0
 20
111.9169999999999
 30
0.0
 11
80.0
 21
110.8606999999999
 31
0.0
  0
LINE
  5
1DC
330
1E
100
AcDbEntity
  8
0
100
AcDbLine
 10
79.28
 20
117.037
 30
0.0
 11
80.0
 21
111.9169999999999
 31
0.0
  0
LINE
  5
1DD
330
1E
100
AcDbEntity
  8
0
100
AcDbLine
 10
80.0
 20
110.8606999999999
 30
0.0
 11
80.0
 21
107.7638
 31
0.0
  0
LINE
  5
1DE
330
1E
100
AcDbEntity
  8
0
100
AcDbLine
 10
80.0
 20
110.8606999999999
 30
0.0
 11
80.0
 21
111.9169999999999
 31
0.0
  0
LINE
  5
1DF
330
1E
100
AcDbEntity
  8
0
100
AcDbLine
 10
80.0
 20
107.7638
 30
0.0
 11
80.0
 21
110.8606999999999
 31
0.0
  0
LINE
  5
1E0
330
1E
100
AcDbEntity
  8
0
100
AcDbLine
 10
80.0
 20
107.7638
 30
0.0
 11
80.0
 21
102.8372999999999
 31
0.0
  0
LINE
  5
1E1
330
1E
100
AcDbEntity
  8
0
100
AcDbLine
 10
81.24
 20
129.9169999999999
 30
0.0
 11
86.04
 21
129.9169999999999
 31
0.0
  0
LINE
  5
1E2
330
1E
100
AcDbEntity
  8
0
100
AcDbLine
 10
81.69999999999999
 20
129.9169999999999
 30
0.0
 11
84.1
 21
129.9169999999999
 31
0.0
  0
LINE
  5
1E3
330
1E
100
AcDbEntity
  8
0
100
AcDbLine
 10
79.964
 20
123.3249999999999
 30
0.0
 11
82.17200000000001
 21
117.805
 31
0.0
  0
LINE
  5
1E4
330
1E
100
AcDbEntity
  8
0
100
AcDbLine
 10
82.5
 20
112.917
 30
0.0
 11
85.5
 21
112.917
 31
0.0
  0
LINE
  5
1E5
330
1E
100
AcDbEntity
  8
0
100
AcDbLine
 10
82.5
 20
112.917
 30
0.0
 11
82.5
 21
110.9169999999999
 31
0.0
  0
LINE
  5
1E6
330
1E
100
AcDbEntity
  8
0
100
AcDbLine
 10
82.5
 20
110.9169999999999
 30
0.0
 11
85.5
 21
110.9169999999999
 31
0.0
  0
LINE
  5
1E7
330
1E
100
AcDbEntity
  8
0
100
AcDbLine
 10
82.5
 20
110.9169999999999
 30
0.0
 11
82.5
 21
112.917
 31
0.0
  0
LINE
  5
1E8
330
1E
100
AcDbEntity
  8
0
100
AcDbLine
 10
82.17200000000001
 20
117.805
 30
0.0
 11
83.0
 21
112.917
 31
0.0
  0
LINE
  5
1E9
330
1E
100
AcDbEntity
  8
0
100
AcDbLine
 10
82.17200000000001
 20
106.0289999999999
 30
0.0
 11
83.0
 21
110.9169999999999
 31
0.0
  0
LINE
  5
1EA
330
1E
100
AcDbEntity
  8
0
100
AcDbLine
 10
82.568
 20
124.8129999999999
 30
0.0
 11
85.06399999999999
 21
118.5729999999999
 31
0.0
  0
LINE
  5
1EB
330
1E
100
AcDbEntity
  8
0
100
AcDbLine
 10
80.0
 20
95.6184
 30
0.0
 11
82.568
 21
99.021
 31
0.0
  0
LINE
  5
1EC
330
1E
100
AcDbEntity
  8
0
100
AcDbLine
 10
82.568
 20
99.021
 30
0.0
 11
85.06399999999999
 21
105.261
 31
0.0
  0
LINE
  5
1ED
330
1E
100
AcDbEntity
  8
0
100
AcDbLine
 10
82.568
 20
62.39119999999999
 30
0.0
 11
85.06399999999999
 21
57.9788
 31
0.0
  0
LINE
  5
1EE
330
1E
100
AcDbEntity
  8
0
100
AcDbLine
 10
84.1
 20
13.392
 30
0.0
 11
85.0
 21
17.917
 31
0.0
  0
LINE
  5
1EF
330
1E
100
AcDbEntity
  8
0
100
AcDbLine
 10
82.788
 20
62.917
 30
0.0
 11
85.38
 21
62.917
 31
0.0
  0
LINE
  5
1F2
330
1E
100
AcDbEntity
  8
0
100
AcDbLine
 10
83.0
 20
84.91699999999999
 30
0.0
 11
85.5
 21
84.91699999999999
 31
0.0
  0
LINE
  5
1F3
330
1E
100
AcDbEntity
  8
0
100
AcDbLine
 10
84.1
 20
129.9169999999999
 30
0.0
 11
85.0
 21
129.9169999999999
 31
0.0
  0
LINE
  5
1F4
330
1E
100
AcDbEntity
  8
0
100
AcDbLine
 10
82.85937500000001
 20
110.9169999999999
 30
0.0
 11
85.5
 21
110.9169999999999
 31
0.0
  0
LINE
  5
1F5
330
1E
100
AcDbEntity
  8
0
100
AcDbLine
 10
84.1
 20
57.0907
 30
0.0
 11
85.0
 21
52.5652
 31
0.0
  0
LINE
  5
1F6
330
1E
100
AcDbEntity
  8
0
100
AcDbLine
 10
84.1
 20
22.44199999999999
 30
0.0
 11
85.0
 21
17.917
 31
0.0
  0
LINE
  5
1F7
330
1E
100
AcDbEntity
  8
0
100
AcDbLine
 10
82.568
 20
61.6841
 30
0.0
 11
85.06399999999999
 21
57.2717
 31
0.0
  0
LINE
  5
1F8
330
1E
100
AcDbEntity
  8
0
100
AcDbLine
 10
83.436
 20
150.917
 30
0.0
 11
86.028
 21
150.917
 31
0.0
  0
LINE
  5
1F9
330
1E
100
AcDbEntity
  8
0
100
AcDbLine
 10
79.11599999999999
 20
150.917
 30
0.0
 11
83.436
 21
150.917
 31
0.0
  0
LINE
  5
1FA
330
1E
100
AcDbEntity
  8
0
100
AcDbLine
 10
80.0
 20
152.917
 30
0.0
 11
80.0
 21
154.917
 31
0.0
  0
LINE
  5
1FB
330
1E
100
AcDbEntity
  8
0
100
AcDbLine
 10
77.36
 20
152.917
 30
0.0
 11
84.77999999999999
 21
152.917
 31
0.0
  0
LINE
  5
1FC
330
1E
100
AcDbEntity
  8
0
100
AcDbLine
 10
68.95999999999999
 20
152.917
 30
0.0
 11
77.36
 21
152.917
 31
0.0
  0
LINE
  5
1FD
330
1E
100
AcDbEntity
  8
0
100
AcDbLine
 10
73.39199999999999
 20
150.917
 30
0.0
 11
79.11599999999999
 21
150.917
 31
0.0
  0
LINE
  5
1FF
330
1E
100
AcDbEntity
  8
0
100
AcDbLine
 10
85.0
 20
37.917
 30
0.0
 11
85.38
 21
37.917
 31
0.0
  0
LINE
  5
200
330
1E
100
AcDbEntity
  8
0
100
AcDbLine
 10
85.0
 20
52.5652
 30
0.0
 11
85.0
 21
17.917
 31
0.0
  0
LINE
  5
201
330
1E
100
AcDbEntity
  8
0
100
AcDbLine
 10
85.0
 20
17.917
 30
0.0
 11
85.0
 21
52.5652
 31
0.0
  0
LINE
  5
202
330
1E
100
AcDbEntity
  8
0
100
AcDbLine
 10
85.06399999999999
 20
47.8587
 30
0.0
 11
86.0
 21
52.5652
 31
0.0
  0
LINE
  5
203
330
1E
100
AcDbEntity
  8
0
100
AcDbLine
 10
85.0
 20
47.7455641025641
 30
0.0
 11
85.06399999999999
 21
47.8587
 31
0.0
  0
LINE
  5
204
330
1E
100
AcDbEntity
  8
0
100
AcDbLine
 10
85.0
 20
90.91700000000001
 30
0.0
 11
85.0
 21
105.1009999999999
 31
0.0
  0
LINE
  5
205
330
1E
100
AcDbEntity
  8
0
100
AcDbLine
 10
85.0
 20
90.91700000000001
 30
0.0
 11
85.0
 21
105.1009999999999
 31
0.0
  0
LINE
  5
206
330
1E
100
AcDbEntity
  8
0
100
AcDbLine
 10
85.0
 20
88.917
 30
0.0
 11
85.5
 21
88.917
 31
0.0
  0
LINE
  5
207
330
1E
100
AcDbEntity
  8
0
100
AcDbLine
 10
85.06399999999999
 20
84.91699999999999
 30
0.0
 11
86.0
 21
84.91699999999999
 31
0.0
  0
LINE
  5
208
330
1E
100
AcDbEntity
  8
0
100
AcDbLine
 10
85.06399999999999
 20
86.917
 30
0.0
 11
86.0
 21
86.917
 31
0.0
  0
LINE
  5
209
330
1E
100
AcDbEntity
  8
0
100
AcDbLine
 10
85.06399999999999
 20
88.917
 30
0.0
 11
86.0
 21
88.917
 31
0.0
  0
LINE
  5
20A
330
1E
100
AcDbEntity
  8
0
100
AcDbLine
 10
85.06399999999999
 20
90.91700000000001
 30
0.0
 11
86.0
 21
90.91700000000001
 31
0.0
  0
LINE
  5
20B
330
1E
100
AcDbEntity
  8
0
100
AcDbLine
 10
85.0
 20
105.1009999999999
 30
0.0
 11
85.06399999999999
 21
105.261
 31
0.0
  0
LINE
  5
20C
330
1E
100
AcDbEntity
  8
0
100
AcDbLine
 10
85.0
 20
129.9169999999999
 30
0.0
 11
86.04
 21
129.9169999999999
 31
0.0
  0
LINE
  5
20D
330
1E
100
AcDbEntity
  8
0
100
AcDbLine
 10
85.0
 20
118.733
 30
0.0
 11
85.0
 21
129.9169999999999
 31
0.0
  0
LINE
  5
20E
330
1E
100
AcDbEntity
  8
0
100
AcDbLine
 10
85.06399999999999
 20
118.5729999999999
 30
0.0
 11
86.0
 21
111.9169999999999
 31
0.0
  0
LINE
  5
20F
330
1E
100
AcDbEntity
  8
0
100
AcDbLine
 10
85.06399999999999
 20
105.261
 30
0.0
 11
86.0
 21
111.9169999999999
 31
0.0
  0
LINE
  5
210
330
1E
100
AcDbEntity
  8
0
100
AcDbLine
 10
85.06399999999999
 20
57.9788
 30
0.0
 11
86.0
 21
53.2723
 31
0.0
  0
LINE
  5
211
330
1E
100
AcDbEntity
  8
0
100
AcDbLine
 10
85.38
 20
37.917
 30
0.0
 11
86.3519999999999
 21
37.917
 31
0.0
  0
LINE
  5
212
330
1E
100
AcDbEntity
  8
0
100
AcDbLine
 10
85.38
 20
62.917
 30
0.0
 11
86.35200000000001
 21
62.917
 31
0.0
  0
LINE
  5
213
330
1E
100
AcDbEntity
  8
0
100
AcDbLine
 10
85.5
 20
70.917
 30
0.0
 11
85.5
 21
84.91699999999999
 31
0.0
  0
LINE
  5
214
330
1E
100
AcDbEntity
  8
0
100
AcDbLine
 10
85.5
 20
84.91699999999999
 30
0.0
 11
86.0
 21
84.91699999999999
 31
0.0
  0
LINE
  5
215
330
1E
100
AcDbEntity
  8
0
100
AcDbLine
 10
85.5
 20
84.91699999999999
 30
0.0
 11
85.5
 21
70.917
 31
0.0
  0
LINE
  5
216
330
1E
100
AcDbEntity
  8
0
100
AcDbLine
 10
85.5
 20
86.917
 30
0.0
 11
85.5
 21
88.917
 31
0.0
  0
LINE
  5
217
330
1E
100
AcDbEntity
  8
0
100
AcDbLine
 10
86.0
 20
84.91699999999999
 30
0.0
 11
86.0
 21
86.917
 31
0.0
  0
LINE
  5
218
330
1E
100
AcDbEntity
  8
0
100
AcDbLine
 10
86.0
 20
86.917
 30
0.0
 11
86.0
 21
84.91699999999999
 31
0.0
  0
LINE
  5
219
330
1E
100
AcDbEntity
  8
0
100
AcDbLine
 10
86.0
 20
88.917
 30
0.0
 11
86.0
 21
90.91700000000001
 31
0.0
  0
LINE
  5
21A
330
1E
100
AcDbEntity
  8
0
100
AcDbLine
 10
86.0
 20
90.91700000000001
 30
0.0
 11
86.0
 21
88.917
 31
0.0
  0
LINE
  5
21B
330
1E
100
AcDbEntity
  8
0
100
AcDbLine
 10
85.5
 20
88.917
 30
0.0
 11
86.0
 21
88.917
 31
0.0
  0
LINE
  5
21C
330
1E
100
AcDbEntity
  8
0
100
AcDbLine
 10
85.5
 20
88.917
 30
0.0
 11
85.5
 21
86.917
 31
0.0
  0
LINE
  5
21D
330
1E
100
AcDbEntity
  8
0
100
AcDbLine
 10
85.5
 20
112.917
 30
0.0
 11
85.5
 21
110.9169999999999
 31
0.0
  0
LINE
  5
21E
330
1E
100
AcDbEntity
  8
0
100
AcDbLine
 10
85.5
 20
110.9169999999999
 30
0.0
 11
85.5
 21
112.917
 31
0.0
  0
LINE
  5
21F
330
1E
100
AcDbEntity
  8
0
100
AcDbLine
 10
90.0
 20
129.9169999999999
 30
0.0
 11
90.0
 21
136.9169999999999
 31
0.0
  0
LINE
  5
220
330
1E
100
AcDbEntity
  8
0
100
AcDbLine
 10
86.904
 20
140.917
 30
0.0
 11
92.98399999999999
 21
140.917
 31
0.0
  0
LINE
  5
221
330
1E
100
AcDbEntity
  8
0
100
AcDbLine
 10
86.904
 20
136.9169999999999
 30
0.0
 11
92.98399999999999
 21
136.9169999999999
 31
0.0
  0
LINE
  5
222
330
1E
100
AcDbEntity
  8
0
100
AcDbLine
 10
92.98399999999999
 20
140.917
 30
0.0
 11
96.63200000000001
 21
140.917
 31
0.0
  0
LINE
  5
223
330
1E
100
AcDbEntity
  8
0
100
AcDbLine
 10
92.98399999999999
 20
136.9169999999999
 30
0.0
 11
96.63200000000001
 21
136.9169999999999
 31
0.0
  0
LINE
  5
224
330
1E
100
AcDbEntity
  8
0
100
AcDbLine
 10
90.0
 20
136.9169999999999
 30
0.0
 11
90.0
 21
129.9169999999999
 31
0.0
  0
LINE
  5
225
330
1E
100
AcDbEntity
  8
0
100
AcDbLine
 10
90.0
 20
136.9169999999999
 30
0.0
 11
92.98399999999999
 21
136.9169999999999
 31
0.0
  0
LINE
  5
226
330
1E
100
AcDbEntity
  8
0
100
AcDbLine
 10
88.92000000000001
 20
129.9169999999999
 30
0.0
 11
90.0
 21
129.9169999999999
 31
0.0
  0
LINE
  5
227
330
1E
100
AcDbEntity
  8
0
100
AcDbLine
 10
86.04
 20
129.9169999999999
 30
0.0
 11
88.92000000000001
 21
129.9169999999999
 31
0.0
  0
LINE
  5
228
330
1E
100
AcDbEntity
  8
0
100
AcDbLine
 10
86.35200000000001
 20
62.917
 30
0.0
 11
87.0
 21
61.9555
 31
0.0
  0
LINE
  5
229
330
1E
100
AcDbEntity
  8
0
100
AcDbLine
 10
86.0
 20
53.2723
 30
0.0
 11
86.0
 21
52.5652
 31
0.0
  0
LINE
  5
22A
330
1E
100
AcDbEntity
  8
0
100
AcDbLine
 10
86.0
 20
52.5652
 30
0.0
 11
86.0
 21
53.2723
 31
0.0
  0
LINE
  5
22B
330
1E
100
AcDbEntity
  8
0
100
AcDbLine
 10
85.06399999999999
 20
57.2717
 30
0.0
 11
86.0
 21
52.5652
 31
0.0
  0
LINE
  5
22C
330
1E
100
AcDbEntity
  8
0
100
AcDbLine
 10
84.77999999999999
 20
150.917
 30
0.0
 11
90.38
 21
150.917
 31
0.0
  0
LINE
  5
22D
330
1E
100
AcDbEntity
  8
0
100
AcDbLine
 10
84.77999999999999
 20
152.917
 30
0.0
 11
90.38
 21
152.917
 31
0.0
  0
LINE
  5
22E
330
1E
100
AcDbEntity
  8
0
100
AcDbLine
 10
87.0
 20
150.917
 30
0.0
 11
87.0
 21
140.917
 31
0.0
  0
LINE
  5
22F
330
1E
100
AcDbEntity
  8
0
100
AcDbLine
 10
87.0
 20
150.917
 30
0.0
 11
90.38
 21
150.917
 31
0.0
  0
LINE
  5
230
330
1E
100
AcDbEntity
  8
0
100
AcDbLine
 10
90.38
 20
150.917
 30
0.0
 11
93.74
 21
150.917
 31
0.0
  0
LINE
  5
231
330
1E
100
AcDbEntity
  8
0
100
AcDbLine
 10
90.38
 20
152.917
 30
0.0
 11
93.74
 21
152.917
 31
0.0
  0
LINE
  5
232
330
1E
100
AcDbEntity
  8
0
100
AcDbLine
 10
86.028
 20
150.917
 30
0.0
 11
87.0
 21
150.917
 31
0.0
  0
LINE
  5
233
330
1E
100
AcDbEntity
  8
0
100
AcDbLine
 10
87.0
 20
140.917
 30
0.0
 11
87.0
 21
150.917
 31
0.0
  0
LINE
  5
234
330
1E
100
AcDbEntity
  8
0
100
AcDbLine
 10
93.74
 20
150.917
 30
0.0
 11
95.0
 21
150.917
 31
0.0
  0
LINE
  5
235
330
1E
100
AcDbEntity
  8
0
100
AcDbLine
 10
96.63200000000001
 20
140.917
 30
0.0
 11
98.0
 21
140.917
 31
0.0
  0
LINE
  5
236
330
1E
100
AcDbEntity
  8
0
100
AcDbLine
 10
98.0
 20
140.917
 30
0.0
 11
98.0
 21
136.9169999999999
 31
0.0
  0
LINE
  5
237
330
1E
100
AcDbEntity
  8
0
100
AcDbLine
 10
98.0
 20
136.9169999999999
 30
0.0
 11
98.0
 21
140.917
 31
0.0
  0
LINE
  5
238
330
1E
100
AcDbEntity
  8
0
100
AcDbLine
 10
96.63200000000001
 20
136.9169999999999
 30
0.0
 11
98.0
 21
136.9169999999999
 31
0.0
  0
LINE
  5
239
330
1E
100
AcDbEntity
  8
0
100
AcDbLine
 10
95.0
 20
152.917
 30
0.0
 11
95.0
 21
150.917
 31
0.0
  0
LINE
  5
23A
330
1E
100
AcDbEntity
  8
0
100
AcDbLine
 10
95.0
 20
150.917
 30
0.0
 11
95.0
 21
152.917
 31
0.0
  0
LINE
  5
23B
330
1E
100
AcDbEntity
  8
0
100
AcDbLine
 10
93.74
 20
152.917
 30
0.0
 11
95.0
 21
152.917
 31
0.0
  0
LINE
  5
23C
330
1E
100
AcDbEntity
  8
0
100
AcDbLine
 10
95.0
 20
154.917
 30
0.0
 11
95.0
 21
155.9169999999999
 31
0.0
  0
LINE
  5
23D
330
1E
100
AcDbEntity
  8
0
100
AcDbLine
 10
93.7
 20
154.917
 30
0.0
 11
95.0
 21
154.917
 31
0.0
  0
LINE
  5
23E
330
1E
100
AcDbEntity
  8
0
100
AcDbLine
 10
90.29999999999999
 20
154.917
 30
0.0
 11
93.7
 21
154.917
 31
0.0
  0
LINE
  5
23F
330
1E
100
AcDbEntity
  8
0
100
AcDbLine
 10
84.7
 20
154.917
 30
0.0
 11
90.29999999999999
 21
154.917
 31
0.0
  0
LINE
  5
240
330
1E
100
AcDbEntity
  8
0
100
AcDbLine
 10
77.40000000000001
 20
154.917
 30
0.0
 11
84.7
 21
154.917
 31
0.0
  0
LINE
  5
241
330
1E
100
AcDbEntity
  8
0
100
AcDbLine
 10
68.9
 20
154.917
 30
0.0
 11
77.40000000000001
 21
154.917
 31
0.0
  0
LINE
  5
242
330
1E
100
AcDbEntity
  8
0
100
AcDbLine
 10
93.7
 20
155.9169999999999
 30
0.0
 11
95.0
 21
155.9169999999999
 31
0.0
  0
LINE
  5
243
330
1E
100
AcDbEntity
  8
0
100
AcDbLine
 10
90.29999999999999
 20
155.9169999999999
 30
0.0
 11
93.7
 21
155.9169999999999
 31
0.0
  0
LINE
  5
244
330
1E
100
AcDbEntity
  8
0
100
AcDbLine
 10
84.7
 20
155.9169999999999
 30
0.0
 11
90.29999999999999
 21
155.9169999999999
 31
0.0
  0
LINE
  5
245
330
1E
100
AcDbEntity
  8
0
100
AcDbLine
 10
77.40000000000001
 20
155.9169999999999
 30
0.0
 11
84.7
 21
155.9169999999999
 31
0.0
  0
LINE
  5
246
330
1E
100
AcDbEntity
  8
0
100
AcDbLine
 10
68.9
 20
155.9169999999999
 30
0.0
 11
77.40000000000001
 21
155.9169999999999
 31
0.0
  0
LINE
  5
247
330
1E
100
AcDbEntity
  8
0
100
AcDbLine
 10
60.0
 20
155.9169999999999
 30
0.0
 11
68.9
 21
155.9169999999999
 31
0.0
  0
LINE
  5
248
330
1E
100
AcDbEntity
  8
0
100
AcDbLine
 10
70.59999999999999
 20
157.417
 30
0.0
 11
71.0
 21
157.417
 31
0.0
  0
LINE
  5
249
330
1E
100
AcDbEntity
  8
0
100
AcDbLine
 10
69.5
 20
157.417
 30
0.0
 11
70.59999999999999
 21
157.417
 31
0.0
  0
LINE
  5
24A
330
1E
100
AcDbEntity
  8
0
100
AcDbLine
 10
67.8
 20
157.417
 30
0.0
 11
69.5
 21
157.417
 31
0.0
  0
LINE
  5
24B
330
1E
100
AcDbEntity
  8
0
100
AcDbLine
 10
65.5
 20
157.417
 30
0.0
 11
67.8
 21
157.417
 31
0.0
  0
LINE
  5
24C
330
1E
100
AcDbEntity
  8
0
100
AcDbLine
 10
62.8
 20
157.417
 30
0.0
 11
65.5
 21
157.417
 31
0.0
  0
LINE
  5
24D
330
1E
100
AcDbEntity
  8
0
100
AcDbLine
 10
60.0
 20
157.417
 30
0.0
 11
62.8
 21
157.417
 31
0.0
  0
LINE
  5
24E
330
1E
100
AcDbEntity
  8
0
100
AcDbLine
 10
80.0
 20
157.0708461538459
 30
0.0
 11
80.0
 21
267.242
 31
0.0
  0
LINE
  5
24F
330
1E
100
AcDbEntity
  8
0
100
AcDbLine
 10
71.0
 20
157.417
 30
0.0
 11
84.0
 21
156.9169999999999
 31
0.0
  0
LINE
  5
250
330
1E
100
AcDbEntity
  8
0
100
AcDbLine
 10
84.0
 20
156.9169999999999
 30
0.0
 11
95.0
 21
155.9169999999999
 31
0.0
  0
LINE
  5
251
330
1E
100
AcDbEntity
  8
0
100
AcDbLine
 10
95.0
 20
155.9169999999999
 30
0.0
 11
95.0
 21
154.917
 31
0.0
  0
LINE
  5
252
330
1E
100
AcDbEntity
  8
0
100
AcDbLine
 10
60.0
 20
154.917
 30
0.0
 11
68.9
 21
154.917
 31
0.0
  0
LINE
  5
253
330
1E
100
AcDbEntity
  8
0
100
AcDbLine
 10
54.5
 20
157.417
 30
0.0
 11
57.2
 21
157.417
 31
0.0
  0
LINE
  5
254
330
1E
100
AcDbEntity
  8
0
100
AcDbLine
 10
54.112
 20
271.0919999999999
 30
0.0
 11
60.0
 21
271.2359999999999
 31
0.0
  0
LINE
  5
258
330
1E
100
AcDbEntity
  8
0
100
AcDbLine
 10
54.62399999999999
 20
319.998
 30
0.0
 11
60.0
 21
320.129
 31
0.0
  0
LINE
  5
25A
330
1E
100
AcDbEntity
  8
0
100
AcDbLine
 10
54.112
 20
300.6369999999999
 30
0.0
 11
60.0
 21
300.7799999999999
 31
0.0
  0
LINE
  5
25C
330
1E
100
AcDbEntity
  8
0
100
AcDbLine
 10
60.0
 20
271.2359999999999
 30
0.0
 11
65.888
 21
271.0919999999999
 31
0.0
  0
LINE
  5
25E
330
1E
100
AcDbEntity
  8
0
100
AcDbLine
 10
60.0
 20
300.7799999999999
 30
0.0
 11
65.888
 21
300.6369999999999
 31
0.0
  0
LINE
  5
263
330
1E
100
AcDbEntity
  8
0
100
AcDbLine
 10
60.0
 20
320.129
 30
0.0
 11
65.37600000000001
 21
319.998
 31
0.0
  0
LINE
  5
269
330
1E
100
AcDbEntity
  8
0
100
AcDbLine
 10
65.37600000000001
 20
319.998
 30
0.0
 11
70.41599999999999
 21
319.6479999999999
 31
0.0
  0
LINE
  5
26B
330
1E
100
AcDbEntity
  8
0
100
AcDbLine
 10
65.888
 20
271.0919999999999
 30
0.0
 11
71.408
 21
270.7089999999999
 31
0.0
  0
LINE
  5
26F
330
1E
100
AcDbEntity
  8
0
100
AcDbLine
 10
71.408
 20
270.7089999999999
 30
0.0
 11
76.28399999999999
 21
270.0699999999999
 31
0.0
  0
LINE
  5
271
330
1E
100
AcDbEntity
  8
0
100
AcDbLine
 10
70.41599999999999
 20
319.6479999999999
 30
0.0
 11
74.86799999999999
 21
319.065
 31
0.0
  0
LINE
  5
273
330
1E
100
AcDbEntity
  8
0
100
AcDbLine
 10
71.408
 20
300.253
 30
0.0
 11
76.28399999999999
 21
299.614
 31
0.0
  0
LINE
  5
275
330
1E
100
AcDbEntity
  8
0
100
AcDbLine
 10
65.888
 20
300.6369999999999
 30
0.0
 11
71.408
 21
300.253
 31
0.0
  0
LINE
  5
27A
330
1E
100
AcDbEntity
  8
0
100
AcDbLine
 10
60.0
 20
507.8299999999999
 30
0.0
 11
74.40000000000001
 21
509.023
 31
0.0
  0
LINE
  5
27C
330
1E
100
AcDbEntity
  8
0
100
AcDbLine
 10
60.0
 20
508.525
 30
0.0
 11
74.40000000000001
 21
509.8049999999999
 31
0.0
  0
LINE
  5
27D
330
1E
100
AcDbEntity
  8
0
100
AcDbLine
 10
74.40000000000001
 20
509.8049999999999
 30
0.0
 11
87.59999999999999
 21
513.35
 31
0.0
  0
LINE
  5
27F
330
1E
100
AcDbEntity
  8
0
100
AcDbLine
 10
74.40000000000001
 20
509.023
 30
0.0
 11
87.59999999999999
 21
512.3949999999999
 31
0.0
  0
LINE
  5
280
330
1E
100
AcDbEntity
  8
0
100
AcDbLine
 10
60.0
 20
508.004
 30
0.0
 11
74.40000000000001
 21
509.2839999999999
 31
0.0
  0
LINE
  5
283
330
1E
100
AcDbEntity
  8
0
100
AcDbLine
 10
76.28399999999999
 20
270.0699999999999
 30
0.0
 11
79.964
 21
269.223
 31
0.0
  0
LINE
  5
285
330
1E
100
AcDbEntity
  8
0
100
AcDbLine
 10
74.86799999999999
 20
319.065
 30
0.0
 11
78.228
 21
318.291
 31
0.0
  0
LINE
  5
287
330
1E
100
AcDbEntity
  8
0
100
AcDbLine
 10
76.28399999999999
 20
299.614
 30
0.0
 11
79.964
 21
298.7679999999999
 31
0.0
  0
LINE
  5
28B
330
1E
100
AcDbEntity
  8
0
100
AcDbLine
 10
79.964
 20
269.223
 30
0.0
 11
82.17200000000001
 21
268.2649999999999
 31
0.0
  0
LINE
  5
28D
330
1E
100
AcDbEntity
  8
0
100
AcDbLine
 10
78.228
 20
318.291
 30
0.0
 11
80.24399999999999
 21
317.416
 31
0.0
  0
LINE
  5
28F
330
1E
100
AcDbEntity
  8
0
100
AcDbLine
 10
79.964
 20
298.7679999999999
 30
0.0
 11
82.17200000000001
 21
297.809
 31
0.0
  0
LINE
  5
292
330
1E
100
AcDbEntity
  8
0
100
AcDbLine
 10
82.17200000000001
 20
268.2649999999999
 30
0.0
 11
83.0
 21
267.242
 31
0.0
  0
LINE
  5
293
330
1E
100
AcDbEntity
  8
0
100
AcDbLine
 10
81.0
 20
298.31803442029
 30
0.0
 11
81.0
 21
316.483
 31
0.0
  0
LINE
  5
295
330
1E
100
AcDbEntity
  8
0
100
AcDbLine
 10
80.24399999999999
 20
317.416
 30
0.0
 11
81.0
 21
316.483
 31
0.0
  0
LINE
  5
297
330
1E
100
AcDbEntity
  8
0
100
AcDbLine
 10
81.0
 20
316.483
 30
0.0
 11
81.0
 21
298.31803442029
 31
0.0
  0
LINE
  5
298
330
1E
100
AcDbEntity
  8
0
100
AcDbLine
 10
82.17200000000001
 20
297.809
 30
0.0
 11
83.0
 21
296.787
 31
0.0
  0
LINE
  5
29C
330
1E
100
AcDbEntity
  8
0
100
AcDbLine
 10
83.0
 20
267.242
 30
0.0
 11
83.0
 21
296.787
 31
0.0
  0
LINE
  5
29D
330
1E
100
AcDbEntity
  8
0
100
AcDbLine
 10
83.0
 20
296.787
 30
0.0
 11
83.0
 21
267.242
 31
0.0
  0
LINE
  5
29E
330
1E
100
AcDbEntity
  8
0
100
AcDbLine
 10
82.17200000000001
 20
266.22
 30
0.0
 11
83.0
 21
267.242
 31
0.0
  0
LINE
  5
29F
330
1E
100
AcDbEntity
  8
0
100
AcDbLine
 10
80.0
 20
265.2766358695649
 30
0.0
 11
82.17200000000001
 21
266.22
 31
0.0
  0
LINE
  5
2A0
330
1E
100
AcDbEntity
  8
0
100
AcDbLine
 10
78.0
 20
318.343521428571
 30
0.0
 11
78.0
 21
509.942636363636
 31
0.0
  0
LINE
  5
2A1
330
1E
100
AcDbEntity
  8
0
100
AcDbLine
 10
87.59999999999999
 20
512.3949999999999
 30
0.0
 11
97.5
 21
517.1569999999999
 31
0.0
  0
LINE
  5
2A2
330
1E
100
AcDbEntity
  8
0
100
AcDbLine
 10
74.40000000000001
 20
509.2839999999999
 30
0.0
 11
87.59999999999999
 21
512.829
 31
0.0
  0
LINE
  5
2A3
330
1E
100
AcDbEntity
  8
0
100
AcDbLine
 10
60.0
 20
514.835
 30
0.0
 11
73.7
 21
515.82
 31
0.0
  0
LINE
  5
2A4
330
1E
100
AcDbEntity
  8
0
100
AcDbLine
 10
87.59999999999999
 20
513.35
 30
0.0
 11
97.5
 21
518.373
 31
0.0
  0
LINE
  5
2A6
330
1E
100
AcDbEntity
  8
0
100
AcDbLine
 10
73.7
 20
515.82
 30
0.0
 11
86.5
 21
518.775
 31
0.0
  0
LINE
  5
2A9
330
1E
100
AcDbEntity
  8
0
100
AcDbLine
 10
60.0
 20
603.7609999999999
 30
0.0
 11
67.0
 21
603.071
 31
0.0
  0
LINE
  5
2AA
330
1E
100
AcDbEntity
  8
0
100
AcDbLine
 10
53.0
 20
603.071
 30
0.0
 11
60.0
 21
603.7609999999999
 31
0.0
  0
LINE
  5
2AC
330
1E
100
AcDbEntity
  8
0
100
AcDbLine
 10
75.9622783111819
 20
591.370897111232
 30
0.0
 11
77.09999999999999
 21
593.317
 31
0.0
  0
LINE
  5
2AF
330
1E
100
AcDbEntity
  8
0
100
AcDbLine
 10
77.09999999999999
 20
593.317
 30
0.0
 11
78.0
 21
594.944
 31
0.0
  0
LINE
  5
2B0
330
1E
100
AcDbEntity
  8
0
100
AcDbLine
 10
86.5
 20
584.7819999999999
 30
0.0
 11
92.5
 21
577.5689999999999
 31
0.0
  0
LINE
  5
2B1
330
1E
100
AcDbEntity
  8
0
100
AcDbLine
 10
78.7
 20
590.326
 30
0.0
 11
86.5
 21
584.7819999999999
 31
0.0
  0
LINE
  5
2B6
330
1E
100
AcDbEntity
  8
0
100
AcDbLine
 10
78.0
 20
594.944
 30
0.0
 11
78.79999999999999
 21
596.479
 31
0.0
  0
LINE
  5
2B7
330
1E
100
AcDbEntity
  8
0
100
AcDbLine
 10
78.79999999999999
 20
596.479
 30
0.0
 11
79.40000000000001
 21
597.69
 31
0.0
  0
LINE
  5
2BA
330
1E
100
AcDbEntity
  8
0
100
AcDbLine
 10
73.9
 20
601.102
 30
0.0
 11
79.59999999999999
 21
598.2459999999999
 31
0.0
  0
LINE
  5
2BB
330
1E
100
AcDbEntity
  8
0
100
AcDbLine
 10
79.40000000000001
 20
597.69
 30
0.0
 11
79.59999999999999
 21
598.2459999999999
 31
0.0
  0
LINE
  5
2BC
330
1E
100
AcDbEntity
  8
0
100
AcDbLine
 10
67.0
 20
603.071
 30
0.0
 11
73.9
 21
601.102
 31
0.0
  0
LINE
  5
2BD
330
1E
100
AcDbEntity
  8
0
100
AcDbLine
 10
69.7
 20
593.7609999999999
 30
0.0
 11
78.7
 21
590.326
 31
0.0
  0
LINE
  5
2BE
330
1E
100
AcDbEntity
  8
0
100
AcDbLine
 10
60.0
 20
594.955
 30
0.0
 11
69.7
 21
593.7609999999999
 31
0.0
  0
LINE
  5
2BF
330
1E
100
AcDbEntity
  8
0
100
AcDbLine
 10
86.5
 20
518.775
 30
0.0
 11
95.5
 21
522.714
 31
0.0
  0
LINE
  5
2C2
330
1E
100
AcDbEntity
  8
0
100
AcDbLine
 10
95.5
 20
522.714
 30
0.0
 11
97.5
 21
522.3669999999999
 31
0.0
  0
LINE
  5
2C3
330
1E
100
AcDbEntity
  8
0
100
AcDbLine
 10
96.2
 20
569.244
 30
0.0
 11
97.5
 21
560.2819999999999
 31
0.0
  0
LINE
  5
2C4
330
1E
100
AcDbEntity
  8
0
100
AcDbLine
 10
92.5
 20
577.5689999999999
 30
0.0
 11
96.2
 21
569.244
 31
0.0
  0
LINE
  5
2C7
330
1E
100
AcDbEntity
  8
0
100
AcDbLine
 10
87.59999999999999
 20
512.829
 30
0.0
 11
97.5
 21
517.8519999999999
 31
0.0
  0
LINE
  5
2C8
330
1E
100
AcDbEntity
  8
0
100
AcDbLine
 10
97.5
 20
517.1569999999999
 30
0.0
 11
97.5
 21
517.8519999999999
 31
0.0
  0
LINE
  5
2C9
330
1E
100
AcDbEntity
  8
0
100
AcDbLine
 10
97.5
 20
533.2393020833329
 30
0.0
 11
98.56000000000001
 21
535.849
 31
0.0
  0
LINE
  5
2CA
330
1E
100
AcDbEntity
  8
0
100
AcDbLine
 10
97.5
 20
534.281302083333
 30
0.0
 11
98.56000000000001
 21
536.8909999999999
 31
0.0
  0
LINE
  5
2CB
330
1E
100
AcDbEntity
  8
0
100
AcDbLine
 10
97.5
 20
559.669697916667
 30
0.0
 11
98.56000000000001
 21
557.0599999999999
 31
0.0
  0
LINE
  5
2CC
330
1E
100
AcDbEntity
  8
0
100
AcDbLine
 10
97.5
 20
560.2819999999999
 30
0.0
 11
97.5
 21
522.3669999999999
 31
0.0
  0
LINE
  5
2CD
330
1E
100
AcDbEntity
  8
0
100
AcDbLine
 10
97.5
 20
522.3669999999999
 30
0.0
 11
97.5
 21
560.2819999999999
 31
0.0
  0
LINE
  5
2CE
330
1E
100
AcDbEntity
  8
0
100
AcDbLine
 10
97.5
 20
522.3669999999999
 30
0.0
 11
97.5
 21
518.373
 31
0.0
  0
LINE
  5
2CF
330
1E
100
AcDbEntity
  8
0
100
AcDbLine
 10
98.56000000000001
 20
535.849
 30
0.0
 11
100.0
 21
545.934
 31
0.0
  0
LINE
  5
2D0
330
1E
100
AcDbEntity
  8
0
100
AcDbLine
 10
100.0
 20
545.934
 30
0.0
 11
100.0
 21
546.9759999999999
 31
0.0
  0
LINE
  5
2D1
330
1E
100
AcDbEntity
  8
0
100
AcDbLine
 10
98.56000000000001
 20
536.8909999999999
 30
0.0
 11
100.0
 21
546.9759999999999
 31
0.0
  0
LINE
  5
2D2
330
1E
100
AcDbEntity
  8
0
100
AcDbLine
 10
100.0
 20
546.9759999999999
 30
0.0
 11
100.0
 21
545.934
 31
0.0
  0
LINE
  5
2D3
330
1E
100
AcDbEntity
  8
0
100
AcDbLine
 10
98.56000000000001
 20
557.0599999999999
 30
0.0
 11
100.0
 21
546.9759999999999
 31
0.0
  0
LINE
  5
2D4
330
1E
100
AcDbEntity
  8
0
100
AcDbLine
 10
97.5
 20
518.373
 30
0.0
 11
97.5
 21
517.8519999999999
 31
0.0
  0
LINE
  5
2D5
330
1E
100
AcDbEntity
  8
0
100
AcDbLine
 10
97.5
 20
518.373
 30
0.0
 11
97.5
 21
522.3669999999999
 31
0.0
  0
LINE
  5
2D6
330
1E
100
AcDbEntity
  8
0
100
AcDbLine
 10
97.5
 20
517.8519999999999
 30
0.0
 11
97.5
 21
518.373
 31
0.0
  0
LINE
  5
2D7
330
1E
100
AcDbEntity
  8
0
100
AcDbLine
 10
97.5
 20
517.8519999999999
 30
0.0
 11
97.5
 21
517.1569999999999
 31
0.0
  0
LINE
  5
2D8
330
1E
100
AcDbEntity
  8
0
100
AcDbLine
 10
96.6227091430176
 20
517.927885659129
 30
0.0
 11
97.5
 21
517.8519999999999
 31
0.0
  0
LINE
  5
2D9
330
1E
100
AcDbEntity
  8
0
100
AcDbLine
 10
57.2
 20
157.417
 30
0.0
 11
60.0
 21
157.417
 31
0.0
  0
LINE
  5
2DA
330
1E
100
AcDbEntity
  8
0
100
AcDbLine
 10
51.1
 20
154.917
 30
0.0
 11
60.0
 21
154.917
 31
0.0
  0
LINE
  5
2DF
330
1E
100
AcDbEntity
  8
0
100
AcDbLine
 10
69.92
 20
129.277
 30
0.0
 11
64.84768365010677
 21
131.440018805895
 31
0.0
  0
LINE
  5
2E0
330
1E
100
AcDbEntity
  8
0
100
AcDbLine
 10
64.84768365010677
 20
131.440018805895
 30
0.0
 11
60.0
 21
131.9169999999999
 31
0.0
  0
LINE
  5
2E1
330
1E
100
AcDbEntity
  8
0
100
AcDbLine
 10
54.88
 20
131.197
 30
0.0
 11
50.08
 21
129.277
 31
0.0
  0
LINE
  5
2E2
330
1E
100
AcDbEntity
  8
0
100
AcDbLine
 10
87.0
 20
61.9555
 30
0.0
 11
86.7711297237288
 21
38.28780767968964
 31
0.0
  0
LINE
  5
2E3
330
1E
100
AcDbEntity
  8
0
100
AcDbLine
 10
86.7711297237288
 20
38.28780767968964
 30
0.0
 11
86.3519999999999
 21
37.917
 31
0.0
  0
ENDSEC
  0
SECTION
  2
OBJECTS
  0
DICTIONARY
  5
C
330
0
100
AcDbDictionary
  3
ACAD_GROUP
350
D
  3
ACAD_LAYOUT
350
19
  3
ACAD_MLINESTYLE
350
16
  3
ACAD_PLOTSETTINGS
350
18
1001
ACAD
1000
TREAT_AS_HARD
1070
     0
  0
DICTIONARY
  5
2E9
330
1E
100
AcDbDictionary
  3
ACAD_LAYOUTSELFREF
350
2EA
  0
DICTIONARY
  5
2E7
330
1A
100
AcDbDictionary
  3
ACAD_LAYOUTSELFREF
350
2E8
  0
DICTIONARY
  5
D
102
{ACAD_REACTORS
330
C
102
}
330
C
100
AcDbDictionary
1001
ACAD
1000
TREAT_AS_HARD
1070
     0
  0
DICTIONARY
  5
19
102
{ACAD_REACTORS
330
C
102
}
330
C
100
AcDbDictionary
1001
ACAD
1000
TREAT_AS_HARD
1070
     0
  0
DICTIONARY
  5
16
102
{ACAD_REACTORS
330
C
102
}
330
C
100
AcDbDictionary
  3
STANDARD
350
17
1001
ACAD
1000
TREAT_AS_HARD
1070
     0
  0
DICTIONARY
  5
18
102
{ACAD_REACTORS
330
C
102
}
330
C
100
AcDbDictionary
1001
ACAD
1000
TREAT_AS_HARD
1070
     0
  0
XRECORD
  5
2EA
102
{ACAD_REACTORS
330
2E9
102
}
330
2E9
100
AcDbXrecord
340
1E
  0
XRECORD
  5
2E8
102
{ACAD_REACTORS
330
2E7
102
}
330
2E7
100
AcDbXrecord
340
1A
  0
MLINESTYLE
  5
17
102
{ACAD_REACTORS
330
16
102
}
330
16
100
AcDbMlineStyle
  2
STANDARD
 70
     0
  3

 62
   256
 51
90.0
 52
90.0
 71
     2
 49
0.5
 62
   256
  6
BYLAYER
 49
-0.5
 62
   256
  6
BYLAYER
  0
ENDSEC
  0
EOF
