  0
SECTION
  2
HEADER
  9
$ACADVER
  1
AC1015
  9
$ACADMAINTVER
 70
    13
  9
$DWGCODEPAGE
  3
ANSI_1252
  9
$INSBASE
 10
0.0
 20
0.0
 30
0.0
  9
$EXTMIN
 10
-0.164080000000028
 20
0.238999999999965
 30
0.0
  9
$EXTMAX
 10
594.16408
 20
603.7609999999999
 30
0.0
  9
$LIMMIN
 10
0.0
 20
0.0
  9
$LIMMAX
 10
12.0
 20
9.0
  9
$ORTHOMODE
 70
     0
  9
$REGENMODE
 70
     1
  9
$FILLMODE
 70
     1
  9
$QTEXTMODE
 70
     0
  9
$MIRRTEXT
 70
     1
  9
$LTSCALE
 40
1.0
  9
$ATTMODE
 70
     1
  9
$TEXTSIZE
 40
0.2
  9
$TRACEWID
 40
0.05
  9
$TEXTSTYLE
  7
Standard
  9
$CLAYER
  8
0
  9
$CELTYPE
  6
Continuous
  9
$CECOLOR
 62
   256
  9
$CELTSCALE
 40
1.0
  9
$DISPSILH
 70
     0
  9
$DIMSCALE
 40
1.0
  9
$DIMASZ
 40
0.18
  9
$DIMEXO
 40
0.0625
  9
$DIMDLI
 40
0.38
  9
$DIMRND
 40
0.0
  9
$DIMDLE
 40
0.0
  9
$DIMEXE
 40
0.18
  9
$DIMTP
 40
0.0
  9
$DIMTM
 40
0.0
  9
$DIMTXT
 40
0.18
  9
$DIMCEN
 40
0.09
  9
$DIMTSZ
 40
0.0
  9
$DIMTOL
 70
     0
  9
$DIMLIM
 70
     0
  9
$DIMTIH
 70
     1
  9
$DIMTOH
 70
     1
  9
$DIMSE1
 70
     0
  9
$DIMSE2
 70
     0
  9
$DIMTAD
 70
     0
  9
$DIMZIN
 70
     0
  9
$DIMBLK
  1

  9
$DIMASO
 70
     1
  9
$DIMSHO
 70
     1
  9
$DIMPOST
  1

  9
$DIMAPOST
  1

  9
$DIMALT
 70
     0
  9
$DIMALTD
 70
     2
  9
$DIMALTF
 40
25.4
  9
$DIMLFAC
 40
1.0
  9
$DIMTOFL
 70
     0
  9
$DIMTVP
 40
0.0
  9
$DIMTIX
 70
     0
  9
$DIMSOXD
 70
     0
  9
$DIMSAH
 70
     0
  9
$DIMBLK1
  1

  9
$DIMBLK2
  1

  9
$DIMSTYLE
  2
Standard
  9
$DIMCLRD
 70
     0
  9
$DIMCLRE
 70
     0
  9
$DIMCLRT
 70
     0
  9
$DIMTFAC
 40
1.0
  9
$DIMGAP
 40
0.09
  9
$DIMJUST
 70
     0
  9
$DIMSD1
 70
     0
  9
$DIMSD2
 70
     0
  9
$DIMTOLJ
 70
     1
  9
$DIMTZIN
 70
     0
  9
$DIMALTZ
 70
     0
  9
$DIMALTTZ
 70
     0
  9
$DIMUPT
 70
     0
  9
$DIMDEC
 70
     4
  9
$DIMTDEC
 70
     4
  9
$DIMALTU
 70
     2
  9
$DIMALTTD
 70
     2
  9
$DIMTXSTY
  7
Standard
  9
$DIMAUNIT
 70
     0
  9
$DIMADEC
 70
     0
  9
$DIMALTRND
 40
0.0
  9
$DIMAZIN
 70
     0
  9
$DIMDSEP
 70
    46
  9
$DIMATFIT
 70
     3
  9
$DIMFRAC
 70
     0
  9
$DIMLDRBLK
  1

  9
$DIMLUNIT
 70
     2
  9
$DIMLWD
 70
    -2
  9
$DIMLWE
 70
    -2
  9
$DIMTMOVE
 70
     0
  9
$LUNITS
 70
     2
  9
$LUPREC
 70
     4
  9
$SKETCHINC
 40
0.1
  9
$FILLETRAD
 40
0.0
  9
$AUNITS
 70
     0
  9
$AUPREC
 70
     0
  9
$MENU
  1
.
  9
$ELEVATION
 40
0.0
  9
$PELEVATION
 40
0.0
  9
$THICKNESS
 40
0.0
  9
$LIMCHECK
 70
     0
  9
$CHAMFERA
 40
0.0
  9
$CHAMFERB
 40
0.0
  9
$CHAMFERC
 40
0.0
  9
$CHAMFERD
 40
0.0
  9
$SKPOLY
 70
     0
  9
$TDCREATE
 40
2454781.437012801
  9
$TDUCREATE
 40
2454781.395346134
  9
$TDUPDATE
 40
2454781.444239178
  9
$TDUUPDATE
 40
2454781.402572511
  9
$TDINDWG
 40
0.0072263773
  9
$TDUSRTIMER
 40
0.0072263773
  9
$USRTIMER
 70
     1
  9
$ANGBASE
 50
0.0
  9
$ANGDIR
 70
     0
  9
$PDMODE
 70
     0
  9
$PDSIZE
 40
0.0
  9
$PLINEWID
 40
0.0
  9
$SPLFRAME
 70
     0
  9
$SPLINETYPE
 70
     6
  9
$SPLINESEGS
 70
     8
  9
$HANDSEED
  5
584
  9
$SURFTAB1
 70
     6
  9
$SURFTAB2
 70
     6
  9
$SURFTYPE
 70
     6
  9
$SURFU
 70
     6
  9
$SURFV
 70
     6
  9
$UCSBASE
  2

  9
$UCSNAME
  2

  9
$UCSORG
 10
0.0
 20
0.0
 30
0.0
  9
$UCSXDIR
 10
1.0
 20
0.0
 30
0.0
  9
$UCSYDIR
 10
0.0
 20
1.0
 30
0.0
  9
$UCSORTHOREF
  2

  9
$UCSORTHOVIEW
 70
     1
  9
$UCSORGTOP
 10
0.0
 20
0.0
 30
0.0
  9
$UCSORGBOTTOM
 10
0.0
 20
0.0
 30
0.0
  9
$UCSORGLEFT
 10
0.0
 20
0.0
 30
0.0
  9
$UCSORGRIGHT
 10
0.0
 20
0.0
 30
0.0
  9
$UCSORGFRONT
 10
0.0
 20
0.0
 30
0.0
  9
$UCSORGBACK
 10
0.0
 20
0.0
 30
0.0
  9
$PUCSBASE
  2

  9
$PUCSNAME
  2

  9
$PUCSORG
 10
0.0
 20
0.0
 30
0.0
  9
$PUCSXDIR
 10
1.0
 20
0.0
 30
0.0
  9
$PUCSYDIR
 10
0.0
 20
1.0
 30
0.0
  9
$PUCSORTHOREF
  2

  9
$PUCSORTHOVIEW
 70
     0
  9
$PUCSORGTOP
 10
0.0
 20
0.0
 30
0.0
  9
$PUCSORGBOTTOM
 10
0.0
 20
0.0
 30
0.0
  9
$PUCSORGLEFT
 10
0.0
 20
0.0
 30
0.0
  9
$PUCSORGRIGHT
 10
0.0
 20
0.0
 30
0.0
  9
$PUCSORGFRONT
 10
0.0
 20
0.0
 30
0.0
  9
$PUCSORGBACK
 10
0.0
 20
0.0
 30
0.0
  9
$USERI1
 70
     0
  9
$USERI2
 70
     0
  9
$USERI3
 70
     0
  9
$USERI4
 70
     0
  9
$USERI5
 70
     0
  9
$USERR1
 40
0.0
  9
$USERR2
 40
0.0
  9
$USERR3
 40
0.0
  9
$USERR4
 40
0.0
  9
$USERR5
 40
0.0
  9
$WORLDVIEW
 70
     1
  9
$SHADEDGE
 70
     3
  9
$SHADEDIF
 70
    70
  9
$TILEMODE
 70
     1
  9
$MAXACTVP
 70
    64
  9
$PINSBASE
 10
0.0
 20
0.0
 30
0.0
  9
$PLIMCHECK
 70
     0
  9
$PEXTMIN
 10
1.000000000000000E+20
 20
1.000000000000000E+20
 30
1.000000000000000E+20
  9
$PEXTMAX
 10
-1.000000000000000E+20
 20
-1.000000000000000E+20
 30
-1.000000000000000E+20
  9
$PLIMMIN
 10
0.0
 20
0.0
  9
$PLIMMAX
 10
12.0
 20
9.0
  9
$UNITMODE
 70
     0
  9
$VISRETAIN
 70
     1
  9
$PLINEGEN
 70
     0
  9
$PSLTSCALE
 70
     1
  9
$TREEDEPTH
 70
  3020
  9
$CMLSTYLE
  2
Standard
  9
$CMLJUST
 70
     0
  9
$CMLSCALE
 40
1.0
  9
$PROXYGRAPHICS
 70
     1
  9
$MEASUREMENT
 70
     0
  9
$CELWEIGHT
370
    -1
  9
$ENDCAPS
280
     0
  9
$JOINSTYLE
280
     0
  9
$LWDISPLAY
290
     0
  9
$INSUNITS
 70
     0
  9
$HYPERLINKBASE
  1

  9
$STYLESHEET
  1

  9
$XEDIT
290
     1
  9
$CEPSNTYPE
380
     0
  9
$PSTYLEMODE
290
     1
  9
$FINGERPRINTGUID
  2
{4D5E9E1D-6511-49F7-98DE-764FF95AB818}
  9
$VERSIONGUID
  2
{81FE8116-14B1-4309-9430-84141D8E335E}
  9
$EXTNAMES
290
     1
  9
$PSVPSCALE
 40
0.0
  9
$OLESTARTUP
290
     0
  0
ENDSEC
  0
SECTION
  2
CLASSES
  0
CLASS
  1
ACDBDICTIONARYWDFLT
  2
AcDbDictionaryWithDefault
  3
AutoCAD 2000
 90
        0
280
     0
281
     0
  0
CLASS
  1
ACDBPLACEHOLDER
  2
AcDbPlaceHolder
  3
AutoCAD 2000
 90
        0
280
     0
281
     0
  0
CLASS
  1
LAYOUT
  2
AcDbLayout
  3
AutoCAD 2000
 90
        0
280
     0
281
     0
  0
CLASS
  1
DICTIONARYVAR
  2
AcDbDictionaryVar
  3
AutoCAD 2000
 90
        0
280
     0
281
     0
  0
ENDSEC
  0
SECTION
  2
TABLES
  0
TABLE
  2
VPORT
  5
8
330
0
100
AcDbSymbolTable
 70
     2
  0
VPORT
  5
583
330
8
100
AcDbSymbolTableRecord
100
AcDbViewportTableRecord
  2
*Active
 70
     0
 10
0.0
 20
0.0
 11
1.0
 21
1.0
 12
297.0
 22
302.0
 13
0.0
 23
0.0
 14
1.0
 24
1.0
 15
0.0
 25
0.0
 16
0.0
 26
0.0
 36
1.0
 17
0.0
 27
0.0
 37
0.0
 40
608.1526035805628
 41
2.078104993597951
 42
50.0
 43
0.0
 44
0.0
 50
0.0
 51
0.0
 71
     0
 72
   100
 73
     1
 74
     3
 75
     0
 76
     0
 77
     0
 78
     0
281
     0
 65
     1
110
0.0
120
0.0
130
0.0
111
1.0
121
0.0
131
0.0
112
0.0
122
1.0
132
0.0
 79
     1
146
0.0
  0
ENDTAB
  0
TABLE
  2
LTYPE
  5
5
330
0
100
AcDbSymbolTable
 70
     1
  0
LTYPE
  5
13
330
5
100
AcDbSymbolTableRecord
100
AcDbLinetypeTableRecord
  2
ByBlock
 70
     0
  3

 72
    65
 73
     0
 40
0.0
  0
LTYPE
  5
14
330
5
100
AcDbSymbolTableRecord
100
AcDbLinetypeTableRecord
  2
ByLayer
 70
     0
  3

 72
    65
 73
     0
 40
0.0
  0
LTYPE
  5
15
330
5
100
AcDbSymbolTableRecord
100
AcDbLinetypeTableRecord
  2
Continuous
 70
     0
  3
Solid line
 72
    65
 73
     0
 40
0.0
  0
ENDTAB
  0
TABLE
  2
LAYER
  5
2
330
0
100
AcDbSymbolTable
 70
     1
  0
LAYER
  5
10
330
2
100
AcDbSymbolTableRecord
100
AcDbLayerTableRecord
  2
0
 70
     0
 62
     7
  6
Continuous
370
    -3
390
F
  0
ENDTAB
  0
TABLE
  2
STYLE
  5
3
330
0
100
AcDbSymbolTable
 70
     1
  0
STYLE
  5
11
330
3
100
AcDbSymbolTableRecord
100
AcDbTextStyleTableRecord
  2
Standard
 70
     0
 40
0.0
 41
1.0
 50
0.0
 71
     0
 42
0.2
  3
txt
  4

  0
ENDTAB
  0
TABLE
  2
VIEW
  5
6
330
0
100
AcDbSymbolTable
 70
     0
  0
ENDTAB
  0
TABLE
  2
UCS
  5
7
330
0
100
AcDbSymbolTable
 70
     0
  0
ENDTAB
  0
TABLE
  2
APPID
  5
9
330
0
100
AcDbSymbolTable
 70
     1
  0
APPID
  5
12
330
9
100
AcDbSymbolTableRecord
100
AcDbRegAppTableRecord
  2
ACAD
 70
     0
  0
ENDTAB
  0
TABLE
  2
DIMSTYLE
  5
A
330
0
100
AcDbSymbolTable
 70
     1
100
AcDbDimStyleTable
 71
     0
  0
DIMSTYLE
105
57D
330
A
100
AcDbSymbolTableRecord
100
AcDbDimStyleTableRecord
  2
Standard
 70
     0
340
11
  0
ENDTAB
  0
TABLE
  2
BLOCK_RECORD
  5
1
330
0
100
AcDbSymbolTable
 70
     0
  0
BLOCK_RECORD
  5
1E
330
1
100
AcDbSymbolTableRecord
100
AcDbBlockTableRecord
  2
*Model_Space
340
21
  0
BLOCK_RECORD
  5
1A
330
1
100
AcDbSymbolTableRecord
100
AcDbBlockTableRecord
  2
*Paper_Space
340
1D
  0
ENDTAB
  0
ENDSEC
  0
SECTION
  2
BLOCKS
  0
BLOCK
  5
1F
330
1E
100
AcDbEntity
  8
0
100
AcDbBlockBegin
  2
*Model_Space
 70
     0
 10
0.0
 20
0.0
 30
0.0
  3
*Model_Space
  1

  0
ENDBLK
  5
20
330
1E
100
AcDbEntity
  8
0
100
AcDbBlockEnd
  0
BLOCK
  5
1B
330
1A
100
AcDbEntity
 67
     1
  8
0
100
AcDbBlockBegin
  2
*Paper_Space
 70
     0
 10
0.0
 20
0.0
 30
0.0
  3
*Paper_Space
  1

  0
ENDBLK
  5
1C
330
1A
100
AcDbEntity
 67
     1
  8
0
100
AcDbBlockEnd
  0
ENDSEC
  0
SECTION
  2
ENTITIES
  0
LINE
  5
22
330
1E
100
AcDbEntity
  8
0
100
AcDbLine
 10
235.4860799999999
 20
85.91700000000001
 30
0.0
 11
235.4860799999999
 21
86.85299999999999
 31
0.0
  0
LINE
  5
23
330
1E
100
AcDbEntity
  8
0
100
AcDbLine
 10
235.4860799999999
 20
85.91700000000001
 30
0.0
 11
237.4860799999999
 21
85.91700000000001
 31
0.0
  0
LINE
  5
24
330
1E
100
AcDbEntity
  8
0
100
AcDbLine
 10
221.4860799999999
 20
89.33339999999999
 30
0.0
 11
221.4860799999999
 21
91.917
 31
0.0
  0
LINE
  5
25
330
1E
100
AcDbEntity
  8
0
100
AcDbLine
 10
221.4860799999999
 20
89.33339999999999
 30
0.0
 11
221.4860799999999
 21
90.3334
 31
0.0
  0
LINE
  5
26
330
1E
100
AcDbEntity
  8
0
100
AcDbLine
 10
221.4860799999999
 20
89.33339999999999
 30
0.0
 11
235.4860799999999
 21
89.33339999999999
 31
0.0
  0
LINE
  5
27
330
1E
100
AcDbEntity
  8
0
100
AcDbLine
 10
221.4860799999999
 20
89.33339999999999
 30
0.0
 11
221.4860799999999
 21
91.93139999999999
 31
0.0
  0
LINE
  5
28
330
1E
100
AcDbEntity
  8
0
100
AcDbLine
 10
221.4860799999999
 20
88.917
 30
0.0
 11
221.4860799999999
 21
89.745
 31
0.0
  0
LINE
  5
29
330
1E
100
AcDbEntity
  8
0
100
AcDbLine
 10
221.4860799999999
 20
88.917
 30
0.0
 11
235.4860799999999
 21
88.917
 31
0.0
  0
LINE
  5
2A
330
1E
100
AcDbEntity
  8
0
100
AcDbLine
 10
235.4860799999999
 20
89.33339999999999
 30
0.0
 11
235.4860799999999
 21
88.917
 31
0.0
  0
LINE
  5
2B
330
1E
100
AcDbEntity
  8
0
100
AcDbLine
 10
235.4860799999999
 20
89.33339999999999
 30
0.0
 11
235.4860799999999
 21
90.3334
 31
0.0
  0
LINE
  5
2C
330
1E
100
AcDbEntity
  8
0
100
AcDbLine
 10
235.4860799999999
 20
88.917
 30
0.0
 11
235.4860799999999
 21
86.85299999999999
 31
0.0
  0
LINE
  5
2D
330
1E
100
AcDbEntity
  8
0
100
AcDbLine
 10
235.4860799999999
 20
88.917
 30
0.0
 11
235.4860799999999
 21
89.33339999999999
 31
0.0
  0
LINE
  5
2E
330
1E
100
AcDbEntity
  8
0
100
AcDbLine
 10
235.4860799999999
 20
86.85299999999999
 30
0.0
 11
235.4860799999999
 21
89.34899999999998
 31
0.0
  0
LINE
  5
2F
330
1E
100
AcDbEntity
  8
0
100
AcDbLine
 10
235.4860799999999
 20
86.85299999999999
 30
0.0
 11
235.4860799999999
 21
85.91700000000001
 31
0.0
  0
LINE
  5
30
330
1E
100
AcDbEntity
  8
0
100
AcDbLine
 10
235.4860799999999
 20
86.85299999999999
 30
0.0
 11
235.4860799999999
 21
88.917
 31
0.0
  0
LINE
  5
31
330
1E
100
AcDbEntity
  8
0
100
AcDbLine
 10
235.4860799999999
 20
89.34899999999998
 30
0.0
 11
235.4860799999999
 21
93.50900000000001
 31
0.0
  0
LINE
  5
32
330
1E
100
AcDbEntity
  8
0
100
AcDbLine
 10
235.4860799999999
 20
89.34899999999998
 30
0.0
 11
235.4860799999999
 21
86.85299999999999
 31
0.0
  0
LINE
  5
33
330
1E
100
AcDbEntity
  8
0
100
AcDbLine
 10
237.4860799999999
 20
85.91700000000001
 30
0.0
 11
237.4860799999999
 21
86.85299999999999
 31
0.0
  0
LINE
  5
34
330
1E
100
AcDbEntity
  8
0
100
AcDbLine
 10
237.4860799999999
 20
86.85299999999999
 30
0.0
 11
237.4860799999999
 21
89.34899999999998
 31
0.0
  0
LINE
  5
35
330
1E
100
AcDbEntity
  8
0
100
AcDbLine
 10
237.4860799999999
 20
86.85299999999999
 30
0.0
 11
237.4860799999999
 21
85.91700000000001
 31
0.0
  0
LINE
  5
36
330
1E
100
AcDbEntity
  8
0
100
AcDbLine
 10
142.48608
 20
91.917
 30
0.0
 11
221.4860799999999
 21
91.917
 31
0.0
  0
LINE
  5
37
330
1E
100
AcDbEntity
  8
0
100
AcDbLine
 10
221.4860799999999
 20
90.3334
 30
0.0
 11
221.4860799999999
 21
89.33339999999999
 31
0.0
  0
LINE
  5
38
330
1E
100
AcDbEntity
  8
0
100
AcDbLine
 10
221.4860799999999
 20
90.3334
 30
0.0
 11
221.4860799999999
 21
91.917
 31
0.0
  0
LINE
  5
39
330
1E
100
AcDbEntity
  8
0
100
AcDbLine
 10
221.4860799999999
 20
90.3334
 30
0.0
 11
235.4860799999999
 21
90.3334
 31
0.0
  0
LINE
  5
3A
330
1E
100
AcDbEntity
  8
0
100
AcDbLine
 10
221.4860799999999
 20
90.3334
 30
0.0
 11
221.4860799999999
 21
92.93139999999999
 31
0.0
  0
LINE
  5
3B
330
1E
100
AcDbEntity
  8
0
100
AcDbLine
 10
221.4860799999999
 20
91.93139999999999
 30
0.0
 11
221.4860799999999
 21
89.33339999999999
 31
0.0
  0
LINE
  5
3C
330
1E
100
AcDbEntity
  8
0
100
AcDbLine
 10
221.4860799999999
 20
91.93139999999999
 30
0.0
 11
221.4860799999999
 21
92.93139999999999
 31
0.0
  0
LINE
  5
3D
330
1E
100
AcDbEntity
  8
0
100
AcDbLine
 10
221.4860799999999
 20
91.917
 30
0.0
 11
221.4860799999999
 21
89.745
 31
0.0
  0
LINE
  5
3E
330
1E
100
AcDbEntity
  8
0
100
AcDbLine
 10
221.4860799999999
 20
91.917
 30
0.0
 11
221.4860799999999
 21
90.3334
 31
0.0
  0
LINE
  5
3F
330
1E
100
AcDbEntity
  8
0
100
AcDbLine
 10
221.4860799999999
 20
91.917
 30
0.0
 11
221.4860799999999
 21
89.33339999999999
 31
0.0
  0
LINE
  5
40
330
1E
100
AcDbEntity
  8
0
100
AcDbLine
 10
235.4860799999999
 20
90.3334
 30
0.0
 11
235.4860799999999
 21
89.33339999999999
 31
0.0
  0
LINE
  5
41
330
1E
100
AcDbEntity
  8
0
100
AcDbLine
 10
235.4860799999999
 20
90.3334
 30
0.0
 11
235.4860799999999
 21
92.93139999999999
 31
0.0
  0
LINE
  5
42
330
1E
100
AcDbEntity
  8
0
100
AcDbLine
 10
221.4860799999999
 20
89.745
 30
0.0
 11
221.4860799999999
 21
91.95299999999999
 31
0.0
  0
LINE
  5
43
330
1E
100
AcDbEntity
  8
0
100
AcDbLine
 10
221.4860799999999
 20
89.745
 30
0.0
 11
221.4860799999999
 21
88.917
 31
0.0
  0
LINE
  5
44
330
1E
100
AcDbEntity
  8
0
100
AcDbLine
 10
221.4860799999999
 20
89.745
 30
0.0
 11
221.4860799999999
 21
91.917
 31
0.0
  0
LINE
  5
45
330
1E
100
AcDbEntity
  8
0
100
AcDbLine
 10
221.4860799999999
 20
92.93139999999999
 30
0.0
 11
221.4860799999999
 21
91.93139999999999
 31
0.0
  0
LINE
  5
46
330
1E
100
AcDbEntity
  8
0
100
AcDbLine
 10
221.4860799999999
 20
92.93139999999999
 30
0.0
 11
221.4860799999999
 21
90.3334
 31
0.0
  0
LINE
  5
47
330
1E
100
AcDbEntity
  8
0
100
AcDbLine
 10
221.4860799999999
 20
91.95299999999999
 30
0.0
 11
221.4860799999999
 21
95.63299999999999
 31
0.0
  0
LINE
  5
48
330
1E
100
AcDbEntity
  8
0
100
AcDbLine
 10
221.4860799999999
 20
91.95299999999999
 30
0.0
 11
221.4860799999999
 21
89.745
 31
0.0
  0
LINE
  5
49
330
1E
100
AcDbEntity
  8
0
100
AcDbLine
 10
235.4860799999999
 20
92.93139999999999
 30
0.0
 11
235.4860799999999
 21
95.63299999999999
 31
0.0
  0
LINE
  5
4A
330
1E
100
AcDbEntity
  8
0
100
AcDbLine
 10
235.4860799999999
 20
92.93139999999999
 30
0.0
 11
235.4860799999999
 21
90.3334
 31
0.0
  0
LINE
  5
4B
330
1E
100
AcDbEntity
  8
0
100
AcDbLine
 10
129.2860799999999
 20
93.65479999999999
 30
0.0
 11
142.48608
 21
91.917
 31
0.0
  0
LINE
  5
4C
330
1E
100
AcDbEntity
  8
0
100
AcDbLine
 10
116.98608
 20
98.74970000000001
 30
0.0
 11
129.2860799999999
 21
93.65479999999999
 31
0.0
  0
LINE
  5
4D
330
1E
100
AcDbEntity
  8
0
100
AcDbLine
 10
221.4860799999999
 20
95.63299999999999
 30
0.0
 11
221.4860799999999
 21
100.509
 31
0.0
  0
LINE
  5
4E
330
1E
100
AcDbEntity
  8
0
100
AcDbLine
 10
221.4860799999999
 20
95.63299999999999
 30
0.0
 11
221.4860799999999
 21
91.95299999999999
 31
0.0
  0
LINE
  5
4F
330
1E
100
AcDbEntity
  8
0
100
AcDbLine
 10
235.4860799999999
 20
95.63299999999999
 30
0.0
 11
235.4860799999999
 21
100.509
 31
0.0
  0
LINE
  5
50
330
1E
100
AcDbEntity
  8
0
100
AcDbLine
 10
235.4860799999999
 20
95.63299999999999
 30
0.0
 11
235.4860799999999
 21
92.93139999999999
 31
0.0
  0
LINE
  5
51
330
1E
100
AcDbEntity
  8
0
100
AcDbLine
 10
235.4860799999999
 20
93.50900000000001
 30
0.0
 11
235.4860799999999
 21
99.021
 31
0.0
  0
LINE
  5
52
330
1E
100
AcDbEntity
  8
0
100
AcDbLine
 10
235.4860799999999
 20
93.50900000000001
 30
0.0
 11
235.4860799999999
 21
89.34899999999998
 31
0.0
  0
LINE
  5
53
330
1E
100
AcDbEntity
  8
0
100
AcDbLine
 10
237.4860799999999
 20
91.917
 30
0.0
 11
281.4860799999999
 21
91.917
 31
0.0
  0
LINE
  5
54
330
1E
100
AcDbEntity
  8
0
100
AcDbLine
 10
235.4860799999999
 20
99.021
 30
0.0
 11
235.4860799999999
 21
105.261
 31
0.0
  0
LINE
  5
55
330
1E
100
AcDbEntity
  8
0
100
AcDbLine
 10
235.4860799999999
 20
99.021
 30
0.0
 11
235.4860799999999
 21
93.50900000000001
 31
0.0
  0
LINE
  5
56
330
1E
100
AcDbEntity
  8
0
100
AcDbLine
 10
237.4860799999999
 20
89.34899999999998
 30
0.0
 11
237.4860799999999
 21
93.50900000000001
 31
0.0
  0
LINE
  5
57
330
1E
100
AcDbEntity
  8
0
100
AcDbLine
 10
237.4860799999999
 20
89.34899999999998
 30
0.0
 11
237.4860799999999
 21
86.85299999999999
 31
0.0
  0
LINE
  5
58
330
1E
100
AcDbEntity
  8
0
100
AcDbLine
 10
237.4860799999999
 20
93.50900000000001
 30
0.0
 11
237.4860799999999
 21
99.021
 31
0.0
  0
LINE
  5
59
330
1E
100
AcDbEntity
  8
0
100
AcDbLine
 10
237.4860799999999
 20
93.50900000000001
 30
0.0
 11
237.4860799999999
 21
89.34899999999998
 31
0.0
  0
LINE
  5
5A
330
1E
100
AcDbEntity
  8
0
100
AcDbLine
 10
221.4860799999999
 20
100.509
 30
0.0
 11
221.4860799999999
 21
106.0289999999999
 31
0.0
  0
LINE
  5
5B
330
1E
100
AcDbEntity
  8
0
100
AcDbLine
 10
221.4860799999999
 20
100.509
 30
0.0
 11
221.4860799999999
 21
95.63299999999999
 31
0.0
  0
LINE
  5
5C
330
1E
100
AcDbEntity
  8
0
100
AcDbLine
 10
106.42408
 20
106.8545999999999
 30
0.0
 11
116.98608
 21
98.74970000000001
 31
0.0
  0
LINE
  5
5D
330
1E
100
AcDbEntity
  8
0
100
AcDbLine
 10
221.4860799999999
 20
110.9169999999999
 30
0.0
 11
235.4860799999999
 21
110.9169999999999
 31
0.0
  0
LINE
  5
5E
330
1E
100
AcDbEntity
  8
0
100
AcDbLine
 10
221.4860799999999
 20
110.9169999999999
 30
0.0
 11
221.4860799999999
 21
112.917
 31
0.0
  0
LINE
  5
5F
330
1E
100
AcDbEntity
  8
0
100
AcDbLine
 10
221.4860799999999
 20
111.9169999999999
 30
0.0
 11
221.4860799999999
 21
106.0289999999999
 31
0.0
  0
LINE
  5
60
330
1E
100
AcDbEntity
  8
0
100
AcDbLine
 10
221.4860799999999
 20
111.9169999999999
 30
0.0
 11
221.4860799999999
 21
114.917
 31
0.0
  0
LINE
  5
61
330
1E
100
AcDbEntity
  8
0
100
AcDbLine
 10
235.4860799999999
 20
110.9169999999999
 30
0.0
 11
235.4860799999999
 21
106.0289999999999
 31
0.0
  0
LINE
  5
62
330
1E
100
AcDbEntity
  8
0
100
AcDbLine
 10
235.4860799999999
 20
110.9169999999999
 30
0.0
 11
235.4860799999999
 21
112.917
 31
0.0
  0
LINE
  5
63
330
1E
100
AcDbEntity
  8
0
100
AcDbLine
 10
221.4860799999999
 20
106.0289999999999
 30
0.0
 11
221.4860799999999
 21
111.9169999999999
 31
0.0
  0
LINE
  5
64
330
1E
100
AcDbEntity
  8
0
100
AcDbLine
 10
221.4860799999999
 20
106.0289999999999
 30
0.0
 11
221.4860799999999
 21
100.509
 31
0.0
  0
LINE
  5
65
330
1E
100
AcDbEntity
  8
0
100
AcDbLine
 10
235.4860799999999
 20
100.509
 30
0.0
 11
235.4860799999999
 21
106.0289999999999
 31
0.0
  0
LINE
  5
66
330
1E
100
AcDbEntity
  8
0
100
AcDbLine
 10
235.4860799999999
 20
100.509
 30
0.0
 11
235.4860799999999
 21
95.63299999999999
 31
0.0
  0
LINE
  5
67
330
1E
100
AcDbEntity
  8
0
100
AcDbLine
 10
235.4860799999999
 20
106.0289999999999
 30
0.0
 11
235.4860799999999
 21
110.9169999999999
 31
0.0
  0
LINE
  5
68
330
1E
100
AcDbEntity
  8
0
100
AcDbLine
 10
235.4860799999999
 20
106.0289999999999
 30
0.0
 11
235.4860799999999
 21
100.509
 31
0.0
  0
LINE
  5
69
330
1E
100
AcDbEntity
  8
0
100
AcDbLine
 10
221.4860799999999
 20
112.917
 30
0.0
 11
235.4860799999999
 21
112.917
 31
0.0
  0
LINE
  5
6A
330
1E
100
AcDbEntity
  8
0
100
AcDbLine
 10
221.4860799999999
 20
112.917
 30
0.0
 11
221.4860799999999
 21
110.9169999999999
 31
0.0
  0
LINE
  5
6B
330
1E
100
AcDbEntity
  8
0
100
AcDbLine
 10
217.4860799999999
 20
114.917
 30
0.0
 11
217.4860799999999
 21
115.169
 31
0.0
  0
LINE
  5
6C
330
1E
100
AcDbEntity
  8
0
100
AcDbLine
 10
217.4860799999999
 20
114.917
 30
0.0
 11
237.4860799999999
 21
114.917
 31
0.0
  0
LINE
  5
6D
330
1E
100
AcDbEntity
  8
0
100
AcDbLine
 10
98.31908
 20
117.4169999999999
 30
0.0
 11
106.42408
 21
106.8545999999999
 31
0.0
  0
LINE
  5
6E
330
1E
100
AcDbEntity
  8
0
100
AcDbLine
 10
173.0590799999999
 20
120.6369999999999
 30
0.0
 11
173.38908
 21
121.917
 31
0.0
  0
LINE
  5
6F
330
1E
100
AcDbEntity
  8
0
100
AcDbLine
 10
172.7490799999999
 20
119.437
 30
0.0
 11
173.0590799999999
 21
120.6369999999999
 31
0.0
  0
LINE
  5
70
330
1E
100
AcDbEntity
  8
0
100
AcDbLine
 10
172.47608
 20
118.377
 30
0.0
 11
172.7490799999999
 21
119.437
 31
0.0
  0
LINE
  5
71
330
1E
100
AcDbEntity
  8
0
100
AcDbLine
 10
172.26908
 20
117.577
 30
0.0
 11
172.47608
 21
118.377
 31
0.0
  0
LINE
  5
72
330
1E
100
AcDbEntity
  8
0
100
AcDbLine
 10
172.14508
 20
117.097
 30
0.0
 11
172.26908
 21
117.577
 31
0.0
  0
LINE
  5
73
330
1E
100
AcDbEntity
  8
0
100
AcDbLine
 10
172.09908
 20
116.917
 30
0.0
 11
217.4860799999999
 21
116.917
 31
0.0
  0
LINE
  5
74
330
1E
100
AcDbEntity
  8
0
100
AcDbLine
 10
172.09908
 20
116.917
 30
0.0
 11
172.14508
 21
117.097
 31
0.0
  0
LINE
  5
75
330
1E
100
AcDbEntity
  8
0
100
AcDbLine
 10
173.38908
 20
121.917
 30
0.0
 11
173.72008
 21
123.197
 31
0.0
  0
LINE
  5
76
330
1E
100
AcDbEntity
  8
0
100
AcDbLine
 10
173.72008
 20
123.197
 30
0.0
 11
174.0290799999999
 21
124.397
 31
0.0
  0
LINE
  5
77
330
1E
100
AcDbEntity
  8
0
100
AcDbLine
 10
174.3030799999999
 20
125.457
 30
0.0
 11
174.50908
 21
126.2569999999999
 31
0.0
  0
LINE
  5
78
330
1E
100
AcDbEntity
  8
0
100
AcDbLine
 10
174.0290799999999
 20
124.397
 30
0.0
 11
174.3030799999999
 21
125.457
 31
0.0
  0
LINE
  5
79
330
1E
100
AcDbEntity
  8
0
100
AcDbLine
 10
174.63308
 20
126.737
 30
0.0
 11
174.68008
 21
126.917
 31
0.0
  0
LINE
  5
7A
330
1E
100
AcDbEntity
  8
0
100
AcDbLine
 10
174.50908
 20
126.2569999999999
 30
0.0
 11
174.63308
 21
126.737
 31
0.0
  0
LINE
  5
7B
330
1E
100
AcDbEntity
  8
0
100
AcDbLine
 10
217.4860799999999
 20
116.961
 30
0.0
 11
217.4860799999999
 21
115.841
 31
0.0
  0
LINE
  5
7C
330
1E
100
AcDbEntity
  8
0
100
AcDbLine
 10
217.4860799999999
 20
116.961
 30
0.0
 11
217.4860799999999
 21
118.445
 31
0.0
  0
LINE
  5
7D
330
1E
100
AcDbEntity
  8
0
100
AcDbLine
 10
217.4860799999999
 20
115.841
 30
0.0
 11
217.4860799999999
 21
116.917
 31
0.0
  0
LINE
  5
7E
330
1E
100
AcDbEntity
  8
0
100
AcDbLine
 10
217.4860799999999
 20
115.841
 30
0.0
 11
217.4860799999999
 21
115.169
 31
0.0
  0
LINE
  5
7F
330
1E
100
AcDbEntity
  8
0
100
AcDbLine
 10
217.4860799999999
 20
115.841
 30
0.0
 11
217.4860799999999
 21
116.961
 31
0.0
  0
LINE
  5
80
330
1E
100
AcDbEntity
  8
0
100
AcDbLine
 10
217.4860799999999
 20
115.169
 30
0.0
 11
217.4860799999999
 21
115.841
 31
0.0
  0
LINE
  5
81
330
1E
100
AcDbEntity
  8
0
100
AcDbLine
 10
217.4860799999999
 20
115.169
 30
0.0
 11
217.4860799999999
 21
114.917
 31
0.0
  0
LINE
  5
82
330
1E
100
AcDbEntity
  8
0
100
AcDbLine
 10
217.4860799999999
 20
116.917
 30
0.0
 11
217.4860799999999
 21
117.097
 31
0.0
  0
LINE
  5
83
330
1E
100
AcDbEntity
  8
0
100
AcDbLine
 10
217.4860799999999
 20
116.917
 30
0.0
 11
217.4860799999999
 21
115.841
 31
0.0
  0
LINE
  5
84
330
1E
100
AcDbEntity
  8
0
100
AcDbLine
 10
217.4860799999999
 20
120.1249999999999
 30
0.0
 11
217.4860799999999
 21
118.445
 31
0.0
  0
LINE
  5
85
330
1E
100
AcDbEntity
  8
0
100
AcDbLine
 10
217.4860799999999
 20
120.1249999999999
 30
0.0
 11
217.4860799999999
 21
121.917
 31
0.0
  0
LINE
  5
86
330
1E
100
AcDbEntity
  8
0
100
AcDbLine
 10
217.4860799999999
 20
118.445
 30
0.0
 11
217.4860799999999
 21
116.961
 31
0.0
  0
LINE
  5
87
330
1E
100
AcDbEntity
  8
0
100
AcDbLine
 10
217.4860799999999
 20
118.445
 30
0.0
 11
217.4860799999999
 21
120.1249999999999
 31
0.0
  0
LINE
  5
88
330
1E
100
AcDbEntity
  8
0
100
AcDbLine
 10
217.4860799999999
 20
123.709
 30
0.0
 11
217.4860799999999
 21
121.917
 31
0.0
  0
LINE
  5
89
330
1E
100
AcDbEntity
  8
0
100
AcDbLine
 10
217.4860799999999
 20
123.709
 30
0.0
 11
217.4860799999999
 21
125.3889999999999
 31
0.0
  0
LINE
  5
8A
330
1E
100
AcDbEntity
  8
0
100
AcDbLine
 10
217.4860799999999
 20
123.197
 30
0.0
 11
217.4860799999999
 21
121.917
 31
0.0
  0
LINE
  5
8B
330
1E
100
AcDbEntity
  8
0
100
AcDbLine
 10
217.4860799999999
 20
123.197
 30
0.0
 11
217.4860799999999
 21
124.397
 31
0.0
  0
LINE
  5
8C
330
1E
100
AcDbEntity
  8
0
100
AcDbLine
 10
217.4860799999999
 20
125.3889999999999
 30
0.0
 11
217.4860799999999
 21
123.709
 31
0.0
  0
LINE
  5
8D
330
1E
100
AcDbEntity
  8
0
100
AcDbLine
 10
217.4860799999999
 20
125.3889999999999
 30
0.0
 11
217.4860799999999
 21
126.8729999999999
 31
0.0
  0
LINE
  5
8E
330
1E
100
AcDbEntity
  8
0
100
AcDbLine
 10
217.4860799999999
 20
124.397
 30
0.0
 11
217.4860799999999
 21
123.197
 31
0.0
  0
LINE
  5
8F
330
1E
100
AcDbEntity
  8
0
100
AcDbLine
 10
217.4860799999999
 20
124.397
 30
0.0
 11
217.4860799999999
 21
125.457
 31
0.0
  0
LINE
  5
90
330
1E
100
AcDbEntity
  8
0
100
AcDbLine
 10
217.4860799999999
 20
125.457
 30
0.0
 11
217.4860799999999
 21
124.397
 31
0.0
  0
LINE
  5
91
330
1E
100
AcDbEntity
  8
0
100
AcDbLine
 10
217.4860799999999
 20
125.457
 30
0.0
 11
217.4860799999999
 21
126.2569999999999
 31
0.0
  0
LINE
  5
92
330
1E
100
AcDbEntity
  8
0
100
AcDbLine
 10
217.4860799999999
 20
126.8729999999999
 30
0.0
 11
217.4860799999999
 21
125.3889999999999
 31
0.0
  0
LINE
  5
93
330
1E
100
AcDbEntity
  8
0
100
AcDbLine
 10
217.4860799999999
 20
126.8729999999999
 30
0.0
 11
217.4860799999999
 21
127.993
 31
0.0
  0
LINE
  5
94
330
1E
100
AcDbEntity
  8
0
100
AcDbLine
 10
217.4860799999999
 20
126.2569999999999
 30
0.0
 11
217.4860799999999
 21
125.457
 31
0.0
  0
LINE
  5
95
330
1E
100
AcDbEntity
  8
0
100
AcDbLine
 10
217.4860799999999
 20
126.2569999999999
 30
0.0
 11
217.4860799999999
 21
126.737
 31
0.0
  0
LINE
  5
96
330
1E
100
AcDbEntity
  8
0
100
AcDbLine
 10
217.4860799999999
 20
126.737
 30
0.0
 11
217.4860799999999
 21
126.2569999999999
 31
0.0
  0
LINE
  5
97
330
1E
100
AcDbEntity
  8
0
100
AcDbLine
 10
217.4860799999999
 20
126.737
 30
0.0
 11
217.4860799999999
 21
126.917
 31
0.0
  0
LINE
  5
98
330
1E
100
AcDbEntity
  8
0
100
AcDbLine
 10
217.4860799999999
 20
127.993
 30
0.0
 11
217.4860799999999
 21
128.6649999999999
 31
0.0
  0
LINE
  5
99
330
1E
100
AcDbEntity
  8
0
100
AcDbLine
 10
217.4860799999999
 20
127.993
 30
0.0
 11
217.4860799999999
 21
126.917
 31
0.0
  0
LINE
  5
9A
330
1E
100
AcDbEntity
  8
0
100
AcDbLine
 10
217.4860799999999
 20
127.993
 30
0.0
 11
217.4860799999999
 21
126.8729999999999
 31
0.0
  0
LINE
  5
9B
330
1E
100
AcDbEntity
  8
0
100
AcDbLine
 10
217.4860799999999
 20
128.6649999999999
 30
0.0
 11
217.4860799999999
 21
128.917
 31
0.0
  0
LINE
  5
9C
330
1E
100
AcDbEntity
  8
0
100
AcDbLine
 10
217.4860799999999
 20
128.6649999999999
 30
0.0
 11
217.4860799999999
 21
127.993
 31
0.0
  0
LINE
  5
9D
330
1E
100
AcDbEntity
  8
0
100
AcDbLine
 10
217.4860799999999
 20
128.917
 30
0.0
 11
237.4860799999999
 21
128.917
 31
0.0
  0
LINE
  5
9E
330
1E
100
AcDbEntity
  8
0
100
AcDbLine
 10
217.4860799999999
 20
128.917
 30
0.0
 11
217.4860799999999
 21
128.6649999999999
 31
0.0
  0
LINE
  5
9F
330
1E
100
AcDbEntity
  8
0
100
AcDbLine
 10
217.4860799999999
 20
126.917
 30
0.0
 11
217.4860799999999
 21
126.737
 31
0.0
  0
LINE
  5
A0
330
1E
100
AcDbEntity
  8
0
100
AcDbLine
 10
217.4860799999999
 20
126.917
 30
0.0
 11
217.4860799999999
 21
127.993
 31
0.0
  0
LINE
  5
A1
330
1E
100
AcDbEntity
  8
0
100
AcDbLine
 10
217.4860799999999
 20
121.917
 30
0.0
 11
217.4860799999999
 21
120.6369999999999
 31
0.0
  0
LINE
  5
A2
330
1E
100
AcDbEntity
  8
0
100
AcDbLine
 10
217.4860799999999
 20
121.917
 30
0.0
 11
217.4860799999999
 21
123.197
 31
0.0
  0
LINE
  5
A3
330
1E
100
AcDbEntity
  8
0
100
AcDbLine
 10
217.4860799999999
 20
121.917
 30
0.0
 11
217.4860799999999
 21
120.1249999999999
 31
0.0
  0
LINE
  5
A4
330
1E
100
AcDbEntity
  8
0
100
AcDbLine
 10
217.4860799999999
 20
121.917
 30
0.0
 11
217.4860799999999
 21
123.709
 31
0.0
  0
LINE
  5
A5
330
1E
100
AcDbEntity
  8
0
100
AcDbLine
 10
217.4860799999999
 20
120.6369999999999
 30
0.0
 11
217.4860799999999
 21
119.437
 31
0.0
  0
LINE
  5
A6
330
1E
100
AcDbEntity
  8
0
100
AcDbLine
 10
217.4860799999999
 20
120.6369999999999
 30
0.0
 11
217.4860799999999
 21
121.917
 31
0.0
  0
LINE
  5
A7
330
1E
100
AcDbEntity
  8
0
100
AcDbLine
 10
217.4860799999999
 20
119.437
 30
0.0
 11
217.4860799999999
 21
118.377
 31
0.0
  0
LINE
  5
A8
330
1E
100
AcDbEntity
  8
0
100
AcDbLine
 10
217.4860799999999
 20
119.437
 30
0.0
 11
217.4860799999999
 21
120.6369999999999
 31
0.0
  0
LINE
  5
A9
330
1E
100
AcDbEntity
  8
0
100
AcDbLine
 10
217.4860799999999
 20
118.377
 30
0.0
 11
217.4860799999999
 21
117.577
 31
0.0
  0
LINE
  5
AA
330
1E
100
AcDbEntity
  8
0
100
AcDbLine
 10
217.4860799999999
 20
118.377
 30
0.0
 11
217.4860799999999
 21
119.437
 31
0.0
  0
LINE
  5
AB
330
1E
100
AcDbEntity
  8
0
100
AcDbLine
 10
217.4860799999999
 20
117.577
 30
0.0
 11
217.4860799999999
 21
117.097
 31
0.0
  0
LINE
  5
AC
330
1E
100
AcDbEntity
  8
0
100
AcDbLine
 10
217.4860799999999
 20
117.577
 30
0.0
 11
217.4860799999999
 21
118.377
 31
0.0
  0
LINE
  5
AD
330
1E
100
AcDbEntity
  8
0
100
AcDbLine
 10
217.4860799999999
 20
117.097
 30
0.0
 11
217.4860799999999
 21
116.917
 31
0.0
  0
LINE
  5
AE
330
1E
100
AcDbEntity
  8
0
100
AcDbLine
 10
217.4860799999999
 20
117.097
 30
0.0
 11
217.4860799999999
 21
117.577
 31
0.0
  0
LINE
  5
AF
330
1E
100
AcDbEntity
  8
0
100
AcDbLine
 10
174.68008
 20
126.917
 30
0.0
 11
217.4860799999999
 21
126.917
 31
0.0
  0
LINE
  5
B0
330
1E
100
AcDbEntity
  8
0
100
AcDbLine
 10
221.4860799999999
 20
114.917
 30
0.0
 11
221.4860799999999
 21
111.9169999999999
 31
0.0
  0
LINE
  5
B1
330
1E
100
AcDbEntity
  8
0
100
AcDbLine
 10
221.4860799999999
 20
128.917
 30
0.0
 11
221.4860799999999
 21
131.881
 31
0.0
  0
LINE
  5
B2
330
1E
100
AcDbEntity
  8
0
100
AcDbLine
 10
235.4860799999999
 20
112.917
 30
0.0
 11
235.4860799999999
 21
114.917
 31
0.0
  0
LINE
  5
B3
330
1E
100
AcDbEntity
  8
0
100
AcDbLine
 10
235.4860799999999
 20
112.917
 30
0.0
 11
235.4860799999999
 21
110.9169999999999
 31
0.0
  0
LINE
  5
B4
330
1E
100
AcDbEntity
  8
0
100
AcDbLine
 10
235.4860799999999
 20
114.917
 30
0.0
 11
235.4860799999999
 21
111.9169999999999
 31
0.0
  0
LINE
  5
B5
330
1E
100
AcDbEntity
  8
0
100
AcDbLine
 10
235.4860799999999
 20
114.917
 30
0.0
 11
235.4860799999999
 21
112.917
 31
0.0
  0
LINE
  5
B6
330
1E
100
AcDbEntity
  8
0
100
AcDbLine
 10
93.22388000000001
 20
129.7171999999999
 30
0.0
 11
98.31908
 21
117.4169999999999
 31
0.0
  0
LINE
  5
B7
330
1E
100
AcDbEntity
  8
0
100
AcDbLine
 10
221.4860799999999
 20
130.9026
 30
0.0
 11
221.4860799999999
 21
131.9026
 31
0.0
  0
LINE
  5
B8
330
1E
100
AcDbEntity
  8
0
100
AcDbLine
 10
221.4860799999999
 20
130.9026
 30
0.0
 11
221.4860799999999
 21
133.5005999999999
 31
0.0
  0
LINE
  5
B9
330
1E
100
AcDbEntity
  8
0
100
AcDbLine
 10
142.48608
 20
131.9169999999999
 30
0.0
 11
221.4860799999999
 21
131.9169999999999
 31
0.0
  0
LINE
  5
BA
330
1E
100
AcDbEntity
  8
0
100
AcDbLine
 10
221.4860799999999
 20
131.9026
 30
0.0
 11
221.4860799999999
 21
134.5005999999999
 31
0.0
  0
LINE
  5
BB
330
1E
100
AcDbEntity
  8
0
100
AcDbLine
 10
221.4860799999999
 20
131.9026
 30
0.0
 11
221.4860799999999
 21
130.9026
 31
0.0
  0
LINE
  5
BC
330
1E
100
AcDbEntity
  8
0
100
AcDbLine
 10
221.4860799999999
 20
131.881
 30
0.0
 11
221.4860799999999
 21
134.0889999999999
 31
0.0
  0
LINE
  5
BD
330
1E
100
AcDbEntity
  8
0
100
AcDbLine
 10
221.4860799999999
 20
131.881
 30
0.0
 11
221.4860799999999
 21
128.917
 31
0.0
  0
LINE
  5
BE
330
1E
100
AcDbEntity
  8
0
100
AcDbLine
 10
136.98608
 20
133.3907199999999
 30
0.0
 11
139.63908
 21
132.2918199999999
 31
0.0
  0
LINE
  5
BF
330
1E
100
AcDbEntity
  8
0
100
AcDbLine
 10
139.63908
 20
132.2918199999999
 30
0.0
 11
142.48608
 21
131.9169999999999
 31
0.0
  0
LINE
  5
C0
330
1E
100
AcDbEntity
  8
0
100
AcDbLine
 10
221.4860799999999
 20
133.5005999999999
 30
0.0
 11
235.4860799999999
 21
133.5005999999999
 31
0.0
  0
LINE
  5
C1
330
1E
100
AcDbEntity
  8
0
100
AcDbLine
 10
221.4860799999999
 20
133.5005999999999
 30
0.0
 11
221.4860799999999
 21
130.9026
 31
0.0
  0
LINE
  5
C2
330
1E
100
AcDbEntity
  8
0
100
AcDbLine
 10
221.4860799999999
 20
133.5005999999999
 30
0.0
 11
221.4860799999999
 21
134.5005999999999
 31
0.0
  0
LINE
  5
C3
330
1E
100
AcDbEntity
  8
0
100
AcDbLine
 10
221.4860799999999
 20
133.5005999999999
 30
0.0
 11
221.4860799999999
 21
131.9169999999999
 31
0.0
  0
LINE
  5
C4
330
1E
100
AcDbEntity
  8
0
100
AcDbLine
 10
221.4860799999999
 20
131.9169999999999
 30
0.0
 11
221.4860799999999
 21
134.0889999999999
 31
0.0
  0
LINE
  5
C5
330
1E
100
AcDbEntity
  8
0
100
AcDbLine
 10
221.4860799999999
 20
131.9169999999999
 30
0.0
 11
221.4860799999999
 21
133.5005999999999
 31
0.0
  0
LINE
  5
C6
330
1E
100
AcDbEntity
  8
0
100
AcDbLine
 10
221.4860799999999
 20
131.9169999999999
 30
0.0
 11
221.4860799999999
 21
134.5005999999999
 31
0.0
  0
LINE
  5
C7
330
1E
100
AcDbEntity
  8
0
100
AcDbLine
 10
235.4860799999999
 20
133.5005999999999
 30
0.0
 11
235.4860799999999
 21
134.5005999999999
 31
0.0
  0
LINE
  5
C8
330
1E
100
AcDbEntity
  8
0
100
AcDbLine
 10
235.4860799999999
 20
133.5005999999999
 30
0.0
 11
235.4860799999999
 21
130.9026
 31
0.0
  0
LINE
  5
C9
330
1E
100
AcDbEntity
  8
0
100
AcDbLine
 10
235.4860799999999
 20
130.9026
 30
0.0
 11
235.4860799999999
 21
128.917
 31
0.0
  0
LINE
  5
CA
330
1E
100
AcDbEntity
  8
0
100
AcDbLine
 10
235.4860799999999
 20
130.9026
 30
0.0
 11
235.4860799999999
 21
133.5005999999999
 31
0.0
  0
LINE
  5
CB
330
1E
100
AcDbEntity
  8
0
100
AcDbLine
 10
221.4860799999999
 20
134.0889999999999
 30
0.0
 11
221.4860799999999
 21
131.9169999999999
 31
0.0
  0
LINE
  5
CC
330
1E
100
AcDbEntity
  8
0
100
AcDbLine
 10
221.4860799999999
 20
134.0889999999999
 30
0.0
 11
221.4860799999999
 21
134.9169999999999
 31
0.0
  0
LINE
  5
CD
330
1E
100
AcDbEntity
  8
0
100
AcDbLine
 10
221.4860799999999
 20
134.0889999999999
 30
0.0
 11
221.4860799999999
 21
131.881
 31
0.0
  0
LINE
  5
CE
330
1E
100
AcDbEntity
  8
0
100
AcDbLine
 10
132.96008
 20
137.417
 30
0.0
 11
134.70808
 21
135.13883
 31
0.0
  0
LINE
  5
CF
330
1E
100
AcDbEntity
  8
0
100
AcDbLine
 10
134.70808
 20
135.13883
 30
0.0
 11
136.98608
 21
133.3907199999999
 31
0.0
  0
LINE
  5
D0
330
1E
100
AcDbEntity
  8
0
100
AcDbLine
 10
221.4860799999999
 20
134.5005999999999
 30
0.0
 11
235.4860799999999
 21
134.5005999999999
 31
0.0
  0
LINE
  5
D1
330
1E
100
AcDbEntity
  8
0
100
AcDbLine
 10
221.4860799999999
 20
134.5005999999999
 30
0.0
 11
221.4860799999999
 21
133.5005999999999
 31
0.0
  0
LINE
  5
D2
330
1E
100
AcDbEntity
  8
0
100
AcDbLine
 10
221.4860799999999
 20
134.5005999999999
 30
0.0
 11
221.4860799999999
 21
131.9026
 31
0.0
  0
LINE
  5
D3
330
1E
100
AcDbEntity
  8
0
100
AcDbLine
 10
221.4860799999999
 20
134.5005999999999
 30
0.0
 11
221.4860799999999
 21
131.9169999999999
 31
0.0
  0
LINE
  5
D4
330
1E
100
AcDbEntity
  8
0
100
AcDbLine
 10
235.4860799999999
 20
134.5005999999999
 30
0.0
 11
235.4860799999999
 21
134.9169999999999
 31
0.0
  0
LINE
  5
D5
330
1E
100
AcDbEntity
  8
0
100
AcDbLine
 10
235.4860799999999
 20
134.5005999999999
 30
0.0
 11
235.4860799999999
 21
133.5005999999999
 31
0.0
  0
LINE
  5
D6
330
1E
100
AcDbEntity
  8
0
100
AcDbLine
 10
221.4860799999999
 20
134.9169999999999
 30
0.0
 11
221.4860799999999
 21
134.0889999999999
 31
0.0
  0
LINE
  5
D7
330
1E
100
AcDbEntity
  8
0
100
AcDbLine
 10
221.4860799999999
 20
134.9169999999999
 30
0.0
 11
235.4860799999999
 21
134.9169999999999
 31
0.0
  0
LINE
  5
D8
330
1E
100
AcDbEntity
  8
0
100
AcDbLine
 10
235.4860799999999
 20
134.485
 30
0.0
 11
235.4860799999999
 21
136.9809999999999
 31
0.0
  0
LINE
  5
D9
330
1E
100
AcDbEntity
  8
0
100
AcDbLine
 10
235.4860799999999
 20
134.485
 30
0.0
 11
235.4860799999999
 21
130.325
 31
0.0
  0
LINE
  5
DA
330
1E
100
AcDbEntity
  8
0
100
AcDbLine
 10
235.4860799999999
 20
130.325
 30
0.0
 11
235.4860799999999
 21
134.485
 31
0.0
  0
LINE
  5
DB
330
1E
100
AcDbEntity
  8
0
100
AcDbLine
 10
235.4860799999999
 20
130.325
 30
0.0
 11
235.4860799999999
 21
128.917
 31
0.0
  0
LINE
  5
DC
330
1E
100
AcDbEntity
  8
0
100
AcDbLine
 10
235.4860799999999
 20
128.917
 30
0.0
 11
235.4860799999999
 21
130.325
 31
0.0
  0
LINE
  5
DD
330
1E
100
AcDbEntity
  8
0
100
AcDbLine
 10
235.4860799999999
 20
128.917
 30
0.0
 11
235.4860799999999
 21
130.9026
 31
0.0
  0
LINE
  5
DE
330
1E
100
AcDbEntity
  8
0
100
AcDbLine
 10
235.4860799999999
 20
134.9169999999999
 30
0.0
 11
235.4860799999999
 21
136.9809999999999
 31
0.0
  0
LINE
  5
DF
330
1E
100
AcDbEntity
  8
0
100
AcDbLine
 10
235.4860799999999
 20
134.9169999999999
 30
0.0
 11
235.4860799999999
 21
134.5005999999999
 31
0.0
  0
LINE
  5
E0
330
1E
100
AcDbEntity
  8
0
100
AcDbLine
 10
131.86108
 20
140.0699909999999
 30
0.0
 11
132.96008
 21
137.417
 31
0.0
  0
LINE
  5
E1
330
1E
100
AcDbEntity
  8
0
100
AcDbLine
 10
235.4860799999999
 20
137.917
 30
0.0
 11
235.4860799999999
 21
136.9809999999999
 31
0.0
  0
LINE
  5
E2
330
1E
100
AcDbEntity
  8
0
100
AcDbLine
 10
235.4860799999999
 20
137.917
 30
0.0
 11
237.4860799999999
 21
137.917
 31
0.0
  0
LINE
  5
E3
330
1E
100
AcDbEntity
  8
0
100
AcDbLine
 10
235.4860799999999
 20
136.9809999999999
 30
0.0
 11
235.4860799999999
 21
134.9169999999999
 31
0.0
  0
LINE
  5
E4
330
1E
100
AcDbEntity
  8
0
100
AcDbLine
 10
235.4860799999999
 20
136.9809999999999
 30
0.0
 11
235.4860799999999
 21
137.917
 31
0.0
  0
LINE
  5
E5
330
1E
100
AcDbEntity
  8
0
100
AcDbLine
 10
235.4860799999999
 20
136.9809999999999
 30
0.0
 11
235.4860799999999
 21
134.485
 31
0.0
  0
LINE
  5
E6
330
1E
100
AcDbEntity
  8
0
100
AcDbLine
 10
235.4860799999999
 20
111.9169999999999
 30
0.0
 11
235.4860799999999
 21
105.261
 31
0.0
  0
LINE
  5
E7
330
1E
100
AcDbEntity
  8
0
100
AcDbLine
 10
235.4860799999999
 20
111.9169999999999
 30
0.0
 11
235.4860799999999
 21
114.917
 31
0.0
  0
LINE
  5
E8
330
1E
100
AcDbEntity
  8
0
100
AcDbLine
 10
237.4860799999999
 20
114.105
 30
0.0
 11
237.4860799999999
 21
113.2409999999999
 31
0.0
  0
LINE
  5
E9
330
1E
100
AcDbEntity
  8
0
100
AcDbLine
 10
237.4860799999999
 20
114.105
 30
0.0
 11
237.4860799999999
 21
115.545
 31
0.0
  0
LINE
  5
EA
330
1E
100
AcDbEntity
  8
0
100
AcDbLine
 10
237.4860799999999
 20
113.2409999999999
 30
0.0
 11
237.4860799999999
 21
112.917
 31
0.0
  0
LINE
  5
EB
330
1E
100
AcDbEntity
  8
0
100
AcDbLine
 10
237.4860799999999
 20
113.2409999999999
 30
0.0
 11
237.4860799999999
 21
114.105
 31
0.0
  0
LINE
  5
EC
330
1E
100
AcDbEntity
  8
0
100
AcDbLine
 10
237.4860799999999
 20
112.917
 30
0.0
 11
237.4860799999999
 21
113.2409999999999
 31
0.0
  0
LINE
  5
ED
330
1E
100
AcDbEntity
  8
0
100
AcDbLine
 10
237.4860799999999
 20
112.917
 30
0.0
 11
247.48608
 21
112.917
 31
0.0
  0
LINE
  5
EE
330
1E
100
AcDbEntity
  8
0
100
AcDbLine
 10
237.4860799999999
 20
115.545
 30
0.0
 11
237.4860799999999
 21
114.105
 31
0.0
  0
LINE
  5
EF
330
1E
100
AcDbEntity
  8
0
100
AcDbLine
 10
237.4860799999999
 20
115.545
 30
0.0
 11
237.4860799999999
 21
117.4529999999999
 31
0.0
  0
LINE
  5
F0
330
1E
100
AcDbEntity
  8
0
100
AcDbLine
 10
237.4860799999999
 20
119.6129999999999
 30
0.0
 11
237.4860799999999
 21
117.4529999999999
 31
0.0
  0
LINE
  5
F1
330
1E
100
AcDbEntity
  8
0
100
AcDbLine
 10
237.4860799999999
 20
119.6129999999999
 30
0.0
 11
237.4860799999999
 21
121.917
 31
0.0
  0
LINE
  5
F2
330
1E
100
AcDbEntity
  8
0
100
AcDbLine
 10
237.4860799999999
 20
117.4529999999999
 30
0.0
 11
237.4860799999999
 21
115.545
 31
0.0
  0
LINE
  5
F3
330
1E
100
AcDbEntity
  8
0
100
AcDbLine
 10
237.4860799999999
 20
117.4529999999999
 30
0.0
 11
237.4860799999999
 21
119.6129999999999
 31
0.0
  0
LINE
  5
F4
330
1E
100
AcDbEntity
  8
0
100
AcDbLine
 10
237.4860799999999
 20
124.221
 30
0.0
 11
237.4860799999999
 21
121.917
 31
0.0
  0
LINE
  5
F5
330
1E
100
AcDbEntity
  8
0
100
AcDbLine
 10
237.4860799999999
 20
124.221
 30
0.0
 11
237.4860799999999
 21
126.381
 31
0.0
  0
LINE
  5
F6
330
1E
100
AcDbEntity
  8
0
100
AcDbLine
 10
237.4860799999999
 20
126.381
 30
0.0
 11
237.4860799999999
 21
124.221
 31
0.0
  0
LINE
  5
F7
330
1E
100
AcDbEntity
  8
0
100
AcDbLine
 10
237.4860799999999
 20
126.381
 30
0.0
 11
237.4860799999999
 21
128.2889999999999
 31
0.0
  0
LINE
  5
F8
330
1E
100
AcDbEntity
  8
0
100
AcDbLine
 10
237.4860799999999
 20
123.709
 30
0.0
 11
237.4860799999999
 21
121.917
 31
0.0
  0
LINE
  5
F9
330
1E
100
AcDbEntity
  8
0
100
AcDbLine
 10
237.4860799999999
 20
123.709
 30
0.0
 11
237.4860799999999
 21
125.3889999999999
 31
0.0
  0
LINE
  5
FA
330
1E
100
AcDbEntity
  8
0
100
AcDbLine
 10
237.4860799999999
 20
125.3889999999999
 30
0.0
 11
237.4860799999999
 21
123.709
 31
0.0
  0
LINE
  5
FB
330
1E
100
AcDbEntity
  8
0
100
AcDbLine
 10
237.4860799999999
 20
125.3889999999999
 30
0.0
 11
237.4860799999999
 21
126.8729999999999
 31
0.0
  0
LINE
  5
FC
330
1E
100
AcDbEntity
  8
0
100
AcDbLine
 10
237.4860799999999
 20
128.2889999999999
 30
0.0
 11
237.4860799999999
 21
126.381
 31
0.0
  0
LINE
  5
FD
330
1E
100
AcDbEntity
  8
0
100
AcDbLine
 10
237.4860799999999
 20
128.2889999999999
 30
0.0
 11
237.4860799999999
 21
129.7289999999999
 31
0.0
  0
LINE
  5
FE
330
1E
100
AcDbEntity
  8
0
100
AcDbLine
 10
237.4860799999999
 20
126.8729999999999
 30
0.0
 11
237.4860799999999
 21
125.3889999999999
 31
0.0
  0
LINE
  5
FF
330
1E
100
AcDbEntity
  8
0
100
AcDbLine
 10
237.4860799999999
 20
126.8729999999999
 30
0.0
 11
237.4860799999999
 21
127.993
 31
0.0
  0
LINE
  5
100
330
1E
100
AcDbEntity
  8
0
100
AcDbLine
 10
237.4860799999999
 20
127.993
 30
0.0
 11
237.4860799999999
 21
126.8729999999999
 31
0.0
  0
LINE
  5
101
330
1E
100
AcDbEntity
  8
0
100
AcDbLine
 10
237.4860799999999
 20
127.993
 30
0.0
 11
237.4860799999999
 21
128.6649999999999
 31
0.0
  0
LINE
  5
102
330
1E
100
AcDbEntity
  8
0
100
AcDbLine
 10
237.4860799999999
 20
129.7289999999999
 30
0.0
 11
237.4860799999999
 21
130.5929999999999
 31
0.0
  0
LINE
  5
103
330
1E
100
AcDbEntity
  8
0
100
AcDbLine
 10
237.4860799999999
 20
129.7289999999999
 30
0.0
 11
237.4860799999999
 21
128.917
 31
0.0
  0
LINE
  5
104
330
1E
100
AcDbEntity
  8
0
100
AcDbLine
 10
237.4860799999999
 20
129.7289999999999
 30
0.0
 11
237.4860799999999
 21
128.2889999999999
 31
0.0
  0
LINE
  5
105
330
1E
100
AcDbEntity
  8
0
100
AcDbLine
 10
237.4860799999999
 20
128.6649999999999
 30
0.0
 11
237.4860799999999
 21
127.993
 31
0.0
  0
LINE
  5
106
330
1E
100
AcDbEntity
  8
0
100
AcDbLine
 10
237.4860799999999
 20
128.6649999999999
 30
0.0
 11
237.4860799999999
 21
128.917
 31
0.0
  0
LINE
  5
107
330
1E
100
AcDbEntity
  8
0
100
AcDbLine
 10
237.4860799999999
 20
121.917
 30
0.0
 11
237.4860799999999
 21
120.1249999999999
 31
0.0
  0
LINE
  5
108
330
1E
100
AcDbEntity
  8
0
100
AcDbLine
 10
237.4860799999999
 20
121.917
 30
0.0
 11
237.4860799999999
 21
123.709
 31
0.0
  0
LINE
  5
109
330
1E
100
AcDbEntity
  8
0
100
AcDbLine
 10
237.4860799999999
 20
121.917
 30
0.0
 11
237.4860799999999
 21
119.6129999999999
 31
0.0
  0
LINE
  5
10A
330
1E
100
AcDbEntity
  8
0
100
AcDbLine
 10
237.4860799999999
 20
121.917
 30
0.0
 11
237.4860799999999
 21
124.221
 31
0.0
  0
LINE
  5
10B
330
1E
100
AcDbEntity
  8
0
100
AcDbLine
 10
237.4860799999999
 20
120.1249999999999
 30
0.0
 11
237.4860799999999
 21
118.445
 31
0.0
  0
LINE
  5
10C
330
1E
100
AcDbEntity
  8
0
100
AcDbLine
 10
237.4860799999999
 20
120.1249999999999
 30
0.0
 11
237.4860799999999
 21
121.917
 31
0.0
  0
LINE
  5
10D
330
1E
100
AcDbEntity
  8
0
100
AcDbLine
 10
237.4860799999999
 20
118.445
 30
0.0
 11
237.4860799999999
 21
116.961
 31
0.0
  0
LINE
  5
10E
330
1E
100
AcDbEntity
  8
0
100
AcDbLine
 10
237.4860799999999
 20
118.445
 30
0.0
 11
237.4860799999999
 21
120.1249999999999
 31
0.0
  0
LINE
  5
10F
330
1E
100
AcDbEntity
  8
0
100
AcDbLine
 10
237.4860799999999
 20
116.961
 30
0.0
 11
237.4860799999999
 21
115.841
 31
0.0
  0
LINE
  5
110
330
1E
100
AcDbEntity
  8
0
100
AcDbLine
 10
237.4860799999999
 20
116.961
 30
0.0
 11
237.4860799999999
 21
118.445
 31
0.0
  0
LINE
  5
111
330
1E
100
AcDbEntity
  8
0
100
AcDbLine
 10
237.4860799999999
 20
115.841
 30
0.0
 11
237.4860799999999
 21
115.169
 31
0.0
  0
LINE
  5
112
330
1E
100
AcDbEntity
  8
0
100
AcDbLine
 10
237.4860799999999
 20
115.841
 30
0.0
 11
237.4860799999999
 21
116.961
 31
0.0
  0
LINE
  5
113
330
1E
100
AcDbEntity
  8
0
100
AcDbLine
 10
237.4860799999999
 20
115.169
 30
0.0
 11
237.4860799999999
 21
114.917
 31
0.0
  0
LINE
  5
114
330
1E
100
AcDbEntity
  8
0
100
AcDbLine
 10
237.4860799999999
 20
115.169
 30
0.0
 11
237.4860799999999
 21
115.841
 31
0.0
  0
LINE
  5
115
330
1E
100
AcDbEntity
  8
0
100
AcDbLine
 10
237.4860799999999
 20
114.917
 30
0.0
 11
237.4860799999999
 21
111.9169999999999
 31
0.0
  0
LINE
  5
116
330
1E
100
AcDbEntity
  8
0
100
AcDbLine
 10
237.4860799999999
 20
114.917
 30
0.0
 11
237.4860799999999
 21
115.169
 31
0.0
  0
LINE
  5
117
330
1E
100
AcDbEntity
  8
0
100
AcDbLine
 10
237.4860799999999
 20
130.5929999999999
 30
0.0
 11
237.4860799999999
 21
130.9169999999999
 31
0.0
  0
LINE
  5
118
330
1E
100
AcDbEntity
  8
0
100
AcDbLine
 10
237.4860799999999
 20
130.5929999999999
 30
0.0
 11
237.4860799999999
 21
129.7289999999999
 31
0.0
  0
LINE
  5
119
330
1E
100
AcDbEntity
  8
0
100
AcDbLine
 10
237.4860799999999
 20
130.9169999999999
 30
0.0
 11
247.48608
 21
130.9169999999999
 31
0.0
  0
LINE
  5
11A
330
1E
100
AcDbEntity
  8
0
100
AcDbLine
 10
237.4860799999999
 20
130.9169999999999
 30
0.0
 11
237.4860799999999
 21
130.5929999999999
 31
0.0
  0
LINE
  5
11B
330
1E
100
AcDbEntity
  8
0
100
AcDbLine
 10
237.4860799999999
 20
131.9169999999999
 30
0.0
 11
257.4860799999999
 21
131.9169999999999
 31
0.0
  0
LINE
  5
11C
330
1E
100
AcDbEntity
  8
0
100
AcDbLine
 10
237.4860799999999
 20
137.917
 30
0.0
 11
237.4860799999999
 21
136.9809999999999
 31
0.0
  0
LINE
  5
11D
330
1E
100
AcDbEntity
  8
0
100
AcDbLine
 10
237.4860799999999
 20
136.9809999999999
 30
0.0
 11
237.4860799999999
 21
137.917
 31
0.0
  0
LINE
  5
11E
330
1E
100
AcDbEntity
  8
0
100
AcDbLine
 10
237.4860799999999
 20
136.9809999999999
 30
0.0
 11
237.4860799999999
 21
134.485
 31
0.0
  0
LINE
  5
11F
330
1E
100
AcDbEntity
  8
0
100
AcDbLine
 10
237.4860799999999
 20
134.485
 30
0.0
 11
237.4860799999999
 21
136.9809999999999
 31
0.0
  0
LINE
  5
120
330
1E
100
AcDbEntity
  8
0
100
AcDbLine
 10
237.4860799999999
 20
134.485
 30
0.0
 11
237.4860799999999
 21
130.325
 31
0.0
  0
LINE
  5
121
330
1E
100
AcDbEntity
  8
0
100
AcDbLine
 10
237.4860799999999
 20
130.325
 30
0.0
 11
237.4860799999999
 21
134.485
 31
0.0
  0
LINE
  5
122
330
1E
100
AcDbEntity
  8
0
100
AcDbLine
 10
237.4860799999999
 20
130.325
 30
0.0
 11
237.4860799999999
 21
128.917
 31
0.0
  0
LINE
  5
123
330
1E
100
AcDbEntity
  8
0
100
AcDbLine
 10
237.4860799999999
 20
128.917
 30
0.0
 11
237.4860799999999
 21
130.325
 31
0.0
  0
LINE
  5
124
330
1E
100
AcDbEntity
  8
0
100
AcDbLine
 10
237.4860799999999
 20
128.917
 30
0.0
 11
237.4860799999999
 21
128.6649999999999
 31
0.0
  0
LINE
  5
125
330
1E
100
AcDbEntity
  8
0
100
AcDbLine
 10
237.4860799999999
 20
128.917
 30
0.0
 11
237.4860799999999
 21
129.7289999999999
 31
0.0
  0
LINE
  5
126
330
1E
100
AcDbEntity
  8
0
100
AcDbLine
 10
237.4860799999999
 20
111.9169999999999
 30
0.0
 11
237.4860799999999
 21
105.261
 31
0.0
  0
LINE
  5
127
330
1E
100
AcDbEntity
  8
0
100
AcDbLine
 10
237.4860799999999
 20
111.9169999999999
 30
0.0
 11
237.4860799999999
 21
114.917
 31
0.0
  0
LINE
  5
128
330
1E
100
AcDbEntity
  8
0
100
AcDbLine
 10
235.4860799999999
 20
105.261
 30
0.0
 11
235.4860799999999
 21
111.9169999999999
 31
0.0
  0
LINE
  5
129
330
1E
100
AcDbEntity
  8
0
100
AcDbLine
 10
235.4860799999999
 20
105.261
 30
0.0
 11
235.4860799999999
 21
99.021
 31
0.0
  0
LINE
  5
12A
330
1E
100
AcDbEntity
  8
0
100
AcDbLine
 10
237.4860799999999
 20
99.021
 30
0.0
 11
237.4860799999999
 21
105.261
 31
0.0
  0
LINE
  5
12B
330
1E
100
AcDbEntity
  8
0
100
AcDbLine
 10
237.4860799999999
 20
99.021
 30
0.0
 11
237.4860799999999
 21
93.50900000000001
 31
0.0
  0
LINE
  5
12C
330
1E
100
AcDbEntity
  8
0
100
AcDbLine
 10
247.48608
 20
112.917
 30
0.0
 11
247.48608
 21
113.2409999999999
 31
0.0
  0
LINE
  5
12D
330
1E
100
AcDbEntity
  8
0
100
AcDbLine
 10
247.48608
 20
124.221
 30
0.0
 11
247.48608
 21
121.917
 31
0.0
  0
LINE
  5
12E
330
1E
100
AcDbEntity
  8
0
100
AcDbLine
 10
247.48608
 20
124.221
 30
0.0
 11
247.48608
 21
126.381
 31
0.0
  0
LINE
  5
12F
330
1E
100
AcDbEntity
  8
0
100
AcDbLine
 10
247.48608
 20
126.381
 30
0.0
 11
247.48608
 21
124.221
 31
0.0
  0
LINE
  5
130
330
1E
100
AcDbEntity
  8
0
100
AcDbLine
 10
247.48608
 20
126.381
 30
0.0
 11
247.48608
 21
128.2889999999999
 31
0.0
  0
LINE
  5
131
330
1E
100
AcDbEntity
  8
0
100
AcDbLine
 10
247.48608
 20
128.2889999999999
 30
0.0
 11
247.48608
 21
126.381
 31
0.0
  0
LINE
  5
132
330
1E
100
AcDbEntity
  8
0
100
AcDbLine
 10
247.48608
 20
128.2889999999999
 30
0.0
 11
247.48608
 21
129.7289999999999
 31
0.0
  0
LINE
  5
133
330
1E
100
AcDbEntity
  8
0
100
AcDbLine
 10
247.48608
 20
121.917
 30
0.0
 11
247.48608
 21
119.6129999999999
 31
0.0
  0
LINE
  5
134
330
1E
100
AcDbEntity
  8
0
100
AcDbLine
 10
247.48608
 20
121.917
 30
0.0
 11
247.48608
 21
124.221
 31
0.0
  0
LINE
  5
135
330
1E
100
AcDbEntity
  8
0
100
AcDbLine
 10
247.48608
 20
119.6129999999999
 30
0.0
 11
247.48608
 21
117.4529999999999
 31
0.0
  0
LINE
  5
136
330
1E
100
AcDbEntity
  8
0
100
AcDbLine
 10
247.48608
 20
119.6129999999999
 30
0.0
 11
247.48608
 21
121.917
 31
0.0
  0
LINE
  5
137
330
1E
100
AcDbEntity
  8
0
100
AcDbLine
 10
247.48608
 20
117.4529999999999
 30
0.0
 11
247.48608
 21
115.545
 31
0.0
  0
LINE
  5
138
330
1E
100
AcDbEntity
  8
0
100
AcDbLine
 10
247.48608
 20
117.4529999999999
 30
0.0
 11
247.48608
 21
119.6129999999999
 31
0.0
  0
LINE
  5
139
330
1E
100
AcDbEntity
  8
0
100
AcDbLine
 10
247.48608
 20
115.545
 30
0.0
 11
247.48608
 21
114.105
 31
0.0
  0
LINE
  5
13A
330
1E
100
AcDbEntity
  8
0
100
AcDbLine
 10
247.48608
 20
115.545
 30
0.0
 11
247.48608
 21
117.4529999999999
 31
0.0
  0
LINE
  5
13B
330
1E
100
AcDbEntity
  8
0
100
AcDbLine
 10
247.48608
 20
114.105
 30
0.0
 11
247.48608
 21
113.2409999999999
 31
0.0
  0
LINE
  5
13C
330
1E
100
AcDbEntity
  8
0
100
AcDbLine
 10
247.48608
 20
114.105
 30
0.0
 11
247.48608
 21
115.545
 31
0.0
  0
LINE
  5
13D
330
1E
100
AcDbEntity
  8
0
100
AcDbLine
 10
247.48608
 20
113.2409999999999
 30
0.0
 11
247.48608
 21
112.917
 31
0.0
  0
LINE
  5
13E
330
1E
100
AcDbEntity
  8
0
100
AcDbLine
 10
247.48608
 20
113.2409999999999
 30
0.0
 11
247.48608
 21
114.105
 31
0.0
  0
LINE
  5
13F
330
1E
100
AcDbEntity
  8
0
100
AcDbLine
 10
257.4860799999999
 20
96.917
 30
0.0
 11
287.4860799999999
 21
96.917
 31
0.0
  0
LINE
  5
140
330
1E
100
AcDbEntity
  8
0
100
AcDbLine
 10
257.4860799999999
 20
96.917
 30
0.0
 11
257.4860799999999
 21
131.9169999999999
 31
0.0
  0
LINE
  5
141
330
1E
100
AcDbEntity
  8
0
100
AcDbLine
 10
247.48608
 20
114.917
 30
0.0
 11
257.4860799999999
 21
114.917
 31
0.0
  0
LINE
  5
142
330
1E
100
AcDbEntity
  8
0
100
AcDbLine
 10
247.48608
 20
129.7289999999999
 30
0.0
 11
247.48608
 21
128.2889999999999
 31
0.0
  0
LINE
  5
143
330
1E
100
AcDbEntity
  8
0
100
AcDbLine
 10
247.48608
 20
129.7289999999999
 30
0.0
 11
247.48608
 21
130.5929999999999
 31
0.0
  0
LINE
  5
144
330
1E
100
AcDbEntity
  8
0
100
AcDbLine
 10
247.48608
 20
130.5929999999999
 30
0.0
 11
247.48608
 21
129.7289999999999
 31
0.0
  0
LINE
  5
145
330
1E
100
AcDbEntity
  8
0
100
AcDbLine
 10
247.48608
 20
130.5929999999999
 30
0.0
 11
247.48608
 21
130.9169999999999
 31
0.0
  0
LINE
  5
146
330
1E
100
AcDbEntity
  8
0
100
AcDbLine
 10
268.4860799999999
 20
140.917
 30
0.0
 11
268.4860799999999
 21
136.9169999999999
 31
0.0
  0
LINE
  5
147
330
1E
100
AcDbEntity
  8
0
100
AcDbLine
 10
268.4860799999999
 20
140.917
 30
0.0
 11
269.8540799999999
 21
140.917
 31
0.0
  0
LINE
  5
148
330
1E
100
AcDbEntity
  8
0
100
AcDbLine
 10
269.8540799999999
 20
140.917
 30
0.0
 11
273.50208
 21
140.917
 31
0.0
  0
LINE
  5
149
330
1E
100
AcDbEntity
  8
0
100
AcDbLine
 10
269.8540799999999
 20
136.9169999999999
 30
0.0
 11
273.50208
 21
136.9169999999999
 31
0.0
  0
LINE
  5
14A
330
1E
100
AcDbEntity
  8
0
100
AcDbLine
 10
268.4860799999999
 20
136.9169999999999
 30
0.0
 11
269.8540799999999
 21
136.9169999999999
 31
0.0
  0
LINE
  5
14B
330
1E
100
AcDbEntity
  8
0
100
AcDbLine
 10
268.4860799999999
 20
136.9169999999999
 30
0.0
 11
268.4860799999999
 21
140.917
 31
0.0
  0
LINE
  5
14C
330
1E
100
AcDbEntity
  8
0
100
AcDbLine
 10
257.4860799999999
 20
131.9169999999999
 30
0.0
 11
287.4860799999999
 21
131.9169999999999
 31
0.0
  0
LINE
  5
14D
330
1E
100
AcDbEntity
  8
0
100
AcDbLine
 10
257.4860799999999
 20
131.9169999999999
 30
0.0
 11
257.4860799999999
 21
96.917
 31
0.0
  0
LINE
  5
14E
330
1E
100
AcDbEntity
  8
0
100
AcDbLine
 10
247.48608
 20
130.9169999999999
 30
0.0
 11
247.48608
 21
130.5929999999999
 31
0.0
  0
LINE
  5
14F
330
1E
100
AcDbEntity
  8
0
100
AcDbLine
 10
247.48608
 20
128.917
 30
0.0
 11
257.4860799999999
 21
128.917
 31
0.0
  0
LINE
  5
150
330
1E
100
AcDbEntity
  8
0
100
AcDbLine
 10
237.4860799999999
 20
105.261
 30
0.0
 11
237.4860799999999
 21
111.9169999999999
 31
0.0
  0
LINE
  5
151
330
1E
100
AcDbEntity
  8
0
100
AcDbLine
 10
237.4860799999999
 20
105.261
 30
0.0
 11
237.4860799999999
 21
99.021
 31
0.0
  0
LINE
  5
152
330
1E
100
AcDbEntity
  8
0
100
AcDbLine
 10
271.4860799999999
 20
152.917
 30
0.0
 11
271.4860799999999
 21
150.917
 31
0.0
  0
LINE
  5
153
330
1E
100
AcDbEntity
  8
0
100
AcDbLine
 10
271.4860799999999
 20
152.917
 30
0.0
 11
272.74608
 21
152.917
 31
0.0
  0
LINE
  5
154
330
1E
100
AcDbEntity
  8
0
100
AcDbLine
 10
271.4860799999999
 20
150.917
 30
0.0
 11
272.74608
 21
150.917
 31
0.0
  0
LINE
  5
155
330
1E
100
AcDbEntity
  8
0
100
AcDbLine
 10
271.4860799999999
 20
150.917
 30
0.0
 11
271.4860799999999
 21
152.917
 31
0.0
  0
LINE
  5
156
330
1E
100
AcDbEntity
  8
0
100
AcDbLine
 10
8.837379999999969
 20
516.9169999999999
 30
0.0
 11
9.68827999999997
 21
517.067
 31
0.0
  0
LINE
  5
157
330
1E
100
AcDbEntity
  8
0
100
AcDbLine
 10
8.51827999999997
 20
516.861
 30
0.0
 11
8.837379999999969
 21
516.9169999999999
 31
0.0
  0
LINE
  5
158
330
1E
100
AcDbEntity
  8
0
100
AcDbLine
 10
11.10638
 20
517.3169999999999
 30
0.0
 11
12.98538
 21
517.648
 31
0.0
  0
LINE
  5
159
330
1E
100
AcDbEntity
  8
0
100
AcDbLine
 10
9.68827999999997
 20
517.067
 30
0.0
 11
11.10638
 21
517.3169999999999
 31
0.0
  0
LINE
  5
15A
330
1E
100
AcDbEntity
  8
0
100
AcDbLine
 10
-0.164080000000028
 20
566.101
 30
0.0
 11
0.15498999999997
 21
566.1569999999999
 31
0.0
  0
LINE
  5
15B
330
1E
100
AcDbEntity
  8
0
100
AcDbLine
 10
12.98538
 20
517.648
 30
0.0
 11
15.11257999999999
 21
518.023
 31
0.0
  0
LINE
  5
15C
330
1E
100
AcDbEntity
  8
0
100
AcDbLine
 10
0.15498999999997
 20
566.1569999999999
 30
0.0
 11
1.005869999999969
 21
566.307
 31
0.0
  0
LINE
  5
15D
330
1E
100
AcDbEntity
  8
0
100
AcDbLine
 10
4.30299999999997
 20
566.889
 30
0.0
 11
6.430179999999969
 21
567.264
 31
0.0
  0
LINE
  5
15E
330
1E
100
AcDbEntity
  8
0
100
AcDbLine
 10
2.42398999999997
 20
566.557
 30
0.0
 11
4.30299999999997
 21
566.889
 31
0.0
  0
LINE
  5
15F
330
1E
100
AcDbEntity
  8
0
100
AcDbLine
 10
1.005869999999969
 20
566.307
 30
0.0
 11
2.42398999999997
 21
566.557
 31
0.0
  0
LINE
  5
160
330
1E
100
AcDbEntity
  8
0
100
AcDbLine
 10
0.15498999999997
 20
566.1569999999999
 30
0.0
 11
1.005869999999969
 21
566.307
 31
0.0
  0
LINE
  5
161
330
1E
100
AcDbEntity
  8
0
100
AcDbLine
 10
8.699179999999969
 20
567.6639999999999
 30
0.0
 11
10.96818
 21
568.0639999999999
 31
0.0
  0
LINE
  5
162
330
1E
100
AcDbEntity
  8
0
100
AcDbLine
 10
6.430179999999969
 20
567.264
 30
0.0
 11
8.699179999999969
 21
567.6639999999999
 31
0.0
  0
LINE
  5
163
330
1E
100
AcDbEntity
  8
0
100
AcDbLine
 10
-0.164080000000028
 20
566.101
 30
0.0
 11
0.15498999999997
 21
566.1569999999999
 31
0.0
  0
LINE
  5
164
330
1E
100
AcDbEntity
  8
0
100
AcDbLine
 10
-0.164080000000028
 20
566.101
 30
0.0
 11
8.51827999999997
 21
516.861
 31
0.0
  0
LINE
  5
165
330
1E
100
AcDbEntity
  8
0
100
AcDbLine
 10
-0.164080000000028
 20
566.101
 30
0.0
 11
8.51827999999997
 21
516.861
 31
0.0
  0
LINE
  5
166
330
1E
100
AcDbEntity
  8
0
100
AcDbLine
 10
10.96818
 20
568.0639999999999
 30
0.0
 11
13.09538
 21
568.4389999999999
 31
0.0
  0
LINE
  5
167
330
1E
100
AcDbEntity
  8
0
100
AcDbLine
 10
13.09538
 20
568.4389999999999
 30
0.0
 11
13.62321960353469
 21
568.531982921112
 31
0.0
  0
LINE
  5
168
330
1E
100
AcDbEntity
  8
0
100
AcDbLine
 10
12.45758
 20
517.5549999999999
 30
0.0
 11
28.81638
 21
424.7799999999999
 31
0.0
  0
LINE
  5
169
330
1E
100
AcDbEntity
  8
0
100
AcDbLine
 10
15.11257999999999
 20
518.023
 30
0.0
 11
17.38158
 21
518.4239999999999
 31
0.0
  0
LINE
  5
16A
330
1E
100
AcDbEntity
  8
0
100
AcDbLine
 10
13.95318
 20
566.6609999999999
 30
0.0
 11
14.83877999999999
 21
561.6389999999999
 31
0.0
  0
LINE
  5
16B
330
1E
100
AcDbEntity
  8
0
100
AcDbLine
 10
13.39747999999999
 20
569.812
 30
0.0
 11
13.95318
 21
566.6609999999999
 31
0.0
  0
LINE
  5
16C
330
1E
100
AcDbEntity
  8
0
100
AcDbLine
 10
14.55438
 20
567.681
 30
0.0
 11
15.47477999999999
 21
562.461
 31
0.0
  0
LINE
  5
16D
330
1E
100
AcDbEntity
  8
0
100
AcDbLine
 10
13.98138
 20
570.931
 30
0.0
 11
14.55438
 21
567.681
 31
0.0
  0
LINE
  5
16E
330
1E
100
AcDbEntity
  8
0
100
AcDbLine
 10
14.83877999999999
 20
561.6389999999999
 30
0.0
 11
16.01957999999999
 21
554.942
 31
0.0
  0
LINE
  5
16F
330
1E
100
AcDbEntity
  8
0
100
AcDbLine
 10
13.18907999999999
 20
570.994
 30
0.0
 11
13.77297999999999
 21
572.113
 31
0.0
  0
LINE
  5
170
330
1E
100
AcDbEntity
  8
0
100
AcDbLine
 10
13.18907999999999
 20
570.994
 30
0.0
 11
13.39747999999999
 21
569.812
 31
0.0
  0
LINE
  5
171
330
1E
100
AcDbEntity
  8
0
100
AcDbLine
 10
15.20127999999999
 20
572.872
 30
0.0
 11
52.3209188116001
 21
579.416989211171
 31
0.0
  0
LINE
  5
172
330
1E
100
AcDbEntity
  8
0
100
AcDbLine
 10
13.77297999999999
 20
572.113
 30
0.0
 11
15.20127999999999
 21
572.872
 31
0.0
  0
LINE
  5
173
330
1E
100
AcDbEntity
  8
0
100
AcDbLine
 10
13.77297999999999
 20
572.113
 30
0.0
 11
13.98138
 21
570.931
 31
0.0
  0
LINE
  5
174
330
1E
100
AcDbEntity
  8
0
100
AcDbLine
 10
24.4608355037901
 20
507.069523752514
 30
0.0
 11
24.47627999999999
 21
506.9819999999999
 31
0.0
  0
LINE
  5
175
330
1E
100
AcDbEntity
  8
0
100
AcDbLine
 10
24.4608355037901
 20
507.069523752514
 30
0.0
 11
37.82618
 21
431.271
 31
0.0
  0
LINE
  5
176
330
1E
100
AcDbEntity
  8
0
100
AcDbLine
 10
24.47627999999999
 20
506.9819999999999
 30
0.0
 11
25.40738
 21
506.13
 31
0.0
  0
LINE
  5
177
330
1E
100
AcDbEntity
  8
0
100
AcDbLine
 10
24.26788
 20
508.163
 30
0.0
 11
24.47627999999999
 21
506.9819999999999
 31
0.0
  0
LINE
  5
178
330
1E
100
AcDbEntity
  8
0
100
AcDbLine
 10
23.71218
 20
511.315
 30
0.0
 11
24.26788
 21
508.163
 31
0.0
  0
LINE
  5
179
330
1E
100
AcDbEntity
  8
0
100
AcDbLine
 10
24.62597999999999
 20
510.562
 30
0.0
 11
25.19908
 21
507.3119999999999
 31
0.0
  0
LINE
  5
17A
330
1E
100
AcDbEntity
  8
0
100
AcDbLine
 10
25.19908
 20
507.3119999999999
 30
0.0
 11
25.40738
 21
506.13
 31
0.0
  0
LINE
  5
17B
330
1E
100
AcDbEntity
  8
0
100
AcDbLine
 10
24.4608355037901
 20
507.069523752514
 30
0.0
 11
24.47627999999999
 21
506.9819999999999
 31
0.0
  0
LINE
  5
17C
330
1E
100
AcDbEntity
  8
0
100
AcDbLine
 10
28.97857999999999
 20
424.8959999999999
 30
0.0
 11
29.41098
 21
425.208
 31
0.0
  0
LINE
  5
17D
330
1E
100
AcDbEntity
  8
0
100
AcDbLine
 10
28.81638
 20
424.7799999999999
 30
0.0
 11
28.97857999999999
 21
424.8959999999999
 31
0.0
  0
LINE
  5
17E
330
1E
100
AcDbEntity
  8
0
100
AcDbLine
 10
33.32128
 20
428.0249999999999
 30
0.0
 11
34.47448
 21
428.856
 31
0.0
  0
LINE
  5
17F
330
1E
100
AcDbEntity
  8
0
100
AcDbLine
 10
34.47448
 20
428.856
 30
0.0
 11
35.55578
 21
429.635
 31
0.0
  0
LINE
  5
180
330
1E
100
AcDbEntity
  8
0
100
AcDbLine
 10
32.16807999999999
 20
427.1939999999999
 30
0.0
 11
33.32128
 21
428.0249999999999
 31
0.0
  0
LINE
  5
181
330
1E
100
AcDbEntity
  8
0
100
AcDbLine
 10
31.08677999999999
 20
426.416
 30
0.0
 11
32.16807999999999
 21
427.1939999999999
 31
0.0
  0
LINE
  5
182
330
1E
100
AcDbEntity
  8
0
100
AcDbLine
 10
30.13177999999999
 20
425.727
 30
0.0
 11
31.08677999999999
 21
426.416
 31
0.0
  0
LINE
  5
183
330
1E
100
AcDbEntity
  8
0
100
AcDbLine
 10
29.41098
 20
425.208
 30
0.0
 11
30.13177999999999
 21
425.727
 31
0.0
  0
LINE
  5
184
330
1E
100
AcDbEntity
  8
0
100
AcDbLine
 10
58.45648
 20
312.836
 30
0.0
 11
59.20098
 21
312.9669999999999
 31
0.0
  0
LINE
  5
185
330
1E
100
AcDbEntity
  8
0
100
AcDbLine
 10
58.45648
 20
312.836
 30
0.0
 11
61.4189103881862
 21
313.3584110838799
 31
0.0
  0
LINE
  5
186
330
1E
100
AcDbEntity
  8
0
100
AcDbLine
 10
58.45648
 20
312.836
 30
0.0
 11
61.92948000000001
 21
293.14
 31
0.0
  0
LINE
  5
187
330
1E
100
AcDbEntity
  8
0
100
AcDbLine
 10
58.45648
 20
312.836
 30
0.0
 11
61.4189103881862
 21
313.3584110838799
 31
0.0
  0
LINE
  5
188
330
1E
100
AcDbEntity
  8
0
100
AcDbLine
 10
59.20098
 20
312.9669999999999
 30
0.0
 11
61.40206052931439
 21
313.355182436289
 31
0.0
  0
LINE
  5
189
330
1E
100
AcDbEntity
  8
0
100
AcDbLine
 10
59.20098
 20
312.9669999999999
 30
0.0
 11
61.18638
 21
313.317
 31
0.0
  0
LINE
  5
18A
330
1E
100
AcDbEntity
  8
0
100
AcDbLine
 10
59.20098
 20
312.9669999999999
 30
0.0
 11
62.0403339772925
 21
313.4677483050769
 31
0.0
  0
LINE
  5
18D
330
1E
100
AcDbEntity
  8
0
100
AcDbLine
 10
61.92948000000001
 20
293.14
 30
0.0
 11
62.19022654376779
 21
293.1858801843299
 31
0.0
  0
LINE
  5
18E
330
1E
100
AcDbEntity
  8
0
100
AcDbLine
 10
60.77528
 20
292.9359999999999
 30
0.0
 11
62.94968
 21
293.3199999999999
 31
0.0
  0
LINE
  5
190
330
1E
100
AcDbEntity
  8
0
100
AcDbLine
 10
61.18638
 20
313.317
 30
0.0
 11
61.4020808167566
 21
313.355069834986
 31
0.0
  0
LINE
  5
191
330
1E
100
AcDbEntity
  8
0
100
AcDbLine
 10
61.18638
 20
313.317
 30
0.0
 11
64.49528
 21
313.901
 31
0.0
  0
LINE
  5
193
330
1E
100
AcDbEntity
  8
0
100
AcDbLine
 10
62.94968
 20
293.3199999999999
 30
0.0
 11
64.6591990002799
 21
293.6214593770299
 31
0.0
  0
LINE
  5
194
330
1E
100
AcDbEntity
  8
0
100
AcDbLine
 10
62.94968
 20
293.3199999999999
 30
0.0
 11
66.57378
 21
293.9589999999999
 31
0.0
  0
LINE
  5
196
330
1E
100
AcDbEntity
  8
0
100
AcDbLine
 10
59.95978
 20
292.7929999999999
 30
0.0
 11
60.77528
 21
292.9359999999999
 31
0.0
  0
LINE
  5
197
330
1E
100
AcDbEntity
  8
0
100
AcDbLine
 10
59.95978
 20
292.7929999999999
 30
0.0
 11
61.9294254615093
 21
293.14030929747
 31
0.0
  0
LINE
  5
198
330
1E
100
AcDbEntity
  8
0
100
AcDbLine
 10
59.95978
 20
292.7929999999999
 30
0.0
 11
65.16928
 21
263.248
 31
0.0
  0
LINE
  5
199
330
1E
100
AcDbEntity
  8
0
100
AcDbLine
 10
36.51078
 20
430.323
 30
0.0
 11
37.23158
 21
430.8419999999999
 31
0.0
  0
LINE
  5
19A
330
1E
100
AcDbEntity
  8
0
100
AcDbLine
 10
35.55578
 20
429.635
 30
0.0
 11
36.51078
 21
430.323
 31
0.0
  0
LINE
  5
19B
330
1E
100
AcDbEntity
  8
0
100
AcDbLine
 10
26.70248183452339
 20
505.948103674926
 30
0.0
 11
61.4020808167566
 21
313.355069834986
 31
0.0
  0
LINE
  5
19D
330
1E
100
AcDbEntity
  8
0
100
AcDbLine
 10
26.70248183452339
 20
505.948103674926
 30
0.0
 11
61.4020808167566
 21
313.355069834986
 31
0.0
  0
LINE
  5
1A0
330
1E
100
AcDbEntity
  8
0
100
AcDbLine
 10
37.66398
 20
431.1539999999999
 30
0.0
 11
37.82618
 21
431.271
 31
0.0
  0
LINE
  5
1A1
330
1E
100
AcDbEntity
  8
0
100
AcDbLine
 10
37.23158
 20
430.8419999999999
 30
0.0
 11
37.66398
 21
431.1539999999999
 31
0.0
  0
LINE
  5
1A2
330
1E
100
AcDbEntity
  8
0
100
AcDbLine
 10
25.40738
 20
506.13
 30
0.0
 11
26.70248183452339
 21
505.948103674926
 31
0.0
  0
LINE
  5
1A3
330
1E
100
AcDbEntity
  8
0
100
AcDbLine
 10
17.38158
 20
518.4239999999999
 30
0.0
 11
18.64218
 21
518.6459999999999
 31
0.0
  0
LINE
  5
1A4
330
1E
100
AcDbEntity
  8
0
100
AcDbLine
 10
17.38158
 20
518.4239999999999
 30
0.0
 11
19.65057999999999
 21
518.824
 31
0.0
  0
LINE
  5
1A5
330
1E
100
AcDbEntity
  8
0
100
AcDbLine
 10
19.65057999999999
 20
518.824
 30
0.0
 11
21.77777999999999
 21
519.199
 31
0.0
  0
LINE
  5
1A6
330
1E
100
AcDbEntity
  8
0
100
AcDbLine
 10
18.64218
 20
518.6459999999999
 30
0.0
 11
19.82388
 21
518.854
 31
0.0
  0
LINE
  5
1A7
330
1E
100
AcDbEntity
  8
0
100
AcDbLine
 10
16.12108
 20
518.201
 30
0.0
 11
17.38158
 21
518.4239999999999
 31
0.0
  0
LINE
  5
1A8
330
1E
100
AcDbEntity
  8
0
100
AcDbLine
 10
15.80196126984209
 20
518.1448342394039
 30
0.0
 11
16.12108
 21
518.201
 31
0.0
  0
LINE
  5
1A9
330
1E
100
AcDbEntity
  8
0
100
AcDbLine
 10
15.80196126984209
 20
518.1448342394039
 30
0.0
 11
17.38158
 21
518.4239999999999
 31
0.0
  0
LINE
  5
1AA
330
1E
100
AcDbEntity
  8
0
100
AcDbLine
 10
19.82388
 20
518.854
 30
0.0
 11
20.86778
 21
519.038
 31
0.0
  0
LINE
  5
1AB
330
1E
100
AcDbEntity
  8
0
100
AcDbLine
 10
20.86778
 20
519.038
 30
0.0
 11
21.65567999999999
 21
519.1769999999999
 31
0.0
  0
LINE
  5
1AC
330
1E
100
AcDbEntity
  8
0
100
AcDbLine
 10
20.29128
 20
530.716
 30
0.0
 11
21.64578
 21
523.0339999999999
 31
0.0
  0
LINE
  5
1AD
330
1E
100
AcDbEntity
  8
0
100
AcDbLine
 10
18.83268
 20
538.988
 30
0.0
 11
20.29128
 21
530.716
 31
0.0
  0
LINE
  5
1AE
330
1E
100
AcDbEntity
  8
0
100
AcDbLine
 10
21.77777999999999
 20
519.199
 30
0.0
 11
22.3055657211662
 21
519.2919734293269
 31
0.0
  0
LINE
  5
1AF
330
1E
100
AcDbEntity
  8
0
100
AcDbLine
 10
21.65567999999999
 20
519.1769999999999
 30
0.0
 11
21.9735804808831
 21
519.233491729203
 31
0.0
  0
LINE
  5
1B0
330
1E
100
AcDbEntity
  8
0
100
AcDbLine
 10
22.82658
 20
516.3369999999999
 30
0.0
 11
23.71218
 21
511.315
 31
0.0
  0
LINE
  5
1B1
330
1E
100
AcDbEntity
  8
0
100
AcDbLine
 10
23.70568
 20
515.7819999999999
 30
0.0
 11
24.62597999999999
 21
510.562
 31
0.0
  0
LINE
  5
1B2
330
1E
100
AcDbEntity
  8
0
100
AcDbLine
 10
21.09597999999999
 20
535.228
 30
0.0
 11
23.27547999999999
 21
531.713
 31
0.0
  0
LINE
  5
1B3
330
1E
100
AcDbEntity
  8
0
100
AcDbLine
 10
34.21898
 20
526.039
 30
0.0
 11
38.35277999999999
 21
526.1829999999999
 31
0.0
  0
LINE
  5
1B4
330
1E
100
AcDbEntity
  8
0
100
AcDbLine
 10
30.17058
 20
526.8849999999999
 30
0.0
 11
34.21898
 21
526.039
 31
0.0
  0
LINE
  5
1B5
330
1E
100
AcDbEntity
  8
0
100
AcDbLine
 10
26.38557999999999
 20
528.817
 30
0.0
 11
30.17058
 21
526.8849999999999
 31
0.0
  0
LINE
  5
1B6
330
1E
100
AcDbEntity
  8
0
100
AcDbLine
 10
38.35277999999999
 20
526.1829999999999
 30
0.0
 11
42.28647999999999
 21
527.4619999999999
 31
0.0
  0
LINE
  5
1B7
330
1E
100
AcDbEntity
  8
0
100
AcDbLine
 10
42.28647999999999
 20
527.4619999999999
 30
0.0
 11
45.80148
 21
529.6409999999999
 31
0.0
  0
LINE
  5
1B8
330
1E
100
AcDbEntity
  8
0
100
AcDbLine
 10
23.27547999999999
 20
531.713
 30
0.0
 11
26.38557999999999
 21
528.817
 31
0.0
  0
LINE
  5
1B9
330
1E
100
AcDbEntity
  8
0
100
AcDbLine
 10
45.80148
 20
529.6409999999999
 30
0.0
 11
48.69737999999999
 21
532.751
 31
0.0
  0
LINE
  5
1BA
330
1E
100
AcDbEntity
  8
0
100
AcDbLine
 10
48.69737999999999
 20
532.751
 30
0.0
 11
50.62948
 21
536.5359999999999
 31
0.0
  0
LINE
  5
1BB
330
1E
100
AcDbEntity
  8
0
100
AcDbLine
 10
50.62948
 20
536.5359999999999
 30
0.0
 11
51.47538
 21
540.585
 31
0.0
  0
LINE
  5
1BC
330
1E
100
AcDbEntity
  8
0
100
AcDbLine
 10
21.64578
 20
523.0339999999999
 30
0.0
 11
22.82658
 21
516.3369999999999
 31
0.0
  0
LINE
  5
1BD
330
1E
100
AcDbEntity
  8
0
100
AcDbLine
 10
22.49017999999999
 20
522.675
 30
0.0
 11
23.70568
 21
515.7819999999999
 31
0.0
  0
LINE
  5
1BE
330
1E
100
AcDbEntity
  8
0
100
AcDbLine
 10
21.08357999999999
 20
530.6519999999999
 30
0.0
 11
22.49017999999999
 21
522.675
 31
0.0
  0
LINE
  5
1BF
330
1E
100
AcDbEntity
  8
0
100
AcDbLine
 10
16.01957999999999
 20
554.942
 30
0.0
 11
17.37397999999999
 21
547.2599999999999
 31
0.0
  0
LINE
  5
1C0
330
1E
100
AcDbEntity
  8
0
100
AcDbLine
 10
17.37397999999999
 20
547.2599999999999
 30
0.0
 11
18.83268
 21
538.988
 31
0.0
  0
LINE
  5
1C1
330
1E
100
AcDbEntity
  8
0
100
AcDbLine
 10
15.47477999999999
 20
562.461
 30
0.0
 11
16.69027999999999
 21
555.5679999999999
 31
0.0
  0
LINE
  5
1C2
330
1E
100
AcDbEntity
  8
0
100
AcDbLine
 10
16.69027999999999
 20
555.5679999999999
 30
0.0
 11
18.09687999999999
 21
547.5909999999999
 31
0.0
  0
LINE
  5
1C3
330
1E
100
AcDbEntity
  8
0
100
AcDbLine
 10
19.67347999999999
 20
543.2949999999999
 30
0.0
 11
19.81747999999999
 21
539.1619999999999
 31
0.0
  0
LINE
  5
1C4
330
1E
100
AcDbEntity
  8
0
100
AcDbLine
 10
19.67347999999999
 20
543.2949999999999
 30
0.0
 11
20.51927999999999
 21
547.344
 31
0.0
  0
LINE
  5
1C5
330
1E
100
AcDbEntity
  8
0
100
AcDbLine
 10
19.81747999999999
 20
539.1619999999999
 30
0.0
 11
21.09597999999999
 21
535.228
 31
0.0
  0
LINE
  5
1C6
330
1E
100
AcDbEntity
  8
0
100
AcDbLine
 10
50.05278
 20
548.6519999999999
 30
0.0
 11
51.33128
 21
544.7180000000001
 31
0.0
  0
LINE
  5
1C7
330
1E
100
AcDbEntity
  8
0
100
AcDbLine
 10
44.76318
 20
555.0629999999999
 30
0.0
 11
47.87338
 21
552.1669999999999
 31
0.0
  0
LINE
  5
1C8
330
1E
100
AcDbEntity
  8
0
100
AcDbLine
 10
47.87338
 20
552.1669999999999
 30
0.0
 11
50.05278
 21
548.6519999999999
 31
0.0
  0
LINE
  5
1C9
330
1E
100
AcDbEntity
  8
0
100
AcDbLine
 10
36.92978
 20
557.8409999999999
 30
0.0
 11
40.97818
 21
556.995
 31
0.0
  0
LINE
  5
1CA
330
1E
100
AcDbEntity
  8
0
100
AcDbLine
 10
40.97818
 20
556.995
 30
0.0
 11
44.76318
 21
555.0629999999999
 31
0.0
  0
LINE
  5
1CB
330
1E
100
AcDbEntity
  8
0
100
AcDbLine
 10
32.79607999999999
 20
557.697
 30
0.0
 11
36.92978
 21
557.8409999999999
 31
0.0
  0
LINE
  5
1CC
330
1E
100
AcDbEntity
  8
0
100
AcDbLine
 10
28.86228
 20
556.418
 30
0.0
 11
32.79607999999999
 21
557.697
 31
0.0
  0
LINE
  5
1CD
330
1E
100
AcDbEntity
  8
0
100
AcDbLine
 10
25.34737999999999
 20
554.239
 30
0.0
 11
28.86228
 21
556.418
 31
0.0
  0
LINE
  5
1CE
330
1E
100
AcDbEntity
  8
0
100
AcDbLine
 10
22.45138
 20
551.129
 30
0.0
 11
25.34737999999999
 21
554.239
 31
0.0
  0
LINE
  5
1CF
330
1E
100
AcDbEntity
  8
0
100
AcDbLine
 10
20.51927999999999
 20
547.344
 30
0.0
 11
22.45138
 21
551.129
 31
0.0
  0
LINE
  5
1D0
330
1E
100
AcDbEntity
  8
0
100
AcDbLine
 10
51.33128
 20
544.7180000000001
 30
0.0
 11
51.47538
 21
540.585
 31
0.0
  0
LINE
  5
1D1
330
1E
100
AcDbEntity
  8
0
100
AcDbLine
 10
56.44678
 20
556.018
 30
0.0
 11
58.22498
 21
545.934
 31
0.0
  0
LINE
  5
1D2
330
1E
100
AcDbEntity
  8
0
100
AcDbLine
 10
54.77978
 20
565.472
 30
0.0
 11
56.44678
 21
556.018
 31
0.0
  0
LINE
  5
1D3
330
1E
100
AcDbEntity
  8
0
100
AcDbLine
 10
18.09687999999999
 20
547.5909999999999
 30
0.0
 11
19.59018
 21
539.1219999999999
 31
0.0
  0
LINE
  5
1D4
330
1E
100
AcDbEntity
  8
0
100
AcDbLine
 10
19.59018
 20
539.1219999999999
 30
0.0
 11
21.08357999999999
 21
530.6519999999999
 31
0.0
  0
LINE
  5
1D8
330
1E
100
AcDbEntity
  8
0
100
AcDbLine
 10
60.00318
 20
535.849
 30
0.0
 11
61.67018
 21
526.395
 31
0.0
  0
LINE
  5
1D9
330
1E
100
AcDbEntity
  8
0
100
AcDbLine
 10
61.67018
 20
526.395
 30
0.0
 11
63.14268000000001
 21
518.0439999999999
 31
0.0
  0
LINE
  5
1DA
330
1E
100
AcDbEntity
  8
0
100
AcDbLine
 10
63.14268000000001
 20
518.0439999999999
 30
0.0
 11
64.25408
 21
511.7409999999999
 31
0.0
  0
LINE
  5
1DB
330
1E
100
AcDbEntity
  8
0
100
AcDbLine
 10
60.66088
 20
566.672
 30
0.0
 11
64.6000386956461
 21
567.3669927126
 31
0.0
  0
LINE
  5
1DC
330
1E
100
AcDbEntity
  8
0
100
AcDbLine
 10
60.66088
 20
566.672
 30
0.0
 11
60.78588
 21
565.963
 31
0.0
  0
LINE
  5
1DD
330
1E
100
AcDbEntity
  8
0
100
AcDbLine
 10
62.41128
 20
556.745
 30
0.0
 11
63.24478
 21
552.018
 31
0.0
  0
LINE
  5
1DE
330
1E
100
AcDbEntity
  8
0
100
AcDbLine
 10
63.24478
 20
552.018
 30
0.0
 11
64.13378
 21
546.9759999999999
 31
0.0
  0
LINE
  5
1DF
330
1E
100
AcDbEntity
  8
0
100
AcDbLine
 10
61.67498000000001
 20
560.9209999999999
 30
0.0
 11
62.41128
 21
556.745
 31
0.0
  0
LINE
  5
1E0
330
1E
100
AcDbEntity
  8
0
100
AcDbLine
 10
61.11928
 20
564.0719999999999
 30
0.0
 11
61.67498000000001
 21
560.9209999999999
 31
0.0
  0
LINE
  5
1E1
330
1E
100
AcDbEntity
  8
0
100
AcDbLine
 10
60.78588
 20
565.963
 30
0.0
 11
61.11928
 21
564.0719999999999
 31
0.0
  0
LINE
  5
1E2
330
1E
100
AcDbEntity
  8
0
100
AcDbLine
 10
62.35568
 20
557.0599999999999
 30
0.0
 11
64.13378
 21
546.9759999999999
 31
0.0
  0
LINE
  5
1E3
330
1E
100
AcDbEntity
  8
0
100
AcDbLine
 10
60.68868000000001
 20
566.514
 30
0.0
 11
62.35568
 21
557.0599999999999
 31
0.0
  0
LINE
  5
1E4
330
1E
100
AcDbEntity
  8
0
100
AcDbLine
 10
59.73568
 20
537.366
 30
0.0
 11
59.8784917590169
 21
536.55616506035
 31
0.0
  0
LINE
  5
1E5
330
1E
100
AcDbEntity
  8
0
100
AcDbLine
 10
58.22498
 20
545.934
 30
0.0
 11
59.73568
 21
537.366
 31
0.0
  0
LINE
  5
1E6
330
1E
100
AcDbEntity
  8
0
100
AcDbLine
 10
58.22498
 20
545.934
 30
0.0
 11
60.00318
 21
535.849
 31
0.0
  0
LINE
  5
1E7
330
1E
100
AcDbEntity
  8
0
100
AcDbLine
 10
62.1725370948172
 20
512.1050361853459
 30
0.0
 11
64.12898
 21
512.45
 31
0.0
  0
LINE
  5
1E8
330
1E
100
AcDbEntity
  8
0
100
AcDbLine
 10
62.1725370948172
 20
512.1050361853459
 30
0.0
 11
96.85521405072471
 21
319.606966042488
 31
0.0
  0
LINE
  5
1E9
330
1E
100
AcDbEntity
  8
0
100
AcDbLine
 10
64.25408
 20
511.7409999999999
 30
0.0
 11
64.92088000000001
 21
507.96
 31
0.0
  0
LINE
  5
1EA
330
1E
100
AcDbEntity
  8
0
100
AcDbLine
 10
64.13378
 20
546.9759999999999
 30
0.0
 11
65.91198
 21
536.8909999999999
 31
0.0
  0
LINE
  5
1EB
330
1E
100
AcDbEntity
  8
0
100
AcDbLine
 10
64.13378
 20
546.9759999999999
 30
0.0
 11
65.02288
 21
541.934
 31
0.0
  0
LINE
  5
1EC
330
1E
100
AcDbEntity
  8
0
100
AcDbLine
 10
63.98570008160561
 20
513.2630430318869
 30
0.0
 11
64.12898
 21
512.45
 31
0.0
  0
LINE
  5
1ED
330
1E
100
AcDbEntity
  8
0
100
AcDbLine
 10
63.98570008160561
 20
513.2630430318869
 30
0.0
 11
64.25408
 21
511.7409999999999
 31
0.0
  0
LINE
  5
1EE
330
1E
100
AcDbEntity
  8
0
100
AcDbLine
 10
53.30728
 20
573.8240000000001
 30
0.0
 11
54.77978
 21
565.472
 31
0.0
  0
LINE
  5
1EF
330
1E
100
AcDbEntity
  8
0
100
AcDbLine
 10
63.77008
 20
572.0740000000001
 30
0.0
 11
65.05848
 21
564.7669999999999
 31
0.0
  0
LINE
  5
1F0
330
1E
100
AcDbEntity
  8
0
100
AcDbLine
 10
59.21608
 20
574.866
 30
0.0
 11
60.68868000000001
 21
566.514
 31
0.0
  0
LINE
  5
1F1
330
1E
100
AcDbEntity
  8
0
100
AcDbLine
 10
54.05738
 20
569.5689999999999
 30
0.0
 11
54.6079144126861
 21
566.4468192769069
 31
0.0
  0
LINE
  5
1F2
330
1E
100
AcDbEntity
  8
0
100
AcDbLine
 10
15.20127999999999
 20
572.872
 30
0.0
 11
52.3209188116001
 21
579.416989211171
 31
0.0
  0
LINE
  5
1F3
330
1E
100
AcDbEntity
  8
0
100
AcDbLine
 10
52.19587999999999
 20
580.126
 30
0.0
 11
52.3209188116001
 21
579.416989211171
 31
0.0
  0
LINE
  5
1F4
330
1E
100
AcDbEntity
  8
0
100
AcDbLine
 10
52.19587999999999
 20
580.126
 30
0.0
 11
53.30728
 21
573.8240000000001
 31
0.0
  0
LINE
  5
1F5
330
1E
100
AcDbEntity
  8
0
100
AcDbLine
 10
51.52908
 20
583.908
 30
0.0
 11
52.19587999999999
 21
580.126
 31
0.0
  0
LINE
  5
1F6
330
1E
100
AcDbEntity
  8
0
100
AcDbLine
 10
51.27908
 20
585.326
 30
0.0
 11
57.18788
 21
586.368
 31
0.0
  0
LINE
  5
1F7
330
1E
100
AcDbEntity
  8
0
100
AcDbLine
 10
51.27908
 20
585.326
 30
0.0
 11
51.52908
 21
583.908
 31
0.0
  0
LINE
  5
1F8
330
1E
100
AcDbEntity
  8
0
100
AcDbLine
 10
62.21418
 20
580.898
 30
0.0
 11
62.79758000000001
 21
577.589
 31
0.0
  0
LINE
  5
1F9
330
1E
100
AcDbEntity
  8
0
100
AcDbLine
 10
62.79758000000001
 20
577.589
 30
0.0
 11
63.77008
 21
572.0740000000001
 31
0.0
  0
LINE
  5
1FA
330
1E
100
AcDbEntity
  8
0
100
AcDbLine
 10
58.10478
 20
581.1679999999999
 30
0.0
 11
59.21608
 21
574.866
 31
0.0
  0
LINE
  5
1FB
330
1E
100
AcDbEntity
  8
0
100
AcDbLine
 10
61.99538
 20
582.139
 30
0.0
 11
64.84035358869739
 21
582.6402214841989
 31
0.0
  0
LINE
  5
1FC
330
1E
100
AcDbEntity
  8
0
100
AcDbLine
 10
61.99538
 20
582.139
 30
0.0
 11
62.21418
 21
580.898
 31
0.0
  0
LINE
  5
1FD
330
1E
100
AcDbEntity
  8
0
100
AcDbLine
 10
57.43798
 20
584.95
 30
0.0
 11
58.10478
 21
581.1679999999999
 31
0.0
  0
LINE
  5
1FE
330
1E
100
AcDbEntity
  8
0
100
AcDbLine
 10
57.18788
 20
586.368
 30
0.0
 11
57.43798
 21
584.95
 31
0.0
  0
LINE
  5
1FF
330
1E
100
AcDbEntity
  8
0
100
AcDbLine
 10
52.7610177848822
 20
576.921484685686
 30
0.0
 11
53.11968
 21
574.8869999999999
 31
0.0
  0
LINE
  5
200
330
1E
100
AcDbEntity
  8
0
100
AcDbLine
 10
52.7610177848822
 20
576.921484685686
 30
0.0
 11
53.30728
 21
573.8240000000001
 31
0.0
  0
LINE
  5
201
330
1E
100
AcDbEntity
  8
0
100
AcDbLine
 10
53.11968
 20
574.8869999999999
 30
0.0
 11
54.05738
 21
569.5689999999999
 31
0.0
  0
LINE
  5
202
330
1E
100
AcDbEntity
  8
0
100
AcDbLine
 10
64.49528
 20
313.901
 30
0.0
 11
66.5782332817366
 21
314.26830719246
 31
0.0
  0
LINE
  5
203
330
1E
100
AcDbEntity
  8
0
100
AcDbLine
 10
64.49528
 20
313.901
 30
0.0
 11
68.87968
 21
314.674
 31
0.0
  0
LINE
  5
205
330
1E
100
AcDbEntity
  8
0
100
AcDbLine
 10
65.16928
 20
263.248
 30
0.0
 11
68.30414216070391
 21
263.80077297157
 31
0.0
  0
LINE
  5
206
330
1E
100
AcDbEntity
  8
0
100
AcDbLine
 10
65.16928
 20
263.248
 30
0.0
 11
65.98468000000001
 21
263.3919999999999
 31
0.0
  0
LINE
  5
207
330
1E
100
AcDbEntity
  8
0
100
AcDbLine
 10
66.57378
 20
293.9589999999999
 30
0.0
 11
71.37568
 21
294.8059999999999
 31
0.0
  0
LINE
  5
209
330
1E
100
AcDbEntity
  8
0
100
AcDbLine
 10
65.98468000000001
 20
263.3919999999999
 30
0.0
 11
68.15918
 21
263.776
 31
0.0
  0
LINE
  5
20A
330
1E
100
AcDbEntity
  8
0
100
AcDbLine
 10
65.98468000000001
 20
263.3919999999999
 30
0.0
 11
68.2129202338325
 21
263.7848851075439
 31
0.0
  0
LINE
  5
20B
330
1E
100
AcDbEntity
  8
0
100
AcDbLine
 10
65.98468000000001
 20
263.3919999999999
 30
0.0
 11
68.92166274987129
 21
263.909851157168
 31
0.0
  0
LINE
  5
20C
330
1E
100
AcDbEntity
  8
0
100
AcDbLine
 10
65.17088000000001
 20
506.5419999999999
 30
0.0
 11
71.07978
 21
507.583
 31
0.0
  0
LINE
  5
20D
330
1E
100
AcDbEntity
  8
0
100
AcDbLine
 10
65.61418
 20
561.615
 30
0.0
 11
65.89842681479369
 21
560.003251457607
 31
0.0
  0
LINE
  5
20E
330
1E
100
AcDbEntity
  8
0
100
AcDbLine
 10
65.05848
 20
564.7669999999999
 30
0.0
 11
65.61418
 21
561.615
 31
0.0
  0
LINE
  5
20F
330
1E
100
AcDbEntity
  8
0
100
AcDbLine
 10
65.05848
 20
564.7669999999999
 30
0.0
 11
65.89842681479369
 21
560.003251457607
 31
0.0
  0
LINE
  5
210
330
1E
100
AcDbEntity
  8
0
100
AcDbLine
 10
65.05848
 20
564.7669999999999
 30
0.0
 11
66.51718000000001
 21
556.4939999999999
 31
0.0
  0
LINE
  5
211
330
1E
100
AcDbEntity
  8
0
100
AcDbLine
 10
64.72508000000001
 20
566.6569999999999
 30
0.0
 11
65.05848
 21
564.7669999999999
 31
0.0
  0
LINE
  5
212
330
1E
100
AcDbEntity
  8
0
100
AcDbLine
 10
64.62808575953911
 20
567.207927285818
 30
0.0
 11
64.72508000000001
 21
566.6569999999999
 31
0.0
  0
LINE
  5
213
330
1E
100
AcDbEntity
  8
0
100
AcDbLine
 10
65.02288
 20
541.934
 30
0.0
 11
65.5228900195234
 21
539.0977104111499
 31
0.0
  0
LINE
  5
214
330
1E
100
AcDbEntity
  8
0
100
AcDbLine
 10
66.59268
 20
533.0309999999999
 30
0.0
 11
67.09366148697791
 21
530.189370259215
 31
0.0
  0
LINE
  5
215
330
1E
100
AcDbEntity
  8
0
100
AcDbLine
 10
66.51718000000001
 20
556.4939999999999
 30
0.0
 11
68.07308
 21
547.67
 31
0.0
  0
LINE
  5
216
330
1E
100
AcDbEntity
  8
0
100
AcDbLine
 10
66.1716187030095
 20
535.4185199170649
 30
0.0
 11
66.59268
 21
533.0309999999999
 31
0.0
  0
LINE
  5
217
330
1E
100
AcDbEntity
  8
0
100
AcDbLine
 10
65.91198
 20
536.8909999999999
 30
0.0
 11
67.57898
 21
527.437
 31
0.0
  0
LINE
  5
218
330
1E
100
AcDbEntity
  8
0
100
AcDbLine
 10
64.92088000000001
 20
507.96
 30
0.0
 11
65.17088000000001
 21
506.5419999999999
 31
0.0
  0
LINE
  5
219
330
1E
100
AcDbEntity
  8
0
100
AcDbLine
 10
68.15918
 20
263.776
 30
0.0
 11
68.21281388793678
 21
263.785455159561
 31
0.0
  0
LINE
  5
21A
330
1E
100
AcDbEntity
  8
0
100
AcDbLine
 10
68.15918
 20
263.776
 30
0.0
 11
71.78328
 21
264.415
 31
0.0
  0
LINE
  5
21B
330
1E
100
AcDbEntity
  8
0
100
AcDbLine
 10
68.15918
 20
263.776
 30
0.0
 11
70.8118514204607
 21
264.2436414951309
 31
0.0
  0
LINE
  5
21C
330
1E
100
AcDbEntity
  8
0
100
AcDbLine
 10
67.7057039883495
 20
294.1586583889989
 30
0.0
 11
67.96828000000001
 21
294.205
 31
0.0
  0
LINE
  5
21D
330
1E
100
AcDbEntity
  8
0
100
AcDbLine
 10
67.7057039883761
 20
294.158658389003
 30
0.0
 11
67.96828000000001
 21
294.205
 31
0.0
  0
LINE
  5
21E
330
1E
100
AcDbEntity
  8
0
100
AcDbLine
 10
67.96828000000001
 20
294.205
 30
0.0
 11
68.28956278913929
 21
294.261644374602
 31
0.0
  0
LINE
  5
21F
330
1E
100
AcDbEntity
  8
0
100
AcDbLine
 10
67.88740781528201
 20
294.19072700034
 30
0.0
 11
68.27445291643219
 21
294.258979166625
 31
0.0
  0
LINE
  5
220
330
1E
100
AcDbEntity
  8
0
100
AcDbLine
 10
68.2128136083209
 20
263.785456658403
 30
0.0
 11
93.22388000000001
 21
129.7171999999999
 31
0.0
  0
LINE
  5
221
330
1E
100
AcDbEntity
  8
0
100
AcDbLine
 10
68.87968
 20
314.674
 30
0.0
 11
70.3361399021089
 21
314.9308519529449
 31
0.0
  0
LINE
  5
222
330
1E
100
AcDbEntity
  8
0
100
AcDbLine
 10
68.87968
 20
314.674
 30
0.0
 11
73.84308
 21
315.549
 31
0.0
  0
LINE
  5
224
330
1E
100
AcDbEntity
  8
0
100
AcDbLine
 10
68.2128136083209
 20
263.785456658403
 30
0.0
 11
93.22388000000001
 21
129.7171999999999
 31
0.0
  0
LINE
  5
225
330
1E
100
AcDbEntity
  8
0
100
AcDbLine
 10
67.1679800000345
 20
529.7678902217598
 30
0.0
 11
67.48178
 21
527.989
 31
0.0
  0
LINE
  5
226
330
1E
100
AcDbEntity
  8
0
100
AcDbLine
 10
67.48178
 20
527.989
 30
0.0
 11
67.60678
 21
527.28
 31
0.0
  0
LINE
  5
227
330
1E
100
AcDbEntity
  8
0
100
AcDbLine
 10
68.07308
 20
547.67
 30
0.0
 11
69.62898
 21
538.846
 31
0.0
  0
LINE
  5
228
330
1E
100
AcDbEntity
  8
0
100
AcDbLine
 10
69.62898
 20
538.846
 30
0.0
 11
71.08758
 21
530.5740000000001
 31
0.0
  0
LINE
  5
229
330
1E
100
AcDbEntity
  8
0
100
AcDbLine
 10
67.60678
 20
527.28
 30
0.0
 11
71.54598
 21
527.974
 31
0.0
  0
LINE
  5
22A
330
1E
100
AcDbEntity
  8
0
100
AcDbLine
 10
67.57898
 20
527.437
 30
0.0
 11
69.05158
 21
519.0859999999999
 31
0.0
  0
LINE
  5
22B
330
1E
100
AcDbEntity
  8
0
100
AcDbLine
 10
69.05158
 20
519.0859999999999
 30
0.0
 11
70.1628799999999
 21
512.783
 31
0.0
  0
LINE
  5
22C
330
1E
100
AcDbEntity
  8
0
100
AcDbLine
 10
70.12415812502171
 20
536.0377499998771
 30
0.0
 11
71.08758
 21
530.5740000000001
 31
0.0
  0
LINE
  5
22D
330
1E
100
AcDbEntity
  8
0
100
AcDbLine
 10
70.1241581249841
 20
536.0377500000899
 30
0.0
 11
70.53188
 21
533.725
 31
0.0
  0
LINE
  5
22E
330
1E
100
AcDbEntity
  8
0
100
AcDbLine
 10
70.53188
 20
533.725
 30
0.0
 11
71.08758
 21
530.5740000000001
 31
0.0
  0
LINE
  5
22F
330
1E
100
AcDbEntity
  8
0
100
AcDbLine
 10
70.1628799999999
 20
512.783
 30
0.0
 11
70.82968000000001
 21
509.0019999999999
 31
0.0
  0
LINE
  5
230
330
1E
100
AcDbEntity
  8
0
100
AcDbLine
 10
71.78328
 20
264.415
 30
0.0
 11
76.58518
 21
265.2609999999999
 31
0.0
  0
LINE
  5
231
330
1E
100
AcDbEntity
  8
0
100
AcDbLine
 10
73.84308
 20
315.549
 30
0.0
 11
74.59070823173409
 21
315.680891199841
 31
0.0
  0
LINE
  5
232
330
1E
100
AcDbEntity
  8
0
100
AcDbLine
 10
73.84308
 20
315.549
 30
0.0
 11
79.13748000000001
 21
316.483
 31
0.0
  0
LINE
  5
234
330
1E
100
AcDbEntity
  8
0
100
AcDbLine
 10
71.37568
 20
294.8059999999999
 30
0.0
 11
72.35263329019019
 21
294.978264899629
 31
0.0
  0
LINE
  5
235
330
1E
100
AcDbEntity
  8
0
100
AcDbLine
 10
71.37568
 20
294.8059999999999
 30
0.0
 11
76.81188
 21
295.7639999999999
 31
0.0
  0
LINE
  5
237
330
1E
100
AcDbEntity
  8
0
100
AcDbLine
 10
75.0363090944684
 20
295.4510981701369
 30
0.0
 11
77.31608
 21
295.853
 31
0.0
  0
LINE
  5
238
330
1E
100
AcDbEntity
  8
0
100
AcDbLine
 10
74.15078000000001
 20
513.2019999999999
 30
0.0
 11
78.08998000000001
 21
513.8969999999999
 31
0.0
  0
LINE
  5
239
330
1E
100
AcDbEntity
  8
0
100
AcDbLine
 10
72.37608
 20
523.2669999999999
 30
0.0
 11
73.34848
 21
517.7519999999999
 31
0.0
  0
LINE
  5
23A
330
1E
100
AcDbEntity
  8
0
100
AcDbLine
 10
72.37608
 20
523.2669999999999
 30
0.0
 11
73.34848
 21
517.7519999999999
 31
0.0
  0
LINE
  5
23B
330
1E
100
AcDbEntity
  8
0
100
AcDbLine
 10
75.78048000000001
 20
526.995
 30
0.0
 11
76.19718
 21
524.631
 31
0.0
  0
LINE
  5
23C
330
1E
100
AcDbEntity
  8
0
100
AcDbLine
 10
75.78048000000001
 20
526.995
 30
0.0
 11
76.19718
 21
524.631
 31
0.0
  0
LINE
  5
23D
330
1E
100
AcDbEntity
  8
0
100
AcDbLine
 10
76.19718
 20
524.631
 30
0.0
 11
76.35348
 21
523.7449999999999
 31
0.0
  0
LINE
  5
23E
330
1E
100
AcDbEntity
  8
0
100
AcDbLine
 10
73.93198000000001
 20
514.4429999999999
 30
0.0
 11
74.15078000000001
 21
513.2019999999999
 31
0.0
  0
LINE
  5
23F
330
1E
100
AcDbEntity
  8
0
100
AcDbLine
 10
73.34848
 20
517.7519999999999
 30
0.0
 11
73.93198000000001
 21
514.4429999999999
 31
0.0
  0
LINE
  5
240
330
1E
100
AcDbEntity
  8
0
100
AcDbLine
 10
73.34848
 20
517.7519999999999
 30
0.0
 11
73.93198000000001
 21
514.4429999999999
 31
0.0
  0
LINE
  5
241
330
1E
100
AcDbEntity
  8
0
100
AcDbLine
 10
73.93198000000001
 20
514.4429999999999
 30
0.0
 11
74.15078000000001
 21
513.2019999999999
 31
0.0
  0
LINE
  5
242
330
1E
100
AcDbEntity
  8
0
100
AcDbLine
 10
76.58518
 20
265.2609999999999
 30
0.0
 11
82.02128
 21
266.22
 31
0.0
  0
LINE
  5
243
330
1E
100
AcDbEntity
  8
0
100
AcDbLine
 10
76.58518
 20
265.2609999999999
 30
0.0
 11
78.136025594179
 21
265.534458581188
 31
0.0
  0
LINE
  5
244
330
1E
100
AcDbEntity
  8
0
100
AcDbLine
 10
76.35348
 20
523.7449999999999
 30
0.0
 11
81.52021736199591
 21
524.655971979933
 31
0.0
  0
LINE
  5
245
330
1E
100
AcDbEntity
  8
0
100
AcDbLine
 10
76.31528
 20
523.9609999999999
 30
0.0
 11
77.28768000000001
 21
518.447
 31
0.0
  0
LINE
  5
246
330
1E
100
AcDbEntity
  8
0
100
AcDbLine
 10
75.08588
 20
530.9339999999999
 30
0.0
 11
75.78048000000001
 21
526.995
 31
0.0
  0
LINE
  5
247
330
1E
100
AcDbEntity
  8
0
100
AcDbLine
 10
75.08588
 20
530.9339999999999
 30
0.0
 11
75.78048000000001
 21
526.995
 31
0.0
  0
LINE
  5
248
330
1E
100
AcDbEntity
  8
0
100
AcDbLine
 10
73.12368000000001
 20
542.062
 30
0.0
 11
73.2911370781321
 21
541.1121978549791
 31
0.0
  0
LINE
  5
249
330
1E
100
AcDbEntity
  8
0
100
AcDbLine
 10
73.56818
 20
539.5409999999999
 30
0.0
 11
75.02678
 21
531.2689999999999
 31
0.0
  0
LINE
  5
24A
330
1E
100
AcDbEntity
  8
0
100
AcDbLine
 10
71.96912117708951
 20
548.609785441199
 30
0.0
 11
72.01228
 21
548.3649999999999
 31
0.0
  0
LINE
  5
24B
330
1E
100
AcDbEntity
  8
0
100
AcDbLine
 10
72.01228
 20
548.3649999999999
 30
0.0
 11
73.2911370781321
 21
541.1121978549791
 31
0.0
  0
LINE
  5
24C
330
1E
100
AcDbEntity
  8
0
100
AcDbLine
 10
72.01228
 20
548.3649999999999
 30
0.0
 11
73.56818
 21
539.5409999999999
 31
0.0
  0
LINE
  5
24D
330
1E
100
AcDbEntity
  8
0
100
AcDbLine
 10
72.01228
 20
548.3649999999999
 30
0.0
 11
73.12368000000001
 21
542.062
 31
0.0
  0
LINE
  5
24E
330
1E
100
AcDbEntity
  8
0
100
AcDbLine
 10
74.8843723077095
 20
532.076621301677
 30
0.0
 11
75.02678
 21
531.2689999999999
 31
0.0
  0
LINE
  5
24F
330
1E
100
AcDbEntity
  8
0
100
AcDbLine
 10
74.8843723077095
 20
532.076621301677
 30
0.0
 11
75.08588
 21
530.9339999999999
 31
0.0
  0
LINE
  5
250
330
1E
100
AcDbEntity
  8
0
100
AcDbLine
 10
75.02678
 20
531.2689999999999
 30
0.0
 11
76.31528
 21
523.9609999999999
 31
0.0
  0
LINE
  5
251
330
1E
100
AcDbEntity
  8
0
100
AcDbLine
 10
71.08758
 20
530.5740000000001
 30
0.0
 11
71.42098
 21
528.683
 31
0.0
  0
LINE
  5
252
330
1E
100
AcDbEntity
  8
0
100
AcDbLine
 10
71.08758
 20
530.5740000000001
 30
0.0
 11
72.37608
 21
523.2669999999999
 31
0.0
  0
LINE
  5
253
330
1E
100
AcDbEntity
  8
0
100
AcDbLine
 10
71.08758
 20
530.5740000000001
 30
0.0
 11
72.37608
 21
523.2669999999999
 31
0.0
  0
LINE
  5
254
330
1E
100
AcDbEntity
  8
0
100
AcDbLine
 10
71.42098
 20
528.683
 30
0.0
 11
71.54598
 21
527.974
 31
0.0
  0
LINE
  5
255
330
1E
100
AcDbEntity
  8
0
100
AcDbLine
 10
70.82968000000001
 20
509.0019999999999
 30
0.0
 11
71.07978
 21
507.583
 31
0.0
  0
LINE
  5
256
330
1E
100
AcDbEntity
  8
0
100
AcDbLine
 10
71.9691154445789
 20
548.609799818134
 30
0.0
 11
72.01228
 21
548.3649999999999
 31
0.0
  0
LINE
  5
257
330
1E
100
AcDbEntity
  8
0
100
AcDbLine
 10
69.94628
 20
553.683
 30
0.0
 11
84.51028
 21
517.1569999999999
 31
0.0
  0
LINE
  5
258
330
1E
100
AcDbEntity
  8
0
100
AcDbLine
 10
68.26198000000001
 20
563.236
 30
0.0
 11
69.94628
 21
553.683
 31
0.0
  0
LINE
  5
259
330
1E
100
AcDbEntity
  8
0
100
AcDbLine
 10
66.69908000000001
 20
572.099
 30
0.0
 11
68.26198000000001
 21
563.236
 31
0.0
  0
LINE
  5
25A
330
1E
100
AcDbEntity
  8
0
100
AcDbLine
 10
65.34468000000001
 20
579.7799999999999
 30
0.0
 11
66.69908000000001
 21
572.099
 31
0.0
  0
LINE
  5
25B
330
1E
100
AcDbEntity
  8
0
100
AcDbLine
 10
64.30278
 20
585.6889999999999
 30
0.0
 11
65.34468000000001
 21
579.7799999999999
 31
0.0
  0
LINE
  5
25C
330
1E
100
AcDbEntity
  8
0
100
AcDbLine
 10
64.30278
 20
585.6889999999999
 30
0.0
 11
64.84035358869739
 21
582.6402214841989
 31
0.0
  0
LINE
  5
25D
330
1E
100
AcDbEntity
  8
0
100
AcDbLine
 10
63.66028
 20
589.333
 30
0.0
 11
64.30278
 21
585.6889999999999
 31
0.0
  0
LINE
  5
25E
330
1E
100
AcDbEntity
  8
0
100
AcDbLine
 10
63.43448000000001
 20
590.613
 30
0.0
 11
63.66028
 21
589.333
 31
0.0
  0
LINE
  5
25F
330
1E
100
AcDbEntity
  8
0
100
AcDbLine
 10
63.43448000000001
 20
590.613
 30
0.0
 11
75.25218000000001
 21
592.6969999999999
 31
0.0
  0
LINE
  5
260
330
1E
100
AcDbEntity
  8
0
100
AcDbLine
 10
76.12048
 20
587.773
 30
0.0
 11
77.16238
 21
581.864
 31
0.0
  0
LINE
  5
261
330
1E
100
AcDbEntity
  8
0
100
AcDbLine
 10
76.81188
 20
295.7639999999999
 30
0.0
 11
82.61038
 21
296.787
 31
0.0
  0
LINE
  5
263
330
1E
100
AcDbEntity
  8
0
100
AcDbLine
 10
77.31608
 20
295.853
 30
0.0
 11
82.61038
 21
296.787
 31
0.0
  0
LINE
  5
264
330
1E
100
AcDbEntity
  8
0
100
AcDbLine
 10
77.87118000000001
 20
515.138
 30
0.0
 11
78.08998000000001
 21
513.8969999999999
 31
0.0
  0
LINE
  5
265
330
1E
100
AcDbEntity
  8
0
100
AcDbLine
 10
77.28768000000001
 20
518.447
 30
0.0
 11
77.87118000000001
 21
515.138
 31
0.0
  0
LINE
  5
266
330
1E
100
AcDbEntity
  8
0
100
AcDbLine
 10
77.16238
 20
581.864
 30
0.0
 11
78.51678000000001
 21
574.183
 31
0.0
  0
LINE
  5
267
330
1E
100
AcDbEntity
  8
0
100
AcDbLine
 10
78.40758000000001
 20
580.561
 30
0.0
 11
79.69258
 21
573.273
 31
0.0
  0
LINE
  5
268
330
1E
100
AcDbEntity
  8
0
100
AcDbLine
 10
77.41778
 20
586.174
 30
0.0
 11
78.40758000000001
 21
580.561
 31
0.0
  0
LINE
  5
269
330
1E
100
AcDbEntity
  8
0
100
AcDbLine
 10
76.81008
 20
589.6209999999999
 30
0.0
 11
77.41778
 21
586.174
 31
0.0
  0
LINE
  5
26A
330
1E
100
AcDbEntity
  8
0
100
AcDbLine
 10
78.3628799999999
 20
592.332
 30
0.0
 11
78.76228000000001
 21
590.0669999999999
 31
0.0
  0
LINE
  5
26B
330
1E
100
AcDbEntity
  8
0
100
AcDbLine
 10
78.22398000000001
 20
593.12
 30
0.0
 11
78.3628799999999
 21
592.332
 31
0.0
  0
LINE
  5
26C
330
1E
100
AcDbEntity
  8
0
100
AcDbLine
 10
75.47798
 20
591.4169999999999
 30
0.0
 11
76.12048
 21
587.773
 31
0.0
  0
LINE
  5
26D
330
1E
100
AcDbEntity
  8
0
100
AcDbLine
 10
75.25218000000001
 20
592.6969999999999
 30
0.0
 11
75.47798
 21
591.4169999999999
 31
0.0
  0
LINE
  5
26E
330
1E
100
AcDbEntity
  8
0
100
AcDbLine
 10
75.25218000000001
 20
592.6969999999999
 30
0.0
 11
76.58428
 21
590.9009999999999
 31
0.0
  0
LINE
  5
26F
330
1E
100
AcDbEntity
  8
0
100
AcDbLine
 10
76.58428
 20
590.9009999999999
 30
0.0
 11
76.81008
 21
589.6209999999999
 31
0.0
  0
LINE
  5
270
330
1E
100
AcDbEntity
  8
0
100
AcDbLine
 10
76.58428
 20
590.9009999999999
 30
0.0
 11
78.20668000000001
 21
593.218
 31
0.0
  0
LINE
  5
271
330
1E
100
AcDbEntity
  8
0
100
AcDbLine
 10
79.13748000000001
 20
316.483
 30
0.0
 11
84.43178000000001
 21
317.416
 31
0.0
  0
LINE
  5
273
330
1E
100
AcDbEntity
  8
0
100
AcDbLine
 10
80.07968000000001
 20
565.3189999999999
 30
0.0
 11
81.76398
 21
555.7669999999999
 31
0.0
  0
LINE
  5
274
330
1E
100
AcDbEntity
  8
0
100
AcDbLine
 10
78.51678000000001
 20
574.183
 30
0.0
 11
80.07968000000001
 21
565.3189999999999
 31
0.0
  0
LINE
  5
275
330
1E
100
AcDbEntity
  8
0
100
AcDbLine
 10
79.69258
 20
573.273
 30
0.0
 11
81.16858
 21
564.9019999999999
 31
0.0
  0
LINE
  5
276
330
1E
100
AcDbEntity
  8
0
100
AcDbLine
 10
82.02128
 20
266.22
 30
0.0
 11
87.81988
 21
267.242
 31
0.0
  0
LINE
  5
277
330
1E
100
AcDbEntity
  8
0
100
AcDbLine
 10
82.02128
 20
266.22
 30
0.0
 11
82.86122095535759
 21
266.368039122612
 31
0.0
  0
LINE
  5
278
330
1E
100
AcDbEntity
  8
0
100
AcDbLine
 10
82.61038
 20
296.787
 30
0.0
 11
88.40898000000001
 21
297.809
 31
0.0
  0
LINE
  5
27A
330
1E
100
AcDbEntity
  8
0
100
AcDbLine
 10
81.52021736199591
 20
524.655971979933
 30
0.0
 11
84.51028
 21
517.1569999999999
 31
0.0
  0
LINE
  5
27B
330
1E
100
AcDbEntity
  8
0
100
AcDbLine
 10
81.76398
 20
555.7669999999999
 30
0.0
 11
88.44948
 21
517.8519999999999
 31
0.0
  0
LINE
  5
27C
330
1E
100
AcDbEntity
  8
0
100
AcDbLine
 10
82.74878000000001
 20
555.9400000000001
 30
0.0
 11
89.43428
 21
518.025
 31
0.0
  0
LINE
  5
27D
330
1E
100
AcDbEntity
  8
0
100
AcDbLine
 10
81.16858
 20
564.9019999999999
 30
0.0
 11
82.74878000000001
 21
555.9400000000001
 31
0.0
  0
LINE
  5
27E
330
1E
100
AcDbEntity
  8
0
100
AcDbLine
 10
84.43178000000001
 20
317.416
 30
0.0
 11
89.39518000000001
 21
318.291
 31
0.0
  0
LINE
  5
280
330
1E
100
AcDbEntity
  8
0
100
AcDbLine
 10
83.66666355849849
 20
317.2811656234209
 30
0.0
 11
84.43178000000001
 21
317.416
 31
0.0
  0
LINE
  5
281
330
1E
100
AcDbEntity
  8
0
100
AcDbLine
 10
87.81988
 20
267.242
 30
0.0
 11
93.61838
 21
268.2649999999999
 31
0.0
  0
LINE
  5
282
330
1E
100
AcDbEntity
  8
0
100
AcDbLine
 10
87.92096492451609
 20
318.03115804162
 30
0.0
 11
89.39518000000001
 21
318.291
 31
0.0
  0
LINE
  5
283
330
1E
100
AcDbEntity
  8
0
100
AcDbLine
 10
88.40898000000001
 20
297.809
 30
0.0
 11
93.84508000000002
 21
298.7679999999999
 31
0.0
  0
LINE
  5
285
330
1E
100
AcDbEntity
  8
0
100
AcDbLine
 10
87.90465992204609
 20
297.720113868922
 30
0.0
 11
88.40898000000001
 21
297.809
 31
0.0
  0
LINE
  5
286
330
1E
100
AcDbEntity
  8
0
100
AcDbLine
 10
86.87307999999999
 20
512.3949999999999
 30
0.0
 11
88.48297999999999
 21
509.023
 31
0.0
  0
LINE
  5
287
330
1E
100
AcDbEntity
  8
0
100
AcDbLine
 10
84.51028
 20
517.1569999999999
 30
0.0
 11
88.44948
 21
517.8519999999999
 31
0.0
  0
LINE
  5
288
330
1E
100
AcDbEntity
  8
0
100
AcDbLine
 10
84.51028
 20
517.1569999999999
 30
0.0
 11
86.87307999999999
 21
512.3949999999999
 31
0.0
  0
LINE
  5
289
330
1E
100
AcDbEntity
  8
0
100
AcDbLine
 10
88.48297999999999
 20
509.023
 30
0.0
 11
89.20118
 21
507.8299999999999
 31
0.0
  0
LINE
  5
28A
330
1E
100
AcDbEntity
  8
0
100
AcDbLine
 10
88.44948
 20
517.8519999999999
 30
0.0
 11
89.43428
 21
518.025
 31
0.0
  0
LINE
  5
28B
330
1E
100
AcDbEntity
  8
0
100
AcDbLine
 10
88.44948
 20
517.8519999999999
 30
0.0
 11
89.33508000000001
 21
512.829
 31
0.0
  0
LINE
  5
28C
330
1E
100
AcDbEntity
  8
0
100
AcDbLine
 10
84.71847999999999
 20
556.2879999999999
 30
0.0
 11
91.40387999999999
 21
518.373
 31
0.0
  0
LINE
  5
28D
330
1E
100
AcDbEntity
  8
0
100
AcDbLine
 10
83.03408000000001
 20
565.84
 30
0.0
 11
84.71847999999999
 21
556.2879999999999
 31
0.0
  0
LINE
  5
28E
330
1E
100
AcDbEntity
  8
0
100
AcDbLine
 10
81.47118
 20
574.7040000000001
 30
0.0
 11
83.03408000000001
 21
565.84
 31
0.0
  0
LINE
  5
28F
330
1E
100
AcDbEntity
  8
0
100
AcDbLine
 10
80.11678000000001
 20
582.385
 30
0.0
 11
81.47118
 21
574.7040000000001
 31
0.0
  0
LINE
  5
290
330
1E
100
AcDbEntity
  8
0
100
AcDbLine
 10
78.76228000000001
 20
590.0669999999999
 30
0.0
 11
82.70158
 21
590.761
 31
0.0
  0
LINE
  5
291
330
1E
100
AcDbEntity
  8
0
100
AcDbLine
 10
82.70158
 20
590.761
 30
0.0
 11
86.64078000000001
 21
591.456
 31
0.0
  0
LINE
  5
292
330
1E
100
AcDbEntity
  8
0
100
AcDbLine
 10
79.07488
 20
588.2939999999999
 30
0.0
 11
80.11678000000001
 21
582.385
 31
0.0
  0
LINE
  5
293
330
1E
100
AcDbEntity
  8
0
100
AcDbLine
 10
78.43238000000001
 20
591.938
 30
0.0
 11
79.07488
 21
588.2939999999999
 31
0.0
  0
LINE
  5
294
330
1E
100
AcDbEntity
  8
0
100
AcDbLine
 10
78.18928000000001
 20
593.317
 30
0.0
 11
78.20688
 21
594.944
 31
0.0
  0
LINE
  5
295
330
1E
100
AcDbEntity
  8
0
100
AcDbLine
 10
78.18928000000001
 20
593.317
 30
0.0
 11
78.76228000000001
 21
590.0669999999999
 31
0.0
  0
LINE
  5
296
330
1E
100
AcDbEntity
  8
0
100
AcDbLine
 10
78.18928000000001
 20
593.317
 30
0.0
 11
78.20673281900851
 21
593.2180093162689
 31
0.0
  0
LINE
  5
297
330
1E
100
AcDbEntity
  8
0
100
AcDbLine
 10
77.73778
 20
595.8769999999999
 30
0.0
 11
78.22398000000001
 21
593.12
 31
0.0
  0
LINE
  5
299
330
1E
100
AcDbEntity
  8
0
100
AcDbLine
 10
78.20688
 20
594.944
 30
0.0
 11
78.85008
 21
596.479
 31
0.0
  0
LINE
  5
29A
330
1E
100
AcDbEntity
  8
0
100
AcDbLine
 10
86.06768
 20
594.706
 30
0.0
 11
86.64078000000001
 21
591.456
 31
0.0
  0
LINE
  5
29B
330
1E
100
AcDbEntity
  8
0
100
AcDbLine
 10
86.24138
 20
593.721
 30
0.0
 11
86.64078000000001
 21
591.456
 31
0.0
  0
LINE
  5
29C
330
1E
100
AcDbEntity
  8
0
100
AcDbLine
 10
86.10248
 20
594.509
 30
0.0
 11
86.24138
 21
593.721
 31
0.0
  0
LINE
  5
29D
330
1E
100
AcDbEntity
  8
0
100
AcDbLine
 10
86.08503316142401
 20
594.607591738565
 30
0.0
 11
88.05468000000001
 21
594.955
 31
0.0
  0
LINE
  5
29E
330
1E
100
AcDbEntity
  8
0
100
AcDbLine
 10
78.20668000000001
 20
593.218
 30
0.0
 11
78.43238000000001
 21
591.938
 31
0.0
  0
LINE
  5
29F
330
1E
100
AcDbEntity
  8
0
100
AcDbLine
 10
89.39518000000001
 20
318.291
 30
0.0
 11
93.77958000000001
 21
319.065
 31
0.0
  0
LINE
  5
2A1
330
1E
100
AcDbEntity
  8
0
100
AcDbLine
 10
89.20118
 20
507.8299999999999
 30
0.0
 11
90.18598
 21
508.004
 31
0.0
  0
LINE
  5
2A2
330
1E
100
AcDbEntity
  8
0
100
AcDbLine
 10
89.96018000000001
 20
509.2839999999999
 30
0.0
 11
90.18598
 21
508.004
 31
0.0
  0
LINE
  5
2A3
330
1E
100
AcDbEntity
  8
0
100
AcDbLine
 10
89.33508000000001
 20
512.829
 30
0.0
 11
89.96018000000001
 21
509.2839999999999
 31
0.0
  0
LINE
  5
2A4
330
1E
100
AcDbEntity
  8
0
100
AcDbLine
 10
90.18598
 20
508.004
 30
0.0
 11
90.82348000000001
 21
510.1469999999999
 31
0.0
  0
LINE
  5
2A5
330
1E
100
AcDbEntity
  8
0
100
AcDbLine
 10
90.12888000000002
 20
514.0859999999999
 30
0.0
 11
90.64978000000001
 21
511.1319999999999
 31
0.0
  0
LINE
  5
2A6
330
1E
100
AcDbEntity
  8
0
100
AcDbLine
 10
89.43428
 20
518.025
 30
0.0
 11
91.40387999999999
 21
518.373
 31
0.0
  0
LINE
  5
2A7
330
1E
100
AcDbEntity
  8
0
100
AcDbLine
 10
89.43428
 20
518.025
 30
0.0
 11
90.12888000000002
 21
514.0859999999999
 31
0.0
  0
LINE
  5
2A8
330
1E
100
AcDbEntity
  8
0
100
AcDbLine
 10
88.77288
 20
593.7609999999999
 30
0.0
 11
90.59708
 21
590.326
 31
0.0
  0
LINE
  5
2A9
330
1E
100
AcDbEntity
  8
0
100
AcDbLine
 10
77.33838
 20
598.1419999999999
 30
0.0
 11
77.73778
 21
595.8769999999999
 31
0.0
  0
LINE
  5
2AA
330
1E
100
AcDbEntity
  8
0
100
AcDbLine
 10
77.32128
 20
599.967
 30
0.0
 11
77.89508000000001
 21
601.8959999999999
 31
0.0
  0
LINE
  5
2AB
330
1E
100
AcDbEntity
  8
0
100
AcDbLine
 10
77.32128
 20
599.967
 30
0.0
 11
77.33838
 21
598.1419999999999
 31
0.0
  0
LINE
  5
2AC
330
1E
100
AcDbEntity
  8
0
100
AcDbLine
 10
78.85008
 20
596.479
 30
0.0
 11
79.95668000000001
 21
597.69
 31
0.0
  0
LINE
  5
2AE
330
1E
100
AcDbEntity
  8
0
100
AcDbLine
 10
79.95668000000001
 20
597.69
 30
0.0
 11
81.38178000000001
 21
598.2459999999999
 31
0.0
  0
LINE
  5
2AF
330
1E
100
AcDbEntity
  8
0
100
AcDbLine
 10
77.89508000000001
 20
601.8959999999999
 30
0.0
 11
79.00158000000001
 21
603.106
 31
0.0
  0
LINE
  5
2B0
330
1E
100
AcDbEntity
  8
0
100
AcDbLine
 10
79.00158000000001
 20
603.106
 30
0.0
 11
80.40938
 21
603.7609999999999
 31
0.0
  0
LINE
  5
2B1
330
1E
100
AcDbEntity
  8
0
100
AcDbLine
 10
82.91107999999999
 20
598.211
 30
0.0
 11
84.36497999999991
 21
597.452
 31
0.0
  0
LINE
  5
2B3
330
1E
100
AcDbEntity
  8
0
100
AcDbLine
 10
81.38178000000001
 20
598.2459999999999
 30
0.0
 11
82.91107999999999
 21
598.211
 31
0.0
  0
LINE
  5
2B4
330
1E
100
AcDbEntity
  8
0
100
AcDbLine
 10
85.49448000000001
 20
596.229
 30
0.0
 11
86.06768
 21
594.706
 31
0.0
  0
LINE
  5
2B5
330
1E
100
AcDbEntity
  8
0
100
AcDbLine
 10
84.36497999999991
 20
597.452
 30
0.0
 11
85.49448000000001
 21
596.229
 31
0.0
  0
LINE
  5
2B6
330
1E
100
AcDbEntity
  8
0
100
AcDbLine
 10
85.21688000000001
 20
599.5309999999999
 30
0.0
 11
86.10248
 21
594.509
 31
0.0
  0
LINE
  5
2B7
330
1E
100
AcDbEntity
  8
0
100
AcDbLine
 10
85.21688000000001
 20
599.5309999999999
 30
0.0
 11
86.0850903878541
 21
594.60760183222
 31
0.0
  0
LINE
  5
2B8
330
1E
100
AcDbEntity
  8
0
100
AcDbLine
 10
84.60887999999989
 20
601.2519999999999
 30
0.0
 11
85.21688000000001
 21
599.5309999999999
 31
0.0
  0
LINE
  5
2B9
330
1E
100
AcDbEntity
  8
0
100
AcDbLine
 10
83.40998
 20
602.868
 30
0.0
 11
84.60887999999989
 21
601.2519999999999
 31
0.0
  0
LINE
  5
2BA
330
1E
100
AcDbEntity
  8
0
100
AcDbLine
 10
81.95608
 20
603.627
 30
0.0
 11
83.40998
 21
602.868
 31
0.0
  0
LINE
  5
2BB
330
1E
100
AcDbEntity
  8
0
100
AcDbLine
 10
80.40938
 20
603.7609999999999
 30
0.0
 11
81.95608
 21
603.627
 31
0.0
  0
LINE
  5
2BC
330
1E
100
AcDbEntity
  8
0
100
AcDbLine
 10
88.05468000000001
 20
594.955
 30
0.0
 11
88.77288
 21
593.7609999999999
 31
0.0
  0
LINE
  5
2BD
330
1E
100
AcDbEntity
  8
0
100
AcDbLine
 10
88.05468000000001
 20
594.955
 30
0.0
 11
90.37158000000001
 21
593.332
 31
0.0
  0
LINE
  5
2BE
330
1E
100
AcDbEntity
  8
0
100
AcDbLine
 10
90.64978000000001
 20
511.1319999999999
 30
0.0
 11
90.82348000000001
 21
510.1469999999999
 31
0.0
  0
LINE
  5
2BF
330
1E
100
AcDbEntity
  8
0
100
AcDbLine
 10
90.82348000000001
 20
510.1469999999999
 30
0.0
 11
93.14038000000001
 21
508.525
 31
0.0
  0
LINE
  5
2C0
330
1E
100
AcDbEntity
  8
0
100
AcDbLine
 10
91.67898427099229
 20
318.694579215256
 30
0.0
 11
93.77958000000001
 21
319.065
 31
0.0
  0
LINE
  5
2C1
330
1E
100
AcDbEntity
  8
0
100
AcDbLine
 10
92.86787072804008
 20
298.5956899634389
 30
0.0
 11
93.84508000000002
 21
298.7679999999999
 31
0.0
  0
LINE
  5
2C2
330
1E
100
AcDbEntity
  8
0
100
AcDbLine
 10
92.91468
 20
509.8049999999999
 30
0.0
 11
93.14038000000001
 21
508.525
 31
0.0
  0
LINE
  5
2C3
330
1E
100
AcDbEntity
  8
0
100
AcDbLine
 10
91.40387999999999
 20
518.373
 30
0.0
 11
92.91468
 21
509.8049999999999
 31
0.0
  0
LINE
  5
2C4
330
1E
100
AcDbEntity
  8
0
100
AcDbLine
 10
91.40387999999999
 20
518.373
 30
0.0
 11
114.0540799999999
 21
522.3669999999999
 31
0.0
  0
LINE
  5
2C5
330
1E
100
AcDbEntity
  8
0
100
AcDbLine
 10
90.59708
 20
590.326
 30
0.0
 11
93.70708
 21
584.7819999999999
 31
0.0
  0
LINE
  5
2C6
330
1E
100
AcDbEntity
  8
0
100
AcDbLine
 10
93.61838
 20
268.2649999999999
 30
0.0
 11
99.05408000000001
 21
269.223
 31
0.0
  0
LINE
  5
2C7
330
1E
100
AcDbEntity
  8
0
100
AcDbLine
 10
97.66699902250049
 20
268.9784069345009
 30
0.0
 11
99.05408000000001
 21
269.223
 31
0.0
  0
LINE
  5
2C8
330
1E
100
AcDbEntity
  8
0
100
AcDbLine
 10
93.84508000000002
 20
298.7679999999999
 30
0.0
 11
98.64708
 21
299.614
 31
0.0
  0
LINE
  5
2CA
330
1E
100
AcDbEntity
  8
0
100
AcDbLine
 10
98.00151439642251
 20
299.500266451348
 30
0.0
 11
98.64708
 21
299.614
 31
0.0
  0
LINE
  5
2CB
330
1E
100
AcDbEntity
  8
0
100
AcDbLine
 10
98.00151439642251
 20
299.500266451348
 30
0.0
 11
100.56108
 21
299.952
 31
0.0
  0
LINE
  5
2CC
330
1E
100
AcDbEntity
  8
0
100
AcDbLine
 10
99.05408000000001
 20
269.223
 30
0.0
 11
103.85608
 21
270.0699999999999
 31
0.0
  0
LINE
  5
2CD
330
1E
100
AcDbEntity
  8
0
100
AcDbLine
 10
98.98193361749822
 20
299.6732990367539
 30
0.0
 11
102.7942397351619
 21
300.345407239329
 31
0.0
  0
LINE
  5
2CE
330
1E
100
AcDbEntity
  8
0
100
AcDbLine
 10
98.98193361749822
 20
299.6732990367539
 30
0.0
 11
102.7942397351619
 21
300.345407239329
 31
0.0
  0
LINE
  5
2CF
330
1E
100
AcDbEntity
  8
0
100
AcDbLine
 10
100.56108
 20
299.952
 30
0.0
 11
102.54708
 21
300.302
 31
0.0
  0
LINE
  5
2D0
330
1E
100
AcDbEntity
  8
0
100
AcDbLine
 10
99.7420205941788
 20
299.807445544576
 30
0.0
 11
102.54708
 21
300.302
 31
0.0
  0
LINE
  5
2D1
330
1E
100
AcDbEntity
  8
0
100
AcDbLine
 10
98.64708
 20
299.614
 30
0.0
 11
102.27108
 21
300.253
 31
0.0
  0
LINE
  5
2D3
330
1E
100
AcDbEntity
  8
0
100
AcDbLine
 10
98.24711216694559
 20
299.543611600331
 30
0.0
 11
102.27108
 21
300.253
 31
0.0
  0
LINE
  5
2D4
330
1E
100
AcDbEntity
  8
0
100
AcDbLine
 10
102.54708
 20
300.302
 30
0.0
 11
102.9941398669639
 21
300.380716186253
 31
0.0
  0
LINE
  5
2D5
330
1E
100
AcDbEntity
  8
0
100
AcDbLine
 10
103.85608
 20
270.0699999999999
 30
0.0
 11
107.48008
 21
270.7089999999999
 31
0.0
  0
LINE
  5
2D6
330
1E
100
AcDbEntity
  8
0
100
AcDbLine
 10
102.5469898294379
 20
300.3023195529749
 30
0.0
 11
104.44508
 21
300.6369999999999
 31
0.0
  0
LINE
  5
2D7
330
1E
100
AcDbEntity
  8
0
100
AcDbLine
 10
102.27108
 20
300.253
 30
0.0
 11
102.9941398669639
 21
300.380716186253
 31
0.0
  0
LINE
  5
2D8
330
1E
100
AcDbEntity
  8
0
100
AcDbLine
 10
102.27108
 20
300.253
 30
0.0
 11
104.44508
 21
300.6369999999999
 31
0.0
  0
LINE
  5
2DA
330
1E
100
AcDbEntity
  8
0
100
AcDbLine
 10
103.291051682842
 20
300.4331605916339
 30
0.0
 11
104.44508
 21
300.6369999999999
 31
0.0
  0
LINE
  5
2DB
330
1E
100
AcDbEntity
  8
0
100
AcDbLine
 10
98.23760713174289
 20
299.5418604651089
 30
0.0
 11
99.8082529695219
 21
299.818743247109
 31
0.0
  0
LINE
  5
2DC
330
1E
100
AcDbEntity
  8
0
100
AcDbLine
 10
98.23760713174289
 20
299.5418604651089
 30
0.0
 11
99.8082529695219
 21
299.818743247109
 31
0.0
  0
LINE
  5
2DD
330
1E
100
AcDbEntity
  8
0
100
AcDbLine
 10
93.77958000000001
 20
319.065
 30
0.0
 11
97.08808000000001
 21
319.6479999999999
 31
0.0
  0
LINE
  5
2DF
330
1E
100
AcDbEntity
  8
0
100
AcDbLine
 10
97.08808000000001
 20
319.6479999999999
 30
0.0
 11
99.07408000000001
 21
319.998
 31
0.0
  0
LINE
  5
2E1
330
1E
100
AcDbEntity
  8
0
100
AcDbLine
 10
99.07408000000001
 20
319.998
 30
0.0
 11
99.81808
 21
320.129
 31
0.0
  0
LINE
  5
2E3
330
1E
100
AcDbEntity
  8
0
100
AcDbLine
 10
99.81808
 20
320.129
 30
0.0
 11
103.291051682842
 21
300.4331605916339
 31
0.0
  0
LINE
  5
2E4
330
1E
100
AcDbEntity
  8
0
100
AcDbLine
 10
104.44508
 20
300.6369999999999
 30
0.0
 11
105.26108
 21
300.7799999999999
 31
0.0
  0
LINE
  5
2E6
330
1E
100
AcDbEntity
  8
0
100
AcDbLine
 10
103.2909908792529
 20
300.4335054195899
 30
0.0
 11
104.44508
 21
300.6369999999999
 31
0.0
  0
LINE
  5
2E7
330
1E
100
AcDbEntity
  8
0
100
AcDbLine
 10
93.14038000000001
 20
508.525
 30
0.0
 11
115.79108
 21
512.5189999999999
 31
0.0
  0
LINE
  5
2E8
330
1E
100
AcDbEntity
  8
0
100
AcDbLine
 10
102.33608
 20
569.244
 30
0.0
 11
107.36908
 21
560.2819999999999
 31
0.0
  0
LINE
  5
2E9
330
1E
100
AcDbEntity
  8
0
100
AcDbLine
 10
104.9914758642429
 20
270.2701443149779
 30
0.0
 11
107.48008
 21
270.7089999999999
 31
0.0
  0
LINE
  5
2EA
330
1E
100
AcDbEntity
  8
0
100
AcDbLine
 10
106.8808027315119
 20
270.6028372039789
 30
0.0
 11
109.6550799999999
 21
271.0919999999999
 31
0.0
  0
LINE
  5
2EB
330
1E
100
AcDbEntity
  8
0
100
AcDbLine
 10
107.48008
 20
270.7089999999999
 30
0.0
 11
109.6550799999999
 21
271.0919999999999
 31
0.0
  0
LINE
  5
2EC
330
1E
100
AcDbEntity
  8
0
100
AcDbLine
 10
107.5895491917949
 20
270.7280645271139
 30
0.0
 11
108.4659569311669
 21
270.8826049952349
 31
0.0
  0
LINE
  5
2ED
330
1E
100
AcDbEntity
  8
0
100
AcDbLine
 10
107.5895960625419
 20
270.727812213343
 30
0.0
 11
109.6550799999999
 21
271.0919999999999
 31
0.0
  0
LINE
  5
2EE
330
1E
100
AcDbEntity
  8
0
100
AcDbLine
 10
107.5895110363149
 20
270.7282699250149
 30
0.0
 11
109.6550799999999
 21
271.0919999999999
 31
0.0
  0
LINE
  5
2EF
330
1E
100
AcDbEntity
  8
0
100
AcDbLine
 10
105.26108
 20
300.7799999999999
 30
0.0
 11
110.47008
 21
271.2359999999999
 31
0.0
  0
LINE
  5
2F0
330
1E
100
AcDbEntity
  8
0
100
AcDbLine
 10
109.6550799999999
 20
271.0919999999999
 30
0.0
 11
110.47008
 21
271.2359999999999
 31
0.0
  0
LINE
  5
2F1
330
1E
100
AcDbEntity
  8
0
100
AcDbLine
 10
107.5895110363149
 20
270.7282699250149
 30
0.0
 11
131.86108
 21
140.0699909999999
 31
0.0
  0
LINE
  5
2F2
330
1E
100
AcDbEntity
  8
0
100
AcDbLine
 10
115.56508
 20
513.799
 30
0.0
 11
115.79108
 21
512.5189999999999
 31
0.0
  0
LINE
  5
2F3
330
1E
100
AcDbEntity
  8
0
100
AcDbLine
 10
115.79108
 20
512.5189999999999
 30
0.0
 11
117.41308
 21
514.835
 31
0.0
  0
LINE
  5
2F4
330
1E
100
AcDbEntity
  8
0
100
AcDbLine
 10
114.0540799999999
 20
522.3669999999999
 30
0.0
 11
115.56508
 21
513.799
 31
0.0
  0
LINE
  5
2F5
330
1E
100
AcDbEntity
  8
0
100
AcDbLine
 10
107.36908
 20
560.2819999999999
 30
0.0
 11
114.0540799999999
 21
522.3669999999999
 31
0.0
  0
LINE
  5
2F6
330
1E
100
AcDbEntity
  8
0
100
AcDbLine
 10
114.0540799999999
 20
522.3669999999999
 30
0.0
 11
116.0240799999999
 21
522.714
 31
0.0
  0
LINE
  5
2F7
330
1E
100
AcDbEntity
  8
0
100
AcDbLine
 10
117.24008
 20
515.82
 30
0.0
 11
117.41308
 21
514.835
 31
0.0
  0
LINE
  5
2F8
330
1E
100
AcDbEntity
  8
0
100
AcDbLine
 10
116.7190799999999
 20
518.775
 30
0.0
 11
117.24008
 21
515.82
 31
0.0
  0
LINE
  5
2F9
330
1E
100
AcDbEntity
  8
0
100
AcDbLine
 10
116.0240799999999
 20
522.714
 30
0.0
 11
116.7190799999999
 21
518.775
 31
0.0
  0
LINE
  5
2FA
330
1E
100
AcDbEntity
  8
0
100
AcDbLine
 10
109.33908
 20
560.629
 30
0.0
 11
116.0240799999999
 21
522.714
 31
0.0
  0
LINE
  5
2FB
330
1E
100
AcDbEntity
  8
0
100
AcDbLine
 10
104.50808
 20
569.018
 30
0.0
 11
109.33908
 21
560.629
 31
0.0
  0
LINE
  5
2FC
330
1E
100
AcDbEntity
  8
0
100
AcDbLine
 10
97.72008000000001
 20
577.5689999999999
 30
0.0
 11
102.33608
 21
569.244
 31
0.0
  0
LINE
  5
2FD
330
1E
100
AcDbEntity
  8
0
100
AcDbLine
 10
93.70708
 20
584.7819999999999
 30
0.0
 11
97.72008000000001
 21
577.5689999999999
 31
0.0
  0
LINE
  5
2FE
330
1E
100
AcDbEntity
  8
0
100
AcDbLine
 10
95.93708000000001
 20
583.6519999999999
 30
0.0
 11
104.50808
 21
569.018
 31
0.0
  0
LINE
  5
2FF
330
1E
100
AcDbEntity
  8
0
100
AcDbLine
 10
92.97778
 20
588.918
 30
0.0
 11
95.93708000000001
 21
583.6519999999999
 31
0.0
  0
LINE
  5
300
330
1E
100
AcDbEntity
  8
0
100
AcDbLine
 10
91.08978
 20
592.139
 30
0.0
 11
92.97778
 21
588.918
 31
0.0
  0
LINE
  5
301
330
1E
100
AcDbEntity
  8
0
100
AcDbLine
 10
90.37158000000001
 20
593.332
 30
0.0
 11
91.08978
 21
592.139
 31
0.0
  0
LINE
  5
302
330
1E
100
AcDbEntity
  8
0
100
AcDbLine
 10
271.4860799999999
 20
155.9169999999999
 30
0.0
 11
271.4860799999999
 21
154.917
 31
0.0
  0
LINE
  5
303
330
1E
100
AcDbEntity
  8
0
100
AcDbLine
 10
271.4860799999999
 20
155.9169999999999
 30
0.0
 11
272.7860799999999
 21
155.9169999999999
 31
0.0
  0
LINE
  5
304
330
1E
100
AcDbEntity
  8
0
100
AcDbLine
 10
271.4860799999999
 20
155.9169999999999
 30
0.0
 11
282.4860799999999
 21
156.9169999999999
 31
0.0
  0
LINE
  5
305
330
1E
100
AcDbEntity
  8
0
100
AcDbLine
 10
273.50208
 20
140.917
 30
0.0
 11
279.5820799999999
 21
140.917
 31
0.0
  0
LINE
  5
306
330
1E
100
AcDbEntity
  8
0
100
AcDbLine
 10
273.50208
 20
136.9169999999999
 30
0.0
 11
279.5820799999999
 21
136.9169999999999
 31
0.0
  0
LINE
  5
307
330
1E
100
AcDbEntity
  8
0
100
AcDbLine
 10
273.50208
 20
136.9169999999999
 30
0.0
 11
276.4860799999999
 21
136.9169999999999
 31
0.0
  0
LINE
  5
308
330
1E
100
AcDbEntity
  8
0
100
AcDbLine
 10
276.1060799999999
 20
150.917
 30
0.0
 11
281.7060799999999
 21
150.917
 31
0.0
  0
LINE
  5
309
330
1E
100
AcDbEntity
  8
0
100
AcDbLine
 10
276.1060799999999
 20
150.917
 30
0.0
 11
279.4860799999999
 21
150.917
 31
0.0
  0
LINE
  5
30A
330
1E
100
AcDbEntity
  8
0
100
AcDbLine
 10
276.1060799999999
 20
152.917
 30
0.0
 11
281.7060799999999
 21
152.917
 31
0.0
  0
LINE
  5
30B
330
1E
100
AcDbEntity
  8
0
100
AcDbLine
 10
272.74608
 20
152.917
 30
0.0
 11
276.1060799999999
 21
152.917
 31
0.0
  0
LINE
  5
30C
330
1E
100
AcDbEntity
  8
0
100
AcDbLine
 10
272.74608
 20
150.917
 30
0.0
 11
276.1060799999999
 21
150.917
 31
0.0
  0
LINE
  5
30D
330
1E
100
AcDbEntity
  8
0
100
AcDbLine
 10
276.4860799999999
 20
136.9169999999999
 30
0.0
 11
276.4860799999999
 21
131.9169999999999
 31
0.0
  0
LINE
  5
30E
330
1E
100
AcDbEntity
  8
0
100
AcDbLine
 10
276.4860799999999
 20
131.9169999999999
 30
0.0
 11
276.4860799999999
 21
136.9169999999999
 31
0.0
  0
LINE
  5
30F
330
1E
100
AcDbEntity
  8
0
100
AcDbLine
 10
279.4860799999999
 20
140.917
 30
0.0
 11
279.4860799999999
 21
150.917
 31
0.0
  0
LINE
  5
310
330
1E
100
AcDbEntity
  8
0
100
AcDbLine
 10
280.4860799999999
 20
88.917
 30
0.0
 11
281.42208
 21
88.917
 31
0.0
  0
LINE
  5
311
330
1E
100
AcDbEntity
  8
0
100
AcDbLine
 10
280.4860799999999
 20
88.917
 30
0.0
 11
280.4860799999999
 21
90.91700000000001
 31
0.0
  0
LINE
  5
312
330
1E
100
AcDbEntity
  8
0
100
AcDbLine
 10
281.4860799999999
 20
88.917
 30
0.0
 11
281.4860799999999
 21
84.91699999999999
 31
0.0
  0
LINE
  5
313
330
1E
100
AcDbEntity
  8
0
100
AcDbLine
 10
282.3860799999999
 20
84.91699999999999
 30
0.0
 11
283.4860799999999
 21
84.91699999999999
 31
0.0
  0
LINE
  5
314
330
1E
100
AcDbEntity
  8
0
100
AcDbLine
 10
282.3860799999999
 20
84.91699999999999
 30
0.0
 11
283.9020799999999
 21
84.91699999999999
 31
0.0
  0
LINE
  5
315
330
1E
100
AcDbEntity
  8
0
100
AcDbLine
 10
281.4860799999999
 20
84.91699999999999
 30
0.0
 11
281.4860799999999
 21
88.917
 31
0.0
  0
LINE
  5
316
330
1E
100
AcDbEntity
  8
0
100
AcDbLine
 10
281.4860799999999
 20
84.91699999999999
 30
0.0
 11
282.3860799999999
 21
84.91699999999999
 31
0.0
  0
LINE
  5
317
330
1E
100
AcDbEntity
  8
0
100
AcDbLine
 10
281.4860799999999
 20
90.91700000000001
 30
0.0
 11
281.4860799999999
 21
91.917
 31
0.0
  0
LINE
  5
318
330
1E
100
AcDbEntity
  8
0
100
AcDbLine
 10
281.42208
 20
88.917
 30
0.0
 11
283.9180799999999
 21
88.917
 31
0.0
  0
LINE
  5
319
330
1E
100
AcDbEntity
  8
0
100
AcDbLine
 10
281.42208
 20
88.917
 30
0.0
 11
281.4860799999999
 21
88.917
 31
0.0
  0
LINE
  5
31A
330
1E
100
AcDbEntity
  8
0
100
AcDbLine
 10
280.4860799999999
 20
90.91700000000001
 30
0.0
 11
281.42208
 21
90.91700000000001
 31
0.0
  0
LINE
  5
31B
330
1E
100
AcDbEntity
  8
0
100
AcDbLine
 10
280.4860799999999
 20
90.91700000000001
 30
0.0
 11
280.4860799999999
 21
88.917
 31
0.0
  0
LINE
  5
31C
330
1E
100
AcDbEntity
  8
0
100
AcDbLine
 10
279.5820799999999
 20
140.917
 30
0.0
 11
287.63808
 21
140.917
 31
0.0
  0
LINE
  5
31D
330
1E
100
AcDbEntity
  8
0
100
AcDbLine
 10
279.5820799999999
 20
136.9169999999999
 30
0.0
 11
287.63808
 21
136.9169999999999
 31
0.0
  0
LINE
  5
31E
330
1E
100
AcDbEntity
  8
0
100
AcDbLine
 10
281.4860799999999
 20
91.917
 30
0.0
 11
281.4860799999999
 21
90.91700000000001
 31
0.0
  0
LINE
  5
31F
330
1E
100
AcDbEntity
  8
0
100
AcDbLine
 10
281.42208
 20
90.91700000000001
 30
0.0
 11
283.9180799999999
 21
90.91700000000001
 31
0.0
  0
LINE
  5
320
330
1E
100
AcDbEntity
  8
0
100
AcDbLine
 10
286.4860799999999
 20
38.879
 30
0.0
 11
287.13408
 21
37.917
 31
0.0
  0
LINE
  5
321
330
1E
100
AcDbEntity
  8
0
100
AcDbLine
 10
286.4860799999999
 20
38.879
 30
0.0
 11
286.4860799999999
 21
61.9555
 31
0.0
  0
LINE
  5
322
330
1E
100
AcDbEntity
  8
0
100
AcDbLine
 10
286.4860799999999
 20
61.9555
 30
0.0
 11
286.4860799999999
 21
38.879
 31
0.0
  0
LINE
  5
323
330
1E
100
AcDbEntity
  8
0
100
AcDbLine
 10
286.4860799999999
 20
74.917
 30
0.0
 11
287.2060799999999
 21
74.917
 31
0.0
  0
LINE
  5
324
330
1E
100
AcDbEntity
  8
0
100
AcDbLine
 10
286.4860799999999
 20
74.917
 30
0.0
 11
286.4860799999999
 21
52.917
 31
0.0
  0
LINE
  5
325
330
1E
100
AcDbEntity
  8
0
100
AcDbLine
 10
286.4860799999999
 20
52.917
 30
0.0
 11
286.4860799999999
 21
74.917
 31
0.0
  0
LINE
  5
327
330
1E
100
AcDbEntity
  8
0
100
AcDbLine
 10
286.5000799999999
 20
74.917
 30
0.0
 11
287.5000799999999
 21
74.917
 31
0.0
  0
LINE
  5
328
330
1E
100
AcDbEntity
  8
0
100
AcDbLine
 10
283.9020799999999
 20
74.917
 30
0.0
 11
284.9020799999999
 21
74.917
 31
0.0
  0
LINE
  5
329
330
1E
100
AcDbEntity
  8
0
100
AcDbLine
 10
283.9020799999999
 20
74.917
 30
0.0
 11
286.4860799999999
 21
74.917
 31
0.0
  0
LINE
  5
32A
330
1E
100
AcDbEntity
  8
0
100
AcDbLine
 10
283.9020799999999
 20
74.917
 30
0.0
 11
283.9020799999999
 21
88.917
 31
0.0
  0
LINE
  5
32B
330
1E
100
AcDbEntity
  8
0
100
AcDbLine
 10
283.9020799999999
 20
74.917
 30
0.0
 11
286.5000799999999
 21
74.917
 31
0.0
  0
LINE
  5
32C
330
1E
100
AcDbEntity
  8
0
100
AcDbLine
 10
284.9020799999999
 20
74.917
 30
0.0
 11
286.4860799999999
 21
74.917
 31
0.0
  0
LINE
  5
32D
330
1E
100
AcDbEntity
  8
0
100
AcDbLine
 10
284.9020799999999
 20
74.917
 30
0.0
 11
284.9020799999999
 21
88.917
 31
0.0
  0
LINE
  5
32E
330
1E
100
AcDbEntity
  8
0
100
AcDbLine
 10
284.9020799999999
 20
74.917
 30
0.0
 11
287.5000799999999
 21
74.917
 31
0.0
  0
LINE
  5
32F
330
1E
100
AcDbEntity
  8
0
100
AcDbLine
 10
283.4860799999999
 20
74.917
 30
0.0
 11
284.31408
 21
74.917
 31
0.0
  0
LINE
  5
330
330
1E
100
AcDbEntity
  8
0
100
AcDbLine
 10
283.4860799999999
 20
74.917
 30
0.0
 11
283.4860799999999
 21
84.91699999999999
 31
0.0
  0
LINE
  5
331
330
1E
100
AcDbEntity
  8
0
100
AcDbLine
 10
284.9020799999999
 20
84.91699999999999
 30
0.0
 11
288.7860799999999
 21
84.91699999999999
 31
0.0
  0
LINE
  5
332
330
1E
100
AcDbEntity
  8
0
100
AcDbLine
 10
284.9020799999999
 20
88.917
 30
0.0
 11
284.9020799999999
 21
74.917
 31
0.0
  0
LINE
  5
333
330
1E
100
AcDbEntity
  8
0
100
AcDbLine
 10
284.9020799999999
 20
88.917
 30
0.0
 11
285.141635555555
 21
88.917
 31
0.0
  0
LINE
  5
334
330
1E
100
AcDbEntity
  8
0
100
AcDbLine
 10
283.9020799999999
 20
88.917
 30
0.0
 11
283.9020799999999
 21
74.917
 31
0.0
  0
LINE
  5
335
330
1E
100
AcDbEntity
  8
0
100
AcDbLine
 10
283.9020799999999
 20
88.917
 30
0.0
 11
284.9020799999999
 21
88.917
 31
0.0
  0
LINE
  5
336
330
1E
100
AcDbEntity
  8
0
100
AcDbLine
 10
283.4860799999999
 20
84.91699999999999
 30
0.0
 11
283.4860799999999
 21
74.917
 31
0.0
  0
LINE
  5
337
330
1E
100
AcDbEntity
  8
0
100
AcDbLine
 10
284.31408
 20
74.917
 30
0.0
 11
286.5220799999999
 21
74.917
 31
0.0
  0
LINE
  5
338
330
1E
100
AcDbEntity
  8
0
100
AcDbLine
 10
284.31408
 20
74.917
 30
0.0
 11
286.4860799999999
 21
74.917
 31
0.0
  0
LINE
  5
339
330
1E
100
AcDbEntity
  8
0
100
AcDbLine
 10
287.13408
 20
37.917
 30
0.0
 11
288.1060799999999
 21
37.917
 31
0.0
  0
LINE
  5
33C
330
1E
100
AcDbEntity
  8
0
100
AcDbLine
 10
287.2060799999999
 20
74.917
 30
0.0
 11
289.1260799999999
 21
74.917
 31
0.0
  0
LINE
  5
33D
330
1E
100
AcDbEntity
  8
0
100
AcDbLine
 10
286.5220799999999
 20
74.917
 30
0.0
 11
290.2020799999999
 21
74.917
 31
0.0
  0
LINE
  5
33E
330
1E
100
AcDbEntity
  8
0
100
AcDbLine
 10
283.9180799999999
 20
88.917
 30
0.0
 11
288.07808
 21
88.917
 31
0.0
  0
LINE
  5
33F
330
1E
100
AcDbEntity
  8
0
100
AcDbLine
 10
288.07808
 20
88.917
 30
0.0
 11
293.59008
 21
88.917
 31
0.0
  0
LINE
  5
340
330
1E
100
AcDbEntity
  8
0
100
AcDbLine
 10
287.4860799999999
 20
96.917
 30
0.0
 11
287.4860799999999
 21
131.9169999999999
 31
0.0
  0
LINE
  5
341
330
1E
100
AcDbEntity
  8
0
100
AcDbLine
 10
287.4860799999999
 20
131.9169999999999
 30
0.0
 11
287.4860799999999
 21
96.917
 31
0.0
  0
LINE
  5
342
330
1E
100
AcDbEntity
  8
0
100
AcDbLine
 10
287.4860799999999
 20
112.917
 30
0.0
 11
289.4860799999999
 21
112.917
 31
0.0
  0
LINE
  5
343
330
1E
100
AcDbEntity
  8
0
100
AcDbLine
 10
287.63808
 20
140.917
 30
0.0
 11
296.7580799999999
 21
140.917
 31
0.0
  0
LINE
  5
344
330
1E
100
AcDbEntity
  8
0
100
AcDbLine
 10
287.63808
 20
136.9169999999999
 30
0.0
 11
296.7580799999999
 21
136.9169999999999
 31
0.0
  0
LINE
  5
345
330
1E
100
AcDbEntity
  8
0
100
AcDbLine
 10
287.4860799999999
 20
130.9169999999999
 30
0.0
 11
289.4860799999999
 21
130.9169999999999
 31
0.0
  0
LINE
  5
346
330
1E
100
AcDbEntity
  8
0
100
AcDbLine
 10
283.9180799999999
 20
90.91700000000001
 30
0.0
 11
288.07808
 21
90.91700000000001
 31
0.0
  0
LINE
  5
347
330
1E
100
AcDbEntity
  8
0
100
AcDbLine
 10
288.7860799999999
 20
84.91699999999999
 30
0.0
 11
294.0860799999999
 21
84.91699999999999
 31
0.0
  0
LINE
  5
348
330
1E
100
AcDbEntity
  8
0
100
AcDbLine
 10
288.1060799999999
 20
37.917
 30
0.0
 11
290.6980799999999
 21
37.917
 31
0.0
  0
LINE
  5
349
330
1E
100
AcDbEntity
  8
0
100
AcDbLine
 10
288.07808
 20
90.91700000000001
 30
0.0
 11
293.59008
 21
90.91700000000001
 31
0.0
  0
LINE
  5
34A
330
1E
100
AcDbEntity
  8
0
100
AcDbLine
 10
287.3700799999999
 20
150.917
 30
0.0
 11
293.0940799999999
 21
150.917
 31
0.0
  0
LINE
  5
34B
330
1E
100
AcDbEntity
  8
0
100
AcDbLine
 10
283.0500799999999
 20
150.917
 30
0.0
 11
287.3700799999999
 21
150.917
 31
0.0
  0
LINE
  5
34C
330
1E
100
AcDbEntity
  8
0
100
AcDbLine
 10
280.45808
 20
150.917
 30
0.0
 11
283.0500799999999
 21
150.917
 31
0.0
  0
LINE
  5
34D
330
1E
100
AcDbEntity
  8
0
100
AcDbLine
 10
279.4860799999999
 20
150.917
 30
0.0
 11
279.4860799999999
 21
140.917
 31
0.0
  0
LINE
  5
34E
330
1E
100
AcDbEntity
  8
0
100
AcDbLine
 10
279.4860799999999
 20
150.917
 30
0.0
 11
280.45808
 21
150.917
 31
0.0
  0
LINE
  5
34F
330
1E
100
AcDbEntity
  8
0
100
AcDbLine
 10
281.7060799999999
 20
152.917
 30
0.0
 11
289.1260799999999
 21
152.917
 31
0.0
  0
LINE
  5
350
330
1E
100
AcDbEntity
  8
0
100
AcDbLine
 10
281.7060799999999
 20
150.917
 30
0.0
 11
289.1260799999999
 21
150.917
 31
0.0
  0
LINE
  5
351
330
1E
100
AcDbEntity
  8
0
100
AcDbLine
 10
286.4860799999999
 20
62.917
 30
0.0
 11
290.6980799999999
 21
62.917
 31
0.0
  0
LINE
  5
354
330
1E
100
AcDbEntity
  8
0
100
AcDbLine
 10
289.1260799999999
 20
74.917
 30
0.0
 11
292.3260799999999
 21
74.917
 31
0.0
  0
LINE
  5
355
330
1E
100
AcDbEntity
  8
0
100
AcDbLine
 10
290.6980799999999
 20
62.917
 30
0.0
 11
294.91008
 21
62.917
 31
0.0
  0
LINE
  5
356
330
1E
100
AcDbEntity
  8
0
100
AcDbLine
 10
290.6980799999999
 20
37.917
 30
0.0
 11
294.91008
 21
37.917
 31
0.0
  0
LINE
  5
357
330
1E
100
AcDbEntity
  8
0
100
AcDbLine
 10
292.3260799999999
 20
74.917
 30
0.0
 11
296.56608
 21
74.917
 31
0.0
  0
LINE
  5
358
330
1E
100
AcDbEntity
  8
0
100
AcDbLine
 10
290.2020799999999
 20
74.917
 30
0.0
 11
295.07808
 21
74.917
 31
0.0
  0
LINE
  5
359
330
1E
100
AcDbEntity
  8
0
100
AcDbLine
 10
289.4860799999999
 20
112.917
 30
0.0
 11
289.4860799999999
 21
113.2409999999999
 31
0.0
  0
LINE
  5
35A
330
1E
100
AcDbEntity
  8
0
100
AcDbLine
 10
289.4860799999999
 20
124.221
 30
0.0
 11
289.4860799999999
 21
121.917
 31
0.0
  0
LINE
  5
35B
330
1E
100
AcDbEntity
  8
0
100
AcDbLine
 10
289.4860799999999
 20
124.221
 30
0.0
 11
289.4860799999999
 21
126.381
 31
0.0
  0
LINE
  5
35C
330
1E
100
AcDbEntity
  8
0
100
AcDbLine
 10
289.4860799999999
 20
126.381
 30
0.0
 11
289.4860799999999
 21
124.221
 31
0.0
  0
LINE
  5
35D
330
1E
100
AcDbEntity
  8
0
100
AcDbLine
 10
289.4860799999999
 20
126.381
 30
0.0
 11
289.4860799999999
 21
128.2889999999999
 31
0.0
  0
LINE
  5
35E
330
1E
100
AcDbEntity
  8
0
100
AcDbLine
 10
289.4860799999999
 20
129.9169999999999
 30
0.0
 11
294.0860799999999
 21
129.9169999999999
 31
0.0
  0
LINE
  5
35F
330
1E
100
AcDbEntity
  8
0
100
AcDbLine
 10
289.4860799999999
 20
129.9169999999999
 30
0.0
 11
291.6060799999999
 21
129.9169999999999
 31
0.0
  0
LINE
  5
360
330
1E
100
AcDbEntity
  8
0
100
AcDbLine
 10
289.4860799999999
 20
128.2889999999999
 30
0.0
 11
289.4860799999999
 21
126.381
 31
0.0
  0
LINE
  5
361
330
1E
100
AcDbEntity
  8
0
100
AcDbLine
 10
289.4860799999999
 20
128.2889999999999
 30
0.0
 11
289.4860799999999
 21
129.7289999999999
 31
0.0
  0
LINE
  5
362
330
1E
100
AcDbEntity
  8
0
100
AcDbLine
 10
289.4860799999999
 20
129.7289999999999
 30
0.0
 11
289.4860799999999
 21
128.2889999999999
 31
0.0
  0
LINE
  5
363
330
1E
100
AcDbEntity
  8
0
100
AcDbLine
 10
289.4860799999999
 20
129.7289999999999
 30
0.0
 11
289.4860799999999
 21
130.5929999999999
 31
0.0
  0
LINE
  5
364
330
1E
100
AcDbEntity
  8
0
100
AcDbLine
 10
289.4860799999999
 20
130.5929999999999
 30
0.0
 11
289.4860799999999
 21
129.7289999999999
 31
0.0
  0
LINE
  5
365
330
1E
100
AcDbEntity
  8
0
100
AcDbLine
 10
289.4860799999999
 20
130.5929999999999
 30
0.0
 11
289.4860799999999
 21
130.9169999999999
 31
0.0
  0
LINE
  5
366
330
1E
100
AcDbEntity
  8
0
100
AcDbLine
 10
289.4860799999999
 20
130.9169999999999
 30
0.0
 11
289.4860799999999
 21
130.5929999999999
 31
0.0
  0
LINE
  5
367
330
1E
100
AcDbEntity
  8
0
100
AcDbLine
 10
289.4860799999999
 20
121.917
 30
0.0
 11
289.4860799999999
 21
119.6129999999999
 31
0.0
  0
LINE
  5
368
330
1E
100
AcDbEntity
  8
0
100
AcDbLine
 10
289.4860799999999
 20
121.917
 30
0.0
 11
289.4860799999999
 21
124.221
 31
0.0
  0
LINE
  5
369
330
1E
100
AcDbEntity
  8
0
100
AcDbLine
 10
289.4860799999999
 20
119.6129999999999
 30
0.0
 11
289.4860799999999
 21
117.4529999999999
 31
0.0
  0
LINE
  5
36A
330
1E
100
AcDbEntity
  8
0
100
AcDbLine
 10
289.4860799999999
 20
119.6129999999999
 30
0.0
 11
289.4860799999999
 21
121.917
 31
0.0
  0
LINE
  5
36B
330
1E
100
AcDbEntity
  8
0
100
AcDbLine
 10
289.4860799999999
 20
117.4529999999999
 30
0.0
 11
289.4860799999999
 21
115.545
 31
0.0
  0
LINE
  5
36C
330
1E
100
AcDbEntity
  8
0
100
AcDbLine
 10
289.4860799999999
 20
117.4529999999999
 30
0.0
 11
289.4860799999999
 21
119.6129999999999
 31
0.0
  0
LINE
  5
36D
330
1E
100
AcDbEntity
  8
0
100
AcDbLine
 10
289.4860799999999
 20
115.545
 30
0.0
 11
289.4860799999999
 21
114.105
 31
0.0
  0
LINE
  5
36E
330
1E
100
AcDbEntity
  8
0
100
AcDbLine
 10
289.4860799999999
 20
115.545
 30
0.0
 11
289.4860799999999
 21
117.4529999999999
 31
0.0
  0
LINE
  5
36F
330
1E
100
AcDbEntity
  8
0
100
AcDbLine
 10
289.4860799999999
 20
114.105
 30
0.0
 11
289.4860799999999
 21
113.2409999999999
 31
0.0
  0
LINE
  5
370
330
1E
100
AcDbEntity
  8
0
100
AcDbLine
 10
289.4860799999999
 20
114.105
 30
0.0
 11
289.4860799999999
 21
115.545
 31
0.0
  0
LINE
  5
371
330
1E
100
AcDbEntity
  8
0
100
AcDbLine
 10
291.6060799999999
 20
129.9169999999999
 30
0.0
 11
298.8060799999999
 21
129.9169999999999
 31
0.0
  0
LINE
  5
372
330
1E
100
AcDbEntity
  8
0
100
AcDbLine
 10
289.4860799999999
 20
113.2409999999999
 30
0.0
 11
289.4860799999999
 21
112.917
 31
0.0
  0
LINE
  5
373
330
1E
100
AcDbEntity
  8
0
100
AcDbLine
 10
289.4860799999999
 20
113.2409999999999
 30
0.0
 11
289.4860799999999
 21
114.105
 31
0.0
  0
LINE
  5
374
330
1E
100
AcDbEntity
  8
0
100
AcDbLine
 10
293.59008
 20
88.917
 30
0.0
 11
299.8300799999999
 21
88.917
 31
0.0
  0
LINE
  5
375
330
1E
100
AcDbEntity
  8
0
100
AcDbLine
 10
294.91008
 20
37.917
 30
0.0
 11
300.4180799999999
 21
37.917
 31
0.0
  0
LINE
  5
376
330
1E
100
AcDbEntity
  8
0
100
AcDbLine
 10
294.91008
 20
62.917
 30
0.0
 11
300.4180799999999
 21
62.917
 31
0.0
  0
LINE
  5
379
330
1E
100
AcDbEntity
  8
0
100
AcDbLine
 10
296.56608
 20
74.917
 30
0.0
 11
301.3660799999999
 21
74.917
 31
0.0
  0
LINE
  5
37A
330
1E
100
AcDbEntity
  8
0
100
AcDbLine
 10
294.0860799999999
 20
84.91699999999999
 30
0.0
 11
300.0860799999999
 21
84.91699999999999
 31
0.0
  0
LINE
  5
37B
330
1E
100
AcDbEntity
  8
0
100
AcDbLine
 10
296.7580799999999
 20
140.917
 30
0.0
 11
306.4860799999999
 21
140.917
 31
0.0
  0
LINE
  5
37C
330
1E
100
AcDbEntity
  8
0
100
AcDbLine
 10
296.7580799999999
 20
136.9169999999999
 30
0.0
 11
306.4860799999999
 21
136.9169999999999
 31
0.0
  0
LINE
  5
37D
330
1E
100
AcDbEntity
  8
0
100
AcDbLine
 10
294.0860799999999
 20
129.9169999999999
 30
0.0
 11
300.0860799999999
 21
129.9169999999999
 31
0.0
  0
LINE
  5
37E
330
1E
100
AcDbEntity
  8
0
100
AcDbLine
 10
295.07808
 20
74.917
 30
0.0
 11
300.5980799999999
 21
74.917
 31
0.0
  0
LINE
  5
37F
330
1E
100
AcDbEntity
  8
0
100
AcDbLine
 10
293.59008
 20
90.91700000000001
 30
0.0
 11
299.8300799999999
 21
90.91700000000001
 31
0.0
  0
LINE
  5
380
330
1E
100
AcDbEntity
  8
0
100
AcDbLine
 10
293.0940799999999
 20
150.917
 30
0.0
 11
299.57408
 21
150.917
 31
0.0
  0
LINE
  5
381
330
1E
100
AcDbEntity
  8
0
100
AcDbLine
 10
300.4180799999999
 20
37.917
 30
0.0
 11
306.6820799999999
 21
37.917
 31
0.0
  0
LINE
  5
382
330
1E
100
AcDbEntity
  8
0
100
AcDbLine
 10
300.4180799999999
 20
37.917
 30
0.0
 11
306.6820799999999
 21
37.917
 31
0.0
  0
LINE
  5
383
330
1E
100
AcDbEntity
  8
0
100
AcDbLine
 10
300.4180799999999
 20
62.917
 30
0.0
 11
306.6820799999999
 21
62.917
 31
0.0
  0
LINE
  5
386
330
1E
100
AcDbEntity
  8
0
100
AcDbLine
 10
301.3660799999999
 20
74.917
 30
0.0
 11
306.4860799999999
 21
74.917
 31
0.0
  0
LINE
  5
387
330
1E
100
AcDbEntity
  8
0
100
AcDbLine
 10
305.4860799999999
 20
74.917
 30
0.0
 11
305.4860799999999
 21
88.917
 31
0.0
  0
LINE
  5
388
330
1E
100
AcDbEntity
  8
0
100
AcDbLine
 10
305.4860799999999
 20
74.917
 30
0.0
 11
307.4860799999999
 21
74.917
 31
0.0
  0
LINE
  5
389
330
1E
100
AcDbEntity
  8
0
100
AcDbLine
 10
306.4860799999999
 20
74.917
 30
0.0
 11
312.37408
 21
74.917
 31
0.0
  0
LINE
  5
38A
330
1E
100
AcDbEntity
  8
0
100
AcDbLine
 10
306.4860799999999
 20
74.917
 30
0.0
 11
311.6060799999999
 21
74.917
 31
0.0
  0
LINE
  5
38B
330
1E
100
AcDbEntity
  8
0
100
AcDbLine
 10
300.0860799999999
 20
84.91699999999999
 30
0.0
 11
305.4860799999999
 21
84.91699999999999
 31
0.0
  0
LINE
  5
38C
330
1E
100
AcDbEntity
  8
0
100
AcDbLine
 10
305.4860799999999
 20
88.917
 30
0.0
 11
305.4860799999999
 21
74.917
 31
0.0
  0
LINE
  5
38D
330
1E
100
AcDbEntity
  8
0
100
AcDbLine
 10
305.4860799999999
 20
88.917
 30
0.0
 11
307.4860799999999
 21
88.917
 31
0.0
  0
LINE
  5
38E
330
1E
100
AcDbEntity
  8
0
100
AcDbLine
 10
300.5980799999999
 20
74.917
 30
0.0
 11
306.4860799999999
 21
74.917
 31
0.0
  0
LINE
  5
38F
330
1E
100
AcDbEntity
  8
0
100
AcDbLine
 10
306.4860799999999
 20
88.917
 30
0.0
 11
313.1420799999999
 21
88.917
 31
0.0
  0
LINE
  5
390
330
1E
100
AcDbEntity
  8
0
100
AcDbLine
 10
306.4860799999999
 20
90.91700000000001
 30
0.0
 11
313.1420799999999
 21
90.91700000000001
 31
0.0
  0
LINE
  5
391
330
1E
100
AcDbEntity
  8
0
100
AcDbLine
 10
299.8300799999999
 20
88.917
 30
0.0
 11
306.4860799999999
 21
88.917
 31
0.0
  0
LINE
  5
392
330
1E
100
AcDbEntity
  8
0
100
AcDbLine
 10
298.8060799999999
 20
129.9169999999999
 30
0.0
 11
306.4860799999999
 21
129.9169999999999
 31
0.0
  0
LINE
  5
393
330
1E
100
AcDbEntity
  8
0
100
AcDbLine
 10
306.4860799999999
 20
140.917
 30
0.0
 11
316.2140799999999
 21
140.917
 31
0.0
  0
LINE
  5
394
330
1E
100
AcDbEntity
  8
0
100
AcDbLine
 10
306.4860799999999
 20
136.9169999999999
 30
0.0
 11
316.2140799999999
 21
136.9169999999999
 31
0.0
  0
LINE
  5
395
330
1E
100
AcDbEntity
  8
0
100
AcDbLine
 10
300.0860799999999
 20
129.9169999999999
 30
0.0
 11
306.4860799999999
 21
129.9169999999999
 31
0.0
  0
LINE
  5
396
330
1E
100
AcDbEntity
  8
0
100
AcDbLine
 10
306.4860799999999
 20
129.9169999999999
 30
0.0
 11
312.8860799999999
 21
129.9169999999999
 31
0.0
  0
LINE
  5
397
330
1E
100
AcDbEntity
  8
0
100
AcDbLine
 10
306.4860799999999
 20
129.9169999999999
 30
0.0
 11
314.1660799999999
 21
129.9169999999999
 31
0.0
  0
LINE
  5
398
330
1E
100
AcDbEntity
  8
0
100
AcDbLine
 10
299.8300799999999
 20
90.91700000000001
 30
0.0
 11
306.4860799999999
 21
90.91700000000001
 31
0.0
  0
LINE
  5
399
330
1E
100
AcDbEntity
  8
0
100
AcDbLine
 10
306.4860799999999
 20
150.917
 30
0.0
 11
315.4460799999999
 21
150.917
 31
0.0
  0
LINE
  5
39A
330
1E
100
AcDbEntity
  8
0
100
AcDbLine
 10
306.4860799999999
 20
150.917
 30
0.0
 11
313.3980799999999
 21
150.917
 31
0.0
  0
LINE
  5
39B
330
1E
100
AcDbEntity
  8
0
100
AcDbLine
 10
299.57408
 20
150.917
 30
0.0
 11
306.4860799999999
 21
150.917
 31
0.0
  0
LINE
  5
39C
330
1E
100
AcDbEntity
  8
0
100
AcDbLine
 10
297.52608
 20
150.917
 30
0.0
 11
306.4860799999999
 21
150.917
 31
0.0
  0
LINE
  5
39D
330
1E
100
AcDbEntity
  8
0
100
AcDbLine
 10
306.4860799999999
 20
152.917
 30
0.0
 11
315.4460799999999
 21
152.917
 31
0.0
  0
LINE
  5
39E
330
1E
100
AcDbEntity
  8
0
100
AcDbLine
 10
297.52608
 20
152.917
 30
0.0
 11
306.4860799999999
 21
152.917
 31
0.0
  0
LINE
  5
39F
330
1E
100
AcDbEntity
  8
0
100
AcDbLine
 10
289.1260799999999
 20
152.917
 30
0.0
 11
297.52608
 21
152.917
 31
0.0
  0
LINE
  5
3A0
330
1E
100
AcDbEntity
  8
0
100
AcDbLine
 10
289.1260799999999
 20
150.917
 30
0.0
 11
297.52608
 21
150.917
 31
0.0
  0
LINE
  5
3A1
330
1E
100
AcDbEntity
  8
0
100
AcDbLine
 10
306.6820799999999
 20
37.917
 30
0.0
 11
313.4860799999999
 21
37.917
 31
0.0
  0
LINE
  5
3A2
330
1E
100
AcDbEntity
  8
0
100
AcDbLine
 10
306.6820799999999
 20
62.917
 30
0.0
 11
313.4860799999999
 21
62.917
 31
0.0
  0
LINE
  5
3A3
330
1E
100
AcDbEntity
  8
0
100
AcDbLine
 10
306.6820799999999
 20
37.917
 30
0.0
 11
313.4860799999999
 21
37.917
 31
0.0
  0
LINE
  5
3A4
330
1E
100
AcDbEntity
  8
0
100
AcDbLine
 10
311.6060799999999
 20
74.917
 30
0.0
 11
316.4060799999999
 21
74.917
 31
0.0
  0
LINE
  5
3A5
330
1E
100
AcDbEntity
  8
0
100
AcDbLine
 10
307.4860799999999
 20
84.91699999999999
 30
0.0
 11
312.8860799999999
 21
84.91699999999999
 31
0.0
  0
LINE
  5
3A6
330
1E
100
AcDbEntity
  8
0
100
AcDbLine
 10
307.4860799999999
 20
88.917
 30
0.0
 11
307.4860799999999
 21
74.917
 31
0.0
  0
LINE
  5
3A7
330
1E
100
AcDbEntity
  8
0
100
AcDbLine
 10
307.4860799999999
 20
74.917
 30
0.0
 11
307.4860799999999
 21
88.917
 31
0.0
  0
LINE
  5
3A8
330
1E
100
AcDbEntity
  8
0
100
AcDbLine
 10
312.8860799999999
 20
84.91699999999999
 30
0.0
 11
318.88608
 21
84.91699999999999
 31
0.0
  0
LINE
  5
3A9
330
1E
100
AcDbEntity
  8
0
100
AcDbLine
 10
312.37408
 20
74.917
 30
0.0
 11
317.8940799999999
 21
74.917
 31
0.0
  0
LINE
  5
3AA
330
1E
100
AcDbEntity
  8
0
100
AcDbLine
 10
312.8860799999999
 20
129.9169999999999
 30
0.0
 11
318.88608
 21
129.9169999999999
 31
0.0
  0
LINE
  5
3AB
330
1E
100
AcDbEntity
  8
0
100
AcDbLine
 10
313.1420799999999
 20
88.917
 30
0.0
 11
319.3820799999999
 21
88.917
 31
0.0
  0
LINE
  5
3AC
330
1E
100
AcDbEntity
  8
0
100
AcDbLine
 10
313.4860799999999
 20
37.917
 30
0.0
 11
379.4860799999999
 21
37.917
 31
0.0
  0
LINE
  5
3AD
330
1E
100
AcDbEntity
  8
0
100
AcDbLine
 10
314.1660799999999
 20
129.9169999999999
 30
0.0
 11
321.3660799999999
 21
129.9169999999999
 31
0.0
  0
LINE
  5
3AE
330
1E
100
AcDbEntity
  8
0
100
AcDbLine
 10
313.4860799999999
 20
62.917
 30
0.0
 11
379.4860799999999
 21
62.917
 31
0.0
  0
LINE
  5
3AF
330
1E
100
AcDbEntity
  8
0
100
AcDbLine
 10
313.4860799999999
 20
37.917
 30
0.0
 11
379.4860799999999
 21
37.917
 31
0.0
  0
LINE
  5
3B0
330
1E
100
AcDbEntity
  8
0
100
AcDbLine
 10
313.1420799999999
 20
90.91700000000001
 30
0.0
 11
319.3820799999999
 21
90.91700000000001
 31
0.0
  0
LINE
  5
3B1
330
1E
100
AcDbEntity
  8
0
100
AcDbLine
 10
313.3980799999999
 20
150.917
 30
0.0
 11
319.8780799999999
 21
150.917
 31
0.0
  0
LINE
  5
3B2
330
1E
100
AcDbEntity
  8
0
100
AcDbLine
 10
316.4060799999999
 20
74.917
 30
0.0
 11
320.6460799999999
 21
74.917
 31
0.0
  0
LINE
  5
3B3
330
1E
100
AcDbEntity
  8
0
100
AcDbLine
 10
318.88608
 20
84.91699999999999
 30
0.0
 11
324.1860799999999
 21
84.91699999999999
 31
0.0
  0
LINE
  5
3B4
330
1E
100
AcDbEntity
  8
0
100
AcDbLine
 10
317.8940799999999
 20
74.917
 30
0.0
 11
322.77008
 21
74.917
 31
0.0
  0
LINE
  5
3B5
330
1E
100
AcDbEntity
  8
0
100
AcDbLine
 10
316.2140799999999
 20
140.917
 30
0.0
 11
325.3340799999999
 21
140.917
 31
0.0
  0
LINE
  5
3B6
330
1E
100
AcDbEntity
  8
0
100
AcDbLine
 10
316.2140799999999
 20
136.9169999999999
 30
0.0
 11
325.3340799999999
 21
136.9169999999999
 31
0.0
  0
LINE
  5
3B7
330
1E
100
AcDbEntity
  8
0
100
AcDbLine
 10
318.88608
 20
129.9169999999999
 30
0.0
 11
324.1860799999999
 21
129.9169999999999
 31
0.0
  0
LINE
  5
3B8
330
1E
100
AcDbEntity
  8
0
100
AcDbLine
 10
319.3820799999999
 20
88.917
 30
0.0
 11
324.8940799999999
 21
88.917
 31
0.0
  0
LINE
  5
3B9
330
1E
100
AcDbEntity
  8
0
100
AcDbLine
 10
323.8460799999999
 20
74.917
 30
0.0
 11
325.76608
 21
74.917
 31
0.0
  0
LINE
  5
3BA
330
1E
100
AcDbEntity
  8
0
100
AcDbLine
 10
320.6460799999999
 20
74.917
 30
0.0
 11
323.8460799999999
 21
74.917
 31
0.0
  0
LINE
  5
3BB
330
1E
100
AcDbEntity
  8
0
100
AcDbLine
 10
321.3660799999999
 20
129.9169999999999
 30
0.0
 11
327.7260799999999
 21
129.9169999999999
 31
0.0
  0
LINE
  5
3BC
330
1E
100
AcDbEntity
  8
0
100
AcDbLine
 10
322.77008
 20
74.917
 30
0.0
 11
326.4500799999999
 21
74.917
 31
0.0
  0
LINE
  5
3BD
330
1E
100
AcDbEntity
  8
0
100
AcDbLine
 10
319.3820799999999
 20
90.91700000000001
 30
0.0
 11
324.8940799999999
 21
90.91700000000001
 31
0.0
  0
LINE
  5
3BE
330
1E
100
AcDbEntity
  8
0
100
AcDbLine
 10
319.8780799999999
 20
150.917
 30
0.0
 11
325.6020799999999
 21
150.917
 31
0.0
  0
LINE
  5
3BF
330
1E
100
AcDbEntity
  8
0
100
AcDbLine
 10
315.4460799999999
 20
150.917
 30
0.0
 11
323.8460799999999
 21
150.917
 31
0.0
  0
LINE
  5
3C0
330
1E
100
AcDbEntity
  8
0
100
AcDbLine
 10
315.4460799999999
 20
152.917
 30
0.0
 11
323.8460799999999
 21
152.917
 31
0.0
  0
LINE
  5
3C1
330
1E
100
AcDbEntity
  8
0
100
AcDbLine
 10
323.8460799999999
 20
152.917
 30
0.0
 11
331.2660799999999
 21
152.917
 31
0.0
  0
LINE
  5
3C2
330
1E
100
AcDbEntity
  8
0
100
AcDbLine
 10
323.8460799999999
 20
150.917
 30
0.0
 11
331.2660799999999
 21
150.917
 31
0.0
  0
LINE
  5
3C3
330
1E
100
AcDbEntity
  8
0
100
AcDbLine
 10
306.4860799999999
 20
154.917
 30
0.0
 11
315.3860799999999
 21
154.917
 31
0.0
  0
LINE
  5
3C4
330
1E
100
AcDbEntity
  8
0
100
AcDbLine
 10
315.3860799999999
 20
154.917
 30
0.0
 11
323.8860799999999
 21
154.917
 31
0.0
  0
LINE
  5
3C5
330
1E
100
AcDbEntity
  8
0
100
AcDbLine
 10
324.1860799999999
 20
84.91699999999999
 30
0.0
 11
328.0700799999999
 21
84.91699999999999
 31
0.0
  0
LINE
  5
3C6
330
1E
100
AcDbEntity
  8
0
100
AcDbLine
 10
324.1860799999999
 20
129.9169999999999
 30
0.0
 11
328.18608
 21
129.9169999999999
 31
0.0
  0
LINE
  5
3C7
330
1E
100
AcDbEntity
  8
0
100
AcDbLine
 10
324.8940799999999
 20
88.917
 30
0.0
 11
329.05408
 21
88.917
 31
0.0
  0
LINE
  5
3C8
330
1E
100
AcDbEntity
  8
0
100
AcDbLine
 10
325.76608
 20
74.917
 30
0.0
 11
326.4860799999999
 21
74.917
 31
0.0
  0
LINE
  5
3C9
330
1E
100
AcDbEntity
  8
0
100
AcDbLine
 10
325.47208
 20
74.917
 30
0.0
 11
328.0700799999999
 21
74.917
 31
0.0
  0
LINE
  5
3CA
330
1E
100
AcDbEntity
  8
0
100
AcDbLine
 10
325.47208
 20
74.917
 30
0.0
 11
326.47208
 21
74.917
 31
0.0
  0
LINE
  5
3CB
330
1E
100
AcDbEntity
  8
0
100
AcDbLine
 10
326.4860799999999
 20
62.917
 30
0.0
 11
326.4860799999999
 21
74.917
 31
0.0
  0
LINE
  5
3CC
330
1E
100
AcDbEntity
  8
0
100
AcDbLine
 10
328.0700799999999
 20
74.917
 30
0.0
 11
328.0700799999999
 21
88.917
 31
0.0
  0
LINE
  5
3CD
330
1E
100
AcDbEntity
  8
0
100
AcDbLine
 10
328.0700799999999
 20
74.917
 30
0.0
 11
329.0700799999999
 21
74.917
 31
0.0
  0
LINE
  5
3CE
330
1E
100
AcDbEntity
  8
0
100
AcDbLine
 10
326.47208
 20
74.917
 30
0.0
 11
329.0700799999999
 21
74.917
 31
0.0
  0
LINE
  5
3CF
330
1E
100
AcDbEntity
  8
0
100
AcDbLine
 10
326.4500799999999
 20
74.917
 30
0.0
 11
328.6580799999999
 21
74.917
 31
0.0
  0
LINE
  5
3D0
330
1E
100
AcDbEntity
  8
0
100
AcDbLine
 10
328.6580799999999
 20
74.917
 30
0.0
 11
329.4860799999999
 21
74.917
 31
0.0
  0
LINE
  5
3D1
330
1E
100
AcDbEntity
  8
0
100
AcDbLine
 10
328.0700799999999
 20
88.917
 30
0.0
 11
329.0700799999999
 21
88.917
 31
0.0
  0
LINE
  5
3D2
330
1E
100
AcDbEntity
  8
0
100
AcDbLine
 10
328.0700799999999
 20
88.917
 30
0.0
 11
328.0700799999999
 21
74.917
 31
0.0
  0
LINE
  5
3D3
330
1E
100
AcDbEntity
  8
0
100
AcDbLine
 10
326.4860799999999
 20
74.917
 30
0.0
 11
328.6580799999999
 21
74.917
 31
0.0
  0
LINE
  5
3D4
330
1E
100
AcDbEntity
  8
0
100
AcDbLine
 10
326.4860799999999
 20
74.917
 30
0.0
 11
328.0700799999999
 21
74.917
 31
0.0
  0
LINE
  5
3D5
330
1E
100
AcDbEntity
  8
0
100
AcDbLine
 10
326.4860799999999
 20
74.917
 30
0.0
 11
329.0700799999999
 21
74.917
 31
0.0
  0
LINE
  5
3D6
330
1E
100
AcDbEntity
  8
0
100
AcDbLine
 10
326.4860799999999
 20
74.917
 30
0.0
 11
326.4860799999999
 21
62.917
 31
0.0
  0
LINE
  5
3D7
330
1E
100
AcDbEntity
  8
0
100
AcDbLine
 10
329.0700799999999
 20
84.91699999999999
 30
0.0
 11
330.58608
 21
84.91699999999999
 31
0.0
  0
LINE
  5
3D8
330
1E
100
AcDbEntity
  8
0
100
AcDbLine
 10
329.0700799999999
 20
74.917
 30
0.0
 11
329.0700799999999
 21
88.917
 31
0.0
  0
LINE
  5
3D9
330
1E
100
AcDbEntity
  8
0
100
AcDbLine
 10
329.4860799999999
 20
74.917
 30
0.0
 11
329.4860799999999
 21
84.91699999999999
 31
0.0
  0
LINE
  5
3DA
330
1E
100
AcDbEntity
  8
0
100
AcDbLine
 10
329.0700799999999
 20
88.917
 30
0.0
 11
329.0700799999999
 21
74.917
 31
0.0
  0
LINE
  5
3DB
330
1E
100
AcDbEntity
  8
0
100
AcDbLine
 10
329.4860799999999
 20
84.91699999999999
 30
0.0
 11
329.4860799999999
 21
74.917
 31
0.0
  0
LINE
  5
3DC
330
1E
100
AcDbEntity
  8
0
100
AcDbLine
 10
329.4860799999999
 20
84.91699999999999
 30
0.0
 11
330.58608
 21
84.91699999999999
 31
0.0
  0
LINE
  5
3DD
330
1E
100
AcDbEntity
  8
0
100
AcDbLine
 10
329.05408
 20
88.917
 30
0.0
 11
331.5500799999999
 21
88.917
 31
0.0
  0
LINE
  5
3DE
330
1E
100
AcDbEntity
  8
0
100
AcDbLine
 10
325.3340799999999
 20
140.917
 30
0.0
 11
333.3900799999999
 21
140.917
 31
0.0
  0
LINE
  5
3DF
330
1E
100
AcDbEntity
  8
0
100
AcDbLine
 10
325.3340799999999
 20
136.9169999999999
 30
0.0
 11
333.3900799999999
 21
136.9169999999999
 31
0.0
  0
LINE
  5
3E0
330
1E
100
AcDbEntity
  8
0
100
AcDbLine
 10
327.7260799999999
 20
129.9169999999999
 30
0.0
 11
332.5260799999999
 21
129.9169999999999
 31
0.0
  0
LINE
  5
3E1
330
1E
100
AcDbEntity
  8
0
100
AcDbLine
 10
328.18608
 20
129.9169999999999
 30
0.0
 11
330.58608
 21
129.9169999999999
 31
0.0
  0
LINE
  5
3E2
330
1E
100
AcDbEntity
  8
0
100
AcDbLine
 10
329.05408
 20
90.91700000000001
 30
0.0
 11
331.5500799999999
 21
90.91700000000001
 31
0.0
  0
LINE
  5
3E3
330
1E
100
AcDbEntity
  8
0
100
AcDbLine
 10
324.8940799999999
 20
90.91700000000001
 30
0.0
 11
329.05408
 21
90.91700000000001
 31
0.0
  0
LINE
  5
3E4
330
1E
100
AcDbEntity
  8
0
100
AcDbLine
 10
325.6020799999999
 20
150.917
 30
0.0
 11
329.92208
 21
150.917
 31
0.0
  0
LINE
  5
3E5
330
1E
100
AcDbEntity
  8
0
100
AcDbLine
 10
331.4860799999999
 20
84.91699999999999
 30
0.0
 11
331.4860799999999
 21
88.917
 31
0.0
  0
LINE
  5
3E6
330
1E
100
AcDbEntity
  8
0
100
AcDbLine
 10
331.4860799999999
 20
90.91700000000001
 30
0.0
 11
331.4860799999999
 21
129.9169999999999
 31
0.0
  0
LINE
  5
3E7
330
1E
100
AcDbEntity
  8
0
100
AcDbLine
 10
330.58608
 20
129.9169999999999
 30
0.0
 11
331.4860799999999
 21
129.9169999999999
 31
0.0
  0
LINE
  5
3E8
330
1E
100
AcDbEntity
  8
0
100
AcDbLine
 10
331.4860799999999
 20
129.9169999999999
 30
0.0
 11
331.4860799999999
 21
90.91700000000001
 31
0.0
  0
LINE
  5
3E9
330
1E
100
AcDbEntity
  8
0
100
AcDbLine
 10
331.4860799999999
 20
129.9169999999999
 30
0.0
 11
332.5260799999999
 21
129.9169999999999
 31
0.0
  0
LINE
  5
3EA
330
1E
100
AcDbEntity
  8
0
100
AcDbLine
 10
330.58608
 20
84.91699999999999
 30
0.0
 11
331.4860799999999
 21
84.91699999999999
 31
0.0
  0
LINE
  5
3EB
330
1E
100
AcDbEntity
  8
0
100
AcDbLine
 10
332.4860799999999
 20
88.917
 30
0.0
 11
332.4860799999999
 21
90.91700000000001
 31
0.0
  0
LINE
  5
3EC
330
1E
100
AcDbEntity
  8
0
100
AcDbLine
 10
331.5500799999999
 20
90.91700000000001
 30
0.0
 11
332.4860799999999
 21
90.91700000000001
 31
0.0
  0
LINE
  5
3ED
330
1E
100
AcDbEntity
  8
0
100
AcDbLine
 10
333.3900799999999
 20
140.917
 30
0.0
 11
339.4700799999999
 21
140.917
 31
0.0
  0
LINE
  5
3EE
330
1E
100
AcDbEntity
  8
0
100
AcDbLine
 10
333.3900799999999
 20
136.9169999999999
 30
0.0
 11
339.4700799999999
 21
136.9169999999999
 31
0.0
  0
LINE
  5
3EF
330
1E
100
AcDbEntity
  8
0
100
AcDbLine
 10
332.5260799999999
 20
129.9169999999999
 30
0.0
 11
335.4060799999999
 21
129.9169999999999
 31
0.0
  0
LINE
  5
3F0
330
1E
100
AcDbEntity
  8
0
100
AcDbLine
 10
332.4860799999999
 20
90.91700000000001
 30
0.0
 11
332.4860799999999
 21
88.917
 31
0.0
  0
LINE
  5
3F1
330
1E
100
AcDbEntity
  8
0
100
AcDbLine
 10
331.5500799999999
 20
88.917
 30
0.0
 11
332.4860799999999
 21
88.917
 31
0.0
  0
LINE
  5
3F2
330
1E
100
AcDbEntity
  8
0
100
AcDbLine
 10
331.4860799999999
 20
88.917
 30
0.0
 11
331.5500799999999
 21
88.917
 31
0.0
  0
LINE
  5
3F3
330
1E
100
AcDbEntity
  8
0
100
AcDbLine
 10
331.4860799999999
 20
88.917
 30
0.0
 11
331.4860799999999
 21
84.91699999999999
 31
0.0
  0
LINE
  5
3F4
330
1E
100
AcDbEntity
  8
0
100
AcDbLine
 10
333.4860799999999
 20
150.917
 30
0.0
 11
333.4860799999999
 21
140.917
 31
0.0
  0
LINE
  5
3F5
330
1E
100
AcDbEntity
  8
0
100
AcDbLine
 10
333.4860799999999
 20
150.917
 30
0.0
 11
336.8660799999999
 21
150.917
 31
0.0
  0
LINE
  5
3F6
330
1E
100
AcDbEntity
  8
0
100
AcDbLine
 10
329.92208
 20
150.917
 30
0.0
 11
332.5140799999999
 21
150.917
 31
0.0
  0
LINE
  5
3F7
330
1E
100
AcDbEntity
  8
0
100
AcDbLine
 10
332.5140799999999
 20
150.917
 30
0.0
 11
333.4860799999999
 21
150.917
 31
0.0
  0
LINE
  5
3F8
330
1E
100
AcDbEntity
  8
0
100
AcDbLine
 10
336.4860799999999
 20
129.9169999999999
 30
0.0
 11
336.4860799999999
 21
136.9169999999999
 31
0.0
  0
LINE
  5
3F9
330
1E
100
AcDbEntity
  8
0
100
AcDbLine
 10
336.4860799999999
 20
136.9169999999999
 30
0.0
 11
336.4860799999999
 21
129.9169999999999
 31
0.0
  0
LINE
  5
3FA
330
1E
100
AcDbEntity
  8
0
100
AcDbLine
 10
336.4860799999999
 20
136.9169999999999
 30
0.0
 11
339.4700799999999
 21
136.9169999999999
 31
0.0
  0
LINE
  5
3FB
330
1E
100
AcDbEntity
  8
0
100
AcDbLine
 10
335.4060799999999
 20
129.9169999999999
 30
0.0
 11
336.4860799999999
 21
129.9169999999999
 31
0.0
  0
LINE
  5
3FC
330
1E
100
AcDbEntity
  8
0
100
AcDbLine
 10
333.4860799999999
 20
140.917
 30
0.0
 11
333.4860799999999
 21
150.917
 31
0.0
  0
LINE
  5
3FD
330
1E
100
AcDbEntity
  8
0
100
AcDbLine
 10
331.2660799999999
 20
152.917
 30
0.0
 11
336.8660799999999
 21
152.917
 31
0.0
  0
LINE
  5
3FE
330
1E
100
AcDbEntity
  8
0
100
AcDbLine
 10
331.2660799999999
 20
150.917
 30
0.0
 11
336.8660799999999
 21
150.917
 31
0.0
  0
LINE
  5
3FF
330
1E
100
AcDbEntity
  8
0
100
AcDbLine
 10
323.8860799999999
 20
154.917
 30
0.0
 11
331.18608
 21
154.917
 31
0.0
  0
LINE
  5
400
330
1E
100
AcDbEntity
  8
0
100
AcDbLine
 10
331.18608
 20
154.917
 30
0.0
 11
336.7860799999999
 21
154.917
 31
0.0
  0
LINE
  5
401
330
1E
100
AcDbEntity
  8
0
100
AcDbLine
 10
339.4700799999999
 20
140.917
 30
0.0
 11
343.1180799999999
 21
140.917
 31
0.0
  0
LINE
  5
402
330
1E
100
AcDbEntity
  8
0
100
AcDbLine
 10
339.4700799999999
 20
136.9169999999999
 30
0.0
 11
343.1180799999999
 21
136.9169999999999
 31
0.0
  0
LINE
  5
403
330
1E
100
AcDbEntity
  8
0
100
AcDbLine
 10
341.4860799999999
 20
150.917
 30
0.0
 11
341.4860799999999
 21
152.917
 31
0.0
  0
LINE
  5
404
330
1E
100
AcDbEntity
  8
0
100
AcDbLine
 10
336.8660799999999
 20
150.917
 30
0.0
 11
340.2260799999999
 21
150.917
 31
0.0
  0
LINE
  5
405
330
1E
100
AcDbEntity
  8
0
100
AcDbLine
 10
336.8660799999999
 20
152.917
 30
0.0
 11
340.2260799999999
 21
152.917
 31
0.0
  0
LINE
  5
406
330
1E
100
AcDbEntity
  8
0
100
AcDbLine
 10
341.4860799999999
 20
152.917
 30
0.0
 11
341.4860799999999
 21
150.917
 31
0.0
  0
LINE
  5
407
330
1E
100
AcDbEntity
  8
0
100
AcDbLine
 10
340.2260799999999
 20
152.917
 30
0.0
 11
341.4860799999999
 21
152.917
 31
0.0
  0
LINE
  5
408
330
1E
100
AcDbEntity
  8
0
100
AcDbLine
 10
340.2260799999999
 20
150.917
 30
0.0
 11
341.4860799999999
 21
150.917
 31
0.0
  0
LINE
  5
409
330
1E
100
AcDbEntity
  8
0
100
AcDbLine
 10
336.7860799999999
 20
154.917
 30
0.0
 11
340.18608
 21
154.917
 31
0.0
  0
LINE
  5
40A
330
1E
100
AcDbEntity
  8
0
100
AcDbLine
 10
340.18608
 20
154.917
 30
0.0
 11
341.4860799999999
 21
154.917
 31
0.0
  0
LINE
  5
40B
330
1E
100
AcDbEntity
  8
0
100
AcDbLine
 10
558.80808
 20
0.238999999999967
 30
0.0
 11
594.16408
 21
35.59499999999999
 31
0.0
  0
LINE
  5
40C
330
1E
100
AcDbEntity
  8
0
100
AcDbLine
 10
558.80808
 20
0.238999999999967
 30
0.0
 11
594.16408
 21
35.59499999999999
 31
0.0
  0
LINE
  5
42E
330
1E
100
AcDbEntity
  8
0
100
AcDbLine
 10
558.80808
 20
0.238999999999967
 30
0.0
 11
594.16408
 21
35.59499999999999
 31
0.0
  0
LINE
  5
42F
330
1E
100
AcDbEntity
  8
0
100
AcDbLine
 10
558.80808
 20
0.238999999999967
 30
0.0
 11
594.16408
 21
35.59499999999999
 31
0.0
  0
LINE
  5
430
330
1E
100
AcDbEntity
  8
0
100
AcDbLine
 10
363.9020799999999
 20
70.917
 30
0.0
 11
363.9020799999999
 21
84.91699999999999
 31
0.0
  0
LINE
  5
431
330
1E
100
AcDbEntity
  8
0
100
AcDbLine
 10
363.9020799999999
 20
70.917
 30
0.0
 11
366.5000799999999
 21
70.917
 31
0.0
  0
LINE
  5
432
330
1E
100
AcDbEntity
  8
0
100
AcDbLine
 10
363.9020799999999
 20
70.917
 30
0.0
 11
364.9020799999999
 21
70.917
 31
0.0
  0
LINE
  5
433
330
1E
100
AcDbEntity
  8
0
100
AcDbLine
 10
363.9020799999999
 20
70.917
 30
0.0
 11
366.4860799999999
 21
70.917
 31
0.0
  0
LINE
  5
434
330
1E
100
AcDbEntity
  8
0
100
AcDbLine
 10
363.9020799999999
 20
84.91699999999999
 30
0.0
 11
363.9020799999999
 21
70.917
 31
0.0
  0
LINE
  5
435
330
1E
100
AcDbEntity
  8
0
100
AcDbLine
 10
363.9020799999999
 20
84.91699999999999
 30
0.0
 11
364.9020799999999
 21
84.91699999999999
 31
0.0
  0
LINE
  5
436
330
1E
100
AcDbEntity
  8
0
100
AcDbLine
 10
363.4860799999999
 20
84.91699999999999
 30
0.0
 11
363.4860799999999
 21
70.917
 31
0.0
  0
LINE
  5
437
330
1E
100
AcDbEntity
  8
0
100
AcDbLine
 10
363.4860799999999
 20
84.91699999999999
 30
0.0
 11
363.9020799999999
 21
84.91699999999999
 31
0.0
  0
LINE
  5
438
330
1E
100
AcDbEntity
  8
0
100
AcDbLine
 10
363.4860799999999
 20
70.917
 30
0.0
 11
364.3140799999999
 21
70.917
 31
0.0
  0
LINE
  5
439
330
1E
100
AcDbEntity
  8
0
100
AcDbLine
 10
363.4860799999999
 20
70.917
 30
0.0
 11
363.4860799999999
 21
84.91699999999999
 31
0.0
  0
LINE
  5
43A
330
1E
100
AcDbEntity
  8
0
100
AcDbLine
 10
366.4860799999999
 20
62.917
 30
0.0
 11
366.4860799999999
 21
70.917
 31
0.0
  0
LINE
  5
43B
330
1E
100
AcDbEntity
  8
0
100
AcDbLine
 10
366.4860799999999
 20
70.917
 30
0.0
 11
366.4860799999999
 21
62.917
 31
0.0
  0
LINE
  5
43C
330
1E
100
AcDbEntity
  8
0
100
AcDbLine
 10
366.5000799999999
 20
70.917
 30
0.0
 11
367.5000799999999
 21
70.917
 31
0.0
  0
LINE
  5
43D
330
1E
100
AcDbEntity
  8
0
100
AcDbLine
 10
364.9020799999999
 20
70.917
 30
0.0
 11
364.9020799999999
 21
84.91699999999999
 31
0.0
  0
LINE
  5
43E
330
1E
100
AcDbEntity
  8
0
100
AcDbLine
 10
364.9020799999999
 20
70.917
 30
0.0
 11
367.5000799999999
 21
70.917
 31
0.0
  0
LINE
  5
43F
330
1E
100
AcDbEntity
  8
0
100
AcDbLine
 10
364.9020799999999
 20
70.917
 30
0.0
 11
366.4860799999999
 21
70.917
 31
0.0
  0
LINE
  5
440
330
1E
100
AcDbEntity
  8
0
100
AcDbLine
 10
366.5220799999999
 20
70.917
 30
0.0
 11
370.2020799999999
 21
70.917
 31
0.0
  0
LINE
  5
441
330
1E
100
AcDbEntity
  8
0
100
AcDbLine
 10
370.2020799999999
 20
70.917
 30
0.0
 11
375.07808
 21
70.917
 31
0.0
  0
LINE
  5
442
330
1E
100
AcDbEntity
  8
0
100
AcDbLine
 10
364.9020799999999
 20
84.91699999999999
 30
0.0
 11
364.9020799999999
 21
70.917
 31
0.0
  0
LINE
  5
443
330
1E
100
AcDbEntity
  8
0
100
AcDbLine
 10
364.9020799999999
 20
84.91699999999999
 30
0.0
 11
367.5000799999999
 21
84.91699999999999
 31
0.0
  0
LINE
  5
444
330
1E
100
AcDbEntity
  8
0
100
AcDbLine
 10
367.5000799999999
 20
84.91699999999999
 30
0.0
 11
370.2020799999999
 21
84.91699999999999
 31
0.0
  0
LINE
  5
445
330
1E
100
AcDbEntity
  8
0
100
AcDbLine
 10
370.2020799999999
 20
84.91699999999999
 30
0.0
 11
375.07808
 21
84.91699999999999
 31
0.0
  0
LINE
  5
446
330
1E
100
AcDbEntity
  8
0
100
AcDbLine
 10
364.3140799999999
 20
70.917
 30
0.0
 11
366.4860799999999
 21
70.917
 31
0.0
  0
LINE
  5
447
330
1E
100
AcDbEntity
  8
0
100
AcDbLine
 10
364.3140799999999
 20
70.917
 30
0.0
 11
366.5220799999999
 21
70.917
 31
0.0
  0
LINE
  5
448
330
1E
100
AcDbEntity
  8
0
100
AcDbLine
 10
363.9180799999999
 20
84.91699999999999
 30
0.0
 11
368.0780799999999
 21
84.91699999999999
 31
0.0
  0
LINE
  5
449
330
1E
100
AcDbEntity
  8
0
100
AcDbLine
 10
368.0780799999999
 20
84.91699999999999
 30
0.0
 11
373.59008
 21
84.91699999999999
 31
0.0
  0
LINE
  5
44A
330
1E
100
AcDbEntity
  8
0
100
AcDbLine
 10
379.4860799999999
 20
62.917
 30
0.0
 11
386.2900799999999
 21
62.917
 31
0.0
  0
LINE
  5
44B
330
1E
100
AcDbEntity
  8
0
100
AcDbLine
 10
379.4860799999999
 20
37.917
 30
0.0
 11
386.2900799999999
 21
37.917
 31
0.0
  0
LINE
  5
44C
330
1E
100
AcDbEntity
  8
0
100
AcDbLine
 10
379.4860799999999
 20
37.917
 30
0.0
 11
386.2900799999999
 21
37.917
 31
0.0
  0
LINE
  5
44D
330
1E
100
AcDbEntity
  8
0
100
AcDbLine
 10
386.2900799999999
 20
37.917
 30
0.0
 11
392.55408
 21
37.917
 31
0.0
  0
LINE
  5
44E
330
1E
100
AcDbEntity
  8
0
100
AcDbLine
 10
386.2900799999999
 20
62.917
 30
0.0
 11
392.55408
 21
62.917
 31
0.0
  0
LINE
  5
451
330
1E
100
AcDbEntity
  8
0
100
AcDbLine
 10
386.2900799999999
 20
37.917
 30
0.0
 11
392.55408
 21
37.917
 31
0.0
  0
LINE
  5
452
330
1E
100
AcDbEntity
  8
0
100
AcDbLine
 10
385.4860799999999
 20
70.917
 30
0.0
 11
385.4860799999999
 21
84.91699999999999
 31
0.0
  0
LINE
  5
453
330
1E
100
AcDbEntity
  8
0
100
AcDbLine
 10
385.4860799999999
 20
70.917
 30
0.0
 11
387.4860799999999
 21
70.917
 31
0.0
  0
LINE
  5
454
330
1E
100
AcDbEntity
  8
0
100
AcDbLine
 10
387.4860799999999
 20
70.917
 30
0.0
 11
387.4860799999999
 21
84.91699999999999
 31
0.0
  0
LINE
  5
455
330
1E
100
AcDbEntity
  8
0
100
AcDbLine
 10
375.07808
 20
70.917
 30
0.0
 11
380.59808
 21
70.917
 31
0.0
  0
LINE
  5
456
330
1E
100
AcDbEntity
  8
0
100
AcDbLine
 10
380.59808
 20
70.917
 30
0.0
 11
386.4860799999999
 21
70.917
 31
0.0
  0
LINE
  5
457
330
1E
100
AcDbEntity
  8
0
100
AcDbLine
 10
392.37408
 20
70.917
 30
0.0
 11
397.8940799999999
 21
70.917
 31
0.0
  0
LINE
  5
458
330
1E
100
AcDbEntity
  8
0
100
AcDbLine
 10
375.07808
 20
84.91699999999999
 30
0.0
 11
380.59808
 21
84.91699999999999
 31
0.0
  0
LINE
  5
459
330
1E
100
AcDbEntity
  8
0
100
AcDbLine
 10
385.4860799999999
 20
84.91699999999999
 30
0.0
 11
387.4860799999999
 21
84.91699999999999
 31
0.0
  0
LINE
  5
45A
330
1E
100
AcDbEntity
  8
0
100
AcDbLine
 10
385.4860799999999
 20
84.91699999999999
 30
0.0
 11
385.4860799999999
 21
70.917
 31
0.0
  0
LINE
  5
45B
330
1E
100
AcDbEntity
  8
0
100
AcDbLine
 10
380.59808
 20
84.91699999999999
 30
0.0
 11
385.4860799999999
 21
84.91699999999999
 31
0.0
  0
LINE
  5
45C
330
1E
100
AcDbEntity
  8
0
100
AcDbLine
 10
386.4860799999999
 20
70.917
 30
0.0
 11
392.37408
 21
70.917
 31
0.0
  0
LINE
  5
45D
330
1E
100
AcDbEntity
  8
0
100
AcDbLine
 10
392.55408
 20
37.917
 30
0.0
 11
398.06208
 21
37.917
 31
0.0
  0
LINE
  5
45E
330
1E
100
AcDbEntity
  8
0
100
AcDbLine
 10
392.55408
 20
62.917
 30
0.0
 11
398.06208
 21
62.917
 31
0.0
  0
LINE
  5
461
330
1E
100
AcDbEntity
  8
0
100
AcDbLine
 10
392.37408
 20
84.91699999999999
 30
0.0
 11
397.8940799999999
 21
84.91699999999999
 31
0.0
  0
LINE
  5
462
330
1E
100
AcDbEntity
  8
0
100
AcDbLine
 10
387.4860799999999
 20
84.91699999999999
 30
0.0
 11
392.37408
 21
84.91699999999999
 31
0.0
  0
LINE
  5
463
330
1E
100
AcDbEntity
  8
0
100
AcDbLine
 10
387.4860799999999
 20
84.91699999999999
 30
0.0
 11
387.4860799999999
 21
70.917
 31
0.0
  0
LINE
  5
464
330
1E
100
AcDbEntity
  8
0
100
AcDbLine
 10
373.59008
 20
84.91699999999999
 30
0.0
 11
379.83008
 21
84.91699999999999
 31
0.0
  0
LINE
  5
465
330
1E
100
AcDbEntity
  8
0
100
AcDbLine
 10
379.83008
 20
84.91699999999999
 30
0.0
 11
386.4860799999999
 21
84.91699999999999
 31
0.0
  0
LINE
  5
466
330
1E
100
AcDbEntity
  8
0
100
AcDbLine
 10
360.4860799999999
 20
84.91699999999999
 30
0.0
 11
361.42208
 21
84.91699999999999
 31
0.0
  0
LINE
  5
467
330
1E
100
AcDbEntity
  8
0
100
AcDbLine
 10
360.4860799999999
 20
84.91699999999999
 30
0.0
 11
360.4860799999999
 21
86.917
 31
0.0
  0
LINE
  5
468
330
1E
100
AcDbEntity
  8
0
100
AcDbLine
 10
361.42208
 20
84.91699999999999
 30
0.0
 11
363.4860799999999
 21
84.91699999999999
 31
0.0
  0
LINE
  5
469
330
1E
100
AcDbEntity
  8
0
100
AcDbLine
 10
361.42208
 20
84.91699999999999
 30
0.0
 11
363.9180799999999
 21
84.91699999999999
 31
0.0
  0
LINE
  5
46A
330
1E
100
AcDbEntity
  8
0
100
AcDbLine
 10
398.06208
 20
37.917
 30
0.0
 11
402.2740799999999
 21
37.917
 31
0.0
  0
LINE
  5
46B
330
1E
100
AcDbEntity
  8
0
100
AcDbLine
 10
402.2740799999999
 20
37.917
 30
0.0
 11
404.8660799999999
 21
37.917
 31
0.0
  0
LINE
  5
46C
330
1E
100
AcDbEntity
  8
0
100
AcDbLine
 10
398.06208
 20
62.917
 30
0.0
 11
402.2740799999999
 21
62.917
 31
0.0
  0
LINE
  5
46E
330
1E
100
AcDbEntity
  8
0
100
AcDbLine
 10
402.2740799999999
 20
62.917
 30
0.0
 11
404.8660799999999
 21
62.917
 31
0.0
  0
LINE
  5
470
330
1E
100
AcDbEntity
  8
0
100
AcDbLine
 10
402.7700799999999
 20
70.917
 30
0.0
 11
406.4500799999999
 21
70.917
 31
0.0
  0
LINE
  5
471
330
1E
100
AcDbEntity
  8
0
100
AcDbLine
 10
397.8940799999999
 20
70.917
 30
0.0
 11
402.7700799999999
 21
70.917
 31
0.0
  0
LINE
  5
473
330
1E
100
AcDbEntity
  8
0
100
AcDbLine
 10
404.8660799999999
 20
62.917
 30
0.0
 11
405.83808
 21
62.917
 31
0.0
  0
LINE
  5
475
330
1E
100
AcDbEntity
  8
0
100
AcDbLine
 10
404.8660799999999
 20
37.917
 30
0.0
 11
405.83808
 21
37.917
 31
0.0
  0
LINE
  5
476
330
1E
100
AcDbEntity
  8
0
100
AcDbLine
 10
403.84608
 20
62.917
 30
0.0
 11
405.7660799999999
 21
62.917
 31
0.0
  0
LINE
  5
477
330
1E
100
AcDbEntity
  8
0
100
AcDbLine
 10
402.7700799999999
 20
84.91699999999999
 30
0.0
 11
405.47208
 21
84.91699999999999
 31
0.0
  0
LINE
  5
478
330
1E
100
AcDbEntity
  8
0
100
AcDbLine
 10
397.8940799999999
 20
84.91699999999999
 30
0.0
 11
402.7700799999999
 21
84.91699999999999
 31
0.0
  0
LINE
  5
479
330
1E
100
AcDbEntity
  8
0
100
AcDbLine
 10
406.4860799999999
 20
38.879
 30
0.0
 11
406.4860799999999
 21
61.9555
 31
0.0
  0
LINE
  5
47A
330
1E
100
AcDbEntity
  8
0
100
AcDbLine
 10
405.83808
 20
37.917
 30
0.0
 11
406.4860799999999
 21
38.879
 31
0.0
  0
LINE
  5
47B
330
1E
100
AcDbEntity
  8
0
100
AcDbLine
 10
405.83808
 20
62.917
 30
0.0
 11
406.4860799999999
 21
61.9555
 31
0.0
  0
LINE
  5
47C
330
1E
100
AcDbEntity
  8
0
100
AcDbLine
 10
405.83808
 20
62.917
 30
0.0
 11
406.4860799999999
 21
62.917
 31
0.0
  0
LINE
  5
47D
330
1E
100
AcDbEntity
  8
0
100
AcDbLine
 10
406.4860799999999
 20
61.9555
 30
0.0
 11
406.4860799999999
 21
38.879
 31
0.0
  0
LINE
  5
47E
330
1E
100
AcDbEntity
  8
0
100
AcDbLine
 10
405.7660799999999
 20
62.917
 30
0.0
 11
406.4860799999999
 21
62.917
 31
0.0
  0
LINE
  5
47F
330
1E
100
AcDbEntity
  8
0
100
AcDbLine
 10
406.4860799999999
 20
62.917
 30
0.0
 11
406.4860799999999
 21
70.917
 31
0.0
  0
LINE
  5
480
330
1E
100
AcDbEntity
  8
0
100
AcDbLine
 10
405.47208
 20
70.917
 30
0.0
 11
408.0700799999999
 21
70.917
 31
0.0
  0
LINE
  5
481
330
1E
100
AcDbEntity
  8
0
100
AcDbLine
 10
405.47208
 20
70.917
 30
0.0
 11
406.4720799999999
 21
70.917
 31
0.0
  0
LINE
  5
482
330
1E
100
AcDbEntity
  8
0
100
AcDbLine
 10
406.4720799999999
 20
70.917
 30
0.0
 11
409.0700799999999
 21
70.917
 31
0.0
  0
LINE
  5
483
330
1E
100
AcDbEntity
  8
0
100
AcDbLine
 10
408.0700799999999
 20
70.917
 30
0.0
 11
409.0700799999999
 21
70.917
 31
0.0
  0
LINE
  5
484
330
1E
100
AcDbEntity
  8
0
100
AcDbLine
 10
408.0700799999999
 20
70.917
 30
0.0
 11
408.0700799999999
 21
84.91699999999999
 31
0.0
  0
LINE
  5
485
330
1E
100
AcDbEntity
  8
0
100
AcDbLine
 10
406.4860799999999
 20
70.917
 30
0.0
 11
408.65808
 21
70.917
 31
0.0
  0
LINE
  5
486
330
1E
100
AcDbEntity
  8
0
100
AcDbLine
 10
406.4860799999999
 20
70.917
 30
0.0
 11
408.0700799999999
 21
70.917
 31
0.0
  0
LINE
  5
487
330
1E
100
AcDbEntity
  8
0
100
AcDbLine
 10
406.4860799999999
 20
70.917
 30
0.0
 11
409.0700799999999
 21
70.917
 31
0.0
  0
LINE
  5
488
330
1E
100
AcDbEntity
  8
0
100
AcDbLine
 10
406.4860799999999
 20
70.917
 30
0.0
 11
406.4860799999999
 21
62.917
 31
0.0
  0
LINE
  5
489
330
1E
100
AcDbEntity
  8
0
100
AcDbLine
 10
409.0700799999999
 20
70.917
 30
0.0
 11
409.0700799999999
 21
84.91699999999999
 31
0.0
  0
LINE
  5
48A
330
1E
100
AcDbEntity
  8
0
100
AcDbLine
 10
408.65808
 20
70.917
 30
0.0
 11
409.4860799999999
 21
70.917
 31
0.0
  0
LINE
  5
48B
330
1E
100
AcDbEntity
  8
0
100
AcDbLine
 10
405.47208
 20
84.91699999999999
 30
0.0
 11
408.0700799999999
 21
84.91699999999999
 31
0.0
  0
LINE
  5
48C
330
1E
100
AcDbEntity
  8
0
100
AcDbLine
 10
408.0700799999999
 20
84.91699999999999
 30
0.0
 11
409.0700799999999
 21
84.91699999999999
 31
0.0
  0
LINE
  5
48D
330
1E
100
AcDbEntity
  8
0
100
AcDbLine
 10
408.0700799999999
 20
84.91699999999999
 30
0.0
 11
408.0700799999999
 21
70.917
 31
0.0
  0
LINE
  5
48E
330
1E
100
AcDbEntity
  8
0
100
AcDbLine
 10
406.4500799999999
 20
70.917
 30
0.0
 11
408.65808
 21
70.917
 31
0.0
  0
LINE
  5
48F
330
1E
100
AcDbEntity
  8
0
100
AcDbLine
 10
409.4860799999999
 20
70.917
 30
0.0
 11
409.4860799999999
 21
84.91699999999999
 31
0.0
  0
LINE
  5
490
330
1E
100
AcDbEntity
  8
0
100
AcDbLine
 10
409.0700799999999
 20
84.91699999999999
 30
0.0
 11
409.4860799999999
 21
84.91699999999999
 31
0.0
  0
LINE
  5
491
330
1E
100
AcDbEntity
  8
0
100
AcDbLine
 10
409.0700799999999
 20
84.91699999999999
 30
0.0
 11
409.0700799999999
 21
70.917
 31
0.0
  0
LINE
  5
492
330
1E
100
AcDbEntity
  8
0
100
AcDbLine
 10
409.4860799999999
 20
84.91699999999999
 30
0.0
 11
411.5500799999999
 21
84.91699999999999
 31
0.0
  0
LINE
  5
493
330
1E
100
AcDbEntity
  8
0
100
AcDbLine
 10
409.4860799999999
 20
84.91699999999999
 30
0.0
 11
409.4860799999999
 21
70.917
 31
0.0
  0
LINE
  5
494
330
1E
100
AcDbEntity
  8
0
100
AcDbLine
 10
412.4860799999999
 20
84.91699999999999
 30
0.0
 11
412.4860799999999
 21
86.917
 31
0.0
  0
LINE
  5
495
330
1E
100
AcDbEntity
  8
0
100
AcDbLine
 10
411.5500799999999
 20
84.91699999999999
 30
0.0
 11
412.4860799999999
 21
84.91699999999999
 31
0.0
  0
LINE
  5
496
330
1E
100
AcDbEntity
  8
0
100
AcDbLine
 10
409.05408
 20
84.91699999999999
 30
0.0
 11
411.5500799999999
 21
84.91699999999999
 31
0.0
  0
LINE
  5
497
330
1E
100
AcDbEntity
  8
0
100
AcDbLine
 10
404.8940799999999
 20
84.91699999999999
 30
0.0
 11
409.05408
 21
84.91699999999999
 31
0.0
  0
LINE
  5
498
330
1E
100
AcDbEntity
  8
0
100
AcDbLine
 10
399.3820799999999
 20
84.91699999999999
 30
0.0
 11
404.8940799999999
 21
84.91699999999999
 31
0.0
  0
LINE
  5
499
330
1E
100
AcDbEntity
  8
0
100
AcDbLine
 10
393.1420799999999
 20
84.91699999999999
 30
0.0
 11
399.3820799999999
 21
84.91699999999999
 31
0.0
  0
LINE
  5
49A
330
1E
100
AcDbEntity
  8
0
100
AcDbLine
 10
386.4860799999999
 20
84.91699999999999
 30
0.0
 11
393.1420799999999
 21
84.91699999999999
 31
0.0
  0
LINE
  5
49B
330
1E
100
AcDbEntity
  8
0
100
AcDbLine
 10
431.4860799999999
 20
85.91700000000001
 30
0.0
 11
431.4860799999999
 21
86.85299999999999
 31
0.0
  0
LINE
  5
49C
330
1E
100
AcDbEntity
  8
0
100
AcDbLine
 10
431.4860799999999
 20
85.91700000000001
 30
0.0
 11
433.4860799999999
 21
85.91700000000001
 31
0.0
  0
LINE
  5
49D
330
1E
100
AcDbEntity
  8
0
100
AcDbLine
 10
367.276091969878
 20
86.917
 30
0.0
 11
368.2240799999999
 21
94.1168
 31
0.0
  0
LINE
  5
49E
330
1E
100
AcDbEntity
  8
0
100
AcDbLine
 10
361.42208
 20
86.917
 30
0.0
 11
363.9180799999999
 21
86.917
 31
0.0
  0
LINE
  5
49F
330
1E
100
AcDbEntity
  8
0
100
AcDbLine
 10
363.9180799999999
 20
86.917
 30
0.0
 11
368.0780799999999
 21
86.917
 31
0.0
  0
LINE
  5
4A0
330
1E
100
AcDbEntity
  8
0
100
AcDbLine
 10
368.0780799999999
 20
86.917
 30
0.0
 11
373.59008
 21
86.917
 31
0.0
  0
LINE
  5
4A1
330
1E
100
AcDbEntity
  8
0
100
AcDbLine
 10
373.59008
 20
86.917
 30
0.0
 11
379.83008
 21
86.917
 31
0.0
  0
LINE
  5
4A2
330
1E
100
AcDbEntity
  8
0
100
AcDbLine
 10
379.83008
 20
86.917
 30
0.0
 11
386.4860799999999
 21
86.917
 31
0.0
  0
LINE
  5
4A3
330
1E
100
AcDbEntity
  8
0
100
AcDbLine
 10
360.4860799999999
 20
86.917
 30
0.0
 11
360.4860799999999
 21
84.91699999999999
 31
0.0
  0
LINE
  5
4A4
330
1E
100
AcDbEntity
  8
0
100
AcDbLine
 10
360.4860799999999
 20
86.917
 30
0.0
 11
361.42208
 21
86.917
 31
0.0
  0
LINE
  5
4A5
330
1E
100
AcDbEntity
  8
0
100
AcDbLine
 10
408.343716204021
 20
86.917
 30
0.0
 11
409.7080799999999
 21
88.69519999999999
 31
0.0
  0
LINE
  5
4A6
330
1E
100
AcDbEntity
  8
0
100
AcDbLine
 10
412.4860799999999
 20
86.917
 30
0.0
 11
412.4860799999999
 21
84.91699999999999
 31
0.0
  0
LINE
  5
4A7
330
1E
100
AcDbEntity
  8
0
100
AcDbLine
 10
411.5500799999999
 20
86.917
 30
0.0
 11
412.4860799999999
 21
86.917
 31
0.0
  0
LINE
  5
4A8
330
1E
100
AcDbEntity
  8
0
100
AcDbLine
 10
409.05408
 20
86.917
 30
0.0
 11
411.5500799999999
 21
86.917
 31
0.0
  0
LINE
  5
4A9
330
1E
100
AcDbEntity
  8
0
100
AcDbLine
 10
404.8940799999999
 20
86.917
 30
0.0
 11
409.05408
 21
86.917
 31
0.0
  0
LINE
  5
4AA
330
1E
100
AcDbEntity
  8
0
100
AcDbLine
 10
399.3820799999999
 20
86.917
 30
0.0
 11
404.8940799999999
 21
86.917
 31
0.0
  0
LINE
  5
4AB
330
1E
100
AcDbEntity
  8
0
100
AcDbLine
 10
393.1420799999999
 20
86.917
 30
0.0
 11
399.3820799999999
 21
86.917
 31
0.0
  0
LINE
  5
4AC
330
1E
100
AcDbEntity
  8
0
100
AcDbLine
 10
409.7080799999999
 20
88.69519999999999
 30
0.0
 11
411.9860799999999
 21
90.4433
 31
0.0
  0
LINE
  5
4AD
330
1E
100
AcDbEntity
  8
0
100
AcDbLine
 10
414.6390799999999
 20
91.5422
 30
0.0
 11
417.4860799999999
 21
91.917
 31
0.0
  0
LINE
  5
4AE
330
1E
100
AcDbEntity
  8
0
100
AcDbLine
 10
411.9860799999999
 20
90.4433
 30
0.0
 11
414.6390799999999
 21
91.5422
 31
0.0
  0
LINE
  5
4AF
330
1E
100
AcDbEntity
  8
0
100
AcDbLine
 10
417.4860799999999
 20
91.917
 30
0.0
 11
431.4860799999999
 21
91.917
 31
0.0
  0
LINE
  5
4B0
330
1E
100
AcDbEntity
  8
0
100
AcDbLine
 10
386.4860799999999
 20
86.917
 30
0.0
 11
393.1420799999999
 21
86.917
 31
0.0
  0
LINE
  5
4B1
330
1E
100
AcDbEntity
  8
0
100
AcDbLine
 10
431.4860799999999
 20
91.917
 30
0.0
 11
431.4860799999999
 21
89.34899999999998
 31
0.0
  0
LINE
  5
4B2
330
1E
100
AcDbEntity
  8
0
100
AcDbLine
 10
431.4860799999999
 20
86.85299999999999
 30
0.0
 11
431.4860799999999
 21
89.34899999999998
 31
0.0
  0
LINE
  5
4B3
330
1E
100
AcDbEntity
  8
0
100
AcDbLine
 10
431.4860799999999
 20
86.85299999999999
 30
0.0
 11
431.4860799999999
 21
85.91700000000001
 31
0.0
  0
LINE
  5
4B4
330
1E
100
AcDbEntity
  8
0
100
AcDbLine
 10
431.4860799999999
 20
89.34899999999998
 30
0.0
 11
431.4860799999999
 21
93.50900000000001
 31
0.0
  0
LINE
  5
4B5
330
1E
100
AcDbEntity
  8
0
100
AcDbLine
 10
431.4860799999999
 20
89.34899999999998
 30
0.0
 11
431.4860799999999
 21
86.85299999999999
 31
0.0
  0
LINE
  5
4B6
330
1E
100
AcDbEntity
  8
0
100
AcDbLine
 10
431.4860799999999
 20
89.34899999999998
 30
0.0
 11
431.4860799999999
 21
91.917
 31
0.0
  0
LINE
  5
4B7
330
1E
100
AcDbEntity
  8
0
100
AcDbLine
 10
368.2240799999999
 20
94.1168
 30
0.0
 11
373.31908
 21
106.417
 31
0.0
  0
LINE
  5
4B8
330
1E
100
AcDbEntity
  8
0
100
AcDbLine
 10
431.4860799999999
 20
93.50900000000001
 30
0.0
 11
431.4860799999999
 21
99.021
 31
0.0
  0
LINE
  5
4B9
330
1E
100
AcDbEntity
  8
0
100
AcDbLine
 10
431.4860799999999
 20
93.50900000000001
 30
0.0
 11
431.4860799999999
 21
89.34899999999998
 31
0.0
  0
LINE
  5
4BA
330
1E
100
AcDbEntity
  8
0
100
AcDbLine
 10
433.4860799999999
 20
85.91700000000001
 30
0.0
 11
433.4860799999999
 21
86.85299999999999
 31
0.0
  0
LINE
  5
4BB
330
1E
100
AcDbEntity
  8
0
100
AcDbLine
 10
433.4860799999999
 20
90.3334
 30
0.0
 11
447.48608
 21
90.3334
 31
0.0
  0
LINE
  5
4BC
330
1E
100
AcDbEntity
  8
0
100
AcDbLine
 10
433.4860799999999
 20
89.33339999999999
 30
0.0
 11
447.48608
 21
89.33339999999999
 31
0.0
  0
LINE
  5
4BD
330
1E
100
AcDbEntity
  8
0
100
AcDbLine
 10
433.4860799999999
 20
88.917
 30
0.0
 11
447.48608
 21
88.917
 31
0.0
  0
LINE
  5
4BE
330
1E
100
AcDbEntity
  8
0
100
AcDbLine
 10
433.4860799999999
 20
86.85299999999999
 30
0.0
 11
433.4860799999999
 21
89.34899999999998
 31
0.0
  0
LINE
  5
4BF
330
1E
100
AcDbEntity
  8
0
100
AcDbLine
 10
433.4860799999999
 20
86.85299999999999
 30
0.0
 11
433.4860799999999
 21
85.91700000000001
 31
0.0
  0
LINE
  5
4C0
330
1E
100
AcDbEntity
  8
0
100
AcDbLine
 10
433.4860799999999
 20
89.34899999999998
 30
0.0
 11
433.4860799999999
 21
93.50900000000001
 31
0.0
  0
LINE
  5
4C1
330
1E
100
AcDbEntity
  8
0
100
AcDbLine
 10
433.4860799999999
 20
89.34899999999998
 30
0.0
 11
433.4860799999999
 21
86.85299999999999
 31
0.0
  0
LINE
  5
4C2
330
1E
100
AcDbEntity
  8
0
100
AcDbLine
 10
433.4860799999999
 20
93.50900000000001
 30
0.0
 11
433.4860799999999
 21
99.021
 31
0.0
  0
LINE
  5
4C3
330
1E
100
AcDbEntity
  8
0
100
AcDbLine
 10
433.4860799999999
 20
93.50900000000001
 30
0.0
 11
433.4860799999999
 21
89.34899999999998
 31
0.0
  0
LINE
  5
4C4
330
1E
100
AcDbEntity
  8
0
100
AcDbLine
 10
447.48608
 20
91.917
 30
0.0
 11
469.4860799999999
 21
91.917
 31
0.0
  0
LINE
  5
4C5
330
1E
100
AcDbEntity
  8
0
100
AcDbLine
 10
447.48608
 20
90.3334
 30
0.0
 11
447.48608
 21
92.93139999999999
 31
0.0
  0
LINE
  5
4C6
330
1E
100
AcDbEntity
  8
0
100
AcDbLine
 10
447.48608
 20
90.3334
 30
0.0
 11
447.48608
 21
89.33339999999999
 31
0.0
  0
LINE
  5
4C7
330
1E
100
AcDbEntity
  8
0
100
AcDbLine
 10
447.48608
 20
89.33339999999999
 30
0.0
 11
447.48608
 21
88.917
 31
0.0
  0
LINE
  5
4C8
330
1E
100
AcDbEntity
  8
0
100
AcDbLine
 10
447.48608
 20
89.33339999999999
 30
0.0
 11
447.48608
 21
90.3334
 31
0.0
  0
LINE
  5
4C9
330
1E
100
AcDbEntity
  8
0
100
AcDbLine
 10
447.48608
 20
88.917
 30
0.0
 11
447.48608
 21
89.33339999999999
 31
0.0
  0
LINE
  5
4CA
330
1E
100
AcDbEntity
  8
0
100
AcDbLine
 10
447.48608
 20
92.93139999999999
 30
0.0
 11
447.48608
 21
95.63299999999999
 31
0.0
  0
LINE
  5
4CB
330
1E
100
AcDbEntity
  8
0
100
AcDbLine
 10
447.48608
 20
92.93139999999999
 30
0.0
 11
447.48608
 21
90.3334
 31
0.0
  0
LINE
  5
4CC
330
1E
100
AcDbEntity
  8
0
100
AcDbLine
 10
477.2640799999999
 20
88.69519999999999
 30
0.0
 11
523.42408
 21
41.9654999999999
 31
0.0
  0
LINE
  5
4CD
330
1E
100
AcDbEntity
  8
0
100
AcDbLine
 10
474.9860799999999
 20
90.4433
 30
0.0
 11
477.2640799999999
 21
88.69519999999999
 31
0.0
  0
LINE
  5
4CE
330
1E
100
AcDbEntity
  8
0
100
AcDbLine
 10
469.4860799999999
 20
91.917
 30
0.0
 11
472.33308
 21
91.5422
 31
0.0
  0
LINE
  5
4CF
330
1E
100
AcDbEntity
  8
0
100
AcDbLine
 10
472.33308
 20
91.5422
 30
0.0
 11
474.9860799999999
 21
90.4433
 31
0.0
  0
LINE
  5
4D0
330
1E
100
AcDbEntity
  8
0
100
AcDbLine
 10
447.48608
 20
95.63299999999999
 30
0.0
 11
447.48608
 21
100.509
 31
0.0
  0
LINE
  5
4D1
330
1E
100
AcDbEntity
  8
0
100
AcDbLine
 10
447.48608
 20
95.63299999999999
 30
0.0
 11
447.48608
 21
92.93139999999999
 31
0.0
  0
LINE
  5
4D2
330
1E
100
AcDbEntity
  8
0
100
AcDbLine
 10
447.48608
 20
100.509
 30
0.0
 11
447.48608
 21
106.0289999999999
 31
0.0
  0
LINE
  5
4D3
330
1E
100
AcDbEntity
  8
0
100
AcDbLine
 10
447.48608
 20
100.509
 30
0.0
 11
447.48608
 21
95.63299999999999
 31
0.0
  0
LINE
  5
4D4
330
1E
100
AcDbEntity
  8
0
100
AcDbLine
 10
433.4860799999999
 20
99.021
 30
0.0
 11
433.4860799999999
 21
105.261
 31
0.0
  0
LINE
  5
4D5
330
1E
100
AcDbEntity
  8
0
100
AcDbLine
 10
433.4860799999999
 20
99.021
 30
0.0
 11
433.4860799999999
 21
93.50900000000001
 31
0.0
  0
LINE
  5
4D6
330
1E
100
AcDbEntity
  8
0
100
AcDbLine
 10
433.4860799999999
 20
105.261
 30
0.0
 11
433.4860799999999
 21
111.9169999999999
 31
0.0
  0
LINE
  5
4D7
330
1E
100
AcDbEntity
  8
0
100
AcDbLine
 10
433.4860799999999
 20
105.261
 30
0.0
 11
433.4860799999999
 21
99.021
 31
0.0
  0
LINE
  5
4D8
330
1E
100
AcDbEntity
  8
0
100
AcDbLine
 10
431.4860799999999
 20
99.021
 30
0.0
 11
431.4860799999999
 21
105.261
 31
0.0
  0
LINE
  5
4D9
330
1E
100
AcDbEntity
  8
0
100
AcDbLine
 10
431.4860799999999
 20
99.021
 30
0.0
 11
431.4860799999999
 21
93.50900000000001
 31
0.0
  0
LINE
  5
4DA
330
1E
100
AcDbEntity
  8
0
100
AcDbLine
 10
373.31908
 20
106.417
 30
0.0
 11
381.42408
 21
116.9794
 31
0.0
  0
LINE
  5
4DB
330
1E
100
AcDbEntity
  8
0
100
AcDbLine
 10
381.42408
 20
116.9794
 30
0.0
 11
391.9860799999999
 21
125.0842999999999
 31
0.0
  0
LINE
  5
4DC
330
1E
100
AcDbEntity
  8
0
100
AcDbLine
 10
404.2860799999999
 20
130.1792
 30
0.0
 11
417.4860799999999
 21
131.9169999999999
 31
0.0
  0
LINE
  5
4DD
330
1E
100
AcDbEntity
  8
0
100
AcDbLine
 10
391.9860799999999
 20
125.0842999999999
 30
0.0
 11
404.2860799999999
 21
130.1792
 31
0.0
  0
LINE
  5
4DE
330
1E
100
AcDbEntity
  8
0
100
AcDbLine
 10
417.4860799999999
 20
131.9169999999999
 30
0.0
 11
431.4860799999999
 21
131.9169999999999
 31
0.0
  0
LINE
  5
4DF
330
1E
100
AcDbEntity
  8
0
100
AcDbLine
 10
431.4860799999999
 20
130.325
 30
0.0
 11
431.4860799999999
 21
134.485
 31
0.0
  0
LINE
  5
4E0
330
1E
100
AcDbEntity
  8
0
100
AcDbLine
 10
431.4860799999999
 20
130.325
 30
0.0
 11
431.4860799999999
 21
124.8129999999999
 31
0.0
  0
LINE
  5
4E1
330
1E
100
AcDbEntity
  8
0
100
AcDbLine
 10
431.4860799999999
 20
124.8129999999999
 30
0.0
 11
431.4860799999999
 21
130.325
 31
0.0
  0
LINE
  5
4E2
330
1E
100
AcDbEntity
  8
0
100
AcDbLine
 10
431.4860799999999
 20
124.8129999999999
 30
0.0
 11
431.4860799999999
 21
118.5729999999999
 31
0.0
  0
LINE
  5
4E3
330
1E
100
AcDbEntity
  8
0
100
AcDbLine
 10
431.4860799999999
 20
118.5729999999999
 30
0.0
 11
431.4860799999999
 21
124.8129999999999
 31
0.0
  0
LINE
  5
4E4
330
1E
100
AcDbEntity
  8
0
100
AcDbLine
 10
431.4860799999999
 20
118.5729999999999
 30
0.0
 11
431.4860799999999
 21
111.9169999999999
 31
0.0
  0
LINE
  5
4E5
330
1E
100
AcDbEntity
  8
0
100
AcDbLine
 10
431.4860799999999
 20
131.9169999999999
 30
0.0
 11
431.4860799999999
 21
134.485
 31
0.0
  0
LINE
  5
4E6
330
1E
100
AcDbEntity
  8
0
100
AcDbLine
 10
344.4860799999999
 20
136.9169999999999
 30
0.0
 11
344.4860799999999
 21
140.917
 31
0.0
  0
LINE
  5
4E7
330
1E
100
AcDbEntity
  8
0
100
AcDbLine
 10
343.1180799999999
 20
136.9169999999999
 30
0.0
 11
344.4860799999999
 21
136.9169999999999
 31
0.0
  0
LINE
  5
4E8
330
1E
100
AcDbEntity
  8
0
100
AcDbLine
 10
344.4860799999999
 20
140.917
 30
0.0
 11
344.4860799999999
 21
136.9169999999999
 31
0.0
  0
LINE
  5
4E9
330
1E
100
AcDbEntity
  8
0
100
AcDbLine
 10
343.1180799999999
 20
140.917
 30
0.0
 11
344.4860799999999
 21
140.917
 31
0.0
  0
LINE
  5
4EA
330
1E
100
AcDbEntity
  8
0
100
AcDbLine
 10
431.4860799999999
 20
137.917
 30
0.0
 11
431.4860799999999
 21
136.9809999999999
 31
0.0
  0
LINE
  5
4EB
330
1E
100
AcDbEntity
  8
0
100
AcDbLine
 10
431.4860799999999
 20
137.917
 30
0.0
 11
433.4860799999999
 21
137.917
 31
0.0
  0
LINE
  5
4EC
330
1E
100
AcDbEntity
  8
0
100
AcDbLine
 10
431.4860799999999
 20
136.9809999999999
 30
0.0
 11
431.4860799999999
 21
134.485
 31
0.0
  0
LINE
  5
4ED
330
1E
100
AcDbEntity
  8
0
100
AcDbLine
 10
431.4860799999999
 20
136.9809999999999
 30
0.0
 11
431.4860799999999
 21
137.917
 31
0.0
  0
LINE
  5
4EE
330
1E
100
AcDbEntity
  8
0
100
AcDbLine
 10
431.4860799999999
 20
134.485
 30
0.0
 11
431.4860799999999
 21
131.9169999999999
 31
0.0
  0
LINE
  5
4EF
330
1E
100
AcDbEntity
  8
0
100
AcDbLine
 10
431.4860799999999
 20
134.485
 30
0.0
 11
431.4860799999999
 21
136.9809999999999
 31
0.0
  0
LINE
  5
4F0
330
1E
100
AcDbEntity
  8
0
100
AcDbLine
 10
431.4860799999999
 20
134.485
 30
0.0
 11
431.4860799999999
 21
130.325
 31
0.0
  0
LINE
  5
4F1
330
1E
100
AcDbEntity
  8
0
100
AcDbLine
 10
433.4860799999999
 20
110.9169999999999
 30
0.0
 11
447.48608
 21
110.9169999999999
 31
0.0
  0
LINE
  5
4F2
330
1E
100
AcDbEntity
  8
0
100
AcDbLine
 10
447.48608
 20
110.9169999999999
 30
0.0
 11
447.48608
 21
106.0289999999999
 31
0.0
  0
LINE
  5
4F3
330
1E
100
AcDbEntity
  8
0
100
AcDbLine
 10
447.48608
 20
110.9169999999999
 30
0.0
 11
447.48608
 21
112.917
 31
0.0
  0
LINE
  5
4F4
330
1E
100
AcDbEntity
  8
0
100
AcDbLine
 10
447.48608
 20
106.0289999999999
 30
0.0
 11
447.48608
 21
110.9169999999999
 31
0.0
  0
LINE
  5
4F5
330
1E
100
AcDbEntity
  8
0
100
AcDbLine
 10
447.48608
 20
106.0289999999999
 30
0.0
 11
447.48608
 21
100.509
 31
0.0
  0
LINE
  5
4F6
330
1E
100
AcDbEntity
  8
0
100
AcDbLine
 10
433.4860799999999
 20
112.917
 30
0.0
 11
447.48608
 21
112.917
 31
0.0
  0
LINE
  5
4F7
330
1E
100
AcDbEntity
  8
0
100
AcDbLine
 10
433.4860799999999
 20
133.5005999999999
 30
0.0
 11
447.48608
 21
133.5005999999999
 31
0.0
  0
LINE
  5
4F8
330
1E
100
AcDbEntity
  8
0
100
AcDbLine
 10
433.4860799999999
 20
134.5005999999999
 30
0.0
 11
447.48608
 21
134.5005999999999
 31
0.0
  0
LINE
  5
4F9
330
1E
100
AcDbEntity
  8
0
100
AcDbLine
 10
433.4860799999999
 20
134.9169999999999
 30
0.0
 11
447.48608
 21
134.9169999999999
 31
0.0
  0
LINE
  5
4FA
330
1E
100
AcDbEntity
  8
0
100
AcDbLine
 10
433.4860799999999
 20
137.917
 30
0.0
 11
433.4860799999999
 21
136.9809999999999
 31
0.0
  0
LINE
  5
4FB
330
1E
100
AcDbEntity
  8
0
100
AcDbLine
 10
433.4860799999999
 20
136.9809999999999
 30
0.0
 11
433.4860799999999
 21
137.917
 31
0.0
  0
LINE
  5
4FC
330
1E
100
AcDbEntity
  8
0
100
AcDbLine
 10
433.4860799999999
 20
136.9809999999999
 30
0.0
 11
433.4860799999999
 21
134.485
 31
0.0
  0
LINE
  5
4FD
330
1E
100
AcDbEntity
  8
0
100
AcDbLine
 10
433.4860799999999
 20
134.485
 30
0.0
 11
433.4860799999999
 21
136.9809999999999
 31
0.0
  0
LINE
  5
4FE
330
1E
100
AcDbEntity
  8
0
100
AcDbLine
 10
433.4860799999999
 20
134.485
 30
0.0
 11
433.4860799999999
 21
130.325
 31
0.0
  0
LINE
  5
4FF
330
1E
100
AcDbEntity
  8
0
100
AcDbLine
 10
433.4860799999999
 20
130.325
 30
0.0
 11
433.4860799999999
 21
134.485
 31
0.0
  0
LINE
  5
500
330
1E
100
AcDbEntity
  8
0
100
AcDbLine
 10
433.4860799999999
 20
130.325
 30
0.0
 11
433.4860799999999
 21
124.8129999999999
 31
0.0
  0
LINE
  5
501
330
1E
100
AcDbEntity
  8
0
100
AcDbLine
 10
433.4860799999999
 20
124.8129999999999
 30
0.0
 11
433.4860799999999
 21
130.325
 31
0.0
  0
LINE
  5
502
330
1E
100
AcDbEntity
  8
0
100
AcDbLine
 10
433.4860799999999
 20
124.8129999999999
 30
0.0
 11
433.4860799999999
 21
118.5729999999999
 31
0.0
  0
LINE
  5
503
330
1E
100
AcDbEntity
  8
0
100
AcDbLine
 10
447.48608
 20
131.9169999999999
 30
0.0
 11
469.4860799999999
 21
131.9169999999999
 31
0.0
  0
LINE
  5
504
330
1E
100
AcDbEntity
  8
0
100
AcDbLine
 10
447.48608
 20
133.5005999999999
 30
0.0
 11
447.48608
 21
130.9026
 31
0.0
  0
LINE
  5
505
330
1E
100
AcDbEntity
  8
0
100
AcDbLine
 10
447.48608
 20
133.5005999999999
 30
0.0
 11
447.48608
 21
134.5005999999999
 31
0.0
  0
LINE
  5
506
330
1E
100
AcDbEntity
  8
0
100
AcDbLine
 10
447.48608
 20
130.9026
 30
0.0
 11
447.48608
 21
128.2009999999999
 31
0.0
  0
LINE
  5
507
330
1E
100
AcDbEntity
  8
0
100
AcDbLine
 10
447.48608
 20
130.9026
 30
0.0
 11
447.48608
 21
133.5005999999999
 31
0.0
  0
LINE
  5
508
330
1E
100
AcDbEntity
  8
0
100
AcDbLine
 10
447.48608
 20
134.9169999999999
 30
0.0
 11
447.48608
 21
134.5005999999999
 31
0.0
  0
LINE
  5
509
330
1E
100
AcDbEntity
  8
0
100
AcDbLine
 10
447.48608
 20
134.5005999999999
 30
0.0
 11
447.48608
 21
134.9169999999999
 31
0.0
  0
LINE
  5
50A
330
1E
100
AcDbEntity
  8
0
100
AcDbLine
 10
447.48608
 20
134.5005999999999
 30
0.0
 11
447.48608
 21
133.5005999999999
 31
0.0
  0
LINE
  5
50B
330
1E
100
AcDbEntity
  8
0
100
AcDbLine
 10
447.48608
 20
128.2009999999999
 30
0.0
 11
447.48608
 21
130.9026
 31
0.0
  0
LINE
  5
50C
330
1E
100
AcDbEntity
  8
0
100
AcDbLine
 10
447.48608
 20
128.2009999999999
 30
0.0
 11
447.48608
 21
123.3249999999999
 31
0.0
  0
LINE
  5
50D
330
1E
100
AcDbEntity
  8
0
100
AcDbLine
 10
447.48608
 20
123.3249999999999
 30
0.0
 11
447.48608
 21
128.2009999999999
 31
0.0
  0
LINE
  5
50E
330
1E
100
AcDbEntity
  8
0
100
AcDbLine
 10
447.48608
 20
123.3249999999999
 30
0.0
 11
447.48608
 21
117.805
 31
0.0
  0
LINE
  5
50F
330
1E
100
AcDbEntity
  8
0
100
AcDbLine
 10
505.5480799999999
 20
116.9794
 30
0.0
 11
551.70808
 21
70.2497
 31
0.0
  0
LINE
  5
510
330
1E
100
AcDbEntity
  8
0
100
AcDbLine
 10
494.9860799999999
 20
125.0842999999999
 30
0.0
 11
505.5480799999999
 21
116.9794
 31
0.0
  0
LINE
  5
511
330
1E
100
AcDbEntity
  8
0
100
AcDbLine
 10
469.4860799999999
 20
131.9169999999999
 30
0.0
 11
482.68608
 21
130.1792
 31
0.0
  0
LINE
  5
512
330
1E
100
AcDbEntity
  8
0
100
AcDbLine
 10
482.68608
 20
130.1792
 30
0.0
 11
494.9860799999999
 21
125.0842999999999
 31
0.0
  0
LINE
  5
513
330
1E
100
AcDbEntity
  8
0
100
AcDbLine
 10
447.48608
 20
117.805
 30
0.0
 11
447.48608
 21
123.3249999999999
 31
0.0
  0
LINE
  5
514
330
1E
100
AcDbEntity
  8
0
100
AcDbLine
 10
447.48608
 20
117.805
 30
0.0
 11
447.48608
 21
112.917
 31
0.0
  0
LINE
  5
515
330
1E
100
AcDbEntity
  8
0
100
AcDbLine
 10
447.48608
 20
112.917
 30
0.0
 11
447.48608
 21
117.805
 31
0.0
  0
LINE
  5
516
330
1E
100
AcDbEntity
  8
0
100
AcDbLine
 10
447.48608
 20
112.917
 30
0.0
 11
447.48608
 21
110.9169999999999
 31
0.0
  0
LINE
  5
517
330
1E
100
AcDbEntity
  8
0
100
AcDbLine
 10
433.4860799999999
 20
118.5729999999999
 30
0.0
 11
433.4860799999999
 21
124.8129999999999
 31
0.0
  0
LINE
  5
518
330
1E
100
AcDbEntity
  8
0
100
AcDbLine
 10
433.4860799999999
 20
118.5729999999999
 30
0.0
 11
433.4860799999999
 21
111.9169999999999
 31
0.0
  0
LINE
  5
519
330
1E
100
AcDbEntity
  8
0
100
AcDbLine
 10
433.4860799999999
 20
111.9169999999999
 30
0.0
 11
433.4860799999999
 21
105.261
 31
0.0
  0
LINE
  5
51A
330
1E
100
AcDbEntity
  8
0
100
AcDbLine
 10
433.4860799999999
 20
111.9169999999999
 30
0.0
 11
433.4860799999999
 21
118.5729999999999
 31
0.0
  0
LINE
  5
51B
330
1E
100
AcDbEntity
  8
0
100
AcDbLine
 10
431.4860799999999
 20
111.9169999999999
 30
0.0
 11
431.4860799999999
 21
105.261
 31
0.0
  0
LINE
  5
51C
330
1E
100
AcDbEntity
  8
0
100
AcDbLine
 10
431.4860799999999
 20
111.9169999999999
 30
0.0
 11
431.4860799999999
 21
118.5729999999999
 31
0.0
  0
LINE
  5
51D
330
1E
100
AcDbEntity
  8
0
100
AcDbLine
 10
431.4860799999999
 20
105.261
 30
0.0
 11
431.4860799999999
 21
111.9169999999999
 31
0.0
  0
LINE
  5
51E
330
1E
100
AcDbEntity
  8
0
100
AcDbLine
 10
431.4860799999999
 20
105.261
 30
0.0
 11
431.4860799999999
 21
99.021
 31
0.0
  0
LINE
  5
51F
330
1E
100
AcDbEntity
  8
0
100
AcDbLine
 10
523.42408
 20
41.9654999999999
 30
0.0
 11
526.623857060522
 21
38.76527035432049
 31
0.0
  0
LINE
  5
520
330
1E
100
AcDbEntity
  8
0
100
AcDbLine
 10
523.4080799999999
 20
35.54899999999999
 30
0.0
 11
525.17308
 21
37.314
 31
0.0
  0
LINE
  5
521
330
1E
100
AcDbEntity
  8
0
100
AcDbLine
 10
522.74608
 20
34.888
 30
0.0
 11
523.4080799999999
 21
35.54899999999999
 31
0.0
  0
LINE
  5
522
330
1E
100
AcDbEntity
  8
0
100
AcDbLine
 10
522.74608
 20
34.888
 30
0.0
 11
523.4530799999999
 21
34.18
 31
0.0
  0
LINE
  5
523
330
1E
100
AcDbEntity
  8
0
100
AcDbLine
 10
524.160579992785
 20
34.8874999927847
 30
0.0
 11
558.80808
 21
0.238999999999965
 31
0.0
  0
LINE
  5
525
330
1E
100
AcDbEntity
  8
0
100
AcDbLine
 10
524.160579992785
 20
34.8874999927847
 30
0.0
 11
558.80808
 21
0.238999999999967
 31
0.0
  0
LINE
  5
526
330
1E
100
AcDbEntity
  8
0
100
AcDbLine
 10
526.269339323049
 20
36.9963916791605
 30
0.0
 11
526.4940799999999
 21
37.22099999999999
 31
0.0
  0
LINE
  5
527
330
1E
100
AcDbEntity
  8
0
100
AcDbLine
 10
526.4940799999999
 20
37.22099999999999
 30
0.0
 11
529.32208
 21
40.049
 31
0.0
  0
LINE
  5
528
330
1E
100
AcDbEntity
  8
0
100
AcDbLine
 10
526.4940799999999
 20
37.22099999999999
 30
0.0
 11
526.6855800072149
 21
37.41250000721529
 31
0.0
  0
LINE
  5
529
330
1E
100
AcDbEntity
  8
0
100
AcDbLine
 10
526.269339323053
 20
36.99639167916439
 30
0.0
 11
526.6854430852999
 21
37.4126369251792
 31
0.0
  0
LINE
  5
52A
330
1E
100
AcDbEntity
  8
0
100
AcDbLine
 10
527.0195382735439
 20
37.74684571260339
 30
0.0
 11
527.23108
 21
37.95799999999999
 31
0.0
  0
LINE
  5
52B
330
1E
100
AcDbEntity
  8
0
100
AcDbLine
 10
527.23108
 20
37.95799999999999
 30
0.0
 11
528.686080000529
 21
39.4130000005288
 31
0.0
  0
LINE
  5
52C
330
1E
100
AcDbEntity
  8
0
100
AcDbLine
 10
527.0195382735449
 20
37.74684571260449
 30
0.0
 11
528.8210799999999
 21
39.549
 31
0.0
  0
LINE
  5
52D
330
1E
100
AcDbEntity
  8
0
100
AcDbLine
 10
528.686080000529
 20
39.4130000005288
 30
0.0
 11
531.1100799999999
 21
41.8374
 31
0.0
  0
LINE
  5
52E
330
1E
100
AcDbEntity
  8
0
100
AcDbLine
 10
528.1140799999999
 20
40.25599999999999
 30
0.0
 11
532.0120799999999
 21
44.1535
 31
0.0
  0
LINE
  5
52F
330
1E
100
AcDbEntity
  8
0
100
AcDbLine
 10
525.17308
 20
37.314
 30
0.0
 11
528.1140799999999
 21
40.25599999999999
 31
0.0
  0
LINE
  5
530
330
1E
100
AcDbEntity
  8
0
100
AcDbLine
 10
531.1100799999999
 20
41.8374
 30
0.0
 11
532.1114572522569
 21
42.8388707806433
 31
0.0
  0
LINE
  5
531
330
1E
100
AcDbEntity
  8
0
100
AcDbLine
 10
529.32208
 20
40.049
 30
0.0
 11
533.0700799999999
 21
43.7971
 31
0.0
  0
LINE
  5
532
330
1E
100
AcDbEntity
  8
0
100
AcDbLine
 10
533.0700799999999
 20
43.7971
 30
0.0
 11
537.2344489634829
 21
47.96205798313819
 31
0.0
  0
LINE
  5
533
330
1E
100
AcDbEntity
  8
0
100
AcDbLine
 10
535.3952617994119
 20
46.1227637700695
 30
0.0
 11
537.1310799999999
 21
47.8587
 31
0.0
  0
LINE
  5
534
330
1E
100
AcDbEntity
  8
0
100
AcDbLine
 10
535.3952617994119
 20
46.1227637700695
 30
0.0
 11
536.0041573393569
 21
46.73159234322439
 31
0.0
  0
LINE
  5
535
330
1E
100
AcDbEntity
  8
0
100
AcDbLine
 10
536.42408
 20
48.56580000000001
 30
0.0
 11
541.1310799999999
 21
53.2723
 31
0.0
  0
LINE
  5
536
330
1E
100
AcDbEntity
  8
0
100
AcDbLine
 10
532.0120799999999
 20
44.1535
 30
0.0
 11
536.42408
 21
48.56580000000001
 31
0.0
  0
LINE
  5
537
330
1E
100
AcDbEntity
  8
0
100
AcDbLine
 10
541.1310799999999
 20
53.2723
 30
0.0
 11
545.8370799999999
 21
57.9788
 31
0.0
  0
LINE
  5
538
330
1E
100
AcDbEntity
  8
0
100
AcDbLine
 10
546.471757865121
 20
57.19937018108599
 30
0.0
 11
546.54408
 21
57.2717
 31
0.0
  0
LINE
  5
539
330
1E
100
AcDbEntity
  8
0
100
AcDbLine
 10
546.471757865121
 20
57.19937018108599
 30
0.0
 11
546.740189255467
 21
57.4677825920743
 31
0.0
  0
LINE
  5
53A
330
1E
100
AcDbEntity
  8
0
100
AcDbLine
 10
541.83808
 20
52.5652
 30
0.0
 11
546.54408
 21
57.2717
 31
0.0
  0
LINE
  5
53B
330
1E
100
AcDbEntity
  8
0
100
AcDbLine
 10
545.8370799999999
 20
57.9788
 30
0.0
 11
550.2490799999999
 21
62.39119999999999
 31
0.0
  0
LINE
  5
53C
330
1E
100
AcDbEntity
  8
0
100
AcDbLine
 10
550.2490799999999
 20
62.39119999999999
 30
0.0
 11
554.1470799999999
 21
66.28879999999999
 31
0.0
  0
LINE
  5
53D
330
1E
100
AcDbEntity
  8
0
100
AcDbLine
 10
546.54408
 20
57.2717
 30
0.0
 11
550.95708
 21
61.6841
 31
0.0
  0
LINE
  5
53E
330
1E
100
AcDbEntity
  8
0
100
AcDbLine
 10
546.54408
 20
57.2717
 30
0.0
 11
546.740189255467
 21
57.4677825920743
 31
0.0
  0
LINE
  5
53F
330
1E
100
AcDbEntity
  8
0
100
AcDbLine
 10
553.268301646459
 20
63.99533752461859
 30
0.0
 11
554.99008
 21
65.7174
 31
0.0
  0
LINE
  5
540
330
1E
100
AcDbEntity
  8
0
100
AcDbLine
 10
554.3540799999999
 20
65.081
 30
0.0
 11
556.87491649875
 21
67.6021930527105
 31
0.0
  0
LINE
  5
541
330
1E
100
AcDbEntity
  8
0
100
AcDbLine
 10
551.9641836873979
 20
62.6913587457026
 30
0.0
 11
554.8540799999999
 21
65.5817
 31
0.0
  0
LINE
  5
542
330
1E
100
AcDbEntity
  8
0
100
AcDbLine
 10
551.9641836873979
 20
62.6913587457026
 30
0.0
 11
554.3540799999999
 21
65.081
 31
0.0
  0
LINE
  5
543
330
1E
100
AcDbEntity
  8
0
100
AcDbLine
 10
550.95708
 20
61.6841
 30
0.0
 11
554.8540799999999
 21
65.5817
 31
0.0
  0
LINE
  5
544
330
1E
100
AcDbEntity
  8
0
100
AcDbLine
 10
554.99008
 20
65.7174
 30
0.0
 11
555.7347356152011
 21
66.46185089888049
 31
0.0
  0
LINE
  5
545
330
1E
100
AcDbEntity
  8
0
100
AcDbLine
 10
555.7347356152011
 20
66.46185089888049
 30
0.0
 11
556.826215451454
 21
67.55348511700571
 31
0.0
  0
LINE
  5
546
330
1E
100
AcDbEntity
  8
0
100
AcDbLine
 10
551.70808
 20
70.2497
 30
0.0
 11
554.908320948747
 21
67.04991157401109
 31
0.0
  0
LINE
  5
547
330
1E
100
AcDbEntity
  8
0
100
AcDbLine
 10
557.0890799999999
 20
69.2303
 30
0.0
 11
558.8540799999999
 21
70.9953
 31
0.0
  0
LINE
  5
548
330
1E
100
AcDbEntity
  8
0
100
AcDbLine
 10
554.1470799999999
 20
66.28879999999999
 30
0.0
 11
557.0890799999999
 21
69.2303
 31
0.0
  0
LINE
  5
549
330
1E
100
AcDbEntity
  8
0
100
AcDbLine
 10
557.0890799999999
 20
69.2303
 30
0.0
 11
558.8540799999999
 21
70.9953
 31
0.0
  0
LINE
  5
54A
330
1E
100
AcDbEntity
  8
0
100
AcDbLine
 10
554.8540799999999
 20
65.5817
 30
0.0
 11
557.7960799999999
 21
68.5232
 31
0.0
  0
LINE
  5
54B
330
1E
100
AcDbEntity
  8
0
100
AcDbLine
 10
554.8540799999999
 20
65.5817
 30
0.0
 11
556.840162018996
 21
67.56744447956389
 31
0.0
  0
LINE
  5
54C
330
1E
100
AcDbEntity
  8
0
100
AcDbLine
 10
559.515430005556
 20
70.2425500055558
 30
0.0
 11
559.5610799999999
 21
70.2882
 31
0.0
  0
LINE
  5
54D
330
1E
100
AcDbEntity
  8
0
100
AcDbLine
 10
559.515430005556
 20
70.2425500055558
 30
0.0
 11
594.16408
 21
35.59499999999999
 31
0.0
  0
LINE
  5
54E
330
1E
100
AcDbEntity
  8
0
100
AcDbLine
 10
557.7960799999999
 20
68.5232
 30
0.0
 11
559.5610799999999
 21
70.2882
 31
0.0
  0
LINE
  5
54F
330
1E
100
AcDbEntity
  8
0
100
AcDbLine
 10
559.5150799999999
 20
71.6571
 30
0.0
 11
560.22308
 21
70.9499999999999
 31
0.0
  0
LINE
  5
550
330
1E
100
AcDbEntity
  8
0
100
AcDbLine
 10
558.8540799999999
 20
70.9953
 30
0.0
 11
559.5150799999999
 21
71.6571
 31
0.0
  0
LINE
  5
551
330
1E
100
AcDbEntity
  8
0
100
AcDbLine
 10
559.5610799999999
 20
70.2882
 30
0.0
 11
560.22308
 21
70.9499999999999
 31
0.0
  0
LINE
  5
552
330
1E
100
AcDbEntity
  8
0
100
AcDbLine
 10
537.1310799999999
 20
47.8587
 30
0.0
 11
541.83808
 21
52.5652
 31
0.0
  0
LINE
  5
553
330
1E
100
AcDbEntity
  8
0
100
AcDbLine
 10
532.7190799999999
 20
43.4464
 30
0.0
 11
537.1310799999999
 21
47.8587
 31
0.0
  0
LINE
  5
554
330
1E
100
AcDbEntity
  8
0
100
AcDbLine
 10
528.8210799999999
 20
39.549
 30
0.0
 11
532.7190799999999
 21
43.4464
 31
0.0
  0
LINE
  5
555
330
1E
100
AcDbEntity
  8
0
100
AcDbLine
 10
528.8210799999999
 20
39.549
 30
0.0
 11
532.1114572522569
 21
42.8388707806433
 31
0.0
  0
LINE
  5
556
330
1E
100
AcDbEntity
  8
0
100
AcDbLine
 10
525.88008
 20
36.607
 30
0.0
 11
528.8210799999999
 21
39.549
 31
0.0
  0
LINE
  5
557
330
1E
100
AcDbEntity
  8
0
100
AcDbLine
 10
524.11508
 20
34.84199999999999
 30
0.0
 11
525.88008
 21
36.607
 31
0.0
  0
LINE
  5
558
330
1E
100
AcDbEntity
  8
0
100
AcDbLine
 10
524.11508
 20
34.84199999999999
 30
0.0
 11
524.160579992785
 21
34.8874999927847
 31
0.0
  0
LINE
  5
559
330
1E
100
AcDbEntity
  8
0
100
AcDbLine
 10
523.4530799999999
 20
34.18
 30
0.0
 11
524.11508
 21
34.84199999999999
 31
0.0
  0
LINE
  5
55A
330
1E
100
AcDbEntity
  8
0
100
AcDbLine
 10
341.4860799999999
 20
154.917
 30
0.0
 11
341.4860799999999
 21
155.9169999999999
 31
0.0
  0
LINE
  5
55B
330
1E
100
AcDbEntity
  8
0
100
AcDbLine
 10
297.5860799999999
 20
154.917
 30
0.0
 11
306.4860799999999
 21
154.917
 31
0.0
  0
LINE
  5
55C
330
1E
100
AcDbEntity
  8
0
100
AcDbLine
 10
289.08608
 20
154.917
 30
0.0
 11
297.5860799999999
 21
154.917
 31
0.0
  0
LINE
  5
55D
330
1E
100
AcDbEntity
  8
0
100
AcDbLine
 10
281.7860799999999
 20
154.917
 30
0.0
 11
289.08608
 21
154.917
 31
0.0
  0
LINE
  5
55E
330
1E
100
AcDbEntity
  8
0
100
AcDbLine
 10
276.18608
 20
154.917
 30
0.0
 11
281.7860799999999
 21
154.917
 31
0.0
  0
LINE
  5
55F
330
1E
100
AcDbEntity
  8
0
100
AcDbLine
 10
306.4860799999999
 20
155.9169999999999
 30
0.0
 11
315.3860799999999
 21
155.9169999999999
 31
0.0
  0
LINE
  5
560
330
1E
100
AcDbEntity
  8
0
100
AcDbLine
 10
315.3860799999999
 20
155.9169999999999
 30
0.0
 11
323.8860799999999
 21
155.9169999999999
 31
0.0
  0
LINE
  5
561
330
1E
100
AcDbEntity
  8
0
100
AcDbLine
 10
323.8860799999999
 20
155.9169999999999
 30
0.0
 11
331.18608
 21
155.9169999999999
 31
0.0
  0
LINE
  5
562
330
1E
100
AcDbEntity
  8
0
100
AcDbLine
 10
331.18608
 20
155.9169999999999
 30
0.0
 11
336.7860799999999
 21
155.9169999999999
 31
0.0
  0
LINE
  5
563
330
1E
100
AcDbEntity
  8
0
100
AcDbLine
 10
341.4860799999999
 20
155.9169999999999
 30
0.0
 11
341.4860799999999
 21
154.917
 31
0.0
  0
LINE
  5
564
330
1E
100
AcDbEntity
  8
0
100
AcDbLine
 10
336.7860799999999
 20
155.9169999999999
 30
0.0
 11
340.18608
 21
155.9169999999999
 31
0.0
  0
LINE
  5
565
330
1E
100
AcDbEntity
  8
0
100
AcDbLine
 10
340.18608
 20
155.9169999999999
 30
0.0
 11
341.4860799999999
 21
155.9169999999999
 31
0.0
  0
LINE
  5
566
330
1E
100
AcDbEntity
  8
0
100
AcDbLine
 10
297.5860799999999
 20
155.9169999999999
 30
0.0
 11
306.4860799999999
 21
155.9169999999999
 31
0.0
  0
LINE
  5
567
330
1E
100
AcDbEntity
  8
0
100
AcDbLine
 10
289.08608
 20
155.9169999999999
 30
0.0
 11
297.5860799999999
 21
155.9169999999999
 31
0.0
  0
LINE
  5
568
330
1E
100
AcDbEntity
  8
0
100
AcDbLine
 10
281.7860799999999
 20
155.9169999999999
 30
0.0
 11
289.08608
 21
155.9169999999999
 31
0.0
  0
LINE
  5
569
330
1E
100
AcDbEntity
  8
0
100
AcDbLine
 10
306.4860799999999
 20
157.417
 30
0.0
 11
309.2860799999999
 21
157.417
 31
0.0
  0
LINE
  5
56A
330
1E
100
AcDbEntity
  8
0
100
AcDbLine
 10
309.2860799999999
 20
157.417
 30
0.0
 11
311.9860799999999
 21
157.417
 31
0.0
  0
LINE
  5
56B
330
1E
100
AcDbEntity
  8
0
100
AcDbLine
 10
311.9860799999999
 20
157.417
 30
0.0
 11
314.2860799999999
 21
157.417
 31
0.0
  0
LINE
  5
56C
330
1E
100
AcDbEntity
  8
0
100
AcDbLine
 10
314.2860799999999
 20
157.417
 30
0.0
 11
315.9860799999999
 21
157.417
 31
0.0
  0
LINE
  5
56D
330
1E
100
AcDbEntity
  8
0
100
AcDbLine
 10
315.9860799999999
 20
157.417
 30
0.0
 11
317.0860799999999
 21
157.417
 31
0.0
  0
LINE
  5
56E
330
1E
100
AcDbEntity
  8
0
100
AcDbLine
 10
317.4860799999999
 20
157.417
 30
0.0
 11
330.4860799999999
 21
156.9169999999999
 31
0.0
  0
LINE
  5
56F
330
1E
100
AcDbEntity
  8
0
100
AcDbLine
 10
317.0860799999999
 20
157.417
 30
0.0
 11
317.4860799999999
 21
157.417
 31
0.0
  0
LINE
  5
570
330
1E
100
AcDbEntity
  8
0
100
AcDbLine
 10
330.4860799999999
 20
156.9169999999999
 30
0.0
 11
341.4860799999999
 21
155.9169999999999
 31
0.0
  0
LINE
  5
571
330
1E
100
AcDbEntity
  8
0
100
AcDbLine
 10
303.6860799999999
 20
157.417
 30
0.0
 11
306.4860799999999
 21
157.417
 31
0.0
  0
LINE
  5
572
330
1E
100
AcDbEntity
  8
0
100
AcDbLine
 10
300.9860799999999
 20
157.417
 30
0.0
 11
303.6860799999999
 21
157.417
 31
0.0
  0
LINE
  5
573
330
1E
100
AcDbEntity
  8
0
100
AcDbLine
 10
298.68608
 20
157.417
 30
0.0
 11
300.9860799999999
 21
157.417
 31
0.0
  0
LINE
  5
574
330
1E
100
AcDbEntity
  8
0
100
AcDbLine
 10
296.9860799999999
 20
157.417
 30
0.0
 11
298.68608
 21
157.417
 31
0.0
  0
LINE
  5
575
330
1E
100
AcDbEntity
  8
0
100
AcDbLine
 10
295.88608
 20
157.417
 30
0.0
 11
296.9860799999999
 21
157.417
 31
0.0
  0
LINE
  5
576
330
1E
100
AcDbEntity
  8
0
100
AcDbLine
 10
295.4860799999999
 20
157.417
 30
0.0
 11
295.88608
 21
157.417
 31
0.0
  0
LINE
  5
577
330
1E
100
AcDbEntity
  8
0
100
AcDbLine
 10
282.4860799999999
 20
156.9169999999999
 30
0.0
 11
295.4860799999999
 21
157.417
 31
0.0
  0
LINE
  5
578
330
1E
100
AcDbEntity
  8
0
100
AcDbLine
 10
276.18608
 20
155.9169999999999
 30
0.0
 11
281.7860799999999
 21
155.9169999999999
 31
0.0
  0
LINE
  5
579
330
1E
100
AcDbEntity
  8
0
100
AcDbLine
 10
272.7860799999999
 20
155.9169999999999
 30
0.0
 11
276.18608
 21
155.9169999999999
 31
0.0
  0
LINE
  5
57A
330
1E
100
AcDbEntity
  8
0
100
AcDbLine
 10
272.7860799999999
 20
154.917
 30
0.0
 11
276.18608
 21
154.917
 31
0.0
  0
LINE
  5
57B
330
1E
100
AcDbEntity
  8
0
100
AcDbLine
 10
271.4860799999999
 20
154.917
 30
0.0
 11
272.7860799999999
 21
154.917
 31
0.0
  0
LINE
  5
57C
330
1E
100
AcDbEntity
  8
0
100
AcDbLine
 10
271.4860799999999
 20
154.917
 30
0.0
 11
271.4860799999999
 21
155.9169999999999
 31
0.0
  0
ENDSEC
  0
SECTION
  2
OBJECTS
  0
DICTIONARY
  5
C
330
0
100
AcDbDictionary
281
     1
  3
ACAD_GROUP
350
D
  3
ACAD_LAYOUT
350
19
  3
ACAD_MLINESTYLE
350
16
  3
ACAD_PLOTSETTINGS
350
18
  3
ACAD_PLOTSTYLENAME
350
E
  3
AcDbVariableDictionary
350
581
  0
DICTIONARY
  5
D
102
{ACAD_REACTORS
330
C
102
}
330
C
100
AcDbDictionary
281
     1
  0
DICTIONARY
  5
19
102
{ACAD_REACTORS
330
C
102
}
330
C
100
AcDbDictionary
281
     1
  3
Layout1
350
1D
  3
Model
350
21
  0
DICTIONARY
  5
16
102
{ACAD_REACTORS
330
C
102
}
330
C
100
AcDbDictionary
281
     1
  3
Standard
350
17
  0
DICTIONARY
  5
18
102
{ACAD_REACTORS
330
C
102
}
330
C
100
AcDbDictionary
281
     1
  0
ACDBDICTIONARYWDFLT
  5
E
102
{ACAD_REACTORS
330
C
102
}
330
C
100
AcDbDictionary
281
     1
  3
Normal
350
F
100
AcDbDictionaryWithDefault
340
F
  0
DICTIONARY
  5
581
102
{ACAD_REACTORS
330
C
102
}
330
C
100
AcDbDictionary
281
     1
  3
DIMASSOC
350
582
  0
LAYOUT
  5
1D
102
{ACAD_REACTORS
330
19
102
}
330
19
100
AcDbPlotSettings
  1

  2
hp deskjet 980c series
  4

  6

 40
0.0
 41
0.0
 42
0.0
 43
0.0
 44
0.0
 45
0.0
 46
0.0
 47
0.0
 48
0.0
 49
0.0
140
0.0
141
0.0
142
1.0
143
1.0
 70
   688
 72
     0
 73
     0
 74
     5
  7

 75
    16
147
1.0
148
0.0
149
0.0
100
AcDbLayout
  1
Layout1
 70
     1
 71
     1
 10
0.0
 20
0.0
 11
12.0
 21
9.0
 12
0.0
 22
0.0
 32
0.0
 14
1.000000000000000E+20
 24
1.000000000000000E+20
 34
1.000000000000000E+20
 15
-1.000000000000000E+20
 25
-1.000000000000000E+20
 35
-1.000000000000000E+20
146
0.0
 13
0.0
 23
0.0
 33
0.0
 16
1.0
 26
0.0
 36
0.0
 17
0.0
 27
1.0
 37
0.0
 76
     0
330
1A
  0
LAYOUT
  5
21
102
{ACAD_REACTORS
330
19
102
}
330
19
100
AcDbPlotSettings
  1

  2
hp deskjet 980c series
  4

  6

 40
0.0
 41
0.0
 42
0.0
 43
0.0
 44
0.0
 45
0.0
 46
0.0
 47
0.0
 48
0.0
 49
0.0
140
0.0
141
0.0
142
1.0
143
1.0
 70
  1712
 72
     0
 73
     0
 74
     0
  7

 75
     0
147
1.0
148
0.0
149
0.0
100
AcDbLayout
  1
Model
 70
     1
 71
     0
 10
0.0
 20
0.0
 11
12.0
 21
9.0
 12
0.0
 22
0.0
 32
0.0
 14
0.0
 24
0.0
 34
0.0
 15
0.0
 25
0.0
 35
0.0
146
0.0
 13
0.0
 23
0.0
 33
0.0
 16
1.0
 26
0.0
 36
0.0
 17
0.0
 27
1.0
 37
0.0
 76
     0
330
1E
  0
MLINESTYLE
  5
17
102
{ACAD_REACTORS
330
16
102
}
330
16
100
AcDbMlineStyle
  2
STANDARD
 70
     0
  3

 62
   256
 51
90.0
 52
90.0
 71
     2
 49
0.5
 62
   256
  6
BYLAYER
 49
-0.5
 62
   256
  6
BYLAYER
  0
ACDBPLACEHOLDER
  5
F
102
{ACAD_REACTORS
330
E
102
}
330
E
  0
DICTIONARYVAR
  5
582
102
{ACAD_REACTORS
330
581
102
}
330
581
100
DictionaryVariables
280
     0
  1
1
  0
ENDSEC
  0
EOF
