  0
SECTION
  2
HEADER
  9
$ACADVER
  1
AC1015
  9
$ACADMAINTVER
 70
    13
  9
$DWGCODEPAGE
  3
ANSI_1252
  9
$INSBASE
 10
0.0
 20
0.0
 30
0.0
  9
$EXTMIN
 10
0.0000000000000012
 20
0.0000000000000018
 30
0.0
  9
$EXTMAX
 10
89.0
 20
138.0
 30
0.0
  9
$LIMMIN
 10
0.0
 20
0.0
  9
$LIMMAX
 10
12.0
 20
9.0
  9
$ORTHOMODE
 70
     0
  9
$REGENMODE
 70
     1
  9
$FILLMODE
 70
     1
  9
$QTEXTMODE
 70
     0
  9
$MIRRTEXT
 70
     1
  9
$LTSCALE
 40
1.0
  9
$ATTMODE
 70
     1
  9
$TEXTSIZE
 40
0.2
  9
$TRACEWID
 40
0.05
  9
$TEXTSTYLE
  7
Standard
  9
$CLAYER
  8
0
  9
$CELTYPE
  6
Continuous
  9
$CECOLOR
 62
   256
  9
$CELTSCALE
 40
1.0
  9
$DISPSILH
 70
     0
  9
$DIMSCALE
 40
1.0
  9
$DIMASZ
 40
0.18
  9
$DIMEXO
 40
0.0625
  9
$DIMDLI
 40
0.38
  9
$DIMRND
 40
0.0
  9
$DIMDLE
 40
0.0
  9
$DIMEXE
 40
0.18
  9
$DIMTP
 40
0.0
  9
$DIMTM
 40
0.0
  9
$DIMTXT
 40
0.18
  9
$DIMCEN
 40
0.09
  9
$DIMTSZ
 40
0.0
  9
$DIMTOL
 70
     0
  9
$DIMLIM
 70
     0
  9
$DIMTIH
 70
     1
  9
$DIMTOH
 70
     1
  9
$DIMSE1
 70
     0
  9
$DIMSE2
 70
     0
  9
$DIMTAD
 70
     0
  9
$DIMZIN
 70
     0
  9
$DIMBLK
  1

  9
$DIMASO
 70
     1
  9
$DIMSHO
 70
     1
  9
$DIMPOST
  1

  9
$DIMAPOST
  1

  9
$DIMALT
 70
     0
  9
$DIMALTD
 70
     2
  9
$DIMALTF
 40
25.4
  9
$DIMLFAC
 40
1.0
  9
$DIMTOFL
 70
     0
  9
$DIMTVP
 40
0.0
  9
$DIMTIX
 70
     0
  9
$DIMSOXD
 70
     0
  9
$DIMSAH
 70
     0
  9
$DIMBLK1
  1

  9
$DIMBLK2
  1

  9
$DIMSTYLE
  2
Standard
  9
$DIMCLRD
 70
     0
  9
$DIMCLRE
 70
     0
  9
$DIMCLRT
 70
     0
  9
$DIMTFAC
 40
1.0
  9
$DIMGAP
 40
0.09
  9
$DIMJUST
 70
     0
  9
$DIMSD1
 70
     0
  9
$DIMSD2
 70
     0
  9
$DIMTOLJ
 70
     1
  9
$DIMTZIN
 70
     0
  9
$DIMALTZ
 70
     0
  9
$DIMALTTZ
 70
     0
  9
$DIMUPT
 70
     0
  9
$DIMDEC
 70
     4
  9
$DIMTDEC
 70
     4
  9
$DIMALTU
 70
     2
  9
$DIMALTTD
 70
     2
  9
$DIMTXSTY
  7
Standard
  9
$DIMAUNIT
 70
     0
  9
$DIMADEC
 70
     0
  9
$DIMALTRND
 40
0.0
  9
$DIMAZIN
 70
     0
  9
$DIMDSEP
 70
    46
  9
$DIMATFIT
 70
     3
  9
$DIMFRAC
 70
     0
  9
$DIMLDRBLK
  1

  9
$DIMLUNIT
 70
     2
  9
$DIMLWD
 70
    -2
  9
$DIMLWE
 70
    -2
  9
$DIMTMOVE
 70
     0
  9
$LUNITS
 70
     2
  9
$LUPREC
 70
     4
  9
$SKETCHINC
 40
0.1
  9
$FILLETRAD
 40
0.0
  9
$AUNITS
 70
     0
  9
$AUPREC
 70
     0
  9
$MENU
  1
.
  9
$ELEVATION
 40
0.0
  9
$PELEVATION
 40
0.0
  9
$THICKNESS
 40
0.0
  9
$LIMCHECK
 70
     0
  9
$CHAMFERA
 40
0.0
  9
$CHAMFERB
 40
0.0
  9
$CHAMFERC
 40
0.0
  9
$CHAMFERD
 40
0.0
  9
$SKPOLY
 70
     0
  9
$TDCREATE
 40
2454779.697553703
  9
$TDUCREATE
 40
2454779.655887036
  9
$TDUPDATE
 40
2454779.698591389
  9
$TDUUPDATE
 40
2454779.656924722
  9
$TDINDWG
 40
0.0010378704
  9
$TDUSRTIMER
 40
0.0010378704
  9
$USRTIMER
 70
     1
  9
$ANGBASE
 50
0.0
  9
$ANGDIR
 70
     0
  9
$PDMODE
 70
     0
  9
$PDSIZE
 40
0.0
  9
$PLINEWID
 40
0.0
  9
$SPLFRAME
 70
     0
  9
$SPLINETYPE
 70
     6
  9
$SPLINESEGS
 70
     8
  9
$HANDSEED
  5
1C1
  9
$SURFTAB1
 70
     6
  9
$SURFTAB2
 70
     6
  9
$SURFTYPE
 70
     6
  9
$SURFU
 70
     6
  9
$SURFV
 70
     6
  9
$UCSBASE
  2

  9
$UCSNAME
  2

  9
$UCSORG
 10
0.0
 20
0.0
 30
0.0
  9
$UCSXDIR
 10
1.0
 20
0.0
 30
0.0
  9
$UCSYDIR
 10
0.0
 20
1.0
 30
0.0
  9
$UCSORTHOREF
  2

  9
$UCSORTHOVIEW
 70
     1
  9
$UCSORGTOP
 10
0.0
 20
0.0
 30
0.0
  9
$UCSORGBOTTOM
 10
0.0
 20
0.0
 30
0.0
  9
$UCSORGLEFT
 10
0.0
 20
0.0
 30
0.0
  9
$UCSORGRIGHT
 10
0.0
 20
0.0
 30
0.0
  9
$UCSORGFRONT
 10
0.0
 20
0.0
 30
0.0
  9
$UCSORGBACK
 10
0.0
 20
0.0
 30
0.0
  9
$PUCSBASE
  2

  9
$PUCSNAME
  2

  9
$PUCSORG
 10
0.0
 20
0.0
 30
0.0
  9
$PUCSXDIR
 10
1.0
 20
0.0
 30
0.0
  9
$PUCSYDIR
 10
0.0
 20
1.0
 30
0.0
  9
$PUCSORTHOREF
  2

  9
$PUCSORTHOVIEW
 70
     0
  9
$PUCSORGTOP
 10
0.0
 20
0.0
 30
0.0
  9
$PUCSORGBOTTOM
 10
0.0
 20
0.0
 30
0.0
  9
$PUCSORGLEFT
 10
0.0
 20
0.0
 30
0.0
  9
$PUCSORGRIGHT
 10
0.0
 20
0.0
 30
0.0
  9
$PUCSORGFRONT
 10
0.0
 20
0.0
 30
0.0
  9
$PUCSORGBACK
 10
0.0
 20
0.0
 30
0.0
  9
$USERI1
 70
     0
  9
$USERI2
 70
     0
  9
$USERI3
 70
     0
  9
$USERI4
 70
     0
  9
$USERI5
 70
     0
  9
$USERR1
 40
0.0
  9
$USERR2
 40
0.0
  9
$USERR3
 40
0.0
  9
$USERR4
 40
0.0
  9
$USERR5
 40
0.0
  9
$WORLDVIEW
 70
     1
  9
$SHADEDGE
 70
     3
  9
$SHADEDIF
 70
    70
  9
$TILEMODE
 70
     1
  9
$MAXACTVP
 70
    64
  9
$PINSBASE
 10
0.0
 20
0.0
 30
0.0
  9
$PLIMCHECK
 70
     0
  9
$PEXTMIN
 10
1.000000000000000E+20
 20
1.000000000000000E+20
 30
1.000000000000000E+20
  9
$PEXTMAX
 10
-1.000000000000000E+20
 20
-1.000000000000000E+20
 30
-1.000000000000000E+20
  9
$PLIMMIN
 10
0.0
 20
0.0
  9
$PLIMMAX
 10
12.0
 20
9.0
  9
$UNITMODE
 70
     0
  9
$VISRETAIN
 70
     1
  9
$PLINEGEN
 70
     0
  9
$PSLTSCALE
 70
     1
  9
$TREEDEPTH
 70
  3020
  9
$CMLSTYLE
  2
Standard
  9
$CMLJUST
 70
     0
  9
$CMLSCALE
 40
1.0
  9
$PROXYGRAPHICS
 70
     1
  9
$MEASUREMENT
 70
     0
  9
$CELWEIGHT
370
    -1
  9
$ENDCAPS
280
     0
  9
$JOINSTYLE
280
     0
  9
$LWDISPLAY
290
     0
  9
$INSUNITS
 70
     0
  9
$HYPERLINKBASE
  1

  9
$STYLESHEET
  1

  9
$XEDIT
290
     1
  9
$CEPSNTYPE
380
     0
  9
$PSTYLEMODE
290
     1
  9
$FINGERPRINTGUID
  2
{4A3E2DE6-A06A-4B20-B7E3-B5708AC6036D}
  9
$VERSIONGUID
  2
{D49AC04E-AFDB-48D8-B8E6-D97F277F5C24}
  9
$EXTNAMES
290
     1
  9
$PSVPSCALE
 40
0.0
  9
$OLESTARTUP
290
     0
  0
ENDSEC
  0
SECTION
  2
CLASSES
  0
CLASS
  1
ACDBDICTIONARYWDFLT
  2
AcDbDictionaryWithDefault
  3
AutoCAD 2000
 90
        0
280
     0
281
     0
  0
CLASS
  1
ACDBPLACEHOLDER
  2
AcDbPlaceHolder
  3
AutoCAD 2000
 90
        0
280
     0
281
     0
  0
CLASS
  1
LAYOUT
  2
AcDbLayout
  3
AutoCAD 2000
 90
        0
280
     0
281
     0
  0
CLASS
  1
DICTIONARYVAR
  2
AcDbDictionaryVar
  3
AutoCAD 2000
 90
        0
280
     0
281
     0
  0
ENDSEC
  0
SECTION
  2
TABLES
  0
TABLE
  2
VPORT
  5
8
330
0
100
AcDbSymbolTable
 70
     2
  0
VPORT
  5
1C0
330
8
100
AcDbSymbolTableRecord
100
AcDbViewportTableRecord
  2
*Active
 70
     0
 10
0.0
 20
0.0
 11
1.0
 21
1.0
 12
44.5
 22
69.0
 13
0.0
 23
0.0
 14
1.0
 24
1.0
 15
0.0
 25
0.0
 16
0.0
 26
0.0
 36
1.0
 17
0.0
 27
0.0
 37
0.0
 40
139.0588235294117
 41
2.078104993597951
 42
50.0
 43
0.0
 44
0.0
 50
0.0
 51
0.0
 71
     0
 72
   100
 73
     1
 74
     3
 75
     0
 76
     0
 77
     0
 78
     0
281
     0
 65
     1
110
0.0
120
0.0
130
0.0
111
1.0
121
0.0
131
0.0
112
0.0
122
1.0
132
0.0
 79
     1
146
0.0
  0
ENDTAB
  0
TABLE
  2
LTYPE
  5
5
330
0
100
AcDbSymbolTable
 70
     1
  0
LTYPE
  5
13
330
5
100
AcDbSymbolTableRecord
100
AcDbLinetypeTableRecord
  2
ByBlock
 70
     0
  3

 72
    65
 73
     0
 40
0.0
  0
LTYPE
  5
14
330
5
100
AcDbSymbolTableRecord
100
AcDbLinetypeTableRecord
  2
ByLayer
 70
     0
  3

 72
    65
 73
     0
 40
0.0
  0
LTYPE
  5
15
330
5
100
AcDbSymbolTableRecord
100
AcDbLinetypeTableRecord
  2
Continuous
 70
     0
  3
Solid line
 72
    65
 73
     0
 40
0.0
  0
ENDTAB
  0
TABLE
  2
LAYER
  5
2
330
0
100
AcDbSymbolTable
 70
     1
  0
LAYER
  5
10
330
2
100
AcDbSymbolTableRecord
100
AcDbLayerTableRecord
  2
0
 70
     0
 62
     7
  6
Continuous
370
    -3
390
F
  0
ENDTAB
  0
TABLE
  2
STYLE
  5
3
330
0
100
AcDbSymbolTable
 70
     1
  0
STYLE
  5
11
330
3
100
AcDbSymbolTableRecord
100
AcDbTextStyleTableRecord
  2
Standard
 70
     0
 40
0.0
 41
1.0
 50
0.0
 71
     0
 42
0.2
  3
txt
  4

  0
ENDTAB
  0
TABLE
  2
VIEW
  5
6
330
0
100
AcDbSymbolTable
 70
     0
  0
ENDTAB
  0
TABLE
  2
UCS
  5
7
330
0
100
AcDbSymbolTable
 70
     0
  0
ENDTAB
  0
TABLE
  2
APPID
  5
9
330
0
100
AcDbSymbolTable
 70
     1
  0
APPID
  5
12
330
9
100
AcDbSymbolTableRecord
100
AcDbRegAppTableRecord
  2
ACAD
 70
     0
  0
ENDTAB
  0
TABLE
  2
DIMSTYLE
  5
A
330
0
100
AcDbSymbolTable
 70
     1
100
AcDbDimStyleTable
 71
     0
  0
DIMSTYLE
105
1B9
330
A
100
AcDbSymbolTableRecord
100
AcDbDimStyleTableRecord
  2
Standard
 70
     0
340
11
  0
ENDTAB
  0
TABLE
  2
BLOCK_RECORD
  5
1
330
0
100
AcDbSymbolTable
 70
     0
  0
BLOCK_RECORD
  5
1E
330
1
100
AcDbSymbolTableRecord
100
AcDbBlockTableRecord
  2
*Model_Space
340
21
  0
BLOCK_RECORD
  5
1A
330
1
100
AcDbSymbolTableRecord
100
AcDbBlockTableRecord
  2
*Paper_Space
340
1D
  0
ENDTAB
  0
ENDSEC
  0
SECTION
  2
BLOCKS
  0
BLOCK
  5
1F
330
1E
100
AcDbEntity
  8
0
100
AcDbBlockBegin
  2
*Model_Space
 70
     0
 10
0.0
 20
0.0
 30
0.0
  3
*Model_Space
  1

  0
ENDBLK
  5
20
330
1E
100
AcDbEntity
  8
0
100
AcDbBlockEnd
  0
BLOCK
  5
1B
330
1A
100
AcDbEntity
 67
     1
  8
0
100
AcDbBlockBegin
  2
*Paper_Space
 70
     0
 10
0.0
 20
0.0
 30
0.0
  3
*Paper_Space
  1

  0
ENDBLK
  5
1C
330
1A
100
AcDbEntity
 67
     1
  8
0
100
AcDbBlockEnd
  0
ENDSEC
  0
SECTION
  2
ENTITIES
  0
LINE
  5
22
330
1E
100
AcDbEntity
  8
0
100
AcDbLine
 10
1.245999999999999
 20
48.0
 30
0.0
 11
4.56867
 21
48.0
 31
0.0
  0
LINE
  5
23
330
1E
100
AcDbEntity
  8
0
100
AcDbLine
 10
1.245999999999999
 20
48.0
 30
0.0
 11
4.56867
 21
48.0
 31
0.0
  0
LINE
  5
24
330
1E
100
AcDbEntity
  8
0
100
AcDbLine
 10
0.0000000000000012
 20
48.0
 30
0.0
 11
1.245999999999999
 21
48.0
 31
0.0
  0
LINE
  5
25
330
1E
100
AcDbEntity
  8
0
100
AcDbLine
 10
1.601999999999999
 20
48.0
 30
0.0
 11
5.873999999999999
 21
48.0
 31
0.0
  0
LINE
  5
26
330
1E
100
AcDbEntity
  8
0
100
AcDbLine
 10
0.0000000000000012
 20
48.0
 30
0.0
 11
1.601999999999999
 21
48.0
 31
0.0
  0
LINE
  5
27
330
1E
100
AcDbEntity
  8
0
100
AcDbLine
 10
0.0000000000000012
 20
48.0
 30
0.0
 11
0.0000000000000012
 21
52.0
 31
0.0
  0
LINE
  5
28
330
1E
100
AcDbEntity
  8
0
100
AcDbLine
 10
2.96667
 20
52.0
 30
0.0
 11
2.96667
 21
83.0
 31
0.0
  0
LINE
  5
29
330
1E
100
AcDbEntity
  8
0
100
AcDbLine
 10
4.56867
 20
48.0
 30
0.0
 11
6.000000000000009
 21
48.0
 31
0.0
  0
LINE
  5
2A
330
1E
100
AcDbEntity
  8
0
100
AcDbLine
 10
6.0
 20
48.0
 30
0.0
 11
6.891969999999999
 21
47.2209
 31
0.0
  0
LINE
  5
2B
330
1E
100
AcDbEntity
  8
0
100
AcDbLine
 10
6.0
 20
48.0
 30
0.0
 11
6.17763
 21
48.0
 31
0.0
  0
LINE
  5
2C
330
1E
100
AcDbEntity
  8
0
100
AcDbLine
 10
5.873999999999999
 20
48.0
 30
0.0
 11
12.994
 21
48.0
 31
0.0
  0
LINE
  5
2D
330
1E
100
AcDbEntity
  8
0
100
AcDbLine
 10
5.873999999999999
 20
52.0
 30
0.0
 11
12.994
 21
52.0
 31
0.0
  0
LINE
  5
2E
330
1E
100
AcDbEntity
  8
0
100
AcDbLine
 10
1.601999999999999
 20
52.0
 30
0.0
 11
5.873999999999999
 21
52.0
 31
0.0
  0
LINE
  5
2F
330
1E
100
AcDbEntity
  8
0
100
AcDbLine
 10
5.0
 20
109.0
 30
0.0
 11
5.0
 21
109.4319999999999
 31
0.0
  0
LINE
  5
30
330
1E
100
AcDbEntity
  8
0
100
AcDbLine
 10
5.0
 20
109.0
 30
0.0
 11
6.0
 21
109.0
 31
0.0
  0
LINE
  5
31
330
1E
100
AcDbEntity
  8
0
100
AcDbLine
 10
5.0
 20
109.4319999999999
 30
0.0
 11
5.0
 21
110.584
 31
0.0
  0
LINE
  5
32
330
1E
100
AcDbEntity
  8
0
100
AcDbLine
 10
5.0
 20
109.4319999999999
 30
0.0
 11
5.0
 21
109.0
 31
0.0
  0
LINE
  5
33
330
1E
100
AcDbEntity
  8
0
100
AcDbLine
 10
5.0
 20
110.714
 30
0.0
 11
5.0
 21
111.0849999999999
 31
0.0
  0
LINE
  5
34
330
1E
100
AcDbEntity
  8
0
100
AcDbLine
 10
5.0
 20
111.0849999999999
 30
0.0
 11
5.0
 21
112.072
 31
0.0
  0
LINE
  5
35
330
1E
100
AcDbEntity
  8
0
100
AcDbLine
 10
5.0
 20
111.0849999999999
 30
0.0
 11
5.0
 21
110.714
 31
0.0
  0
LINE
  5
36
330
1E
100
AcDbEntity
  8
0
100
AcDbLine
 10
5.0
 20
112.072
 30
0.0
 11
5.0
 21
113.7179999999999
 31
0.0
  0
LINE
  5
37
330
1E
100
AcDbEntity
  8
0
100
AcDbLine
 10
5.0
 20
112.072
 30
0.0
 11
5.0
 21
111.0849999999999
 31
0.0
  0
LINE
  5
38
330
1E
100
AcDbEntity
  8
0
100
AcDbLine
 10
5.0
 20
113.7179999999999
 30
0.0
 11
5.0
 21
115.8979999999999
 31
0.0
  0
LINE
  5
39
330
1E
100
AcDbEntity
  8
0
100
AcDbLine
 10
5.0
 20
113.7179999999999
 30
0.0
 11
5.0
 21
112.072
 31
0.0
  0
LINE
  5
3A
330
1E
100
AcDbEntity
  8
0
100
AcDbLine
 10
5.0
 20
110.584
 30
0.0
 11
5.0
 21
112.504
 31
0.0
  0
LINE
  5
3B
330
1E
100
AcDbEntity
  8
0
100
AcDbLine
 10
5.0
 20
110.584
 30
0.0
 11
5.0
 21
109.4319999999999
 31
0.0
  0
LINE
  5
3C
330
1E
100
AcDbEntity
  8
0
100
AcDbLine
 10
5.0
 20
112.504
 30
0.0
 11
5.0
 21
115.0479999999999
 31
0.0
  0
LINE
  5
3D
330
1E
100
AcDbEntity
  8
0
100
AcDbLine
 10
5.0
 20
112.504
 30
0.0
 11
5.0
 21
110.584
 31
0.0
  0
LINE
  5
3E
330
1E
100
AcDbEntity
  8
0
100
AcDbLine
 10
5.0
 20
117.928
 30
0.0
 11
5.0
 21
115.0479999999999
 31
0.0
  0
LINE
  5
3F
330
1E
100
AcDbEntity
  8
0
100
AcDbLine
 10
5.0
 20
117.928
 30
0.0
 11
5.0
 21
121.0
 31
0.0
  0
LINE
  5
40
330
1E
100
AcDbEntity
  8
0
100
AcDbLine
 10
5.0
 20
115.8979999999999
 30
0.0
 11
5.0
 21
118.367
 31
0.0
  0
LINE
  5
41
330
1E
100
AcDbEntity
  8
0
100
AcDbLine
 10
5.0
 20
115.8979999999999
 30
0.0
 11
5.0
 21
113.7179999999999
 31
0.0
  0
LINE
  5
42
330
1E
100
AcDbEntity
  8
0
100
AcDbLine
 10
5.0
 20
118.367
 30
0.0
 11
5.0
 21
121.0
 31
0.0
  0
LINE
  5
43
330
1E
100
AcDbEntity
  8
0
100
AcDbLine
 10
5.0
 20
118.367
 30
0.0
 11
5.0
 21
115.8979999999999
 31
0.0
  0
LINE
  5
44
330
1E
100
AcDbEntity
  8
0
100
AcDbLine
 10
5.0
 20
115.0479999999999
 30
0.0
 11
5.0
 21
117.928
 31
0.0
  0
LINE
  5
45
330
1E
100
AcDbEntity
  8
0
100
AcDbLine
 10
5.0
 20
115.0479999999999
 30
0.0
 11
5.0
 21
112.504
 31
0.0
  0
LINE
  5
46
330
1E
100
AcDbEntity
  8
0
100
AcDbLine
 10
5.0
 20
115.0479999999999
 30
0.0
 11
5.0
 21
117.928
 31
0.0
  0
LINE
  5
47
330
1E
100
AcDbEntity
  8
0
100
AcDbLine
 10
5.0
 20
117.928
 30
0.0
 11
5.0
 21
121.0
 31
0.0
  0
LINE
  5
48
330
1E
100
AcDbEntity
  8
0
100
AcDbLine
 10
5.0
 20
117.928
 30
0.0
 11
5.0
 21
115.0479999999999
 31
0.0
  0
LINE
  5
49
330
1E
100
AcDbEntity
  8
0
100
AcDbLine
 10
4.461869999999999
 20
83.0
 30
0.0
 11
8.449069999999998
 21
83.0
 31
0.0
  0
LINE
  5
4A
330
1E
100
AcDbEntity
  8
0
100
AcDbLine
 10
2.96667
 20
83.0
 30
0.0
 11
4.461869999999999
 21
83.0
 31
0.0
  0
LINE
  5
4B
330
1E
100
AcDbEntity
  8
0
100
AcDbLine
 10
2.96667
 20
83.0
 30
0.0
 11
2.96667
 21
52.0
 31
0.0
  0
LINE
  5
4C
330
1E
100
AcDbEntity
  8
0
100
AcDbLine
 10
0.0000000000000012
 20
52.0
 30
0.0
 11
1.601999999999999
 21
52.0
 31
0.0
  0
LINE
  5
4D
330
1E
100
AcDbEntity
  8
0
100
AcDbLine
 10
0.0000000000000012
 20
52.0
 30
0.0
 11
0.0000000000000012
 21
48.0
 31
0.0
  0
LINE
  5
4E
330
1E
100
AcDbEntity
  8
0
100
AcDbLine
 10
6.17763
 20
48.0
 30
0.0
 11
6.67516
 21
48.0
 31
0.0
  0
LINE
  5
4F
330
1E
100
AcDbEntity
  8
0
100
AcDbLine
 10
6.0
 20
119.5
 30
0.0
 11
31.7067689307767
 21
119.5
 31
0.0
  0
LINE
  5
50
330
1E
100
AcDbEntity
  8
0
100
AcDbLine
 10
7.46957
 20
48.0
 30
0.0
 11
8.515209999999999
 21
48.0
 31
0.0
  0
LINE
  5
51
330
1E
100
AcDbEntity
  8
0
100
AcDbLine
 10
6.67516
 20
48.0
 30
0.0
 11
7.46957
 21
48.0
 31
0.0
  0
LINE
  5
52
330
1E
100
AcDbEntity
  8
0
100
AcDbLine
 10
6.891969999999999
 20
47.2209
 30
0.0
 11
8.109169999999998
 21
46.5233
 31
0.0
  0
LINE
  5
53
330
1E
100
AcDbEntity
  8
0
100
AcDbLine
 10
8.515209999999999
 20
48.0
 30
0.0
 11
9.72081
 21
48.0
 31
0.0
  0
LINE
  5
54
330
1E
100
AcDbEntity
  8
0
100
AcDbLine
 10
8.109169999999998
 20
46.5233
 30
0.0
 11
9.478509999999999
 21
46.1163
 31
0.0
  0
LINE
  5
55
330
1E
100
AcDbEntity
  8
0
100
AcDbLine
 10
8.449069999999998
 20
83.0
 30
0.0
 11
15.0944
 21
83.0
 31
0.0
  0
LINE
  5
56
330
1E
100
AcDbEntity
  8
0
100
AcDbLine
 10
9.72081
 20
48.0
 30
0.0
 11
11.0
 21
48.0
 31
0.0
  0
LINE
  5
57
330
1E
100
AcDbEntity
  8
0
100
AcDbLine
 10
11.0
 20
48.0
 30
0.0
 11
12.2792
 21
48.0
 31
0.0
  0
LINE
  5
58
330
1E
100
AcDbEntity
  8
0
100
AcDbLine
 10
12.2792
 20
48.0
 30
0.0
 11
13.4848
 21
48.0
 31
0.0
  0
LINE
  5
59
330
1E
100
AcDbEntity
  8
0
100
AcDbLine
 10
11.0
 20
46.0
 30
0.0
 11
12.5215
 21
46.1163
 31
0.0
  0
LINE
  5
5A
330
1E
100
AcDbEntity
  8
0
100
AcDbLine
 10
9.478509999999999
 20
46.1163
 30
0.0
 11
11.0
 21
46.0
 31
0.0
  0
LINE
  5
5B
330
1E
100
AcDbEntity
  8
0
100
AcDbLine
 10
9.72
 20
119.5
 30
0.0
 11
11.0
 21
119.5
 31
0.0
  0
LINE
  5
5C
330
1E
100
AcDbEntity
  8
0
100
AcDbLine
 10
8.519999999999999
 20
119.5
 30
0.0
 11
9.72
 21
119.5
 31
0.0
  0
LINE
  5
5D
330
1E
100
AcDbEntity
  8
0
100
AcDbLine
 10
7.459999999999999
 20
119.5
 30
0.0
 11
8.519999999999999
 21
119.5
 31
0.0
  0
LINE
  5
5E
330
1E
100
AcDbEntity
  8
0
100
AcDbLine
 10
6.66
 20
119.5
 30
0.0
 11
7.459999999999999
 21
119.5
 31
0.0
  0
LINE
  5
5F
330
1E
100
AcDbEntity
  8
0
100
AcDbLine
 10
6.179999999999999
 20
119.5
 30
0.0
 11
6.66
 21
119.5
 31
0.0
  0
LINE
  5
60
330
1E
100
AcDbEntity
  8
0
100
AcDbLine
 10
6.0
 20
119.5
 30
0.0
 11
6.179999999999999
 21
119.5
 31
0.0
  0
LINE
  5
61
330
1E
100
AcDbEntity
  8
0
100
AcDbLine
 10
6.0
 20
119.5
 30
0.0
 11
6.0
 21
83.0
 31
0.0
  0
LINE
  5
62
330
1E
100
AcDbEntity
  8
0
100
AcDbLine
 10
6.0
 20
119.5
 30
0.0
 11
31.7067689307767
 21
119.5
 31
0.0
  0
LINE
  5
63
330
1E
100
AcDbEntity
  8
0
100
AcDbLine
 10
6.0
 20
119.5
 30
0.0
 11
6.0
 21
122.5
 31
0.0
  0
LINE
  5
64
330
1E
100
AcDbEntity
  8
0
100
AcDbLine
 10
11.0
 20
119.5
 30
0.0
 11
12.27999999999999
 21
119.5
 31
0.0
  0
LINE
  5
65
330
1E
100
AcDbEntity
  8
0
100
AcDbLine
 10
12.5215
 20
46.1163
 30
0.0
 11
13.8908
 21
46.5233
 31
0.0
  0
LINE
  5
66
330
1E
100
AcDbEntity
  8
0
100
AcDbLine
 10
13.4848
 20
48.0
 30
0.0
 11
14.5304
 21
48.0
 31
0.0
  0
LINE
  5
67
330
1E
100
AcDbEntity
  8
0
100
AcDbLine
 10
14.5304
 20
48.0
 30
0.0
 11
15.3248
 21
48.0
 31
0.0
  0
LINE
  5
68
330
1E
100
AcDbEntity
  8
0
100
AcDbLine
 10
13.8908
 20
46.5233
 30
0.0
 11
15.10799999999999
 21
47.2209
 31
0.0
  0
LINE
  5
69
330
1E
100
AcDbEntity
  8
0
100
AcDbLine
 10
12.994
 20
48.0
 30
0.0
 11
22.428
 21
48.0
 31
0.0
  0
LINE
  5
6A
330
1E
100
AcDbEntity
  8
0
100
AcDbLine
 10
12.994
 20
52.0
 30
0.0
 11
22.428
 21
52.0
 31
0.0
  0
LINE
  5
6B
330
1E
100
AcDbEntity
  8
0
100
AcDbLine
 10
12.27999999999999
 20
119.5
 30
0.0
 11
13.48
 21
119.5
 31
0.0
  0
LINE
  5
6C
330
1E
100
AcDbEntity
  8
0
100
AcDbLine
 10
13.48
 20
119.5
 30
0.0
 11
14.53999999999999
 21
119.5
 31
0.0
  0
LINE
  5
6D
330
1E
100
AcDbEntity
  8
0
100
AcDbLine
 10
14.8333
 20
32.0
 30
0.0
 11
14.8333
 21
47.0634643115347
 31
0.0
  0
LINE
  5
6E
330
1E
100
AcDbEntity
  8
0
100
AcDbLine
 10
14.8333
 20
32.0
 30
0.0
 11
15.8804
 21
24.3059
 31
0.0
  0
LINE
  5
6F
330
1E
100
AcDbEntity
  8
0
100
AcDbLine
 10
15.3248
 20
48.0
 30
0.0
 11
15.8224
 21
48.0
 31
0.0
  0
LINE
  5
70
330
1E
100
AcDbEntity
  8
0
100
AcDbLine
 10
15.10799999999999
 20
47.2209
 30
0.0
 11
16.0
 21
48.0
 31
0.0
  0
LINE
  5
71
330
1E
100
AcDbEntity
  8
0
100
AcDbLine
 10
14.8333
 20
47.0634643115347
 30
0.0
 11
14.8333
 21
32.0
 31
0.0
  0
LINE
  5
72
330
1E
100
AcDbEntity
  8
0
100
AcDbLine
 10
15.0944
 20
83.0
 30
0.0
 11
23.8995
 21
83.0
 31
0.0
  0
LINE
  5
73
330
1E
100
AcDbEntity
  8
0
100
AcDbLine
 10
14.53999999999999
 20
119.5
 30
0.0
 11
15.33999999999999
 21
119.5
 31
0.0
  0
LINE
  5
74
330
1E
100
AcDbEntity
  8
0
100
AcDbLine
 10
5.0
 20
123.6329999999999
 30
0.0
 11
5.0
 21
126.102
 31
0.0
  0
LINE
  5
75
330
1E
100
AcDbEntity
  8
0
100
AcDbLine
 10
5.0
 20
123.6329999999999
 30
0.0
 11
5.0
 21
121.0
 31
0.0
  0
LINE
  5
76
330
1E
100
AcDbEntity
  8
0
100
AcDbLine
 10
5.0
 20
128.282
 30
0.0
 11
5.0
 21
129.9279999999999
 31
0.0
  0
LINE
  5
77
330
1E
100
AcDbEntity
  8
0
100
AcDbLine
 10
5.0
 20
128.282
 30
0.0
 11
5.0
 21
126.102
 31
0.0
  0
LINE
  5
78
330
1E
100
AcDbEntity
  8
0
100
AcDbLine
 10
5.0
 20
126.102
 30
0.0
 11
5.0
 21
128.282
 31
0.0
  0
LINE
  5
79
330
1E
100
AcDbEntity
  8
0
100
AcDbLine
 10
5.0
 20
126.102
 30
0.0
 11
5.0
 21
123.6329999999999
 31
0.0
  0
LINE
  5
7A
330
1E
100
AcDbEntity
  8
0
100
AcDbLine
 10
5.0
 20
131.286
 30
0.0
 11
5.0
 21
130.915
 31
0.0
  0
LINE
  5
7B
330
1E
100
AcDbEntity
  8
0
100
AcDbLine
 10
5.0
 20
130.915
 30
0.0
 11
5.0
 21
131.286
 31
0.0
  0
LINE
  5
7C
330
1E
100
AcDbEntity
  8
0
100
AcDbLine
 10
5.0
 20
130.915
 30
0.0
 11
5.0
 21
129.9279999999999
 31
0.0
  0
LINE
  5
7D
330
1E
100
AcDbEntity
  8
0
100
AcDbLine
 10
5.0
 20
129.9279999999999
 30
0.0
 11
5.0
 21
130.915
 31
0.0
  0
LINE
  5
7E
330
1E
100
AcDbEntity
  8
0
100
AcDbLine
 10
5.0
 20
129.9279999999999
 30
0.0
 11
5.0
 21
128.282
 31
0.0
  0
LINE
  5
7F
330
1E
100
AcDbEntity
  8
0
100
AcDbLine
 10
5.0
 20
133.0
 30
0.0
 11
15.0
 21
133.0
 31
0.0
  0
LINE
  5
80
330
1E
100
AcDbEntity
  8
0
100
AcDbLine
 10
5.0
 20
133.0
 30
0.0
 11
5.0
 21
132.5679999999999
 31
0.0
  0
LINE
  5
81
330
1E
100
AcDbEntity
  8
0
100
AcDbLine
 10
5.0
 20
132.5679999999999
 30
0.0
 11
5.0
 21
133.0
 31
0.0
  0
LINE
  5
82
330
1E
100
AcDbEntity
  8
0
100
AcDbLine
 10
5.0
 20
132.5679999999999
 30
0.0
 11
5.0
 21
131.4159999999999
 31
0.0
  0
LINE
  5
83
330
1E
100
AcDbEntity
  8
0
100
AcDbLine
 10
5.0
 20
131.4159999999999
 30
0.0
 11
5.0
 21
132.5679999999999
 31
0.0
  0
LINE
  5
84
330
1E
100
AcDbEntity
  8
0
100
AcDbLine
 10
5.0
 20
131.4159999999999
 30
0.0
 11
5.0
 21
129.496
 31
0.0
  0
LINE
  5
85
330
1E
100
AcDbEntity
  8
0
100
AcDbLine
 10
5.0
 20
129.496
 30
0.0
 11
5.0
 21
131.4159999999999
 31
0.0
  0
LINE
  5
86
330
1E
100
AcDbEntity
  8
0
100
AcDbLine
 10
5.0
 20
129.496
 30
0.0
 11
5.0
 21
126.952
 31
0.0
  0
LINE
  5
87
330
1E
100
AcDbEntity
  8
0
100
AcDbLine
 10
5.0
 20
126.952
 30
0.0
 11
5.0
 21
129.496
 31
0.0
  0
LINE
  5
88
330
1E
100
AcDbEntity
  8
0
100
AcDbLine
 10
5.0
 20
126.952
 30
0.0
 11
5.0
 21
124.072
 31
0.0
  0
LINE
  5
89
330
1E
100
AcDbEntity
  8
0
100
AcDbLine
 10
5.0
 20
124.072
 30
0.0
 11
5.0
 21
126.952
 31
0.0
  0
LINE
  5
8A
330
1E
100
AcDbEntity
  8
0
100
AcDbLine
 10
5.0
 20
124.072
 30
0.0
 11
5.0
 21
121.0
 31
0.0
  0
LINE
  5
8B
330
1E
100
AcDbEntity
  8
0
100
AcDbLine
 10
8.0
 20
122.5
 30
0.0
 11
8.0
 21
123.0
 31
0.0
  0
LINE
  5
8C
330
1E
100
AcDbEntity
  8
0
100
AcDbLine
 10
14.0
 20
122.5
 30
0.0
 11
14.0
 21
123.0
 31
0.0
  0
LINE
  5
8D
330
1E
100
AcDbEntity
  8
0
100
AcDbLine
 10
6.0
 20
122.5
 30
0.0
 11
33.2109375
 21
122.5
 31
0.0
  0
LINE
  5
8E
330
1E
100
AcDbEntity
  8
0
100
AcDbLine
 10
6.0
 20
122.5
 30
0.0
 11
6.0
 21
119.5
 31
0.0
  0
LINE
  5
8F
330
1E
100
AcDbEntity
  8
0
100
AcDbLine
 10
6.0
 20
122.5
 30
0.0
 11
33.2109375
 21
122.5
 31
0.0
  0
LINE
  5
90
330
1E
100
AcDbEntity
  8
0
100
AcDbLine
 10
10.232
 20
123.0
 30
0.0
 11
11.0
 21
123.0
 31
0.0
  0
LINE
  5
91
330
1E
100
AcDbEntity
  8
0
100
AcDbLine
 10
9.512
 20
123.0
 30
0.0
 11
10.232
 21
123.0
 31
0.0
  0
LINE
  5
92
330
1E
100
AcDbEntity
  8
0
100
AcDbLine
 10
8.875999999999999
 20
123.0
 30
0.0
 11
9.512
 21
123.0
 31
0.0
  0
LINE
  5
93
330
1E
100
AcDbEntity
  8
0
100
AcDbLine
 10
8.396
 20
123.0
 30
0.0
 11
8.875999999999999
 21
123.0
 31
0.0
  0
LINE
  5
94
330
1E
100
AcDbEntity
  8
0
100
AcDbLine
 10
8.107999999999998
 20
123.0
 30
0.0
 11
8.396
 21
123.0
 31
0.0
  0
LINE
  5
95
330
1E
100
AcDbEntity
  8
0
100
AcDbLine
 10
11.0
 20
123.0
 30
0.0
 11
11.76799999999999
 21
123.0
 31
0.0
  0
LINE
  5
96
330
1E
100
AcDbEntity
  8
0
100
AcDbLine
 10
11.76799999999999
 20
123.0
 30
0.0
 11
12.488
 21
123.0
 31
0.0
  0
LINE
  5
97
330
1E
100
AcDbEntity
  8
0
100
AcDbLine
 10
12.488
 20
123.0
 30
0.0
 11
13.124
 21
123.0
 31
0.0
  0
LINE
  5
98
330
1E
100
AcDbEntity
  8
0
100
AcDbLine
 10
13.124
 20
123.0
 30
0.0
 11
13.604
 21
123.0
 31
0.0
  0
LINE
  5
99
330
1E
100
AcDbEntity
  8
0
100
AcDbLine
 10
14.0
 20
123.0
 30
0.0
 11
14.0
 21
122.5
 31
0.0
  0
LINE
  5
9A
330
1E
100
AcDbEntity
  8
0
100
AcDbLine
 10
13.604
 20
123.0
 30
0.0
 11
13.892
 21
123.0
 31
0.0
  0
LINE
  5
9B
330
1E
100
AcDbEntity
  8
0
100
AcDbLine
 10
13.892
 20
123.0
 30
0.0
 11
14.0
 21
123.0
 31
0.0
  0
LINE
  5
9C
330
1E
100
AcDbEntity
  8
0
100
AcDbLine
 10
8.0
 20
123.0
 30
0.0
 11
8.0
 21
122.5
 31
0.0
  0
LINE
  5
9D
330
1E
100
AcDbEntity
  8
0
100
AcDbLine
 10
8.0
 20
123.0
 30
0.0
 11
8.107999999999998
 21
123.0
 31
0.0
  0
LINE
  5
9F
330
1E
100
AcDbEntity
  8
0
100
AcDbLine
 10
15.0
 20
133.0
 30
0.0
 11
52.46712146752599
 21
133.0
 31
0.0
  0
LINE
  5
AB
330
1E
100
AcDbEntity
  8
0
100
AcDbLine
 10
5.0
 20
121.0
 30
0.0
 11
5.0
 21
117.928
 31
0.0
  0
LINE
  5
AC
330
1E
100
AcDbEntity
  8
0
100
AcDbLine
 10
5.0
 20
121.0
 30
0.0
 11
5.0
 21
124.072
 31
0.0
  0
LINE
  5
AD
330
1E
100
AcDbEntity
  8
0
100
AcDbLine
 10
5.0
 20
121.0
 30
0.0
 11
5.0
 21
123.6329999999999
 31
0.0
  0
LINE
  5
AE
330
1E
100
AcDbEntity
  8
0
100
AcDbLine
 10
5.0
 20
121.0
 30
0.0
 11
5.0
 21
117.928
 31
0.0
  0
LINE
  5
AF
330
1E
100
AcDbEntity
  8
0
100
AcDbLine
 10
5.0
 20
121.0
 30
0.0
 11
5.0
 21
118.367
 31
0.0
  0
LINE
  5
B0
330
1E
100
AcDbEntity
  8
0
100
AcDbLine
 10
15.33999999999999
 20
119.5
 30
0.0
 11
15.82
 21
119.5
 31
0.0
  0
LINE
  5
B1
330
1E
100
AcDbEntity
  8
0
100
AcDbLine
 10
15.8224
 20
48.0
 30
0.0
 11
16.0
 21
48.0
 31
0.0
  0
LINE
  5
B2
330
1E
100
AcDbEntity
  8
0
100
AcDbLine
 10
15.8804
 20
24.3059
 30
0.0
 11
18.8122
 21
17.10589999999999
 31
0.0
  0
LINE
  5
B3
330
1E
100
AcDbEntity
  8
0
100
AcDbLine
 10
23.5588
 20
10.82349999999999
 30
0.0
 11
29.7714
 21
6.02353
 31
0.0
  0
LINE
  5
B4
330
1E
100
AcDbEntity
  8
0
100
AcDbLine
 10
18.8122
 20
17.10589999999999
 30
0.0
 11
23.5588
 21
10.82349999999999
 31
0.0
  0
LINE
  5
B5
330
1E
100
AcDbEntity
  8
0
100
AcDbLine
 10
29.7714
 20
6.02353
 30
0.0
 11
36.8914
 21
3.058819999999999
 31
0.0
  0
LINE
  5
B6
330
1E
100
AcDbEntity
  8
0
100
AcDbLine
 10
31.2372
 20
48.0
 30
0.0
 11
37.51959999999999
 21
48.0
 31
0.0
  0
LINE
  5
B7
330
1E
100
AcDbEntity
  8
0
100
AcDbLine
 10
25.653
 20
48.0
 30
0.0
 11
31.2372
 21
48.0
 31
0.0
  0
LINE
  5
B8
330
1E
100
AcDbEntity
  8
0
100
AcDbLine
 10
20.7667
 20
48.0
 30
0.0
 11
25.653
 21
48.0
 31
0.0
  0
LINE
  5
B9
330
1E
100
AcDbEntity
  8
0
100
AcDbLine
 10
17.27649999999999
 20
48.0
 30
0.0
 11
20.7667
 21
48.0
 31
0.0
  0
LINE
  5
BA
330
1E
100
AcDbEntity
  8
0
100
AcDbLine
 10
16.0
 20
48.0
 30
0.0
 11
17.27649999999999
 21
48.0
 31
0.0
  0
LINE
  5
BB
330
1E
100
AcDbEntity
  8
0
100
AcDbLine
 10
33.108
 20
48.0
 30
0.0
 11
44.5
 21
48.0
 31
0.0
  0
LINE
  5
BC
330
1E
100
AcDbEntity
  8
0
100
AcDbLine
 10
22.428
 20
48.0
 30
0.0
 11
33.108
 21
48.0
 31
0.0
  0
LINE
  5
BD
330
1E
100
AcDbEntity
  8
0
100
AcDbLine
 10
36.8914
 20
3.058819999999999
 30
0.0
 11
37.5778
 21
2.963299924296189
 31
0.0
  0
LINE
  5
BE
330
1E
100
AcDbEntity
  8
0
100
AcDbLine
 10
37.9931
 20
0.0000000000000021
 30
0.0
 11
38.6576
 21
0.000000000000002
 31
0.0
  0
LINE
  5
BF
330
1E
100
AcDbEntity
  8
0
100
AcDbLine
 10
38.6576
 20
0.000000000000002
 30
0.0
 11
39.73749999999999
 21
0.0000000000000019
 31
0.0
  0
LINE
  5
C0
330
1E
100
AcDbEntity
  8
0
100
AcDbLine
 10
37.74389999999999
 20
0.0000000000000022
 30
0.0
 11
37.9931
 21
0.0000000000000023
 31
0.0
  0
LINE
  5
C1
330
1E
100
AcDbEntity
  8
0
100
AcDbLine
 10
37.74389999999999
 20
0.0000000000000022
 30
0.0
 11
37.9931
 21
0.0000000000000021
 31
0.0
  0
LINE
  5
C2
330
1E
100
AcDbEntity
  8
0
100
AcDbLine
 10
37.9931
 20
0.0000000000000023
 30
0.0
 11
38.6576
 21
0.0000000000000024
 31
0.0
  0
LINE
  5
C3
330
1E
100
AcDbEntity
  8
0
100
AcDbLine
 10
39.73749999999999
 20
0.0000000000000019
 30
0.0
 11
41.14959999999999
 21
0.0000000000000019
 31
0.0
  0
LINE
  5
C4
330
1E
100
AcDbEntity
  8
0
100
AcDbLine
 10
41.14959999999999
 20
0.0000000000000019
 30
0.0
 11
42.7556
 21
0.0000000000000018
 31
0.0
  0
LINE
  5
C5
330
1E
100
AcDbEntity
  8
0
100
AcDbLine
 10
38.6576
 20
0.0000000000000024
 30
0.0
 11
39.73749999999999
 21
0.0000000000000025
 31
0.0
  0
LINE
  5
C6
330
1E
100
AcDbEntity
  8
0
100
AcDbLine
 10
39.73749999999999
 20
0.0000000000000025
 30
0.0
 11
41.14959999999999
 21
0.0000000000000026
 31
0.0
  0
LINE
  5
C7
330
1E
100
AcDbEntity
  8
0
100
AcDbLine
 10
42.7556
 20
0.0000000000000018
 30
0.0
 11
44.5
 21
0.0000000000000018
 31
0.0
  0
LINE
  5
C8
330
1E
100
AcDbEntity
  8
0
100
AcDbLine
 10
44.5
 20
0.0000000000000018
 30
0.0
 11
46.24439999999999
 21
0.0000000000000018
 31
0.0
  0
LINE
  5
C9
330
1E
100
AcDbEntity
  8
0
100
AcDbLine
 10
41.14959999999999
 20
0.0000000000000026
 30
0.0
 11
42.7556
 21
0.0000000000000026
 31
0.0
  0
LINE
  5
CA
330
1E
100
AcDbEntity
  8
0
100
AcDbLine
 10
37.5778
 20
0.300000000000002
 30
0.0
 11
37.74389999999999
 21
0.0000000000000022
 31
0.0
  0
LINE
  5
CB
330
1E
100
AcDbEntity
  8
0
100
AcDbLine
 10
37.5778
 20
0.300000000000002
 30
0.0
 11
37.5778
 21
2.963299924296189
 31
0.0
  0
LINE
  5
CC
330
1E
100
AcDbEntity
  8
0
100
AcDbLine
 10
37.5778
 20
0.300000000000002
 30
0.0
 11
37.74389999999999
 21
0.0000000000000022
 31
0.0
  0
LINE
  5
CD
330
1E
100
AcDbEntity
  8
0
100
AcDbLine
 10
42.7556
 20
0.0000000000000026
 30
0.0
 11
44.5
 21
0.0000000000000026
 31
0.0
  0
LINE
  5
CE
330
1E
100
AcDbEntity
  8
0
100
AcDbLine
 10
47.8504
 20
0.0000000000000019
 30
0.0
 11
49.2625
 21
0.0000000000000019
 31
0.0
  0
LINE
  5
CF
330
1E
100
AcDbEntity
  8
0
100
AcDbLine
 10
46.24439999999999
 20
0.0000000000000018
 30
0.0
 11
47.8504
 21
0.0000000000000019
 31
0.0
  0
LINE
  5
D0
330
1E
100
AcDbEntity
  8
0
100
AcDbLine
 10
50.3424
 20
0.000000000000002
 30
0.0
 11
51.0069
 21
0.0000000000000021
 31
0.0
  0
LINE
  5
D1
330
1E
100
AcDbEntity
  8
0
100
AcDbLine
 10
49.2625
 20
0.0000000000000019
 30
0.0
 11
50.3424
 21
0.000000000000002
 31
0.0
  0
LINE
  5
D2
330
1E
100
AcDbEntity
  8
0
100
AcDbLine
 10
51.2561
 20
0.0000000000000022
 30
0.0
 11
51.4222
 21
0.300000000000002
 31
0.0
  0
LINE
  5
D3
330
1E
100
AcDbEntity
  8
0
100
AcDbLine
 10
51.0069
 20
0.0000000000000021
 30
0.0
 11
51.2561
 21
0.0000000000000022
 31
0.0
  0
LINE
  5
D4
330
1E
100
AcDbEntity
  8
0
100
AcDbLine
 10
51.0069
 20
0.0000000000000023
 30
0.0
 11
51.2561
 21
0.0000000000000022
 31
0.0
  0
LINE
  5
D5
330
1E
100
AcDbEntity
  8
0
100
AcDbLine
 10
51.2561
 20
0.0000000000000022
 30
0.0
 11
51.4222
 21
0.300000000000002
 31
0.0
  0
LINE
  5
D6
330
1E
100
AcDbEntity
  8
0
100
AcDbLine
 10
50.3424
 20
0.0000000000000024
 30
0.0
 11
51.0069
 21
0.0000000000000023
 31
0.0
  0
LINE
  5
D7
330
1E
100
AcDbEntity
  8
0
100
AcDbLine
 10
49.2625
 20
0.0000000000000025
 30
0.0
 11
50.3424
 21
0.0000000000000024
 31
0.0
  0
LINE
  5
D8
330
1E
100
AcDbEntity
  8
0
100
AcDbLine
 10
47.8504
 20
0.0000000000000026
 30
0.0
 11
49.2625
 21
0.0000000000000025
 31
0.0
  0
LINE
  5
D9
330
1E
100
AcDbEntity
  8
0
100
AcDbLine
 10
46.24439999999999
 20
0.0000000000000026
 30
0.0
 11
47.8504
 21
0.0000000000000026
 31
0.0
  0
LINE
  5
DA
330
1E
100
AcDbEntity
  8
0
100
AcDbLine
 10
44.5
 20
0.0000000000000026
 30
0.0
 11
46.24439999999999
 21
0.0000000000000026
 31
0.0
  0
LINE
  5
DB
330
1E
100
AcDbEntity
  8
0
100
AcDbLine
 10
37.5778
 20
2.963299924296189
 30
0.0
 11
37.5778
 21
0.300000000000002
 31
0.0
  0
LINE
  5
DC
330
1E
100
AcDbEntity
  8
0
100
AcDbLine
 10
51.4222
 20
0.300000000000002
 30
0.0
 11
51.4222
 21
2.963299924296189
 31
0.0
  0
LINE
  5
DD
330
1E
100
AcDbEntity
  8
0
100
AcDbLine
 10
51.4222
 20
2.963299924296189
 30
0.0
 11
52.1086
 21
3.058819999999999
 31
0.0
  0
LINE
  5
DE
330
1E
100
AcDbEntity
  8
0
100
AcDbLine
 10
51.4222
 20
2.963299924296189
 30
0.0
 11
51.4222
 21
0.300000000000002
 31
0.0
  0
LINE
  5
DF
330
1E
100
AcDbEntity
  8
0
100
AcDbLine
 10
52.1086
 20
3.058819999999999
 30
0.0
 11
59.2286
 21
6.02353
 31
0.0
  0
LINE
  5
E0
330
1E
100
AcDbEntity
  8
0
100
AcDbLine
 10
51.4804
 20
48.0
 30
0.0
 11
57.76279999999999
 21
48.0
 31
0.0
  0
LINE
  5
E1
330
1E
100
AcDbEntity
  8
0
100
AcDbLine
 10
37.51959999999999
 20
48.0
 30
0.0
 11
44.5
 21
48.0
 31
0.0
  0
LINE
  5
E2
330
1E
100
AcDbEntity
  8
0
100
AcDbLine
 10
44.5
 20
48.0
 30
0.0
 11
55.89199999999999
 21
48.0
 31
0.0
  0
LINE
  5
E3
330
1E
100
AcDbEntity
  8
0
100
AcDbLine
 10
44.5
 20
48.0
 30
0.0
 11
51.4804
 21
48.0
 31
0.0
  0
LINE
  5
E4
330
1E
100
AcDbEntity
  8
0
100
AcDbLine
 10
55.89199999999999
 20
48.0
 30
0.0
 11
66.572
 21
48.0
 31
0.0
  0
LINE
  5
E5
330
1E
100
AcDbEntity
  8
0
100
AcDbLine
 10
44.5
 20
52.0
 30
0.0
 11
55.89199999999999
 21
52.0
 31
0.0
  0
LINE
  5
E6
330
1E
100
AcDbEntity
  8
0
100
AcDbLine
 10
59.2286
 20
6.02353
 30
0.0
 11
65.44119999999999
 21
10.82349999999999
 31
0.0
  0
LINE
  5
E7
330
1E
100
AcDbEntity
  8
0
100
AcDbLine
 10
65.44119999999999
 20
10.82349999999999
 30
0.0
 11
70.1879
 21
17.10589999999999
 31
0.0
  0
LINE
  5
E8
330
1E
100
AcDbEntity
  8
0
100
AcDbLine
 10
57.76279999999999
 20
48.0
 30
0.0
 11
63.347
 21
48.0
 31
0.0
  0
LINE
  5
E9
330
1E
100
AcDbEntity
  8
0
100
AcDbLine
 10
63.347
 20
48.0
 30
0.0
 11
68.2333
 21
48.0
 31
0.0
  0
LINE
  5
EA
330
1E
100
AcDbEntity
  8
0
100
AcDbLine
 10
70.1879
 20
17.10589999999999
 30
0.0
 11
73.1196
 21
24.3059
 31
0.0
  0
LINE
  5
EB
330
1E
100
AcDbEntity
  8
0
100
AcDbLine
 10
68.2333
 20
48.0
 30
0.0
 11
71.7235
 21
48.0
 31
0.0
  0
LINE
  5
EC
330
1E
100
AcDbEntity
  8
0
100
AcDbLine
 10
71.7235
 20
48.0
 30
0.0
 11
73.81759999999999
 21
48.0
 31
0.0
  0
LINE
  5
ED
330
1E
100
AcDbEntity
  8
0
100
AcDbLine
 10
73.1196
 20
24.3059
 30
0.0
 11
74.1667
 21
32.0
 31
0.0
  0
LINE
  5
F0
330
1E
100
AcDbEntity
  8
0
100
AcDbLine
 10
73.81759999999999
 20
48.0
 30
0.0
 11
74.0
 21
48.0
 31
0.0
  0
LINE
  5
F1
330
1E
100
AcDbEntity
  8
0
100
AcDbLine
 10
74.0
 20
48.0
 30
0.0
 11
74.892
 21
47.2209
 31
0.0
  0
LINE
  5
F2
330
1E
100
AcDbEntity
  8
0
100
AcDbLine
 10
74.0
 20
48.0
 30
0.0
 11
74.1776
 21
48.0
 31
0.0
  0
LINE
  5
F5
330
1E
100
AcDbEntity
  8
0
100
AcDbLine
 10
66.572
 20
48.0
 30
0.0
 11
76.006
 21
48.0
 31
0.0
  0
LINE
  5
F6
330
1E
100
AcDbEntity
  8
0
100
AcDbLine
 10
55.89199999999999
 20
52.0
 30
0.0
 11
66.572
 21
52.0
 31
0.0
  0
LINE
  5
F7
330
1E
100
AcDbEntity
  8
0
100
AcDbLine
 10
66.572
 20
52.0
 30
0.0
 11
76.006
 21
52.0
 31
0.0
  0
LINE
  5
F8
330
1E
100
AcDbEntity
  8
0
100
AcDbLine
 10
33.108
 20
52.0
 30
0.0
 11
44.5
 21
52.0
 31
0.0
  0
LINE
  5
F9
330
1E
100
AcDbEntity
  8
0
100
AcDbLine
 10
73.9056
 20
83.0
 30
0.0
 11
80.55089999999999
 21
83.0
 31
0.0
  0
LINE
  5
FA
330
1E
100
AcDbEntity
  8
0
100
AcDbLine
 10
22.428
 20
52.0
 30
0.0
 11
33.108
 21
52.0
 31
0.0
  0
LINE
  5
FB
330
1E
100
AcDbEntity
  8
0
100
AcDbLine
 10
74.1667
 20
47.85439913677129
 30
0.0
 11
74.1667
 21
32.0
 31
0.0
  0
LINE
  5
FC
330
1E
100
AcDbEntity
  8
0
100
AcDbLine
 10
75.4696
 20
48.0
 30
0.0
 11
76.51519999999999
 21
48.0
 31
0.0
  0
LINE
  5
FD
330
1E
100
AcDbEntity
  8
0
100
AcDbLine
 10
74.6752
 20
48.0
 30
0.0
 11
75.4696
 21
48.0
 31
0.0
  0
LINE
  5
FE
330
1E
100
AcDbEntity
  8
0
100
AcDbLine
 10
74.1776
 20
48.0
 30
0.0
 11
74.6752
 21
48.0
 31
0.0
  0
LINE
  5
FF
330
1E
100
AcDbEntity
  8
0
100
AcDbLine
 10
74.892
 20
47.2209
 30
0.0
 11
76.1092
 21
46.5233
 31
0.0
  0
LINE
  5
100
330
1E
100
AcDbEntity
  8
0
100
AcDbLine
 10
79.0
 20
48.0
 30
0.0
 11
80.27919999999999
 21
48.0
 31
0.0
  0
LINE
  5
101
330
1E
100
AcDbEntity
  8
0
100
AcDbLine
 10
80.27919999999999
 20
48.0
 30
0.0
 11
81.48480000000001
 21
48.0
 31
0.0
  0
LINE
  5
102
330
1E
100
AcDbEntity
  8
0
100
AcDbLine
 10
77.72079999999999
 20
48.0
 30
0.0
 11
79.0
 21
48.0
 31
0.0
  0
LINE
  5
103
330
1E
100
AcDbEntity
  8
0
100
AcDbLine
 10
76.51519999999999
 20
48.0
 30
0.0
 11
77.72079999999999
 21
48.0
 31
0.0
  0
LINE
  5
104
330
1E
100
AcDbEntity
  8
0
100
AcDbLine
 10
76.1092
 20
46.5233
 30
0.0
 11
77.47849999999999
 21
46.1163
 31
0.0
  0
LINE
  5
105
330
1E
100
AcDbEntity
  8
0
100
AcDbLine
 10
77.47849999999999
 20
46.1163
 30
0.0
 11
79.0
 21
46.0
 31
0.0
  0
LINE
  5
106
330
1E
100
AcDbEntity
  8
0
100
AcDbLine
 10
81.48480000000001
 20
48.0
 30
0.0
 11
82.5304
 21
48.0
 31
0.0
  0
LINE
  5
107
330
1E
100
AcDbEntity
  8
0
100
AcDbLine
 10
82.5304
 20
48.0
 30
0.0
 11
83.3248
 21
48.0
 31
0.0
  0
LINE
  5
108
330
1E
100
AcDbEntity
  8
0
100
AcDbLine
 10
83.10799999999998
 20
47.2209
 30
0.0
 11
84.0
 21
48.0
 31
0.0
  0
LINE
  5
109
330
1E
100
AcDbEntity
  8
0
100
AcDbLine
 10
81.8908
 20
46.5233
 30
0.0
 11
83.10799999999998
 21
47.2209
 31
0.0
  0
LINE
  5
10A
330
1E
100
AcDbEntity
  8
0
100
AcDbLine
 10
80.52150000000001
 20
46.1163
 30
0.0
 11
81.8908
 21
46.5233
 31
0.0
  0
LINE
  5
10B
330
1E
100
AcDbEntity
  8
0
100
AcDbLine
 10
79.0
 20
46.0
 30
0.0
 11
80.52150000000001
 21
46.1163
 31
0.0
  0
LINE
  5
10C
330
1E
100
AcDbEntity
  8
0
100
AcDbLine
 10
74.1667
 20
32.0
 30
0.0
 11
74.1667
 21
47.85439913677129
 31
0.0
  0
LINE
  5
10D
330
1E
100
AcDbEntity
  8
0
100
AcDbLine
 10
76.006
 20
48.0
 30
0.0
 11
83.12600000000001
 21
48.0
 31
0.0
  0
LINE
  5
10E
330
1E
100
AcDbEntity
  8
0
100
AcDbLine
 10
83.12600000000001
 20
48.0
 30
0.0
 11
87.398
 21
48.0
 31
0.0
  0
LINE
  5
10F
330
1E
100
AcDbEntity
  8
0
100
AcDbLine
 10
76.006
 20
52.0
 30
0.0
 11
83.12600000000001
 21
52.0
 31
0.0
  0
LINE
  5
110
330
1E
100
AcDbEntity
  8
0
100
AcDbLine
 10
84.0
 20
48.0
 30
0.0
 11
84.4313
 21
48.0
 31
0.0
  0
LINE
  5
111
330
1E
100
AcDbEntity
  8
0
100
AcDbLine
 10
83.3248
 20
48.0
 30
0.0
 11
83.82240000000001
 21
48.0
 31
0.0
  0
LINE
  5
112
330
1E
100
AcDbEntity
  8
0
100
AcDbLine
 10
83.82240000000001
 20
48.0
 30
0.0
 11
84.0
 21
48.0
 31
0.0
  0
LINE
  5
113
330
1E
100
AcDbEntity
  8
0
100
AcDbLine
 10
84.4313
 20
48.0
 30
0.0
 11
87.75399999999999
 21
48.0
 31
0.0
  0
LINE
  5
114
330
1E
100
AcDbEntity
  8
0
100
AcDbLine
 10
87.75399999999999
 20
48.0
 30
0.0
 11
89.0
 21
48.0
 31
0.0
  0
LINE
  5
115
330
1E
100
AcDbEntity
  8
0
100
AcDbLine
 10
87.398
 20
48.0
 30
0.0
 11
89.0
 21
48.0
 31
0.0
  0
LINE
  5
116
330
1E
100
AcDbEntity
  8
0
100
AcDbLine
 10
89.0
 20
52.0
 30
0.0
 11
89.0
 21
48.0
 31
0.0
  0
LINE
  5
117
330
1E
100
AcDbEntity
  8
0
100
AcDbLine
 10
89.0
 20
48.0
 30
0.0
 11
89.0
 21
52.0
 31
0.0
  0
LINE
  5
118
330
1E
100
AcDbEntity
  8
0
100
AcDbLine
 10
83.12600000000001
 20
52.0
 30
0.0
 11
87.398
 21
52.0
 31
0.0
  0
LINE
  5
119
330
1E
100
AcDbEntity
  8
0
100
AcDbLine
 10
80.55089999999999
 20
83.0
 30
0.0
 11
84.5381
 21
83.0
 31
0.0
  0
LINE
  5
11A
330
1E
100
AcDbEntity
  8
0
100
AcDbLine
 10
84.5381
 20
83.0
 30
0.0
 11
86.03329999999999
 21
83.0
 31
0.0
  0
LINE
  5
11B
330
1E
100
AcDbEntity
  8
0
100
AcDbLine
 10
87.398
 20
52.0
 30
0.0
 11
89.0
 21
52.0
 31
0.0
  0
LINE
  5
11D
330
1E
100
AcDbEntity
  8
0
100
AcDbLine
 10
33.0
 20
83.0
 30
0.0
 11
33.0
 21
121.0
 31
0.0
  0
LINE
  5
11E
330
1E
100
AcDbEntity
  8
0
100
AcDbLine
 10
33.0
 20
83.0
 30
0.0
 11
33.0
 21
95.0
 31
0.0
  0
LINE
  5
120
330
1E
100
AcDbEntity
  8
0
100
AcDbLine
 10
44.5
 20
83.0
 30
0.0
 11
55.1325
 21
83.0
 31
0.0
  0
LINE
  5
121
330
1E
100
AcDbEntity
  8
0
100
AcDbLine
 10
57.0
 20
83.0
 30
0.0
 11
57.0
 21
121.0
 31
0.0
  0
LINE
  5
123
330
1E
100
AcDbEntity
  8
0
100
AcDbLine
 10
55.1325
 20
83.0
 30
0.0
 11
65.10049999999999
 21
83.0
 31
0.0
  0
LINE
  5
124
330
1E
100
AcDbEntity
  8
0
100
AcDbLine
 10
65.10049999999999
 20
83.0
 30
0.0
 11
73.9056
 21
83.0
 31
0.0
  0
LINE
  5
125
330
1E
100
AcDbEntity
  8
0
100
AcDbLine
 10
33.8675
 20
83.0
 30
0.0
 11
44.5
 21
83.0
 31
0.0
  0
LINE
  5
12C
330
1E
100
AcDbEntity
  8
0
100
AcDbLine
 10
33.0
 20
121.0
 30
0.0
 11
33.43199999999999
 21
124.072
 31
0.0
  0
LINE
  5
12D
330
1E
100
AcDbEntity
  8
0
100
AcDbLine
 10
33.0
 20
121.0
 30
0.0
 11
33.43199999999999
 21
117.928
 31
0.0
  0
LINE
  5
12E
330
1E
100
AcDbEntity
  8
0
100
AcDbLine
 10
33.43199999999999
 20
117.928
 30
0.0
 11
34.584
 21
115.0479999999999
 31
0.0
  0
LINE
  5
12F
330
1E
100
AcDbEntity
  8
0
100
AcDbLine
 10
34.584
 20
115.0479999999999
 30
0.0
 11
36.50399999999999
 21
112.504
 31
0.0
  0
LINE
  5
130
330
1E
100
AcDbEntity
  8
0
100
AcDbLine
 10
34.7143
 20
121.0
 30
0.0
 11
35.0846
 21
123.6329999999999
 31
0.0
  0
LINE
  5
131
330
1E
100
AcDbEntity
  8
0
100
AcDbLine
 10
36.07199999999999
 20
115.8979999999999
 30
0.0
 11
37.7177
 21
113.7179999999999
 31
0.0
  0
LINE
  5
132
330
1E
100
AcDbEntity
  8
0
100
AcDbLine
 10
35.0846
 20
118.367
 30
0.0
 11
36.07199999999999
 21
115.8979999999999
 31
0.0
  0
LINE
  5
133
330
1E
100
AcDbEntity
  8
0
100
AcDbLine
 10
57.0
 20
95.0
 30
0.0
 11
57.0
 21
83.0
 31
0.0
  0
LINE
  5
134
330
1E
100
AcDbEntity
  8
0
100
AcDbLine
 10
45.0
 20
109.0
 30
0.0
 11
48.07199999999999
 21
109.4319999999999
 31
0.0
  0
LINE
  5
135
330
1E
100
AcDbEntity
  8
0
100
AcDbLine
 10
50.952
 20
110.584
 30
0.0
 11
53.496
 21
112.504
 31
0.0
  0
LINE
  5
136
330
1E
100
AcDbEntity
  8
0
100
AcDbLine
 10
48.07199999999999
 20
109.4319999999999
 30
0.0
 11
50.952
 21
110.584
 31
0.0
  0
LINE
  5
13B
330
1E
100
AcDbEntity
  8
0
100
AcDbLine
 10
41.928
 20
109.4319999999999
 30
0.0
 11
45.0
 21
109.0
 31
0.0
  0
LINE
  5
13C
330
1E
100
AcDbEntity
  8
0
100
AcDbLine
 10
45.0
 20
110.714
 30
0.0
 11
47.63309999999999
 21
111.0849999999999
 31
0.0
  0
LINE
  5
13D
330
1E
100
AcDbEntity
  8
0
100
AcDbLine
 10
47.63309999999999
 20
111.0849999999999
 30
0.0
 11
50.1017
 21
112.072
 31
0.0
  0
LINE
  5
13E
330
1E
100
AcDbEntity
  8
0
100
AcDbLine
 10
50.1017
 20
112.072
 30
0.0
 11
52.28229999999999
 21
113.7179999999999
 31
0.0
  0
LINE
  5
13F
330
1E
100
AcDbEntity
  8
0
100
AcDbLine
 10
42.3669
 20
111.0849999999999
 30
0.0
 11
45.0
 21
110.714
 31
0.0
  0
LINE
  5
140
330
1E
100
AcDbEntity
  8
0
100
AcDbLine
 10
52.28229999999999
 20
113.7179999999999
 30
0.0
 11
53.92800000000001
 21
115.8979999999999
 31
0.0
  0
LINE
  5
141
330
1E
100
AcDbEntity
  8
0
100
AcDbLine
 10
53.92800000000001
 20
115.8979999999999
 30
0.0
 11
54.9154
 21
118.367
 31
0.0
  0
LINE
  5
142
330
1E
100
AcDbEntity
  8
0
100
AcDbLine
 10
54.9154
 20
118.367
 30
0.0
 11
55.2857
 21
121.0
 31
0.0
  0
LINE
  5
143
330
1E
100
AcDbEntity
  8
0
100
AcDbLine
 10
55.416
 20
115.0479999999999
 30
0.0
 11
56.568
 21
117.928
 31
0.0
  0
LINE
  5
144
330
1E
100
AcDbEntity
  8
0
100
AcDbLine
 10
58.2932310692233
 20
119.5
 30
0.0
 11
84.0
 21
119.5
 31
0.0
  0
LINE
  5
145
330
1E
100
AcDbEntity
  8
0
100
AcDbLine
 10
56.568
 20
117.928
 30
0.0
 11
57.0
 21
121.0
 31
0.0
  0
LINE
  5
146
330
1E
100
AcDbEntity
  8
0
100
AcDbLine
 10
56.568
 20
117.928
 30
0.0
 11
57.0
 21
121.0
 31
0.0
  0
LINE
  5
147
330
1E
100
AcDbEntity
  8
0
100
AcDbLine
 10
56.7890625
 20
122.5
 30
0.0
 11
84.0
 21
122.5
 31
0.0
  0
LINE
  5
148
330
1E
100
AcDbEntity
  8
0
100
AcDbLine
 10
54.9154
 20
123.6329999999999
 30
0.0
 11
55.2857
 21
121.0
 31
0.0
  0
LINE
  5
149
330
1E
100
AcDbEntity
  8
0
100
AcDbLine
 10
54.9154
 20
123.6329999999999
 30
0.0
 11
55.2857
 21
121.0
 31
0.0
  0
LINE
  5
14A
330
1E
100
AcDbEntity
  8
0
100
AcDbLine
 10
57.0
 20
121.0
 30
0.0
 11
57.0
 21
83.0
 31
0.0
  0
LINE
  5
14B
330
1E
100
AcDbEntity
  8
0
100
AcDbLine
 10
53.496
 20
112.504
 30
0.0
 11
55.416
 21
115.0479999999999
 31
0.0
  0
LINE
  5
14C
330
1E
100
AcDbEntity
  8
0
100
AcDbLine
 10
39.89829999999999
 20
112.072
 30
0.0
 11
42.3669
 21
111.0849999999999
 31
0.0
  0
LINE
  5
14D
330
1E
100
AcDbEntity
  8
0
100
AcDbLine
 10
37.7177
 20
113.7179999999999
 30
0.0
 11
39.89829999999999
 21
112.072
 31
0.0
  0
LINE
  5
14E
330
1E
100
AcDbEntity
  8
0
100
AcDbLine
 10
39.048
 20
110.584
 30
0.0
 11
41.928
 21
109.4319999999999
 31
0.0
  0
LINE
  5
14F
330
1E
100
AcDbEntity
  8
0
100
AcDbLine
 10
36.50399999999999
 20
112.504
 30
0.0
 11
39.048
 21
110.584
 31
0.0
  0
LINE
  5
150
330
1E
100
AcDbEntity
  8
0
100
AcDbLine
 10
56.568
 20
124.072
 30
0.0
 11
57.0
 21
121.0
 31
0.0
  0
LINE
  5
151
330
1E
100
AcDbEntity
  8
0
100
AcDbLine
 10
35.0846
 20
123.6329999999999
 30
0.0
 11
36.07199999999999
 21
126.102
 31
0.0
  0
LINE
  5
152
330
1E
100
AcDbEntity
  8
0
100
AcDbLine
 10
34.7143
 20
121.0
 30
0.0
 11
35.0846
 21
123.6329999999999
 31
0.0
  0
LINE
  5
153
330
1E
100
AcDbEntity
  8
0
100
AcDbLine
 10
34.7143
 20
121.0
 30
0.0
 11
35.0846
 21
118.367
 31
0.0
  0
LINE
  5
154
330
1E
100
AcDbEntity
  8
0
100
AcDbLine
 10
36.07199999999999
 20
126.102
 30
0.0
 11
37.7177
 21
128.282
 31
0.0
  0
LINE
  5
155
330
1E
100
AcDbEntity
  8
0
100
AcDbLine
 10
52.28229999999999
 20
128.282
 30
0.0
 11
53.92800000000001
 21
126.102
 31
0.0
  0
LINE
  5
156
330
1E
100
AcDbEntity
  8
0
100
AcDbLine
 10
53.92800000000001
 20
126.102
 30
0.0
 11
54.9154
 21
123.6329999999999
 31
0.0
  0
LINE
  5
157
330
1E
100
AcDbEntity
  8
0
100
AcDbLine
 10
55.416
 20
126.952
 30
0.0
 11
56.568
 21
124.072
 31
0.0
  0
LINE
  5
158
330
1E
100
AcDbEntity
  8
0
100
AcDbLine
 10
47.63309999999999
 20
130.915
 30
0.0
 11
50.1017
 21
129.9279999999999
 31
0.0
  0
LINE
  5
159
330
1E
100
AcDbEntity
  8
0
100
AcDbLine
 10
50.1017
 20
129.9279999999999
 30
0.0
 11
52.28229999999999
 21
128.282
 31
0.0
  0
LINE
  5
15A
330
1E
100
AcDbEntity
  8
0
100
AcDbLine
 10
53.496
 20
129.496
 30
0.0
 11
55.416
 21
126.952
 31
0.0
  0
LINE
  5
15B
330
1E
100
AcDbEntity
  8
0
100
AcDbLine
 10
45.0
 20
131.286
 30
0.0
 11
47.63309999999999
 21
130.915
 31
0.0
  0
LINE
  5
15C
330
1E
100
AcDbEntity
  8
0
100
AcDbLine
 10
50.952
 20
131.4159999999999
 30
0.0
 11
53.496
 21
129.496
 31
0.0
  0
LINE
  5
15D
330
1E
100
AcDbEntity
  8
0
100
AcDbLine
 10
42.3669
 20
130.915
 30
0.0
 11
45.0
 21
131.286
 31
0.0
  0
LINE
  5
15E
330
1E
100
AcDbEntity
  8
0
100
AcDbLine
 10
39.89829999999999
 20
129.9279999999999
 30
0.0
 11
42.3669
 21
130.915
 31
0.0
  0
LINE
  5
15F
330
1E
100
AcDbEntity
  8
0
100
AcDbLine
 10
37.7177
 20
128.282
 30
0.0
 11
39.89829999999999
 21
129.9279999999999
 31
0.0
  0
LINE
  5
160
330
1E
100
AcDbEntity
  8
0
100
AcDbLine
 10
36.50399999999999
 20
129.496
 30
0.0
 11
39.048
 21
131.4159999999999
 31
0.0
  0
LINE
  5
161
330
1E
100
AcDbEntity
  8
0
100
AcDbLine
 10
45.0
 20
133.0
 30
0.0
 11
48.07199999999999
 21
132.5679999999999
 31
0.0
  0
LINE
  5
162
330
1E
100
AcDbEntity
  8
0
100
AcDbLine
 10
48.07199999999999
 20
132.5679999999999
 30
0.0
 11
50.952
 21
131.4159999999999
 31
0.0
  0
LINE
  5
163
330
1E
100
AcDbEntity
  8
0
100
AcDbLine
 10
52.46712146752599
 20
133.0
 30
0.0
 11
75.0
 21
133.0
 31
0.0
  0
LINE
  5
164
330
1E
100
AcDbEntity
  8
0
100
AcDbLine
 10
41.928
 20
132.5679999999999
 30
0.0
 11
45.0
 21
133.0
 31
0.0
  0
LINE
  5
165
330
1E
100
AcDbEntity
  8
0
100
AcDbLine
 10
39.048
 20
131.4159999999999
 30
0.0
 11
41.928
 21
132.5679999999999
 31
0.0
  0
LINE
  5
166
330
1E
100
AcDbEntity
  8
0
100
AcDbLine
 10
34.584
 20
126.952
 30
0.0
 11
36.50399999999999
 21
129.496
 31
0.0
  0
LINE
  5
167
330
1E
100
AcDbEntity
  8
0
100
AcDbLine
 10
33.43199999999999
 20
124.072
 30
0.0
 11
34.584
 21
126.952
 31
0.0
  0
LINE
  5
168
330
1E
100
AcDbEntity
  8
0
100
AcDbLine
 10
33.0
 20
121.0
 30
0.0
 11
33.43199999999999
 21
124.072
 31
0.0
  0
LINE
  5
169
330
1E
100
AcDbEntity
  8
0
100
AcDbLine
 10
33.0
 20
121.0
 30
0.0
 11
33.43199999999999
 21
117.928
 31
0.0
  0
LINE
  5
16A
330
1E
100
AcDbEntity
  8
0
100
AcDbLine
 10
33.0
 20
121.0
 30
0.0
 11
33.0
 21
83.0
 31
0.0
  0
LINE
  5
16B
330
1E
100
AcDbEntity
  8
0
100
AcDbLine
 10
49.352
 20
137.3879999999999
 30
0.0
 11
53.43199999999999
 21
135.756
 31
0.0
  0
LINE
  5
16C
330
1E
100
AcDbEntity
  8
0
100
AcDbLine
 10
53.43199999999999
 20
135.756
 30
0.0
 11
57.036
 21
133.0359999999999
 31
0.0
  0
LINE
  5
16D
330
1E
100
AcDbEntity
  8
0
100
AcDbLine
 10
45.0
 20
138.0
 30
0.0
 11
49.352
 21
137.3879999999999
 31
0.0
  0
LINE
  5
16E
330
1E
100
AcDbEntity
  8
0
100
AcDbLine
 10
40.648
 20
137.3879999999999
 30
0.0
 11
45.0
 21
138.0
 31
0.0
  0
LINE
  5
16F
330
1E
100
AcDbEntity
  8
0
100
AcDbLine
 10
36.568
 20
135.756
 30
0.0
 11
40.648
 21
137.3879999999999
 31
0.0
  0
LINE
  5
170
330
1E
100
AcDbEntity
  8
0
100
AcDbLine
 10
32.964
 20
133.0359999999999
 30
0.0
 11
36.568
 21
135.756
 31
0.0
  0
LINE
  5
171
330
1E
100
AcDbEntity
  8
0
100
AcDbLine
 10
23.8995
 20
83.0
 30
0.0
 11
33.8675
 21
83.0
 31
0.0
  0
LINE
  5
172
330
1E
100
AcDbEntity
  8
0
100
AcDbLine
 10
79.0
 20
119.5
 30
0.0
 11
80.28
 21
119.5
 31
0.0
  0
LINE
  5
173
330
1E
100
AcDbEntity
  8
0
100
AcDbLine
 10
80.28
 20
119.5
 30
0.0
 11
81.48000000000001
 21
119.5
 31
0.0
  0
LINE
  5
174
330
1E
100
AcDbEntity
  8
0
100
AcDbLine
 10
81.48000000000001
 20
119.5
 30
0.0
 11
82.54000000000001
 21
119.5
 31
0.0
  0
LINE
  5
175
330
1E
100
AcDbEntity
  8
0
100
AcDbLine
 10
82.54000000000001
 20
119.5
 30
0.0
 11
83.34000000000001
 21
119.5
 31
0.0
  0
LINE
  5
176
330
1E
100
AcDbEntity
  8
0
100
AcDbLine
 10
83.34000000000001
 20
119.5
 30
0.0
 11
83.81999999999999
 21
119.5
 31
0.0
  0
LINE
  5
177
330
1E
100
AcDbEntity
  8
0
100
AcDbLine
 10
85.0
 20
109.0
 30
0.0
 11
85.0
 21
109.4319999999999
 31
0.0
  0
LINE
  5
178
330
1E
100
AcDbEntity
  8
0
100
AcDbLine
 10
85.0
 20
109.4319999999999
 30
0.0
 11
85.0
 21
110.584
 31
0.0
  0
LINE
  5
179
330
1E
100
AcDbEntity
  8
0
100
AcDbLine
 10
85.0
 20
109.4319999999999
 30
0.0
 11
85.0
 21
109.0
 31
0.0
  0
LINE
  5
17A
330
1E
100
AcDbEntity
  8
0
100
AcDbLine
 10
85.0
 20
110.584
 30
0.0
 11
85.0
 21
112.504
 31
0.0
  0
LINE
  5
17B
330
1E
100
AcDbEntity
  8
0
100
AcDbLine
 10
85.0
 20
110.584
 30
0.0
 11
85.0
 21
109.4319999999999
 31
0.0
  0
LINE
  5
17C
330
1E
100
AcDbEntity
  8
0
100
AcDbLine
 10
85.0
 20
112.504
 30
0.0
 11
85.0
 21
115.0479999999999
 31
0.0
  0
LINE
  5
17D
330
1E
100
AcDbEntity
  8
0
100
AcDbLine
 10
85.0
 20
112.504
 30
0.0
 11
85.0
 21
110.584
 31
0.0
  0
LINE
  5
17E
330
1E
100
AcDbEntity
  8
0
100
AcDbLine
 10
85.0
 20
115.0479999999999
 30
0.0
 11
85.0
 21
117.928
 31
0.0
  0
LINE
  5
17F
330
1E
100
AcDbEntity
  8
0
100
AcDbLine
 10
85.0
 20
115.0479999999999
 30
0.0
 11
85.0
 21
112.504
 31
0.0
  0
LINE
  5
180
330
1E
100
AcDbEntity
  8
0
100
AcDbLine
 10
85.0
 20
117.928
 30
0.0
 11
85.0
 21
121.0
 31
0.0
  0
LINE
  5
181
330
1E
100
AcDbEntity
  8
0
100
AcDbLine
 10
85.0
 20
117.928
 30
0.0
 11
85.0
 21
115.0479999999999
 31
0.0
  0
LINE
  5
182
330
1E
100
AcDbEntity
  8
0
100
AcDbLine
 10
84.0
 20
109.0
 30
0.0
 11
85.0
 21
109.0
 31
0.0
  0
LINE
  5
183
330
1E
100
AcDbEntity
  8
0
100
AcDbLine
 10
84.0
 20
119.5
 30
0.0
 11
84.0
 21
83.0
 31
0.0
  0
LINE
  5
184
330
1E
100
AcDbEntity
  8
0
100
AcDbLine
 10
84.0
 20
119.5
 30
0.0
 11
84.0
 21
122.5
 31
0.0
  0
LINE
  5
185
330
1E
100
AcDbEntity
  8
0
100
AcDbLine
 10
83.81999999999999
 20
119.5
 30
0.0
 11
84.0
 21
119.5
 31
0.0
  0
LINE
  5
186
330
1E
100
AcDbEntity
  8
0
100
AcDbLine
 10
77.72
 20
119.5
 30
0.0
 11
79.0
 21
119.5
 31
0.0
  0
LINE
  5
187
330
1E
100
AcDbEntity
  8
0
100
AcDbLine
 10
76.52
 20
119.5
 30
0.0
 11
77.72
 21
119.5
 31
0.0
  0
LINE
  5
188
330
1E
100
AcDbEntity
  8
0
100
AcDbLine
 10
75.45999999999999
 20
119.5
 30
0.0
 11
76.52
 21
119.5
 31
0.0
  0
LINE
  5
189
330
1E
100
AcDbEntity
  8
0
100
AcDbLine
 10
74.66
 20
119.5
 30
0.0
 11
75.45999999999999
 21
119.5
 31
0.0
  0
LINE
  5
193
330
1E
100
AcDbEntity
  8
0
100
AcDbLine
 10
76.0
 20
123.0
 30
0.0
 11
76.10800000000001
 21
123.0
 31
0.0
  0
LINE
  5
194
330
1E
100
AcDbEntity
  8
0
100
AcDbLine
 10
76.0
 20
123.0
 30
0.0
 11
76.0
 21
122.5
 31
0.0
  0
LINE
  5
195
330
1E
100
AcDbEntity
  8
0
100
AcDbLine
 10
79.0
 20
123.0
 30
0.0
 11
79.768
 21
123.0
 31
0.0
  0
LINE
  5
196
330
1E
100
AcDbEntity
  8
0
100
AcDbLine
 10
79.768
 20
123.0
 30
0.0
 11
80.48799999999999
 21
123.0
 31
0.0
  0
LINE
  5
197
330
1E
100
AcDbEntity
  8
0
100
AcDbLine
 10
80.48799999999999
 20
123.0
 30
0.0
 11
81.12399999999999
 21
123.0
 31
0.0
  0
LINE
  5
198
330
1E
100
AcDbEntity
  8
0
100
AcDbLine
 10
81.12399999999999
 20
123.0
 30
0.0
 11
81.604
 21
123.0
 31
0.0
  0
LINE
  5
199
330
1E
100
AcDbEntity
  8
0
100
AcDbLine
 10
81.604
 20
123.0
 30
0.0
 11
81.89199999999999
 21
123.0
 31
0.0
  0
LINE
  5
19A
330
1E
100
AcDbEntity
  8
0
100
AcDbLine
 10
82.0
 20
122.5
 30
0.0
 11
82.0
 21
123.0
 31
0.0
  0
LINE
  5
19B
330
1E
100
AcDbEntity
  8
0
100
AcDbLine
 10
81.89199999999999
 20
123.0
 30
0.0
 11
82.0
 21
123.0
 31
0.0
  0
LINE
  5
19C
330
1E
100
AcDbEntity
  8
0
100
AcDbLine
 10
78.23199999999999
 20
123.0
 30
0.0
 11
79.0
 21
123.0
 31
0.0
  0
LINE
  5
19D
330
1E
100
AcDbEntity
  8
0
100
AcDbLine
 10
77.512
 20
123.0
 30
0.0
 11
78.23199999999999
 21
123.0
 31
0.0
  0
LINE
  5
19E
330
1E
100
AcDbEntity
  8
0
100
AcDbLine
 10
76.876
 20
123.0
 30
0.0
 11
77.512
 21
123.0
 31
0.0
  0
LINE
  5
19F
330
1E
100
AcDbEntity
  8
0
100
AcDbLine
 10
76.396
 20
123.0
 30
0.0
 11
76.876
 21
123.0
 31
0.0
  0
LINE
  5
1A0
330
1E
100
AcDbEntity
  8
0
100
AcDbLine
 10
76.10800000000001
 20
123.0
 30
0.0
 11
76.396
 21
123.0
 31
0.0
  0
LINE
  5
1A1
330
1E
100
AcDbEntity
  8
0
100
AcDbLine
 10
76.0
 20
122.5
 30
0.0
 11
76.0
 21
123.0
 31
0.0
  0
LINE
  5
1A2
330
1E
100
AcDbEntity
  8
0
100
AcDbLine
 10
82.0
 20
123.0
 30
0.0
 11
82.0
 21
122.5
 31
0.0
  0
LINE
  5
1A3
330
1E
100
AcDbEntity
  8
0
100
AcDbLine
 10
84.0
 20
122.5
 30
0.0
 11
84.0
 21
119.5
 31
0.0
  0
LINE
  5
1A4
330
1E
100
AcDbEntity
  8
0
100
AcDbLine
 10
85.0
 20
133.0
 30
0.0
 11
85.0
 21
132.5679999999999
 31
0.0
  0
LINE
  5
1A5
330
1E
100
AcDbEntity
  8
0
100
AcDbLine
 10
85.0
 20
132.5679999999999
 30
0.0
 11
85.0
 21
133.0
 31
0.0
  0
LINE
  5
1A6
330
1E
100
AcDbEntity
  8
0
100
AcDbLine
 10
85.0
 20
132.5679999999999
 30
0.0
 11
85.0
 21
131.4159999999999
 31
0.0
  0
LINE
  5
1A7
330
1E
100
AcDbEntity
  8
0
100
AcDbLine
 10
85.0
 20
131.4159999999999
 30
0.0
 11
85.0
 21
132.5679999999999
 31
0.0
  0
LINE
  5
1A8
330
1E
100
AcDbEntity
  8
0
100
AcDbLine
 10
85.0
 20
131.4159999999999
 30
0.0
 11
85.0
 21
129.496
 31
0.0
  0
LINE
  5
1A9
330
1E
100
AcDbEntity
  8
0
100
AcDbLine
 10
85.0
 20
129.496
 30
0.0
 11
85.0
 21
131.4159999999999
 31
0.0
  0
LINE
  5
1AA
330
1E
100
AcDbEntity
  8
0
100
AcDbLine
 10
85.0
 20
129.496
 30
0.0
 11
85.0
 21
126.952
 31
0.0
  0
LINE
  5
1AB
330
1E
100
AcDbEntity
  8
0
100
AcDbLine
 10
85.0
 20
126.952
 30
0.0
 11
85.0
 21
129.496
 31
0.0
  0
LINE
  5
1AC
330
1E
100
AcDbEntity
  8
0
100
AcDbLine
 10
85.0
 20
126.952
 30
0.0
 11
85.0
 21
124.072
 31
0.0
  0
LINE
  5
1AD
330
1E
100
AcDbEntity
  8
0
100
AcDbLine
 10
85.0
 20
124.072
 30
0.0
 11
85.0
 21
126.952
 31
0.0
  0
LINE
  5
1AE
330
1E
100
AcDbEntity
  8
0
100
AcDbLine
 10
85.0
 20
124.072
 30
0.0
 11
85.0
 21
121.0
 31
0.0
  0
LINE
  5
1B1
330
1E
100
AcDbEntity
  8
0
100
AcDbLine
 10
75.0
 20
133.0
 30
0.0
 11
85.0
 21
133.0
 31
0.0
  0
LINE
  5
1B3
330
1E
100
AcDbEntity
  8
0
100
AcDbLine
 10
85.0
 20
121.0
 30
0.0
 11
85.0
 21
117.928
 31
0.0
  0
LINE
  5
1B4
330
1E
100
AcDbEntity
  8
0
100
AcDbLine
 10
85.0
 20
121.0
 30
0.0
 11
85.0
 21
124.072
 31
0.0
  0
LINE
  5
1B5
330
1E
100
AcDbEntity
  8
0
100
AcDbLine
 10
74.18000000000001
 20
119.5
 30
0.0
 11
74.66
 21
119.5
 31
0.0
  0
LINE
  5
1B6
330
1E
100
AcDbEntity
  8
0
100
AcDbLine
 10
74.0
 20
119.5
 30
0.0
 11
74.18000000000001
 21
119.5
 31
0.0
  0
LINE
  5
1B8
330
1E
100
AcDbEntity
  8
0
100
AcDbLine
 10
15.82
 20
119.5
 30
0.0
 11
16.0
 21
119.5
 31
0.0
  0
LINE
  5
1BD
330
1E
100
AcDbEntity
  8
0
100
AcDbLine
 10
86.03329999999999
 20
83.0
 30
0.0
 11
86.03329999999999
 21
52.0
 31
0.0
  0
ENDSEC
  0
SECTION
  2
OBJECTS
  0
DICTIONARY
  5
C
330
0
100
AcDbDictionary
281
     1
  3
ACAD_GROUP
350
D
  3
ACAD_LAYOUT
350
19
  3
ACAD_MLINESTYLE
350
16
  3
ACAD_PLOTSETTINGS
350
18
  3
ACAD_PLOTSTYLENAME
350
E
  3
AcDbVariableDictionary
350
1BE
  0
DICTIONARY
  5
D
102
{ACAD_REACTORS
330
C
102
}
330
C
100
AcDbDictionary
281
     1
  0
DICTIONARY
  5
19
102
{ACAD_REACTORS
330
C
102
}
330
C
100
AcDbDictionary
281
     1
  3
Layout1
350
1D
  3
Model
350
21
  0
DICTIONARY
  5
16
102
{ACAD_REACTORS
330
C
102
}
330
C
100
AcDbDictionary
281
     1
  3
Standard
350
17
  0
DICTIONARY
  5
18
102
{ACAD_REACTORS
330
C
102
}
330
C
100
AcDbDictionary
281
     1
  0
ACDBDICTIONARYWDFLT
  5
E
102
{ACAD_REACTORS
330
C
102
}
330
C
100
AcDbDictionary
281
     1
  3
Normal
350
F
100
AcDbDictionaryWithDefault
340
F
  0
DICTIONARY
  5
1BE
102
{ACAD_REACTORS
330
C
102
}
330
C
100
AcDbDictionary
281
     1
  3
DIMASSOC
350
1BF
  0
LAYOUT
  5
1D
102
{ACAD_REACTORS
330
19
102
}
330
19
100
AcDbPlotSettings
  1

  2
hp deskjet 980c series
  4

  6

 40
0.0
 41
0.0
 42
0.0
 43
0.0
 44
0.0
 45
0.0
 46
0.0
 47
0.0
 48
0.0
 49
0.0
140
0.0
141
0.0
142
1.0
143
1.0
 70
   688
 72
     0
 73
     0
 74
     5
  7

 75
    16
147
1.0
148
0.0
149
0.0
100
AcDbLayout
  1
Layout1
 70
     1
 71
     1
 10
0.0
 20
0.0
 11
12.0
 21
9.0
 12
0.0
 22
0.0
 32
0.0
 14
1.000000000000000E+20
 24
1.000000000000000E+20
 34
1.000000000000000E+20
 15
-1.000000000000000E+20
 25
-1.000000000000000E+20
 35
-1.000000000000000E+20
146
0.0
 13
0.0
 23
0.0
 33
0.0
 16
1.0
 26
0.0
 36
0.0
 17
0.0
 27
1.0
 37
0.0
 76
     0
330
1A
  0
LAYOUT
  5
21
102
{ACAD_REACTORS
330
19
102
}
330
19
100
AcDbPlotSettings
  1

  2
hp deskjet 980c series
  4

  6

 40
0.0
 41
0.0
 42
0.0
 43
0.0
 44
0.0
 45
0.0
 46
0.0
 47
0.0
 48
0.0
 49
0.0
140
0.0
141
0.0
142
1.0
143
1.0
 70
  1712
 72
     0
 73
     0
 74
     0
  7

 75
     0
147
1.0
148
0.0
149
0.0
100
AcDbLayout
  1
Model
 70
     1
 71
     0
 10
0.0
 20
0.0
 11
12.0
 21
9.0
 12
0.0
 22
0.0
 32
0.0
 14
0.0
 24
0.0
 34
0.0
 15
0.0
 25
0.0
 35
0.0
146
0.0
 13
0.0
 23
0.0
 33
0.0
 16
1.0
 26
0.0
 36
0.0
 17
0.0
 27
1.0
 37
0.0
 76
     0
330
1E
  0
MLINESTYLE
  5
17
102
{ACAD_REACTORS
330
16
102
}
330
16
100
AcDbMlineStyle
  2
STANDARD
 70
     0
  3

 62
   256
 51
90.0
 52
90.0
 71
     2
 49
0.5
 62
   256
  6
BYLAYER
 49
-0.5
 62
   256
  6
BYLAYER
  0
ACDBPLACEHOLDER
  5
F
102
{ACAD_REACTORS
330
E
102
}
330
E
  0
DICTIONARYVAR
  5
1BF
102
{ACAD_REACTORS
330
1BE
102
}
330
1BE
100
DictionaryVariables
280
     0
  1
1
  0
ENDSEC
  0
EOF
