  0
SECTION
  2
HEADER
  9
$ACADVER
  1
AC1015
  9
$ACADMAINTVER
 70
    13
  9
$DWGCODEPAGE
  3
ANSI_1252
  9
$INSBASE
 10
0.0
 20
0.0
 30
0.0
  9
$EXTMIN
 10
0.000000000000001
 20
0.0000000000000015
 30
0.0
  9
$EXTMAX
 10
36.0
 20
69.0
 30
0.0
  9
$LIMMIN
 10
0.0
 20
0.0
  9
$LIMMAX
 10
12.0
 20
9.0
  9
$ORTHOMODE
 70
     0
  9
$REGENMODE
 70
     1
  9
$FILLMODE
 70
     1
  9
$QTEXTMODE
 70
     0
  9
$MIRRTEXT
 70
     1
  9
$LTSCALE
 40
1.0
  9
$ATTMODE
 70
     1
  9
$TEXTSIZE
 40
0.2
  9
$TRACEWID
 40
0.05
  9
$TEXTSTYLE
  7
Standard
  9
$CLAYER
  8
0
  9
$CELTYPE
  6
Continuous
  9
$CECOLOR
 62
   256
  9
$CELTSCALE
 40
1.0
  9
$DISPSILH
 70
     0
  9
$DIMSCALE
 40
1.0
  9
$DIMASZ
 40
0.18
  9
$DIMEXO
 40
0.0625
  9
$DIMDLI
 40
0.38
  9
$DIMRND
 40
0.0
  9
$DIMDLE
 40
0.0
  9
$DIMEXE
 40
0.18
  9
$DIMTP
 40
0.0
  9
$DIMTM
 40
0.0
  9
$DIMTXT
 40
0.18
  9
$DIMCEN
 40
0.09
  9
$DIMTSZ
 40
0.0
  9
$DIMTOL
 70
     0
  9
$DIMLIM
 70
     0
  9
$DIMTIH
 70
     1
  9
$DIMTOH
 70
     1
  9
$DIMSE1
 70
     0
  9
$DIMSE2
 70
     0
  9
$DIMTAD
 70
     0
  9
$DIMZIN
 70
     0
  9
$DIMBLK
  1

  9
$DIMASO
 70
     1
  9
$DIMSHO
 70
     1
  9
$DIMPOST
  1

  9
$DIMAPOST
  1

  9
$DIMALT
 70
     0
  9
$DIMALTD
 70
     2
  9
$DIMALTF
 40
25.4
  9
$DIMLFAC
 40
1.0
  9
$DIMTOFL
 70
     0
  9
$DIMTVP
 40
0.0
  9
$DIMTIX
 70
     0
  9
$DIMSOXD
 70
     0
  9
$DIMSAH
 70
     0
  9
$DIMBLK1
  1

  9
$DIMBLK2
  1

  9
$DIMSTYLE
  2
Standard
  9
$DIMCLRD
 70
     0
  9
$DIMCLRE
 70
     0
  9
$DIMCLRT
 70
     0
  9
$DIMTFAC
 40
1.0
  9
$DIMGAP
 40
0.09
  9
$DIMJUST
 70
     0
  9
$DIMSD1
 70
     0
  9
$DIMSD2
 70
     0
  9
$DIMTOLJ
 70
     1
  9
$DIMTZIN
 70
     0
  9
$DIMALTZ
 70
     0
  9
$DIMALTTZ
 70
     0
  9
$DIMUPT
 70
     0
  9
$DIMDEC
 70
     4
  9
$DIMTDEC
 70
     4
  9
$DIMALTU
 70
     2
  9
$DIMALTTD
 70
     2
  9
$DIMTXSTY
  7
Standard
  9
$DIMAUNIT
 70
     0
  9
$DIMADEC
 70
     0
  9
$DIMALTRND
 40
0.0
  9
$DIMAZIN
 70
     0
  9
$DIMDSEP
 70
    46
  9
$DIMATFIT
 70
     3
  9
$DIMFRAC
 70
     0
  9
$DIMLDRBLK
  1

  9
$DIMLUNIT
 70
     2
  9
$DIMLWD
 70
    -2
  9
$DIMLWE
 70
    -2
  9
$DIMTMOVE
 70
     0
  9
$LUNITS
 70
     2
  9
$LUPREC
 70
     4
  9
$SKETCHINC
 40
0.1
  9
$FILLETRAD
 40
0.0
  9
$AUNITS
 70
     0
  9
$AUPREC
 70
     0
  9
$MENU
  1
.
  9
$ELEVATION
 40
0.0
  9
$PELEVATION
 40
0.0
  9
$THICKNESS
 40
0.0
  9
$LIMCHECK
 70
     0
  9
$CHAMFERA
 40
0.0
  9
$CHAMFERB
 40
0.0
  9
$CHAMFERC
 40
0.0
  9
$CHAMFERD
 40
0.0
  9
$SKPOLY
 70
     0
  9
$TDCREATE
 40
2454779.627369421
  9
$TDUCREATE
 40
2454779.585702754
  9
$TDUPDATE
 40
2454779.629027778
  9
$TDUUPDATE
 40
2454779.587361111
  9
$TDINDWG
 40
0.0016585301
  9
$TDUSRTIMER
 40
0.0016585301
  9
$USRTIMER
 70
     1
  9
$ANGBASE
 50
0.0
  9
$ANGDIR
 70
     0
  9
$PDMODE
 70
     0
  9
$PDSIZE
 40
0.0
  9
$PLINEWID
 40
0.0
  9
$SPLFRAME
 70
     0
  9
$SPLINETYPE
 70
     6
  9
$SPLINESEGS
 70
     8
  9
$HANDSEED
  5
226
  9
$SURFTAB1
 70
     6
  9
$SURFTAB2
 70
     6
  9
$SURFTYPE
 70
     6
  9
$SURFU
 70
     6
  9
$SURFV
 70
     6
  9
$UCSBASE
  2

  9
$UCSNAME
  2

  9
$UCSORG
 10
0.0
 20
0.0
 30
0.0
  9
$UCSXDIR
 10
1.0
 20
0.0
 30
0.0
  9
$UCSYDIR
 10
0.0
 20
1.0
 30
0.0
  9
$UCSORTHOREF
  2

  9
$UCSORTHOVIEW
 70
     1
  9
$UCSORGTOP
 10
0.0
 20
0.0
 30
0.0
  9
$UCSORGBOTTOM
 10
0.0
 20
0.0
 30
0.0
  9
$UCSORGLEFT
 10
0.0
 20
0.0
 30
0.0
  9
$UCSORGRIGHT
 10
0.0
 20
0.0
 30
0.0
  9
$UCSORGFRONT
 10
0.0
 20
0.0
 30
0.0
  9
$UCSORGBACK
 10
0.0
 20
0.0
 30
0.0
  9
$PUCSBASE
  2

  9
$PUCSNAME
  2

  9
$PUCSORG
 10
0.0
 20
0.0
 30
0.0
  9
$PUCSXDIR
 10
1.0
 20
0.0
 30
0.0
  9
$PUCSYDIR
 10
0.0
 20
1.0
 30
0.0
  9
$PUCSORTHOREF
  2

  9
$PUCSORTHOVIEW
 70
     0
  9
$PUCSORGTOP
 10
0.0
 20
0.0
 30
0.0
  9
$PUCSORGBOTTOM
 10
0.0
 20
0.0
 30
0.0
  9
$PUCSORGLEFT
 10
0.0
 20
0.0
 30
0.0
  9
$PUCSORGRIGHT
 10
0.0
 20
0.0
 30
0.0
  9
$PUCSORGFRONT
 10
0.0
 20
0.0
 30
0.0
  9
$PUCSORGBACK
 10
0.0
 20
0.0
 30
0.0
  9
$USERI1
 70
     0
  9
$USERI2
 70
     0
  9
$USERI3
 70
     0
  9
$USERI4
 70
     0
  9
$USERI5
 70
     0
  9
$USERR1
 40
0.0
  9
$USERR2
 40
0.0
  9
$USERR3
 40
0.0
  9
$USERR4
 40
0.0
  9
$USERR5
 40
0.0
  9
$WORLDVIEW
 70
     1
  9
$SHADEDGE
 70
     3
  9
$SHADEDIF
 70
    70
  9
$TILEMODE
 70
     1
  9
$MAXACTVP
 70
    64
  9
$PINSBASE
 10
0.0
 20
0.0
 30
0.0
  9
$PLIMCHECK
 70
     0
  9
$PEXTMIN
 10
1.000000000000000E+20
 20
1.000000000000000E+20
 30
1.000000000000000E+20
  9
$PEXTMAX
 10
-1.000000000000000E+20
 20
-1.000000000000000E+20
 30
-1.000000000000000E+20
  9
$PLIMMIN
 10
0.0
 20
0.0
  9
$PLIMMAX
 10
12.0
 20
9.0
  9
$UNITMODE
 70
     0
  9
$VISRETAIN
 70
     1
  9
$PLINEGEN
 70
     0
  9
$PSLTSCALE
 70
     1
  9
$TREEDEPTH
 70
  3020
  9
$CMLSTYLE
  2
Standard
  9
$CMLJUST
 70
     0
  9
$CMLSCALE
 40
1.0
  9
$PROXYGRAPHICS
 70
     1
  9
$MEASUREMENT
 70
     0
  9
$CELWEIGHT
370
    -1
  9
$ENDCAPS
280
     0
  9
$JOINSTYLE
280
     0
  9
$LWDISPLAY
290
     0
  9
$INSUNITS
 70
     0
  9
$HYPERLINKBASE
  1

  9
$STYLESHEET
  1

  9
$XEDIT
290
     1
  9
$CEPSNTYPE
380
     0
  9
$PSTYLEMODE
290
     1
  9
$FINGERPRINTGUID
  2
{D19BB5FA-0354-484C-8CA5-6F798701B3A4}
  9
$VERSIONGUID
  2
{40BDCD4A-2A4D-404C-99F4-E62689984A6C}
  9
$EXTNAMES
290
     1
  9
$PSVPSCALE
 40
0.0
  9
$OLESTARTUP
290
     0
  0
ENDSEC
  0
SECTION
  2
CLASSES
  0
CLASS
  1
ACDBDICTIONARYWDFLT
  2
AcDbDictionaryWithDefault
  3
AutoCAD 2000
 90
        0
280
     0
281
     0
  0
CLASS
  1
ACDBPLACEHOLDER
  2
AcDbPlaceHolder
  3
AutoCAD 2000
 90
        0
280
     0
281
     0
  0
CLASS
  1
LAYOUT
  2
AcDbLayout
  3
AutoCAD 2000
 90
        0
280
     0
281
     0
  0
CLASS
  1
DICTIONARYVAR
  2
AcDbDictionaryVar
  3
AutoCAD 2000
 90
        0
280
     0
281
     0
  0
ENDSEC
  0
SECTION
  2
TABLES
  0
TABLE
  2
VPORT
  5
8
330
0
100
AcDbSymbolTable
 70
     2
  0
VPORT
  5
225
330
8
100
AcDbSymbolTableRecord
100
AcDbViewportTableRecord
  2
*Active
 70
     0
 10
0.0
 20
0.0
 11
1.0
 21
1.0
 12
18.0
 22
34.5
 13
0.0
 23
0.0
 14
1.0
 24
1.0
 15
0.0
 25
0.0
 16
0.0
 26
0.0
 36
1.0
 17
0.0
 27
0.0
 37
0.0
 40
69.52941176470588
 41
2.078104993597951
 42
50.0
 43
0.0
 44
0.0
 50
0.0
 51
0.0
 71
     0
 72
   100
 73
     1
 74
     3
 75
     0
 76
     0
 77
     0
 78
     0
281
     0
 65
     1
110
0.0
120
0.0
130
0.0
111
1.0
121
0.0
131
0.0
112
0.0
122
1.0
132
0.0
 79
     1
146
0.0
  0
ENDTAB
  0
TABLE
  2
LTYPE
  5
5
330
0
100
AcDbSymbolTable
 70
     1
  0
LTYPE
  5
13
330
5
100
AcDbSymbolTableRecord
100
AcDbLinetypeTableRecord
  2
ByBlock
 70
     0
  3

 72
    65
 73
     0
 40
0.0
  0
LTYPE
  5
14
330
5
100
AcDbSymbolTableRecord
100
AcDbLinetypeTableRecord
  2
ByLayer
 70
     0
  3

 72
    65
 73
     0
 40
0.0
  0
LTYPE
  5
15
330
5
100
AcDbSymbolTableRecord
100
AcDbLinetypeTableRecord
  2
Continuous
 70
     0
  3
Solid line
 72
    65
 73
     0
 40
0.0
  0
ENDTAB
  0
TABLE
  2
LAYER
  5
2
330
0
100
AcDbSymbolTable
 70
     1
  0
LAYER
  5
10
330
2
100
AcDbSymbolTableRecord
100
AcDbLayerTableRecord
  2
0
 70
     0
 62
     7
  6
Continuous
370
    -3
390
F
  0
ENDTAB
  0
TABLE
  2
STYLE
  5
3
330
0
100
AcDbSymbolTable
 70
     1
  0
STYLE
  5
11
330
3
100
AcDbSymbolTableRecord
100
AcDbTextStyleTableRecord
  2
Standard
 70
     0
 40
0.0
 41
1.0
 50
0.0
 71
     0
 42
0.2
  3
txt
  4

  0
ENDTAB
  0
TABLE
  2
VIEW
  5
6
330
0
100
AcDbSymbolTable
 70
     0
  0
ENDTAB
  0
TABLE
  2
UCS
  5
7
330
0
100
AcDbSymbolTable
 70
     0
  0
ENDTAB
  0
TABLE
  2
APPID
  5
9
330
0
100
AcDbSymbolTable
 70
     1
  0
APPID
  5
12
330
9
100
AcDbSymbolTableRecord
100
AcDbRegAppTableRecord
  2
ACAD
 70
     0
  0
ENDTAB
  0
TABLE
  2
DIMSTYLE
  5
A
330
0
100
AcDbSymbolTable
 70
     1
100
AcDbDimStyleTable
 71
     0
  0
DIMSTYLE
105
21C
330
A
100
AcDbSymbolTableRecord
100
AcDbDimStyleTableRecord
  2
Standard
 70
     0
340
11
  0
ENDTAB
  0
TABLE
  2
BLOCK_RECORD
  5
1
330
0
100
AcDbSymbolTable
 70
     0
  0
BLOCK_RECORD
  5
1E
330
1
100
AcDbSymbolTableRecord
100
AcDbBlockTableRecord
  2
*Model_Space
340
21
  0
BLOCK_RECORD
  5
1A
330
1
100
AcDbSymbolTableRecord
100
AcDbBlockTableRecord
  2
*Paper_Space
340
1D
  0
ENDTAB
  0
ENDSEC
  0
SECTION
  2
BLOCKS
  0
BLOCK
  5
1F
330
1E
100
AcDbEntity
  8
0
100
AcDbBlockBegin
  2
*Model_Space
 70
     0
 10
0.0
 20
0.0
 30
0.0
  3
*Model_Space
  1

  0
ENDBLK
  5
20
330
1E
100
AcDbEntity
  8
0
100
AcDbBlockEnd
  0
BLOCK
  5
1B
330
1A
100
AcDbEntity
 67
     1
  8
0
100
AcDbBlockBegin
  2
*Paper_Space
 70
     0
 10
0.0
 20
0.0
 30
0.0
  3
*Paper_Space
  1

  0
ENDBLK
  5
1C
330
1A
100
AcDbEntity
 67
     1
  8
0
100
AcDbBlockEnd
  0
ENDSEC
  0
SECTION
  2
ENTITIES
  0
LINE
  5
22
330
1E
100
AcDbEntity
  8
0
100
AcDbLine
 10
2.383999999999999
 20
28.0
 30
0.0
 11
2.959999999999999
 21
28.0
 31
0.0
  0
LINE
  5
23
330
1E
100
AcDbEntity
  8
0
100
AcDbLine
 10
2.0
 20
28.3
 30
0.0
 11
2.0
 21
33.0
 31
0.0
  0
LINE
  5
24
330
1E
100
AcDbEntity
  8
0
100
AcDbLine
 10
2.0
 20
28.3
 30
0.0
 11
2.576
 21
28.3
 31
0.0
  0
LINE
  5
25
330
1E
100
AcDbEntity
  8
0
100
AcDbLine
 10
2.0
 20
28.3
 30
0.0
 11
2.383999999999999
 21
28.0
 31
0.0
  0
LINE
  5
26
330
1E
100
AcDbEntity
  8
0
100
AcDbLine
 10
2.0
 20
33.0
 30
0.0
 11
2.576
 21
33.0
 31
0.0
  0
LINE
  5
27
330
1E
100
AcDbEntity
  8
0
100
AcDbLine
 10
2.0
 20
33.0
 30
0.0
 11
2.0
 21
28.3
 31
0.0
  0
LINE
  5
28
330
1E
100
AcDbEntity
  8
0
100
AcDbLine
 10
2.576
 20
33.0
 30
0.0
 11
4.112
 21
33.0
 31
0.0
  0
LINE
  5
29
330
1E
100
AcDbEntity
  8
0
100
AcDbLine
 10
2.576
 20
28.3
 30
0.0
 11
4.112
 21
28.3
 31
0.0
  0
LINE
  5
2A
330
1E
100
AcDbEntity
  8
0
100
AcDbLine
 10
4.0
 20
28.0
 30
0.0
 11
4.503999999999999
 21
28.0
 31
0.0
  0
LINE
  5
2B
330
1E
100
AcDbEntity
  8
0
100
AcDbLine
 10
4.0
 20
28.0
 30
0.0
 11
4.0
 21
25.18
 31
0.0
  0
LINE
  5
2C
330
1E
100
AcDbEntity
  8
0
100
AcDbLine
 10
4.0
 20
25.18
 30
0.0
 11
4.0
 21
28.0
 31
0.0
  0
LINE
  5
2D
330
1E
100
AcDbEntity
  8
0
100
AcDbLine
 10
4.0
 20
25.18
 30
0.0
 11
4.503999999999999
 21
25.18
 31
0.0
  0
LINE
  5
2E
330
1E
100
AcDbEntity
  8
0
100
AcDbLine
 10
4.0
 20
25.18
 30
0.0
 11
4.336
 21
25.0
 31
0.0
  0
LINE
  5
2F
330
1E
100
AcDbEntity
  8
0
100
AcDbLine
 10
2.959999999999999
 20
28.0
 30
0.0
 11
4.496
 21
28.0
 31
0.0
  0
LINE
  5
30
330
1E
100
AcDbEntity
  8
0
100
AcDbLine
 10
2.959999999999999
 20
28.0
 30
0.0
 11
4.0
 21
28.0
 31
0.0
  0
LINE
  5
31
330
1E
100
AcDbEntity
  8
0
100
AcDbLine
 10
4.336
 20
25.0
 30
0.0
 11
4.839999999999999
 21
25.0
 31
0.0
  0
LINE
  5
32
330
1E
100
AcDbEntity
  8
0
100
AcDbLine
 10
4.839999999999999
 20
25.0
 30
0.0
 11
6.0
 21
25.0
 31
0.0
  0
LINE
  5
33
330
1E
100
AcDbEntity
  8
0
100
AcDbLine
 10
4.503999999999999
 20
25.18
 30
0.0
 11
5.847999999999999
 21
25.18
 31
0.0
  0
LINE
  5
34
330
1E
100
AcDbEntity
  8
0
100
AcDbLine
 10
4.503999999999999
 20
28.0
 30
0.0
 11
5.847999999999999
 21
28.0
 31
0.0
  0
LINE
  5
35
330
1E
100
AcDbEntity
  8
0
100
AcDbLine
 10
5.847999999999999
 20
25.18
 30
0.0
 11
8.087999999999999
 21
25.18
 31
0.0
  0
LINE
  5
36
330
1E
100
AcDbEntity
  8
0
100
AcDbLine
 10
6.287999999999999
 20
23.0
 30
0.0
 11
6.719999999999999
 21
23.0
 31
0.0
  0
LINE
  5
37
330
1E
100
AcDbEntity
  8
0
100
AcDbLine
 10
6.0
 20
23.18
 30
0.0
 11
6.0
 21
25.0
 31
0.0
  0
LINE
  5
38
330
1E
100
AcDbEntity
  8
0
100
AcDbLine
 10
6.0
 20
23.18
 30
0.0
 11
6.432
 21
23.18
 31
0.0
  0
LINE
  5
39
330
1E
100
AcDbEntity
  8
0
100
AcDbLine
 10
6.0
 20
23.18
 30
0.0
 11
6.287999999999999
 21
23.0
 31
0.0
  0
LINE
  5
3A
330
1E
100
AcDbEntity
  8
0
100
AcDbLine
 10
6.0
 20
25.0
 30
0.0
 11
6.432
 21
25.0
 31
0.0
  0
LINE
  5
3B
330
1E
100
AcDbEntity
  8
0
100
AcDbLine
 10
6.0
 20
25.0
 30
0.0
 11
6.0
 21
23.18
 31
0.0
  0
LINE
  5
3C
330
1E
100
AcDbEntity
  8
0
100
AcDbLine
 10
6.432
 20
25.0
 30
0.0
 11
7.583999999999999
 21
25.0
 31
0.0
  0
LINE
  5
3D
330
1E
100
AcDbEntity
  8
0
100
AcDbLine
 10
6.432
 20
23.18
 30
0.0
 11
7.583999999999999
 21
23.18
 31
0.0
  0
LINE
  5
3E
330
1E
100
AcDbEntity
  8
0
100
AcDbLine
 10
5.847999999999999
 20
28.0
 30
0.0
 11
8.087999999999999
 21
28.0
 31
0.0
  0
LINE
  5
3F
330
1E
100
AcDbEntity
  8
0
100
AcDbLine
 10
4.496
 20
28.0
 30
0.0
 11
6.992
 21
28.0
 31
0.0
  0
LINE
  5
40
330
1E
100
AcDbEntity
  8
0
100
AcDbLine
 10
4.112
 20
28.3
 30
0.0
 11
6.672
 21
28.3
 31
0.0
  0
LINE
  5
41
330
1E
100
AcDbEntity
  8
0
100
AcDbLine
 10
4.112
 20
33.0
 30
0.0
 11
6.672
 21
33.0
 31
0.0
  0
LINE
  5
42
330
1E
100
AcDbEntity
  8
0
100
AcDbLine
 10
6.719999999999999
 20
23.0
 30
0.0
 11
7.872
 21
23.0
 31
0.0
  0
LINE
  5
43
330
1E
100
AcDbEntity
  8
0
100
AcDbLine
 10
7.583999999999999
 20
23.18
 30
0.0
 11
9.503999999999999
 21
23.18
 31
0.0
  0
LINE
  5
44
330
1E
100
AcDbEntity
  8
0
100
AcDbLine
 10
7.872
 20
23.0
 30
0.0
 11
9.0
 21
23.0
 31
0.0
  0
LINE
  5
45
330
1E
100
AcDbEntity
  8
0
100
AcDbLine
 10
7.583999999999999
 20
25.0
 30
0.0
 11
9.503999999999999
 21
25.0
 31
0.0
  0
LINE
  5
46
330
1E
100
AcDbEntity
  8
0
100
AcDbLine
 10
8.087999999999999
 20
25.18
 30
0.0
 11
11.05599999999999
 21
25.18
 31
0.0
  0
LINE
  5
47
330
1E
100
AcDbEntity
  8
0
100
AcDbLine
 10
9.236839999999999
 20
16.0
 30
0.0
 11
9.568419999999999
 21
16.0
 31
0.0
  0
LINE
  5
48
330
1E
100
AcDbEntity
  8
0
100
AcDbLine
 10
9.0
 20
16.8163
 30
0.0
 11
9.0
 21
16.4082
 31
0.0
  0
LINE
  5
49
330
1E
100
AcDbEntity
  8
0
100
AcDbLine
 10
9.0
 20
16.8163
 30
0.0
 11
9.0
 21
23.0
 31
0.0
  0
LINE
  5
4A
330
1E
100
AcDbEntity
  8
0
100
AcDbLine
 10
9.0
 20
16.8163
 30
0.0
 11
9.0
 21
23.0
 31
0.0
  0
LINE
  5
4B
330
1E
100
AcDbEntity
  8
0
100
AcDbLine
 10
9.0
 20
16.8163
 30
0.0
 11
9.0
 21
16.4082
 31
0.0
  0
LINE
  5
4C
330
1E
100
AcDbEntity
  8
0
100
AcDbLine
 10
9.0
 20
16.4082
 30
0.0
 11
9.0
 21
16.8163
 31
0.0
  0
LINE
  5
4D
330
1E
100
AcDbEntity
  8
0
100
AcDbLine
 10
9.0
 20
16.4082
 30
0.0
 11
9.18947
 21
16.4082
 31
0.0
  0
LINE
  5
4E
330
1E
100
AcDbEntity
  8
0
100
AcDbLine
 10
9.0
 20
16.4082
 30
0.0
 11
9.0
 21
16.09799999999999
 31
0.0
  0
LINE
  5
4F
330
1E
100
AcDbEntity
  8
0
100
AcDbLine
 10
9.0
 20
16.4082
 30
0.0
 11
9.0
 21
16.8163
 31
0.0
  0
LINE
  5
50
330
1E
100
AcDbEntity
  8
0
100
AcDbLine
 10
9.0
 20
16.09799999999999
 30
0.0
 11
9.0
 21
16.4082
 31
0.0
  0
LINE
  5
51
330
1E
100
AcDbEntity
  8
0
100
AcDbLine
 10
9.0
 20
16.09799999999999
 30
0.0
 11
9.0
 21
16.0408
 31
0.0
  0
LINE
  5
53
330
1E
100
AcDbEntity
  8
0
100
AcDbLine
 10
9.18947
 20
16.4082
 30
0.0
 11
9.77138
 21
16.4082
 31
0.0
  0
LINE
  5
54
330
1E
100
AcDbEntity
  8
0
100
AcDbLine
 10
9.231619999999999
 20
23.0
 30
0.0
 11
9.77138
 21
23.0
 31
0.0
  0
LINE
  5
56
330
1E
100
AcDbEntity
  8
0
100
AcDbLine
 10
9.0
 20
23.0
 30
0.0
 11
9.0
 21
16.8163
 31
0.0
  0
LINE
  5
57
330
1E
100
AcDbEntity
  8
0
100
AcDbLine
 10
9.0
 20
23.0
 30
0.0
 11
9.231619999999999
 21
23.0
 31
0.0
  0
LINE
  5
58
330
1E
100
AcDbEntity
  8
0
100
AcDbLine
 10
9.0
 20
23.0
 30
0.0
 11
9.0
 21
16.8163
 31
0.0
  0
LINE
  5
59
330
1E
100
AcDbEntity
  8
0
100
AcDbLine
 10
9.0
 20
16.0408
 30
0.0
 11
9.0
 21
16.09799999999999
 31
0.0
  0
LINE
  5
5A
330
1E
100
AcDbEntity
  8
0
100
AcDbLine
 10
9.0
 20
16.0408
 30
0.0
 11
9.236839999999999
 21
16.0
 31
0.0
  0
LINE
  5
5B
330
1E
100
AcDbEntity
  8
0
100
AcDbLine
 10
9.568419999999999
 20
16.0
 30
0.0
 11
10.42109999999999
 21
16.0
 31
0.0
  0
LINE
  5
5C
330
1E
100
AcDbEntity
  8
0
100
AcDbLine
 10
9.77138
 20
23.0
 30
0.0
 11
11.27369999999999
 21
23.0
 31
0.0
  0
LINE
  5
5D
330
1E
100
AcDbEntity
  8
0
100
AcDbLine
 10
9.77138
 20
16.4082
 30
0.0
 11
11.27369999999999
 21
16.1484
 31
0.0
  0
LINE
  5
5F
330
1E
100
AcDbEntity
  8
0
100
AcDbLine
 10
9.503999999999999
 20
23.18
 30
0.0
 11
12.048
 21
23.18
 31
0.0
  0
LINE
  5
60
330
1E
100
AcDbEntity
  8
0
100
AcDbLine
 10
9.503999999999999
 20
25.0
 30
0.0
 11
12.048
 21
25.0
 31
0.0
  0
LINE
  5
61
330
1E
100
AcDbEntity
  8
0
100
AcDbLine
 10
8.087999999999999
 20
28.0
 30
0.0
 11
11.05599999999999
 21
28.0
 31
0.0
  0
LINE
  5
62
330
1E
100
AcDbEntity
  8
0
100
AcDbLine
 10
6.992
 20
28.0
 30
0.0
 11
10.25599999999999
 21
28.0
 31
0.0
  0
LINE
  5
63
330
1E
100
AcDbEntity
  8
0
100
AcDbLine
 10
6.672
 20
28.3
 30
0.0
 11
10.06399999999999
 21
28.3
 31
0.0
  0
LINE
  5
64
330
1E
100
AcDbEntity
  8
0
100
AcDbLine
 10
6.672
 20
33.0
 30
0.0
 11
10.06399999999999
 21
33.0
 31
0.0
  0
LINE
  5
65
330
1E
100
AcDbEntity
  8
0
100
AcDbLine
 10
10.42109999999999
 20
16.0
 30
0.0
 11
11.7947
 21
16.0
 31
0.0
  0
LINE
  5
66
330
1E
100
AcDbEntity
  8
0
100
AcDbLine
 10
10.25599999999999
 20
28.0
 30
0.0
 11
13.968
 21
28.0
 31
0.0
  0
LINE
  5
67
330
1E
100
AcDbEntity
  8
0
100
AcDbLine
 10
10.06399999999999
 20
28.3
 30
0.0
 11
13.904
 21
28.3
 31
0.0
  0
LINE
  5
68
330
1E
100
AcDbEntity
  8
0
100
AcDbLine
 10
5.616
 20
33.0
 30
0.0
 11
9.288
 21
33.0
 31
0.0
  0
LINE
  5
69
330
1E
100
AcDbEntity
  8
0
100
AcDbLine
 10
2.808
 20
33.0
 30
0.0
 11
5.616
 21
33.0
 31
0.0
  0
LINE
  5
6A
330
1E
100
AcDbEntity
  8
0
100
AcDbLine
 10
10.06399999999999
 20
33.0
 30
0.0
 11
13.904
 21
33.0
 31
0.0
  0
LINE
  5
6B
330
1E
100
AcDbEntity
  8
0
100
AcDbLine
 10
9.288
 20
33.0
 30
0.0
 11
13.464
 21
33.0
 31
0.0
  0
LINE
  5
6C
330
1E
100
AcDbEntity
  8
0
100
AcDbLine
 10
9.072
 20
33.6
 30
0.0
 11
13.392
 21
33.6
 31
0.0
  0
LINE
  5
6D
330
1E
100
AcDbEntity
  8
0
100
AcDbLine
 10
5.256
 20
33.6
 30
0.0
 11
9.072
 21
33.6
 31
0.0
  0
LINE
  5
6E
330
1E
100
AcDbEntity
  8
0
100
AcDbLine
 10
2.375999999999999
 20
33.6
 30
0.0
 11
5.256
 21
33.6
 31
0.0
  0
LINE
  5
6F
330
1E
100
AcDbEntity
  8
0
100
AcDbLine
 10
0.6480000000000011
 20
33.6
 30
0.0
 11
2.375999999999999
 21
33.6
 31
0.0
  0
LINE
  5
70
330
1E
100
AcDbEntity
  8
0
100
AcDbLine
 10
1.08
 20
33.0
 30
0.0
 11
2.0
 21
33.0
 31
0.0
  0
LINE
  5
71
330
1E
100
AcDbEntity
  8
0
100
AcDbLine
 10
1.08
 20
33.0
 30
0.0
 11
2.808
 21
33.0
 31
0.0
  0
LINE
  5
72
330
1E
100
AcDbEntity
  8
0
100
AcDbLine
 10
0.4320000000000011
 20
33.0
 30
0.0
 11
1.08
 21
33.0
 31
0.0
  0
LINE
  5
74
330
1E
100
AcDbEntity
  8
0
100
AcDbLine
 10
0.000000000000001
 20
33.6
 30
0.0
 11
3.64985919521892
 21
53.1267466944212
 31
0.0
  0
LINE
  5
75
330
1E
100
AcDbEntity
  8
0
100
AcDbLine
 10
0.000000000000001
 20
33.6
 30
0.0
 11
0.4320000000000011
 21
33.0
 31
0.0
  0
LINE
  5
76
330
1E
100
AcDbEntity
  8
0
100
AcDbLine
 10
0.000000000000001
 20
33.6
 30
0.0
 11
0.6480000000000011
 21
33.6
 31
0.0
  0
LINE
  5
77
330
1E
100
AcDbEntity
  8
0
100
AcDbLine
 10
0.000000000000001
 20
33.6
 30
0.0
 11
3.64985919521892
 21
53.1267466944212
 31
0.0
  0
LINE
  5
78
330
1E
100
AcDbEntity
  8
0
100
AcDbLine
 10
10.92179999999999
 20
16.0
 30
0.0
 11
11.108
 21
16.0
 31
0.0
  0
LINE
  5
79
330
1E
100
AcDbEntity
  8
0
100
AcDbLine
 10
10.92179999999999
 20
16.0
 30
0.0
 11
11.1638
 21
16.0
 31
0.0
  0
LINE
  5
7A
330
1E
100
AcDbEntity
  8
0
100
AcDbLine
 10
11.1638
 20
16.0
 30
0.0
 11
11.7782
 21
16.0
 31
0.0
  0
LINE
  5
7B
330
1E
100
AcDbEntity
  8
0
100
AcDbLine
 10
11.108
 20
16.0
 30
0.0
 11
11.6683
 21
16.0
 31
0.0
  0
LINE
  5
7C
330
1E
100
AcDbEntity
  8
0
100
AcDbLine
 10
11.7947
 20
16.0
 30
0.0
 11
13.0
 21
16.0
 31
0.0
  0
LINE
  5
7D
330
1E
100
AcDbEntity
  8
0
100
AcDbLine
 10
11.7782
 20
16.0
 30
0.0
 11
12.8971
 21
16.0
 31
0.0
  0
LINE
  5
7E
330
1E
100
AcDbEntity
  8
0
100
AcDbLine
 10
11.6683
 20
16.0
 30
0.0
 11
12.7668
 21
16.0
 31
0.0
  0
LINE
  5
7F
330
1E
100
AcDbEntity
  8
0
100
AcDbLine
 10
11.27369999999999
 20
23.0
 30
0.0
 11
13.4187
 21
23.0
 31
0.0
  0
LINE
  5
80
330
1E
100
AcDbEntity
  8
0
100
AcDbLine
 10
11.27369999999999
 20
16.1484
 30
0.0
 11
13.4187
 21
16.08249999999999
 31
0.0
  0
LINE
  5
81
330
1E
100
AcDbEntity
  8
0
100
AcDbLine
 10
13.12
 20
10.0
 30
0.0
 11
13.3
 21
10.0
 31
0.0
  0
LINE
  5
82
330
1E
100
AcDbEntity
  8
0
100
AcDbLine
 10
13.0
 20
16.0
 30
0.0
 11
13.18
 21
16.0
 31
0.0
  0
LINE
  5
83
330
1E
100
AcDbEntity
  8
0
100
AcDbLine
 10
13.0
 20
16.0
 30
0.0
 11
13.0
 21
10.36
 31
0.0
  0
LINE
  5
84
330
1E
100
AcDbEntity
  8
0
100
AcDbLine
 10
13.0
 20
10.36
 30
0.0
 11
13.0
 21
16.0
 31
0.0
  0
LINE
  5
85
330
1E
100
AcDbEntity
  8
0
100
AcDbLine
 10
13.0
 20
10.36
 30
0.0
 11
13.12
 21
10.0
 31
0.0
  0
LINE
  5
86
330
1E
100
AcDbEntity
  8
0
100
AcDbLine
 10
13.3
 20
10.0
 30
0.0
 11
13.78
 21
10.0
 31
0.0
  0
LINE
  5
87
330
1E
100
AcDbEntity
  8
0
100
AcDbLine
 10
13.18
 20
16.0
 30
0.0
 11
13.66
 21
16.0
 31
0.0
  0
LINE
  5
88
330
1E
100
AcDbEntity
  8
0
100
AcDbLine
 10
12.8971
 20
16.0
 30
0.0
 11
13.0
 21
16.0
 31
0.0
  0
LINE
  5
89
330
1E
100
AcDbEntity
  8
0
100
AcDbLine
 10
12.7668
 20
16.0
 30
0.0
 11
14.2935
 21
16.0
 31
0.0
  0
LINE
  5
8A
330
1E
100
AcDbEntity
  8
0
100
AcDbLine
 10
13.4187
 20
23.0
 30
0.0
 11
15.55209999999999
 21
23.0
 31
0.0
  0
LINE
  5
8B
330
1E
100
AcDbEntity
  8
0
100
AcDbLine
 10
13.4187
 20
16.08249999999999
 30
0.0
 11
15.55209999999999
 21
16.1709
 31
0.0
  0
LINE
  5
8D
330
1E
100
AcDbEntity
  8
0
100
AcDbLine
 10
12.048
 20
23.18
 30
0.0
 11
14.92799999999999
 21
23.18
 31
0.0
  0
LINE
  5
8E
330
1E
100
AcDbEntity
  8
0
100
AcDbLine
 10
12.048
 20
25.0
 30
0.0
 11
14.92799999999999
 21
25.0
 31
0.0
  0
LINE
  5
8F
330
1E
100
AcDbEntity
  8
0
100
AcDbLine
 10
11.05599999999999
 20
25.18
 30
0.0
 11
14.416
 21
25.18
 31
0.0
  0
LINE
  5
90
330
1E
100
AcDbEntity
  8
0
100
AcDbLine
 10
11.05599999999999
 20
28.0
 30
0.0
 11
14.416
 21
28.0
 31
0.0
  0
LINE
  5
91
330
1E
100
AcDbEntity
  8
0
100
AcDbLine
 10
13.78
 20
10.0
 30
0.0
 11
14.56
 21
10.0
 31
0.0
  0
LINE
  5
92
330
1E
100
AcDbEntity
  8
0
100
AcDbLine
 10
13.78
 20
10.0
 30
0.0
 11
14.0
 21
10.0
 31
0.0
  0
LINE
  5
93
330
1E
100
AcDbEntity
  8
0
100
AcDbLine
 10
13.66
 20
16.0
 30
0.0
 11
14.46
 21
16.0
 31
0.0
  0
LINE
  5
94
330
1E
100
AcDbEntity
  8
0
100
AcDbLine
 10
14.0
 20
10.0
 30
0.0
 11
14.144
 21
10.0
 31
0.0
  0
LINE
  5
95
330
1E
100
AcDbEntity
  8
0
100
AcDbLine
 10
14.0
 20
10.0
 30
0.0
 11
14.0
 21
0.6000000000000022
 31
0.0
  0
LINE
  5
96
330
1E
100
AcDbEntity
  8
0
100
AcDbLine
 10
14.24
 20
0.0000000000000017
 30
0.0
 11
14.624
 21
0.0000000000000016
 31
0.0
  0
LINE
  5
97
330
1E
100
AcDbEntity
  8
0
100
AcDbLine
 10
14.096
 20
0.0000000000000017
 30
0.0
 11
14.24
 21
0.0000000000000018
 31
0.0
  0
LINE
  5
98
330
1E
100
AcDbEntity
  8
0
100
AcDbLine
 10
14.096
 20
0.0000000000000017
 30
0.0
 11
14.24
 21
0.0000000000000017
 31
0.0
  0
LINE
  5
99
330
1E
100
AcDbEntity
  8
0
100
AcDbLine
 10
14.24
 20
0.0000000000000018
 30
0.0
 11
14.624
 21
0.0000000000000018
 31
0.0
  0
LINE
  5
9A
330
1E
100
AcDbEntity
  8
0
100
AcDbLine
 10
14.0
 20
0.6000000000000022
 30
0.0
 11
14.0
 21
10.0
 31
0.0
  0
LINE
  5
9B
330
1E
100
AcDbEntity
  8
0
100
AcDbLine
 10
14.0
 20
0.6000000000000022
 30
0.0
 11
14.096
 21
0.0000000000000017
 31
0.0
  0
LINE
  5
9C
330
1E
100
AcDbEntity
  8
0
100
AcDbLine
 10
14.0
 20
0.6000000000000022
 30
0.0
 11
14.096
 21
0.0000000000000017
 31
0.0
  0
LINE
  5
9D
330
1E
100
AcDbEntity
  8
0
100
AcDbLine
 10
14.144
 20
10.0
 30
0.0
 11
14.52799999999999
 21
10.0
 31
0.0
  0
LINE
  5
9E
330
1E
100
AcDbEntity
  8
0
100
AcDbLine
 10
14.2935
 20
16.0
 30
0.0
 11
15.9486
 21
16.0
 31
0.0
  0
LINE
  5
9F
330
1E
100
AcDbEntity
  8
0
100
AcDbLine
 10
14.416
 20
25.18
 30
0.0
 11
18.0
 21
25.18
 31
0.0
  0
LINE
  5
A0
330
1E
100
AcDbEntity
  8
0
100
AcDbLine
 10
14.52799999999999
 20
10.0
 30
0.0
 11
15.16799999999999
 21
10.0
 31
0.0
  0
LINE
  5
A1
330
1E
100
AcDbEntity
  8
0
100
AcDbLine
 10
14.56
 20
10.0
 30
0.0
 11
15.58
 21
10.0
 31
0.0
  0
LINE
  5
A2
330
1E
100
AcDbEntity
  8
0
100
AcDbLine
 10
14.46
 20
16.0
 30
0.0
 11
15.52
 21
16.0
 31
0.0
  0
LINE
  5
A3
330
1E
100
AcDbEntity
  8
0
100
AcDbLine
 10
14.416
 20
28.0
 30
0.0
 11
18.0
 21
28.0
 31
0.0
  0
LINE
  5
A4
330
1E
100
AcDbEntity
  8
0
100
AcDbLine
 10
13.968
 20
28.0
 30
0.0
 11
18.0
 21
28.0
 31
0.0
  0
LINE
  5
A5
330
1E
100
AcDbEntity
  8
0
100
AcDbLine
 10
13.904
 20
28.3
 30
0.0
 11
18.0
 21
28.3
 31
0.0
  0
LINE
  5
A6
330
1E
100
AcDbEntity
  8
0
100
AcDbLine
 10
13.904
 20
33.0
 30
0.0
 11
18.0
 21
33.0
 31
0.0
  0
LINE
  5
A7
330
1E
100
AcDbEntity
  8
0
100
AcDbLine
 10
13.464
 20
33.0
 30
0.0
 11
18.0
 21
33.0
 31
0.0
  0
LINE
  5
AB
330
1E
100
AcDbEntity
  8
0
100
AcDbLine
 10
13.392
 20
33.6
 30
0.0
 11
18.0
 21
33.6
 31
0.0
  0
LINE
  5
AC
330
1E
100
AcDbEntity
  8
0
100
AcDbLine
 10
10.481
 20
41.0
 30
0.0
 11
11.3799
 21
41.0
 31
0.0
  0
LINE
  5
AD
330
1E
100
AcDbEntity
  8
0
100
AcDbLine
 10
6.493699999999999
 20
47.8736
 30
0.0
 11
8.318199999999999
 21
44.5368
 31
0.0
  0
LINE
  5
B0
330
1E
100
AcDbEntity
  8
0
100
AcDbLine
 10
8.318199999999999
 20
44.5368
 30
0.0
 11
9.596
 21
42.1999
 31
0.0
  0
LINE
  5
B1
330
1E
100
AcDbEntity
  8
0
100
AcDbLine
 10
9.596
 20
42.1999
 30
0.0
 11
10.055
 21
41.3603
 31
0.0
  0
LINE
  5
B6
330
1E
100
AcDbEntity
  8
0
100
AcDbLine
 10
13.1249
 20
45.1508
 30
0.0
 11
15.5879
 21
44.27909999999999
 31
0.0
  0
LINE
  5
B7
330
1E
100
AcDbEntity
  8
0
100
AcDbLine
 10
10.604
 20
46.8595
 30
0.0
 11
13.1249
 21
45.1508
 31
0.0
  0
LINE
  5
BA
330
1E
100
AcDbEntity
  8
0
100
AcDbLine
 10
11.3799
 20
41.0
 30
0.0
 11
14.5636
 21
41.0
 31
0.0
  0
LINE
  5
BB
330
1E
100
AcDbEntity
  8
0
100
AcDbLine
 10
14.624
 20
0.0000000000000016
 30
0.0
 11
15.24799999999999
 21
0.0000000000000016
 31
0.0
  0
LINE
  5
BC
330
1E
100
AcDbEntity
  8
0
100
AcDbLine
 10
14.624
 20
0.0000000000000018
 30
0.0
 11
15.24799999999999
 21
0.0000000000000019
 31
0.0
  0
LINE
  5
BD
330
1E
100
AcDbEntity
  8
0
100
AcDbLine
 10
15.24799999999999
 20
0.0000000000000016
 30
0.0
 11
16.064
 21
0.0000000000000015
 31
0.0
  0
LINE
  5
BE
330
1E
100
AcDbEntity
  8
0
100
AcDbLine
 10
15.24799999999999
 20
0.0000000000000019
 30
0.0
 11
16.064
 21
0.0000000000000019
 31
0.0
  0
LINE
  5
BF
330
1E
100
AcDbEntity
  8
0
100
AcDbLine
 10
15.16799999999999
 20
10.0
 30
0.0
 11
16.01599999999999
 21
10.0
 31
0.0
  0
LINE
  5
C0
330
1E
100
AcDbEntity
  8
0
100
AcDbLine
 10
15.58
 20
10.0
 30
0.0
 11
16.73999999999999
 21
10.0
 31
0.0
  0
LINE
  5
C1
330
1E
100
AcDbEntity
  8
0
100
AcDbLine
 10
15.52
 20
16.0
 30
0.0
 11
16.71999999999999
 21
16.0
 31
0.0
  0
LINE
  5
C2
330
1E
100
AcDbEntity
  8
0
100
AcDbLine
 10
16.064
 20
0.0000000000000015
 30
0.0
 11
16.992
 21
0.0000000000000015
 31
0.0
  0
LINE
  5
C3
330
1E
100
AcDbEntity
  8
0
100
AcDbLine
 10
16.064
 20
0.0000000000000019
 30
0.0
 11
16.992
 21
0.000000000000002
 31
0.0
  0
LINE
  5
C4
330
1E
100
AcDbEntity
  8
0
100
AcDbLine
 10
16.01599999999999
 20
10.0
 30
0.0
 11
16.97599999999999
 21
10.0
 31
0.0
  0
LINE
  5
C5
330
1E
100
AcDbEntity
  8
0
100
AcDbLine
 10
16.992
 20
0.0000000000000015
 30
0.0
 11
18.0
 21
0.0000000000000015
 31
0.0
  0
LINE
  5
C6
330
1E
100
AcDbEntity
  8
0
100
AcDbLine
 10
16.992
 20
0.000000000000002
 30
0.0
 11
18.0
 21
0.000000000000002
 31
0.0
  0
LINE
  5
C7
330
1E
100
AcDbEntity
  8
0
100
AcDbLine
 10
16.97599999999999
 20
10.0
 30
0.0
 11
18.0
 21
10.0
 31
0.0
  0
LINE
  5
C8
330
1E
100
AcDbEntity
  8
0
100
AcDbLine
 10
16.73999999999999
 20
10.0
 30
0.0
 11
18.0
 21
10.0
 31
0.0
  0
LINE
  5
C9
330
1E
100
AcDbEntity
  8
0
100
AcDbLine
 10
16.71999999999999
 20
16.0
 30
0.0
 11
18.0
 21
16.0
 31
0.0
  0
LINE
  5
CA
330
1E
100
AcDbEntity
  8
0
100
AcDbLine
 10
18.0
 20
0.000000000000002
 30
0.0
 11
19.008
 21
0.000000000000002
 31
0.0
  0
LINE
  5
CB
330
1E
100
AcDbEntity
  8
0
100
AcDbLine
 10
18.0
 20
0.0000000000000015
 30
0.0
 11
19.008
 21
0.0000000000000015
 31
0.0
  0
LINE
  5
CC
330
1E
100
AcDbEntity
  8
0
100
AcDbLine
 10
18.0
 20
10.0
 30
0.0
 11
19.26
 21
10.0
 31
0.0
  0
LINE
  5
CD
330
1E
100
AcDbEntity
  8
0
100
AcDbLine
 10
18.0
 20
10.0
 30
0.0
 11
19.024
 21
10.0
 31
0.0
  0
LINE
  5
CE
330
1E
100
AcDbEntity
  8
0
100
AcDbLine
 10
18.0
 20
16.0
 30
0.0
 11
20.2737
 21
16.0
 31
0.0
  0
LINE
  5
CF
330
1E
100
AcDbEntity
  8
0
100
AcDbLine
 10
18.0
 20
16.0
 30
0.0
 11
19.28
 21
16.0
 31
0.0
  0
LINE
  5
D0
330
1E
100
AcDbEntity
  8
0
100
AcDbLine
 10
17.9407
 20
16.0
 30
0.0
 11
19.8211
 21
16.0
 31
0.0
  0
LINE
  5
D3
330
1E
100
AcDbEntity
  8
0
100
AcDbLine
 10
15.9486
 20
16.0
 30
0.0
 11
17.9407
 21
16.0
 31
0.0
  0
LINE
  5
D5
330
1E
100
AcDbEntity
  8
0
100
AcDbLine
 10
18.0
 20
16.4082
 30
0.0
 11
19.1123
 21
16.4082
 31
0.0
  0
LINE
  5
D6
330
1E
100
AcDbEntity
  8
0
100
AcDbLine
 10
18.0
 20
23.0
 30
0.0
 11
18.5203
 21
23.0
 31
0.0
  0
LINE
  5
D7
330
1E
100
AcDbEntity
  8
0
100
AcDbLine
 10
17.4797
 20
23.0
 30
0.0
 11
18.0
 21
23.0
 31
0.0
  0
LINE
  5
D8
330
1E
100
AcDbEntity
  8
0
100
AcDbLine
 10
16.88769999999999
 20
23.0
 30
0.0
 11
17.4797
 21
23.0
 31
0.0
  0
LINE
  5
DB
330
1E
100
AcDbEntity
  8
0
100
AcDbLine
 10
16.88769999999999
 20
16.4082
 30
0.0
 11
18.0
 21
16.4082
 31
0.0
  0
LINE
  5
DC
330
1E
100
AcDbEntity
  8
0
100
AcDbLine
 10
15.55209999999999
 20
23.0
 30
0.0
 11
16.88769999999999
 21
23.0
 31
0.0
  0
LINE
  5
DE
330
1E
100
AcDbEntity
  8
0
100
AcDbLine
 10
15.55209999999999
 20
16.1709
 30
0.0
 11
16.88769999999999
 21
16.4082
 31
0.0
  0
LINE
  5
DF
330
1E
100
AcDbEntity
  8
0
100
AcDbLine
 10
14.92799999999999
 20
23.18
 30
0.0
 11
18.0
 21
23.18
 31
0.0
  0
LINE
  5
E0
330
1E
100
AcDbEntity
  8
0
100
AcDbLine
 10
14.92799999999999
 20
25.0
 30
0.0
 11
18.0
 21
25.0
 31
0.0
  0
LINE
  5
E1
330
1E
100
AcDbEntity
  8
0
100
AcDbLine
 10
18.0
 20
23.18
 30
0.0
 11
21.072
 21
23.18
 31
0.0
  0
LINE
  5
E2
330
1E
100
AcDbEntity
  8
0
100
AcDbLine
 10
18.0
 20
25.0
 30
0.0
 11
21.072
 21
25.0
 31
0.0
  0
LINE
  5
E3
330
1E
100
AcDbEntity
  8
0
100
AcDbLine
 10
18.0
 20
25.18
 30
0.0
 11
21.58399999999999
 21
25.18
 31
0.0
  0
LINE
  5
E4
330
1E
100
AcDbEntity
  8
0
100
AcDbLine
 10
18.0
 20
28.0
 30
0.0
 11
22.03199999999999
 21
28.0
 31
0.0
  0
LINE
  5
E5
330
1E
100
AcDbEntity
  8
0
100
AcDbLine
 10
18.0
 20
28.0
 30
0.0
 11
21.58399999999999
 21
28.0
 31
0.0
  0
LINE
  5
E6
330
1E
100
AcDbEntity
  8
0
100
AcDbLine
 10
18.0
 20
28.3
 30
0.0
 11
22.096
 21
28.3
 31
0.0
  0
LINE
  5
E7
330
1E
100
AcDbEntity
  8
0
100
AcDbLine
 10
19.008
 20
0.000000000000002
 30
0.0
 11
19.93599999999999
 21
0.0000000000000019
 31
0.0
  0
LINE
  5
E8
330
1E
100
AcDbEntity
  8
0
100
AcDbLine
 10
19.024
 20
10.0
 30
0.0
 11
19.984
 21
10.0
 31
0.0
  0
LINE
  5
E9
330
1E
100
AcDbEntity
  8
0
100
AcDbLine
 10
19.008
 20
0.0000000000000015
 30
0.0
 11
19.93599999999999
 21
0.0000000000000015
 31
0.0
  0
LINE
  5
EA
330
1E
100
AcDbEntity
  8
0
100
AcDbLine
 10
19.26
 20
10.0
 30
0.0
 11
20.42
 21
10.0
 31
0.0
  0
LINE
  5
EB
330
1E
100
AcDbEntity
  8
0
100
AcDbLine
 10
19.93599999999999
 20
0.0000000000000019
 30
0.0
 11
20.752
 21
0.0000000000000019
 31
0.0
  0
LINE
  5
EC
330
1E
100
AcDbEntity
  8
0
100
AcDbLine
 10
19.984
 20
10.0
 30
0.0
 11
20.83199999999999
 21
10.0
 31
0.0
  0
LINE
  5
ED
330
1E
100
AcDbEntity
  8
0
100
AcDbLine
 10
19.93599999999999
 20
0.0000000000000015
 30
0.0
 11
20.752
 21
0.0000000000000016
 31
0.0
  0
LINE
  5
EE
330
1E
100
AcDbEntity
  8
0
100
AcDbLine
 10
19.28
 20
16.0
 30
0.0
 11
20.48
 21
16.0
 31
0.0
  0
LINE
  5
EF
330
1E
100
AcDbEntity
  8
0
100
AcDbLine
 10
19.8211
 20
16.0
 30
0.0
 11
21.5898
 21
16.0
 31
0.0
  0
LINE
  5
F0
330
1E
100
AcDbEntity
  8
0
100
AcDbLine
 10
20.752
 20
0.0000000000000019
 30
0.0
 11
21.37599999999999
 21
0.0000000000000018
 31
0.0
  0
LINE
  5
F1
330
1E
100
AcDbEntity
  8
0
100
AcDbLine
 10
20.83199999999999
 20
10.0
 30
0.0
 11
21.47199999999999
 21
10.0
 31
0.0
  0
LINE
  5
F2
330
1E
100
AcDbEntity
  8
0
100
AcDbLine
 10
20.752
 20
0.0000000000000016
 30
0.0
 11
21.37599999999999
 21
0.0000000000000016
 31
0.0
  0
LINE
  5
F3
330
1E
100
AcDbEntity
  8
0
100
AcDbLine
 10
20.42
 20
10.0
 30
0.0
 11
21.44
 21
10.0
 31
0.0
  0
LINE
  5
F4
330
1E
100
AcDbEntity
  8
0
100
AcDbLine
 10
20.48
 20
16.0
 30
0.0
 11
21.53999999999999
 21
16.0
 31
0.0
  0
LINE
  5
F6
330
1E
100
AcDbEntity
  8
0
100
AcDbLine
 10
20.2737
 20
16.0
 30
0.0
 11
22.3579
 21
16.0
 31
0.0
  0
LINE
  5
F8
330
1E
100
AcDbEntity
  8
0
100
AcDbLine
 10
18.5203
 20
23.0
 30
0.0
 11
19.1123
 21
23.0
 31
0.0
  0
LINE
  5
FA
330
1E
100
AcDbEntity
  8
0
100
AcDbLine
 10
19.1123
 20
23.0
 30
0.0
 11
20.4479
 21
23.0
 31
0.0
  0
LINE
  5
FB
330
1E
100
AcDbEntity
  8
0
100
AcDbLine
 10
19.1123
 20
16.4082
 30
0.0
 11
20.4479
 21
16.1709
 31
0.0
  0
LINE
  5
FC
330
1E
100
AcDbEntity
  8
0
100
AcDbLine
 10
20.4479
 20
23.0
 30
0.0
 11
22.58129999999999
 21
23.0
 31
0.0
  0
LINE
  5
FD
330
1E
100
AcDbEntity
  8
0
100
AcDbLine
 10
20.4479
 20
16.1709
 30
0.0
 11
22.58129999999999
 21
16.08249999999999
 31
0.0
  0
LINE
  5
FE
330
1E
100
AcDbEntity
  8
0
100
AcDbLine
 10
21.37599999999999
 20
0.0000000000000018
 30
0.0
 11
21.76
 21
0.0000000000000018
 31
0.0
  0
LINE
  5
FF
330
1E
100
AcDbEntity
  8
0
100
AcDbLine
 10
21.37599999999999
 20
0.0000000000000016
 30
0.0
 11
21.76
 21
0.0000000000000017
 31
0.0
  0
LINE
  5
100
330
1E
100
AcDbEntity
  8
0
100
AcDbLine
 10
21.072
 20
23.18
 30
0.0
 11
23.95199999999999
 21
23.18
 31
0.0
  0
LINE
  5
101
330
1E
100
AcDbEntity
  8
0
100
AcDbLine
 10
21.072
 20
25.0
 30
0.0
 11
23.95199999999999
 21
25.0
 31
0.0
  0
LINE
  5
102
330
1E
100
AcDbEntity
  8
0
100
AcDbLine
 10
18.0
 20
33.0
 30
0.0
 11
22.536
 21
33.0
 31
0.0
  0
LINE
  5
103
330
1E
100
AcDbEntity
  8
0
100
AcDbLine
 10
18.0
 20
33.0
 30
0.0
 11
22.096
 21
33.0
 31
0.0
  0
LINE
  5
10B
330
1E
100
AcDbEntity
  8
0
100
AcDbLine
 10
18.0
 20
33.6
 30
0.0
 11
22.608
 21
33.6
 31
0.0
  0
LINE
  5
10C
330
1E
100
AcDbEntity
  8
0
100
AcDbLine
 10
21.47199999999999
 20
10.0
 30
0.0
 11
21.85599999999999
 21
10.0
 31
0.0
  0
LINE
  5
10D
330
1E
100
AcDbEntity
  8
0
100
AcDbLine
 10
21.44
 20
10.0
 30
0.0
 11
22.21999999999999
 21
10.0
 31
0.0
  0
LINE
  5
10E
330
1E
100
AcDbEntity
  8
0
100
AcDbLine
 10
21.53999999999999
 20
16.0
 30
0.0
 11
22.33999999999999
 21
16.0
 31
0.0
  0
LINE
  5
10F
330
1E
100
AcDbEntity
  8
0
100
AcDbLine
 10
21.58399999999999
 20
25.18
 30
0.0
 11
24.944
 21
25.18
 31
0.0
  0
LINE
  5
110
330
1E
100
AcDbEntity
  8
0
100
AcDbLine
 10
21.76
 20
0.0000000000000018
 30
0.0
 11
21.90399999999999
 21
0.0000000000000017
 31
0.0
  0
LINE
  5
111
330
1E
100
AcDbEntity
  8
0
100
AcDbLine
 10
21.90399999999999
 20
0.0000000000000017
 30
0.0
 11
22.0
 21
0.6000000000000022
 31
0.0
  0
LINE
  5
112
330
1E
100
AcDbEntity
  8
0
100
AcDbLine
 10
21.90399999999999
 20
0.0000000000000017
 30
0.0
 11
22.0
 21
0.6000000000000022
 31
0.0
  0
LINE
  5
113
330
1E
100
AcDbEntity
  8
0
100
AcDbLine
 10
21.76
 20
0.0000000000000017
 30
0.0
 11
21.90399999999999
 21
0.0000000000000017
 31
0.0
  0
LINE
  5
114
330
1E
100
AcDbEntity
  8
0
100
AcDbLine
 10
21.85599999999999
 20
10.0
 30
0.0
 11
22.0
 21
10.0
 31
0.0
  0
LINE
  5
115
330
1E
100
AcDbEntity
  8
0
100
AcDbLine
 10
22.0
 20
0.6000000000000022
 30
0.0
 11
22.0
 21
10.0
 31
0.0
  0
LINE
  5
116
330
1E
100
AcDbEntity
  8
0
100
AcDbLine
 10
22.0
 20
10.0
 30
0.0
 11
22.21999999999999
 21
10.0
 31
0.0
  0
LINE
  5
117
330
1E
100
AcDbEntity
  8
0
100
AcDbLine
 10
22.0
 20
10.0
 30
0.0
 11
22.0
 21
0.6000000000000022
 31
0.0
  0
LINE
  5
118
330
1E
100
AcDbEntity
  8
0
100
AcDbLine
 10
21.5898
 20
16.0
 30
0.0
 11
23.2337
 21
16.0
 31
0.0
  0
LINE
  5
119
330
1E
100
AcDbEntity
  8
0
100
AcDbLine
 10
21.58399999999999
 20
28.0
 30
0.0
 11
24.944
 21
28.0
 31
0.0
  0
LINE
  5
11A
330
1E
100
AcDbEntity
  8
0
100
AcDbLine
 10
22.03199999999999
 20
28.0
 30
0.0
 11
25.744
 21
28.0
 31
0.0
  0
LINE
  5
11B
330
1E
100
AcDbEntity
  8
0
100
AcDbLine
 10
22.33999999999999
 20
16.0
 30
0.0
 11
22.82
 21
16.0
 31
0.0
  0
LINE
  5
11C
330
1E
100
AcDbEntity
  8
0
100
AcDbLine
 10
22.21999999999999
 20
10.0
 30
0.0
 11
22.7
 21
10.0
 31
0.0
  0
LINE
  5
11E
330
1E
100
AcDbEntity
  8
0
100
AcDbLine
 10
22.096
 20
28.3
 30
0.0
 11
25.936
 21
28.3
 31
0.0
  0
LINE
  5
11F
330
1E
100
AcDbEntity
  8
0
100
AcDbLine
 10
22.096
 20
33.0
 30
0.0
 11
25.936
 21
33.0
 31
0.0
  0
LINE
  5
120
330
1E
100
AcDbEntity
  8
0
100
AcDbLine
 10
22.7
 20
10.0
 30
0.0
 11
22.87999999999999
 21
10.0
 31
0.0
  0
LINE
  5
121
330
1E
100
AcDbEntity
  8
0
100
AcDbLine
 10
22.87999999999999
 20
10.0
 30
0.0
 11
23.0
 21
10.36
 31
0.0
  0
LINE
  5
122
330
1E
100
AcDbEntity
  8
0
100
AcDbLine
 10
22.82
 20
16.0
 30
0.0
 11
23.0
 21
16.0
 31
0.0
  0
LINE
  5
123
330
1E
100
AcDbEntity
  8
0
100
AcDbLine
 10
23.0
 20
10.36
 30
0.0
 11
23.0
 21
16.0
 31
0.0
  0
LINE
  5
124
330
1E
100
AcDbEntity
  8
0
100
AcDbLine
 10
23.2337
 20
16.0
 30
0.0
 11
24.3322
 21
16.0
 31
0.0
  0
LINE
  5
125
330
1E
100
AcDbEntity
  8
0
100
AcDbLine
 10
23.1406
 20
16.0
 30
0.0
 11
24.2018
 21
16.0
 31
0.0
  0
LINE
  5
126
330
1E
100
AcDbEntity
  8
0
100
AcDbLine
 10
23.0
 20
16.0
 30
0.0
 11
23.1406
 21
16.0
 31
0.0
  0
LINE
  5
127
330
1E
100
AcDbEntity
  8
0
100
AcDbLine
 10
23.0
 20
16.0
 30
0.0
 11
24.2052
 21
16.0
 31
0.0
  0
LINE
  5
128
330
1E
100
AcDbEntity
  8
0
100
AcDbLine
 10
23.0
 20
16.0
 30
0.0
 11
23.0
 21
10.36
 31
0.0
  0
LINE
  5
129
330
1E
100
AcDbEntity
  8
0
100
AcDbLine
 10
22.58129999999999
 20
23.0
 30
0.0
 11
24.7263
 21
23.0
 31
0.0
  0
LINE
  5
12A
330
1E
100
AcDbEntity
  8
0
100
AcDbLine
 10
22.58129999999999
 20
16.08249999999999
 30
0.0
 11
24.7263
 21
16.1484
 31
0.0
  0
LINE
  5
12C
330
1E
100
AcDbEntity
  8
0
100
AcDbLine
 10
24.2018
 20
16.0
 30
0.0
 11
24.8535
 21
16.0
 31
0.0
  0
LINE
  5
12D
330
1E
100
AcDbEntity
  8
0
100
AcDbLine
 10
24.8535
 20
16.0
 30
0.0
 11
25.05819999999999
 21
16.0
 31
0.0
  0
LINE
  5
12E
330
1E
100
AcDbEntity
  8
0
100
AcDbLine
 10
24.3322
 20
16.0
 30
0.0
 11
24.8535
 21
16.0
 31
0.0
  0
LINE
  5
12F
330
1E
100
AcDbEntity
  8
0
100
AcDbLine
 10
24.2052
 20
16.0
 30
0.0
 11
25.579
 21
16.0
 31
0.0
  0
LINE
  5
130
330
1E
100
AcDbEntity
  8
0
100
AcDbLine
 10
24.7263
 20
23.0
 30
0.0
 11
26.2286
 21
23.0
 31
0.0
  0
LINE
  5
131
330
1E
100
AcDbEntity
  8
0
100
AcDbLine
 10
24.7263
 20
16.1484
 30
0.0
 11
26.2286
 21
16.4082
 31
0.0
  0
LINE
  5
132
330
1E
100
AcDbEntity
  8
0
100
AcDbLine
 10
23.95199999999999
 20
23.18
 30
0.0
 11
26.49599999999999
 21
23.18
 31
0.0
  0
LINE
  5
133
330
1E
100
AcDbEntity
  8
0
100
AcDbLine
 10
23.95199999999999
 20
25.0
 30
0.0
 11
26.49599999999999
 21
25.0
 31
0.0
  0
LINE
  5
134
330
1E
100
AcDbEntity
  8
0
100
AcDbLine
 10
24.944
 20
25.18
 30
0.0
 11
27.91199999999999
 21
25.18
 31
0.0
  0
LINE
  5
135
330
1E
100
AcDbEntity
  8
0
100
AcDbLine
 10
24.944
 20
28.0
 30
0.0
 11
27.91199999999999
 21
28.0
 31
0.0
  0
LINE
  5
136
330
1E
100
AcDbEntity
  8
0
100
AcDbLine
 10
22.536
 20
33.0
 30
0.0
 11
26.712
 21
33.0
 31
0.0
  0
LINE
  5
13A
330
1E
100
AcDbEntity
  8
0
100
AcDbLine
 10
22.608
 20
33.6
 30
0.0
 11
26.928
 21
33.6
 31
0.0
  0
LINE
  5
13B
330
1E
100
AcDbEntity
  8
0
100
AcDbLine
 10
25.579
 20
16.0
 30
0.0
 11
26.43159999999999
 21
16.0
 31
0.0
  0
LINE
  5
13C
330
1E
100
AcDbEntity
  8
0
100
AcDbLine
 10
25.744
 20
28.0
 30
0.0
 11
29.008
 21
28.0
 31
0.0
  0
LINE
  5
13D
330
1E
100
AcDbEntity
  8
0
100
AcDbLine
 10
25.936
 20
28.3
 30
0.0
 11
29.328
 21
28.3
 31
0.0
  0
LINE
  5
13E
330
1E
100
AcDbEntity
  8
0
100
AcDbLine
 10
25.936
 20
33.0
 30
0.0
 11
29.328
 21
33.0
 31
0.0
  0
LINE
  5
13F
330
1E
100
AcDbEntity
  8
0
100
AcDbLine
 10
24.6201
 20
41.0
 30
0.0
 11
25.519
 21
41.0
 31
0.0
  0
LINE
  5
141
330
1E
100
AcDbEntity
  8
0
100
AcDbLine
 10
21.43639999999999
 20
41.0
 30
0.0
 11
24.6201
 21
41.0
 31
0.0
  0
LINE
  5
142
330
1E
100
AcDbEntity
  8
0
100
AcDbLine
 10
18.16679999999999
 20
43.9895
 30
0.0
 11
20.68779999999999
 21
44.3659
 31
0.0
  0
LINE
  5
146
330
1E
100
AcDbEntity
  8
0
100
AcDbLine
 10
18.0
 20
41.0
 30
0.0
 11
21.43639999999999
 21
41.0
 31
0.0
  0
LINE
  5
14A
330
1E
100
AcDbEntity
  8
0
100
AcDbLine
 10
26.2286
 20
23.0
 30
0.0
 11
26.7684
 21
23.0
 31
0.0
  0
LINE
  5
14B
330
1E
100
AcDbEntity
  8
0
100
AcDbLine
 10
26.43159999999999
 20
16.0
 30
0.0
 11
26.7632
 21
16.0
 31
0.0
  0
LINE
  5
14D
330
1E
100
AcDbEntity
  8
0
100
AcDbLine
 10
26.2286
 20
16.4082
 30
0.0
 11
26.8106
 21
16.4082
 31
0.0
  0
LINE
  5
14E
330
1E
100
AcDbEntity
  8
0
100
AcDbLine
 10
26.49599999999999
 20
23.18
 30
0.0
 11
28.416
 21
23.18
 31
0.0
  0
LINE
  5
14F
330
1E
100
AcDbEntity
  8
0
100
AcDbLine
 10
26.7632
 20
16.0
 30
0.0
 11
27.0
 21
16.0408
 31
0.0
  0
LINE
  5
150
330
1E
100
AcDbEntity
  8
0
100
AcDbLine
 10
26.7684
 20
23.0
 30
0.0
 11
27.0
 21
23.0
 31
0.0
  0
LINE
  5
151
330
1E
100
AcDbEntity
  8
0
100
AcDbLine
 10
26.8106
 20
16.4082
 30
0.0
 11
27.0
 21
16.4082
 31
0.0
  0
LINE
  5
152
330
1E
100
AcDbEntity
  8
0
100
AcDbLine
 10
26.49599999999999
 20
25.0
 30
0.0
 11
28.416
 21
25.0
 31
0.0
  0
LINE
  5
153
330
1E
100
AcDbEntity
  8
0
100
AcDbLine
 10
26.712
 20
33.0
 30
0.0
 11
30.384
 21
33.0
 31
0.0
  0
LINE
  5
154
330
1E
100
AcDbEntity
  8
0
100
AcDbLine
 10
27.0
 20
16.0408
 30
0.0
 11
27.0
 21
16.09799999999999
 31
0.0
  0
LINE
  5
155
330
1E
100
AcDbEntity
  8
0
100
AcDbLine
 10
27.0
 20
16.8163
 30
0.0
 11
27.0
 21
16.4082
 31
0.0
  0
LINE
  5
156
330
1E
100
AcDbEntity
  8
0
100
AcDbLine
 10
27.0
 20
16.8163
 30
0.0
 11
27.0
 21
23.0
 31
0.0
  0
LINE
  5
157
330
1E
100
AcDbEntity
  8
0
100
AcDbLine
 10
27.0
 20
16.4082
 30
0.0
 11
27.0
 21
16.09799999999999
 31
0.0
  0
LINE
  5
158
330
1E
100
AcDbEntity
  8
0
100
AcDbLine
 10
27.0
 20
16.4082
 30
0.0
 11
27.0
 21
16.8163
 31
0.0
  0
LINE
  5
159
330
1E
100
AcDbEntity
  8
0
100
AcDbLine
 10
27.0
 20
16.09799999999999
 30
0.0
 11
27.0
 21
16.0408
 31
0.0
  0
LINE
  5
15A
330
1E
100
AcDbEntity
  8
0
100
AcDbLine
 10
27.0
 20
16.09799999999999
 30
0.0
 11
27.0
 21
16.4082
 31
0.0
  0
LINE
  5
15B
330
1E
100
AcDbEntity
  8
0
100
AcDbLine
 10
27.0
 20
23.0
 30
0.0
 11
28.128
 21
23.0
 31
0.0
  0
LINE
  5
15C
330
1E
100
AcDbEntity
  8
0
100
AcDbLine
 10
27.0
 20
23.0
 30
0.0
 11
27.0
 21
16.8163
 31
0.0
  0
LINE
  5
15D
330
1E
100
AcDbEntity
  8
0
100
AcDbLine
 10
27.91199999999999
 20
25.18
 30
0.0
 11
30.152
 21
25.18
 31
0.0
  0
LINE
  5
15E
330
1E
100
AcDbEntity
  8
0
100
AcDbLine
 10
28.128
 20
23.0
 30
0.0
 11
29.28
 21
23.0
 31
0.0
  0
LINE
  5
15F
330
1E
100
AcDbEntity
  8
0
100
AcDbLine
 10
27.91199999999999
 20
28.0
 30
0.0
 11
30.152
 21
28.0
 31
0.0
  0
LINE
  5
161
330
1E
100
AcDbEntity
  8
0
100
AcDbLine
 10
26.928
 20
33.6
 30
0.0
 11
30.744
 21
33.6
 31
0.0
  0
LINE
  5
163
330
1E
100
AcDbEntity
  8
0
100
AcDbLine
 10
26.404
 20
42.1999
 30
0.0
 11
27.6818
 21
44.5368
 31
0.0
  0
LINE
  5
164
330
1E
100
AcDbEntity
  8
0
100
AcDbLine
 10
25.945
 20
41.3603
 30
0.0
 11
26.404
 21
42.1999
 31
0.0
  0
LINE
  5
165
330
1E
100
AcDbEntity
  8
0
100
AcDbLine
 10
20.68779999999999
 20
44.3659
 30
0.0
 11
23.1797
 21
45.32169999999999
 31
0.0
  0
LINE
  5
167
330
1E
100
AcDbEntity
  8
0
100
AcDbLine
 10
25.6717
 20
47.0622
 30
0.0
 11
27.5262
 21
49.4949
 31
0.0
  0
LINE
  5
168
330
1E
100
AcDbEntity
  8
0
100
AcDbLine
 10
23.1797
 20
45.32169999999999
 30
0.0
 11
25.6717
 21
47.0622
 31
0.0
  0
LINE
  5
169
330
1E
100
AcDbEntity
  8
0
100
AcDbLine
 10
27.6818
 20
44.5368
 30
0.0
 11
29.5063
 21
47.8736
 31
0.0
  0
LINE
  5
16B
330
1E
100
AcDbEntity
  8
0
100
AcDbLine
 10
15.5879
 20
44.27909999999999
 30
0.0
 11
18.16679999999999
 21
43.9895
 31
0.0
  0
LINE
  5
16C
330
1E
100
AcDbEntity
  8
0
100
AcDbLine
 10
14.5636
 20
41.0
 30
0.0
 11
18.0
 21
41.0
 31
0.0
  0
LINE
  5
16E
330
1E
100
AcDbEntity
  8
0
100
AcDbLine
 10
28.416
 20
23.18
 30
0.0
 11
29.568
 21
23.18
 31
0.0
  0
LINE
  5
16F
330
1E
100
AcDbEntity
  8
0
100
AcDbLine
 10
28.416
 20
25.0
 30
0.0
 11
29.568
 21
25.0
 31
0.0
  0
LINE
  5
170
330
1E
100
AcDbEntity
  8
0
100
AcDbLine
 10
29.28
 20
23.0
 30
0.0
 11
29.71199999999999
 21
23.0
 31
0.0
  0
LINE
  5
171
330
1E
100
AcDbEntity
  8
0
100
AcDbLine
 10
29.008
 20
28.0
 30
0.0
 11
31.504
 21
28.0
 31
0.0
  0
LINE
  5
172
330
1E
100
AcDbEntity
  8
0
100
AcDbLine
 10
29.328
 20
28.3
 30
0.0
 11
31.888
 21
28.3
 31
0.0
  0
LINE
  5
173
330
1E
100
AcDbEntity
  8
0
100
AcDbLine
 10
29.568
 20
23.18
 30
0.0
 11
30.0
 21
23.18
 31
0.0
  0
LINE
  5
174
330
1E
100
AcDbEntity
  8
0
100
AcDbLine
 10
29.71199999999999
 20
23.0
 30
0.0
 11
30.0
 21
23.18
 31
0.0
  0
LINE
  5
175
330
1E
100
AcDbEntity
  8
0
100
AcDbLine
 10
30.0
 20
23.18
 30
0.0
 11
30.0
 21
25.0
 31
0.0
  0
LINE
  5
176
330
1E
100
AcDbEntity
  8
0
100
AcDbLine
 10
29.568
 20
25.0
 30
0.0
 11
30.0
 21
25.0
 31
0.0
  0
LINE
  5
177
330
1E
100
AcDbEntity
  8
0
100
AcDbLine
 10
30.0
 20
25.0
 30
0.0
 11
30.0
 21
23.18
 31
0.0
  0
LINE
  5
178
330
1E
100
AcDbEntity
  8
0
100
AcDbLine
 10
30.152
 20
28.0
 30
0.0
 11
31.49599999999999
 21
28.0
 31
0.0
  0
LINE
  5
179
330
1E
100
AcDbEntity
  8
0
100
AcDbLine
 10
30.152
 20
25.18
 30
0.0
 11
31.49599999999999
 21
25.18
 31
0.0
  0
LINE
  5
17A
330
1E
100
AcDbEntity
  8
0
100
AcDbLine
 10
30.0
 20
25.0
 30
0.0
 11
31.16
 21
25.0
 31
0.0
  0
LINE
  5
17B
330
1E
100
AcDbEntity
  8
0
100
AcDbLine
 10
29.328
 20
33.0
 30
0.0
 11
31.888
 21
33.0
 31
0.0
  0
LINE
  5
17C
330
1E
100
AcDbEntity
  8
0
100
AcDbLine
 10
30.384
 20
33.0
 30
0.0
 11
33.192
 21
33.0
 31
0.0
  0
LINE
  5
17D
330
1E
100
AcDbEntity
  8
0
100
AcDbLine
 10
31.49599999999999
 20
28.0
 30
0.0
 11
32.0
 21
28.0
 31
0.0
  0
LINE
  5
17E
330
1E
100
AcDbEntity
  8
0
100
AcDbLine
 10
31.49599999999999
 20
25.18
 30
0.0
 11
32.0
 21
25.18
 31
0.0
  0
LINE
  5
17F
330
1E
100
AcDbEntity
  8
0
100
AcDbLine
 10
31.16
 20
25.0
 30
0.0
 11
31.664
 21
25.0
 31
0.0
  0
LINE
  5
180
330
1E
100
AcDbEntity
  8
0
100
AcDbLine
 10
30.744
 20
33.6
 30
0.0
 11
33.624
 21
33.6
 31
0.0
  0
LINE
  5
181
330
1E
100
AcDbEntity
  8
0
100
AcDbLine
 10
29.5063
 20
47.8736
 30
0.0
 11
31.3208
 21
51.1921
 31
0.0
  0
LINE
  5
184
330
1E
100
AcDbEntity
  8
0
100
AcDbLine
 10
3.573799999999999
 20
53.2697
 30
0.0
 11
3.64985919521892
 21
53.1267466944212
 31
0.0
  0
LINE
  5
185
330
1E
100
AcDbEntity
  8
0
100
AcDbLine
 10
3.0
 20
55.0
 30
0.0
 11
3.1051
 21
54.1906
 31
0.0
  0
LINE
  5
186
330
1E
100
AcDbEntity
  8
0
100
AcDbLine
 10
3.1051
 20
55.8094
 30
0.0
 11
3.573799999999999
 21
56.7303
 31
0.0
  0
LINE
  5
187
330
1E
100
AcDbEntity
  8
0
100
AcDbLine
 10
3.0
 20
55.0
 30
0.0
 11
3.1051
 21
54.1906
 31
0.0
  0
LINE
  5
188
330
1E
100
AcDbEntity
  8
0
100
AcDbLine
 10
3.0
 20
55.0
 30
0.0
 11
3.1051
 21
55.8094
 31
0.0
  0
LINE
  5
189
330
1E
100
AcDbEntity
  8
0
100
AcDbLine
 10
3.573799999999999
 20
56.7303
 30
0.0
 11
4.679199999999999
 21
58.8079
 31
0.0
  0
LINE
  5
18E
330
1E
100
AcDbEntity
  8
0
100
AcDbLine
 10
3.1051
 20
54.1906
 30
0.0
 11
3.573799999999999
 21
53.2697
 31
0.0
  0
LINE
  5
18F
330
1E
100
AcDbEntity
  8
0
100
AcDbLine
 10
3.1051
 20
54.1906
 30
0.0
 11
3.573799999999999
 21
53.2697
 31
0.0
  0
LINE
  5
190
330
1E
100
AcDbEntity
  8
0
100
AcDbLine
 10
3.573799999999999
 20
53.2697
 30
0.0
 11
4.679199999999999
 21
51.1921
 31
0.0
  0
LINE
  5
192
330
1E
100
AcDbEntity
  8
0
100
AcDbLine
 10
3.573799999999999
 20
53.2697
 30
0.0
 11
3.64985919521892
 21
53.1267466944212
 31
0.0
  0
LINE
  5
19D
330
1E
100
AcDbEntity
  8
0
100
AcDbLine
 10
27.5262
 20
49.4949
 30
0.0
 11
28.5983
 21
52.2462
 31
0.0
  0
LINE
  5
1A0
330
1E
100
AcDbEntity
  8
0
100
AcDbLine
 10
31.3208
 20
51.1921
 30
0.0
 11
32.4262
 21
53.2697
 31
0.0
  0
LINE
  5
1A3
330
1E
100
AcDbEntity
  8
0
100
AcDbLine
 10
8.604599999999999
 20
49.23429999999999
 30
0.0
 11
10.604
 21
46.8595
 31
0.0
  0
LINE
  5
1A4
330
1E
100
AcDbEntity
  8
0
100
AcDbLine
 10
4.679199999999999
 20
51.1921
 30
0.0
 11
6.493699999999999
 21
47.8736
 31
0.0
  0
LINE
  5
1A8
330
1E
100
AcDbEntity
  8
0
100
AcDbLine
 10
7.503499999999999
 20
51.8089
 30
0.0
 11
8.604599999999999
 21
49.23429999999999
 31
0.0
  0
LINE
  5
1AE
330
1E
100
AcDbEntity
  8
0
100
AcDbLine
 10
28.5983
 20
52.2462
 30
0.0
 11
28.731706211877
 21
53.24106257075889
 31
0.0
  0
LINE
  5
1B0
330
1E
100
AcDbEntity
  8
0
100
AcDbLine
 10
6.9819
 20
54.9078
 30
0.0
 11
7.090449800234179
 21
55.638375622837
 31
0.0
  0
LINE
  5
1B9
330
1E
100
AcDbEntity
  8
0
100
AcDbLine
 10
7.090449800234179
 20
55.638375622837
 30
0.0
 11
7.503499999999999
 21
57.97769999999999
 31
0.0
  0
LINE
  5
1BA
330
1E
100
AcDbEntity
  8
0
100
AcDbLine
 10
7.09044980023417
 20
55.638375622837
 30
0.0
 11
7.503499999999999
 21
57.97769999999999
 31
0.0
  0
LINE
  5
1BB
330
1E
100
AcDbEntity
  8
0
100
AcDbLine
 10
7.503499999999999
 20
57.97769999999999
 30
0.0
 11
8.594230706755899
 21
60.67436352102589
 31
0.0
  0
LINE
  5
1BE
330
1E
100
AcDbEntity
  8
0
100
AcDbLine
 10
28.5983
 20
57.8414
 30
0.0
 11
28.975
 21
55.05539999999999
 31
0.0
  0
LINE
  5
1BF
330
1E
100
AcDbEntity
  8
0
100
AcDbLine
 10
28.731706211877
 20
53.24106257075889
 30
0.0
 11
28.975
 21
55.05539999999999
 31
0.0
  0
LINE
  5
1C4
330
1E
100
AcDbEntity
  8
0
100
AcDbLine
 10
6.9819
 20
54.9078
 30
0.0
 11
7.503499999999999
 21
51.8089
 31
0.0
  0
LINE
  5
1C7
330
1E
100
AcDbEntity
  8
0
100
AcDbLine
 10
31.49599999999999
 20
58.58399999999999
 30
0.0
 11
31.5161445637806
 21
58.4407497686715
 31
0.0
  0
LINE
  5
1C8
330
1E
100
AcDbEntity
  8
0
100
AcDbLine
 10
4.679199999999999
 20
58.8079
 30
0.0
 11
6.493699999999999
 21
62.1264
 31
0.0
  0
LINE
  5
1CB
330
1E
100
AcDbEntity
  8
0
100
AcDbLine
 10
27.49719999999999
 20
60.5638
 30
0.0
 11
28.5983
 21
57.8414
 31
0.0
  0
LINE
  5
1CC
330
1E
100
AcDbEntity
  8
0
100
AcDbLine
 10
8.594230706755899
 20
60.67436352102589
 30
0.0
 11
10.69089999999999
 21
63.1413
 31
0.0
  0
LINE
  5
1CE
330
1E
100
AcDbEntity
  8
0
100
AcDbLine
 10
31.3208
 20
58.8079
 30
0.0
 11
32.4262
 21
56.7303
 31
0.0
  0
LINE
  5
1CF
330
1E
100
AcDbEntity
  8
0
100
AcDbLine
 10
6.493699999999999
 20
62.1264
 30
0.0
 11
8.318199999999999
 21
65.4632
 31
0.0
  0
LINE
  5
1D2
330
1E
100
AcDbEntity
  8
0
100
AcDbLine
 10
10.69089999999999
 20
63.1413
 30
0.0
 11
13.1539
 21
64.84999999999999
 31
0.0
  0
LINE
  5
1D3
330
1E
100
AcDbEntity
  8
0
100
AcDbLine
 10
21.674933859314
 20
65.26185898118301
 30
0.0
 11
23.15069999999999
 21
64.6473
 31
0.0
  0
LINE
  5
1D4
330
1E
100
AcDbEntity
  8
0
100
AcDbLine
 10
20.7167
 20
65.66089999999999
 30
0.0
 11
21.6749338593141
 21
65.26185898118289
 31
0.0
  0
LINE
  5
1D6
330
1E
100
AcDbEntity
  8
0
100
AcDbLine
 10
15.5879
 20
65.66089999999999
 30
0.0
 11
18.1088
 21
65.9795
 31
0.0
  0
LINE
  5
1D7
330
1E
100
AcDbEntity
  8
0
100
AcDbLine
 10
18.1088
 20
65.9795
 30
0.0
 11
20.7167
 21
65.66089999999999
 31
0.0
  0
LINE
  5
1D8
330
1E
100
AcDbEntity
  8
0
100
AcDbLine
 10
13.1539
 20
64.84999999999999
 30
0.0
 11
15.5879
 21
65.66089999999999
 31
0.0
  0
LINE
  5
1D9
330
1E
100
AcDbEntity
  8
0
100
AcDbLine
 10
23.15069999999999
 20
64.6473
 30
0.0
 11
25.6427
 21
62.99649999999999
 31
0.0
  0
LINE
  5
1DD
330
1E
100
AcDbEntity
  8
0
100
AcDbLine
 10
25.6427
 20
62.99649999999999
 30
0.0
 11
27.49719999999999
 21
60.5638
 31
0.0
  0
LINE
  5
1DE
330
1E
100
AcDbEntity
  8
0
100
AcDbLine
 10
8.318199999999999
 20
65.4632
 30
0.0
 11
9.596
 21
67.8001
 31
0.0
  0
LINE
  5
1DF
330
1E
100
AcDbEntity
  8
0
100
AcDbLine
 10
10.055
 20
68.63970000000001
 30
0.0
 11
10.481
 21
69.0
 31
0.0
  0
LINE
  5
1E0
330
1E
100
AcDbEntity
  8
0
100
AcDbLine
 10
9.596
 20
67.8001
 30
0.0
 11
10.055
 21
68.63970000000001
 31
0.0
  0
LINE
  5
1E3
330
1E
100
AcDbEntity
  8
0
100
AcDbLine
 10
27.6818
 20
65.4632
 30
0.0
 11
29.5063
 21
62.1264
 31
0.0
  0
LINE
  5
1E4
330
1E
100
AcDbEntity
  8
0
100
AcDbLine
 10
26.404
 20
67.8001
 30
0.0
 11
27.6818
 21
65.4632
 31
0.0
  0
LINE
  5
1E7
330
1E
100
AcDbEntity
  8
0
100
AcDbLine
 10
10.481
 20
69.0
 30
0.0
 11
11.3799
 21
69.0
 31
0.0
  0
LINE
  5
1E8
330
1E
100
AcDbEntity
  8
0
100
AcDbLine
 10
11.3799
 20
69.0
 30
0.0
 11
14.5636
 21
69.0
 31
0.0
  0
LINE
  5
1E9
330
1E
100
AcDbEntity
  8
0
100
AcDbLine
 10
14.5636
 20
69.0
 30
0.0
 11
18.0
 21
69.0
 31
0.0
  0
LINE
  5
1EA
330
1E
100
AcDbEntity
  8
0
100
AcDbLine
 10
18.0
 20
69.0
 30
0.0
 11
21.43639999999999
 21
69.0
 31
0.0
  0
LINE
  5
1EC
330
1E
100
AcDbEntity
  8
0
100
AcDbLine
 10
25.519
 20
69.0
 30
0.0
 11
25.945
 21
68.63970000000001
 31
0.0
  0
LINE
  5
1EE
330
1E
100
AcDbEntity
  8
0
100
AcDbLine
 10
24.6201
 20
69.0
 30
0.0
 11
25.519
 21
69.0
 31
0.0
  0
LINE
  5
1EF
330
1E
100
AcDbEntity
  8
0
100
AcDbLine
 10
21.43639999999999
 20
69.0
 30
0.0
 11
24.6201
 21
69.0
 31
0.0
  0
LINE
  5
1F0
330
1E
100
AcDbEntity
  8
0
100
AcDbLine
 10
25.945
 20
68.63970000000001
 30
0.0
 11
26.404
 21
67.8001
 31
0.0
  0
LINE
  5
1F1
330
1E
100
AcDbEntity
  8
0
100
AcDbLine
 10
29.5063
 20
62.1264
 30
0.0
 11
31.3208
 21
58.8079
 31
0.0
  0
LINE
  5
1F3
330
1E
100
AcDbEntity
  8
0
100
AcDbLine
 10
28.1703741444247
 20
64.5696542586373
 30
0.0
 11
30.152
 21
61.94399999999999
 31
0.0
  0
LINE
  5
1F4
330
1E
100
AcDbEntity
  8
0
100
AcDbLine
 10
30.152
 20
61.94399999999999
 30
0.0
 11
31.49599999999999
 21
58.58399999999999
 31
0.0
  0
LINE
  5
1F5
330
1E
100
AcDbEntity
  8
0
100
AcDbLine
 10
5.847999999999999
 20
61.94399999999999
 30
0.0
 11
7.82962585557533
 21
64.5696542586373
 31
0.0
  0
LINE
  5
1F6
330
1E
100
AcDbEntity
  8
0
100
AcDbLine
 10
4.503999999999999
 20
58.58399999999999
 30
0.0
 11
5.847999999999999
 21
61.94399999999999
 31
0.0
  0
LINE
  5
1F7
330
1E
100
AcDbEntity
  8
0
100
AcDbLine
 10
4.483855436219429
 20
58.4407497686715
 30
0.0
 11
4.503999999999999
 21
58.58399999999999
 31
0.0
  0
LINE
  5
1FB
330
1E
100
AcDbEntity
  8
0
100
AcDbLine
 10
31.664
 20
25.0
 30
0.0
 11
32.0
 21
25.18
 31
0.0
  0
LINE
  5
1FC
330
1E
100
AcDbEntity
  8
0
100
AcDbLine
 10
32.0
 20
25.18
 30
0.0
 11
32.0
 21
28.0
 31
0.0
  0
LINE
  5
1FD
330
1E
100
AcDbEntity
  8
0
100
AcDbLine
 10
31.504
 20
28.0
 30
0.0
 11
33.04
 21
28.0
 31
0.0
  0
LINE
  5
1FE
330
1E
100
AcDbEntity
  8
0
100
AcDbLine
 10
31.888
 20
33.0
 30
0.0
 11
33.424
 21
33.0
 31
0.0
  0
LINE
  5
1FF
330
1E
100
AcDbEntity
  8
0
100
AcDbLine
 10
31.888
 20
28.3
 30
0.0
 11
33.424
 21
28.3
 31
0.0
  0
LINE
  5
200
330
1E
100
AcDbEntity
  8
0
100
AcDbLine
 10
32.0
 20
28.0
 30
0.0
 11
33.04
 21
28.0
 31
0.0
  0
LINE
  5
201
330
1E
100
AcDbEntity
  8
0
100
AcDbLine
 10
32.0
 20
28.0
 30
0.0
 11
32.0
 21
25.18
 31
0.0
  0
LINE
  5
202
330
1E
100
AcDbEntity
  8
0
100
AcDbLine
 10
32.3501408047811
 20
53.1267466944212
 30
0.0
 11
32.4262
 21
53.2697
 31
0.0
  0
LINE
  5
203
330
1E
100
AcDbEntity
  8
0
100
AcDbLine
 10
33.04
 20
28.0
 30
0.0
 11
33.616
 21
28.0
 31
0.0
  0
LINE
  5
204
330
1E
100
AcDbEntity
  8
0
100
AcDbLine
 10
33.424
 20
28.3
 30
0.0
 11
34.0
 21
28.3
 31
0.0
  0
LINE
  5
205
330
1E
100
AcDbEntity
  8
0
100
AcDbLine
 10
33.616
 20
28.0
 30
0.0
 11
34.0
 21
28.3
 31
0.0
  0
LINE
  5
206
330
1E
100
AcDbEntity
  8
0
100
AcDbLine
 10
33.424
 20
33.0
 30
0.0
 11
34.0
 21
33.0
 31
0.0
  0
LINE
  5
207
330
1E
100
AcDbEntity
  8
0
100
AcDbLine
 10
34.0
 20
28.3
 30
0.0
 11
34.0
 21
33.0
 31
0.0
  0
LINE
  5
208
330
1E
100
AcDbEntity
  8
0
100
AcDbLine
 10
33.192
 20
33.0
 30
0.0
 11
34.92
 21
33.0
 31
0.0
  0
LINE
  5
209
330
1E
100
AcDbEntity
  8
0
100
AcDbLine
 10
33.624
 20
33.6
 30
0.0
 11
35.35199999999999
 21
33.6
 31
0.0
  0
LINE
  5
20A
330
1E
100
AcDbEntity
  8
0
100
AcDbLine
 10
34.0
 20
33.0
 30
0.0
 11
34.92
 21
33.0
 31
0.0
  0
LINE
  5
20B
330
1E
100
AcDbEntity
  8
0
100
AcDbLine
 10
34.0
 20
33.0
 30
0.0
 11
34.0
 21
28.3
 31
0.0
  0
LINE
  5
20C
330
1E
100
AcDbEntity
  8
0
100
AcDbLine
 10
35.35199999999999
 20
33.6
 30
0.0
 11
36.0
 21
33.6
 31
0.0
  0
LINE
  5
20D
330
1E
100
AcDbEntity
  8
0
100
AcDbLine
 10
35.568
 20
33.0
 30
0.0
 11
36.0
 21
33.6
 31
0.0
  0
LINE
  5
20E
330
1E
100
AcDbEntity
  8
0
100
AcDbLine
 10
34.92
 20
33.0
 30
0.0
 11
35.568
 21
33.0
 31
0.0
  0
LINE
  5
210
330
1E
100
AcDbEntity
  8
0
100
AcDbLine
 10
32.3501408047811
 20
53.1267466944212
 30
0.0
 11
32.4262
 21
53.2697
 31
0.0
  0
LINE
  5
211
330
1E
100
AcDbEntity
  8
0
100
AcDbLine
 10
32.3501408047811
 20
53.1267466944212
 30
0.0
 11
36.0
 21
33.6
 31
0.0
  0
LINE
  5
213
330
1E
100
AcDbEntity
  8
0
100
AcDbLine
 10
32.4262
 20
56.7303
 30
0.0
 11
32.8949
 21
55.8094
 31
0.0
  0
LINE
  5
214
330
1E
100
AcDbEntity
  8
0
100
AcDbLine
 10
32.8949
 20
54.1906
 30
0.0
 11
33.0
 21
55.0
 31
0.0
  0
LINE
  5
215
330
1E
100
AcDbEntity
  8
0
100
AcDbLine
 10
32.8949
 20
54.1906
 30
0.0
 11
33.0
 21
55.0
 31
0.0
  0
LINE
  5
219
330
1E
100
AcDbEntity
  8
0
100
AcDbLine
 10
32.4262
 20
53.2697
 30
0.0
 11
32.8949
 21
54.1906
 31
0.0
  0
LINE
  5
220
330
1E
100
AcDbEntity
  8
0
100
AcDbLine
 10
32.8949
 20
55.8094
 30
0.0
 11
33.0
 21
55.0
 31
0.0
  0
LINE
  5
221
330
1E
100
AcDbEntity
  8
0
100
AcDbLine
 10
10.055
 20
41.3603
 30
0.0
 11
10.481
 21
41.0
 31
0.0
  0
LINE
  5
222
330
1E
100
AcDbEntity
  8
0
100
AcDbLine
 10
25.519
 20
41.0
 30
0.0
 11
25.945
 21
41.3603
 31
0.0
  0
ENDSEC
  0
SECTION
  2
OBJECTS
  0
DICTIONARY
  5
C
330
0
100
AcDbDictionary
281
     1
  3
ACAD_GROUP
350
D
  3
ACAD_LAYOUT
350
19
  3
ACAD_MLINESTYLE
350
16
  3
ACAD_PLOTSETTINGS
350
18
  3
ACAD_PLOTSTYLENAME
350
E
  3
AcDbVariableDictionary
350
223
  0
DICTIONARY
  5
D
102
{ACAD_REACTORS
330
C
102
}
330
C
100
AcDbDictionary
281
     1
  0
DICTIONARY
  5
19
102
{ACAD_REACTORS
330
C
102
}
330
C
100
AcDbDictionary
281
     1
  3
Layout1
350
1D
  3
Model
350
21
  0
DICTIONARY
  5
16
102
{ACAD_REACTORS
330
C
102
}
330
C
100
AcDbDictionary
281
     1
  3
Standard
350
17
  0
DICTIONARY
  5
18
102
{ACAD_REACTORS
330
C
102
}
330
C
100
AcDbDictionary
281
     1
  0
ACDBDICTIONARYWDFLT
  5
E
102
{ACAD_REACTORS
330
C
102
}
330
C
100
AcDbDictionary
281
     1
  3
Normal
350
F
100
AcDbDictionaryWithDefault
340
F
  0
DICTIONARY
  5
223
102
{ACAD_REACTORS
330
C
102
}
330
C
100
AcDbDictionary
281
     1
  3
DIMASSOC
350
224
  0
LAYOUT
  5
1D
102
{ACAD_REACTORS
330
19
102
}
330
19
100
AcDbPlotSettings
  1

  2
hp deskjet 980c series
  4

  6

 40
0.0
 41
0.0
 42
0.0
 43
0.0
 44
0.0
 45
0.0
 46
0.0
 47
0.0
 48
0.0
 49
0.0
140
0.0
141
0.0
142
1.0
143
1.0
 70
   688
 72
     0
 73
     0
 74
     5
  7

 75
    16
147
1.0
148
0.0
149
0.0
100
AcDbLayout
  1
Layout1
 70
     1
 71
     1
 10
0.0
 20
0.0
 11
12.0
 21
9.0
 12
0.0
 22
0.0
 32
0.0
 14
1.000000000000000E+20
 24
1.000000000000000E+20
 34
1.000000000000000E+20
 15
-1.000000000000000E+20
 25
-1.000000000000000E+20
 35
-1.000000000000000E+20
146
0.0
 13
0.0
 23
0.0
 33
0.0
 16
1.0
 26
0.0
 36
0.0
 17
0.0
 27
1.0
 37
0.0
 76
     0
330
1A
  0
LAYOUT
  5
21
102
{ACAD_REACTORS
330
19
102
}
330
19
100
AcDbPlotSettings
  1

  2
hp deskjet 980c series
  4

  6

 40
0.0
 41
0.0
 42
0.0
 43
0.0
 44
0.0
 45
0.0
 46
0.0
 47
0.0
 48
0.0
 49
0.0
140
0.0
141
0.0
142
1.0
143
1.0
 70
  1712
 72
     0
 73
     0
 74
     0
  7

 75
     0
147
1.0
148
0.0
149
0.0
100
AcDbLayout
  1
Model
 70
     1
 71
     0
 10
0.0
 20
0.0
 11
12.0
 21
9.0
 12
0.0
 22
0.0
 32
0.0
 14
0.0
 24
0.0
 34
0.0
 15
0.0
 25
0.0
 35
0.0
146
0.0
 13
0.0
 23
0.0
 33
0.0
 16
1.0
 26
0.0
 36
0.0
 17
0.0
 27
1.0
 37
0.0
 76
     0
330
1E
  0
MLINESTYLE
  5
17
102
{ACAD_REACTORS
330
16
102
}
330
16
100
AcDbMlineStyle
  2
STANDARD
 70
     0
  3

 62
   256
 51
90.0
 52
90.0
 71
     2
 49
0.5
 62
   256
  6
BYLAYER
 49
-0.5
 62
   256
  6
BYLAYER
  0
ACDBPLACEHOLDER
  5
F
102
{ACAD_REACTORS
330
E
102
}
330
E
  0
DICTIONARYVAR
  5
224
102
{ACAD_REACTORS
330
223
102
}
330
223
100
DictionaryVariables
280
     0
  1
1
  0
ENDSEC
  0
EOF
