  0
SECTION
  2
HEADER
  9
$ACADVER
  1
AC1015
  9
$ACADMAINTVER
 70
    13
  9
$DWGCODEPAGE
  3
ANSI_1252
  9
$INSBASE
 10
0.0
 20
0.0
 30
0.0
  9
$EXTMIN
 10
0.000000000000001
 20
-0.0000000000000046
 30
0.0
  9
$EXTMAX
 10
36.0
 20
69.0
 30
0.0
  9
$LIMMIN
 10
0.0
 20
0.0
  9
$LIMMAX
 10
12.0
 20
9.0
  9
$ORTHOMODE
 70
     0
  9
$REGENMODE
 70
     1
  9
$FILLMODE
 70
     1
  9
$QTEXTMODE
 70
     0
  9
$MIRRTEXT
 70
     1
  9
$LTSCALE
 40
1.0
  9
$ATTMODE
 70
     1
  9
$TEXTSIZE
 40
0.2
  9
$TRACEWID
 40
0.05
  9
$TEXTSTYLE
  7
Standard
  9
$CLAYER
  8
0
  9
$CELTYPE
  6
Continuous
  9
$CECOLOR
 62
   256
  9
$CELTSCALE
 40
1.0
  9
$DISPSILH
 70
     0
  9
$DIMSCALE
 40
1.0
  9
$DIMASZ
 40
0.18
  9
$DIMEXO
 40
0.0625
  9
$DIMDLI
 40
0.38
  9
$DIMRND
 40
0.0
  9
$DIMDLE
 40
0.0
  9
$DIMEXE
 40
0.18
  9
$DIMTP
 40
0.0
  9
$DIMTM
 40
0.0
  9
$DIMTXT
 40
0.18
  9
$DIMCEN
 40
0.09
  9
$DIMTSZ
 40
0.0
  9
$DIMTOL
 70
     0
  9
$DIMLIM
 70
     0
  9
$DIMTIH
 70
     1
  9
$DIMTOH
 70
     1
  9
$DIMSE1
 70
     0
  9
$DIMSE2
 70
     0
  9
$DIMTAD
 70
     0
  9
$DIMZIN
 70
     0
  9
$DIMBLK
  1

  9
$DIMASO
 70
     1
  9
$DIMSHO
 70
     1
  9
$DIMPOST
  1

  9
$DIMAPOST
  1

  9
$DIMALT
 70
     0
  9
$DIMALTD
 70
     2
  9
$DIMALTF
 40
25.4
  9
$DIMLFAC
 40
1.0
  9
$DIMTOFL
 70
     0
  9
$DIMTVP
 40
0.0
  9
$DIMTIX
 70
     0
  9
$DIMSOXD
 70
     0
  9
$DIMSAH
 70
     0
  9
$DIMBLK1
  1

  9
$DIMBLK2
  1

  9
$DIMSTYLE
  2
Standard
  9
$DIMCLRD
 70
     0
  9
$DIMCLRE
 70
     0
  9
$DIMCLRT
 70
     0
  9
$DIMTFAC
 40
1.0
  9
$DIMGAP
 40
0.09
  9
$DIMJUST
 70
     0
  9
$DIMSD1
 70
     0
  9
$DIMSD2
 70
     0
  9
$DIMTOLJ
 70
     1
  9
$DIMTZIN
 70
     0
  9
$DIMALTZ
 70
     0
  9
$DIMALTTZ
 70
     0
  9
$DIMUPT
 70
     0
  9
$DIMDEC
 70
     4
  9
$DIMTDEC
 70
     4
  9
$DIMALTU
 70
     2
  9
$DIMALTTD
 70
     2
  9
$DIMTXSTY
  7
Standard
  9
$DIMAUNIT
 70
     0
  9
$DIMADEC
 70
     0
  9
$DIMALTRND
 40
0.0
  9
$DIMAZIN
 70
     0
  9
$DIMDSEP
 70
    46
  9
$DIMATFIT
 70
     3
  9
$DIMFRAC
 70
     0
  9
$DIMLDRBLK
  1

  9
$DIMLUNIT
 70
     2
  9
$DIMLWD
 70
    -2
  9
$DIMLWE
 70
    -2
  9
$DIMTMOVE
 70
     0
  9
$LUNITS
 70
     2
  9
$LUPREC
 70
     4
  9
$SKETCHINC
 40
0.1
  9
$FILLETRAD
 40
0.0
  9
$AUNITS
 70
     0
  9
$AUPREC
 70
     0
  9
$MENU
  1
.
  9
$ELEVATION
 40
0.0
  9
$PELEVATION
 40
0.0
  9
$THICKNESS
 40
0.0
  9
$LIMCHECK
 70
     0
  9
$CHAMFERA
 40
0.0
  9
$CHAMFERB
 40
0.0
  9
$CHAMFERC
 40
0.0
  9
$CHAMFERD
 40
0.0
  9
$SKPOLY
 70
     0
  9
$TDCREATE
 40
2454779.627364178
  9
$TDUCREATE
 40
2454779.585697511
  9
$TDUPDATE
 40
2454779.633527199
  9
$TDUUPDATE
 40
2454779.591860532
  9
$TDINDWG
 40
0.0061630208
  9
$TDUSRTIMER
 40
0.0061630208
  9
$USRTIMER
 70
     1
  9
$ANGBASE
 50
0.0
  9
$ANGDIR
 70
     0
  9
$PDMODE
 70
     0
  9
$PDSIZE
 40
0.0
  9
$PLINEWID
 40
0.0
  9
$SPLFRAME
 70
     0
  9
$SPLINETYPE
 70
     6
  9
$SPLINESEGS
 70
     8
  9
$HANDSEED
  5
30A
  9
$SURFTAB1
 70
     6
  9
$SURFTAB2
 70
     6
  9
$SURFTYPE
 70
     6
  9
$SURFU
 70
     6
  9
$SURFV
 70
     6
  9
$UCSBASE
  2

  9
$UCSNAME
  2

  9
$UCSORG
 10
0.0
 20
0.0
 30
0.0
  9
$UCSXDIR
 10
1.0
 20
0.0
 30
0.0
  9
$UCSYDIR
 10
0.0
 20
1.0
 30
0.0
  9
$UCSORTHOREF
  2

  9
$UCSORTHOVIEW
 70
     1
  9
$UCSORGTOP
 10
0.0
 20
0.0
 30
0.0
  9
$UCSORGBOTTOM
 10
0.0
 20
0.0
 30
0.0
  9
$UCSORGLEFT
 10
0.0
 20
0.0
 30
0.0
  9
$UCSORGRIGHT
 10
0.0
 20
0.0
 30
0.0
  9
$UCSORGFRONT
 10
0.0
 20
0.0
 30
0.0
  9
$UCSORGBACK
 10
0.0
 20
0.0
 30
0.0
  9
$PUCSBASE
  2

  9
$PUCSNAME
  2

  9
$PUCSORG
 10
0.0
 20
0.0
 30
0.0
  9
$PUCSXDIR
 10
1.0
 20
0.0
 30
0.0
  9
$PUCSYDIR
 10
0.0
 20
1.0
 30
0.0
  9
$PUCSORTHOREF
  2

  9
$PUCSORTHOVIEW
 70
     0
  9
$PUCSORGTOP
 10
0.0
 20
0.0
 30
0.0
  9
$PUCSORGBOTTOM
 10
0.0
 20
0.0
 30
0.0
  9
$PUCSORGLEFT
 10
0.0
 20
0.0
 30
0.0
  9
$PUCSORGRIGHT
 10
0.0
 20
0.0
 30
0.0
  9
$PUCSORGFRONT
 10
0.0
 20
0.0
 30
0.0
  9
$PUCSORGBACK
 10
0.0
 20
0.0
 30
0.0
  9
$USERI1
 70
     0
  9
$USERI2
 70
     0
  9
$USERI3
 70
     0
  9
$USERI4
 70
     0
  9
$USERI5
 70
     0
  9
$USERR1
 40
0.0
  9
$USERR2
 40
0.0
  9
$USERR3
 40
0.0
  9
$USERR4
 40
0.0
  9
$USERR5
 40
0.0
  9
$WORLDVIEW
 70
     1
  9
$SHADEDGE
 70
     3
  9
$SHADEDIF
 70
    70
  9
$TILEMODE
 70
     1
  9
$MAXACTVP
 70
    64
  9
$PINSBASE
 10
0.0
 20
0.0
 30
0.0
  9
$PLIMCHECK
 70
     0
  9
$PEXTMIN
 10
1.000000000000000E+20
 20
1.000000000000000E+20
 30
1.000000000000000E+20
  9
$PEXTMAX
 10
-1.000000000000000E+20
 20
-1.000000000000000E+20
 30
-1.000000000000000E+20
  9
$PLIMMIN
 10
0.0
 20
0.0
  9
$PLIMMAX
 10
12.0
 20
9.0
  9
$UNITMODE
 70
     0
  9
$VISRETAIN
 70
     1
  9
$PLINEGEN
 70
     0
  9
$PSLTSCALE
 70
     1
  9
$TREEDEPTH
 70
  3020
  9
$CMLSTYLE
  2
Standard
  9
$CMLJUST
 70
     0
  9
$CMLSCALE
 40
1.0
  9
$PROXYGRAPHICS
 70
     1
  9
$MEASUREMENT
 70
     0
  9
$CELWEIGHT
370
    -1
  9
$ENDCAPS
280
     0
  9
$JOINSTYLE
280
     0
  9
$LWDISPLAY
290
     0
  9
$INSUNITS
 70
     0
  9
$HYPERLINKBASE
  1

  9
$STYLESHEET
  1

  9
$XEDIT
290
     1
  9
$CEPSNTYPE
380
     0
  9
$PSTYLEMODE
290
     1
  9
$FINGERPRINTGUID
  2
{0D337077-9C6C-4362-903A-F6E42ED98A78}
  9
$VERSIONGUID
  2
{A5A76804-11DB-4C91-B054-46950C056136}
  9
$EXTNAMES
290
     1
  9
$PSVPSCALE
 40
0.0
  9
$OLESTARTUP
290
     0
  0
ENDSEC
  0
SECTION
  2
CLASSES
  0
CLASS
  1
ACDBDICTIONARYWDFLT
  2
AcDbDictionaryWithDefault
  3
AutoCAD 2000
 90
        0
280
     0
281
     0
  0
CLASS
  1
ACDBPLACEHOLDER
  2
AcDbPlaceHolder
  3
AutoCAD 2000
 90
        0
280
     0
281
     0
  0
CLASS
  1
LAYOUT
  2
AcDbLayout
  3
AutoCAD 2000
 90
        0
280
     0
281
     0
  0
CLASS
  1
DICTIONARYVAR
  2
AcDbDictionaryVar
  3
AutoCAD 2000
 90
        0
280
     0
281
     0
  0
ENDSEC
  0
SECTION
  2
TABLES
  0
TABLE
  2
VPORT
  5
8
330
0
100
AcDbSymbolTable
 70
     2
  0
VPORT
  5
309
330
8
100
AcDbSymbolTableRecord
100
AcDbViewportTableRecord
  2
*Active
 70
     0
 10
0.0
 20
0.0
 11
1.0
 21
1.0
 12
18.0
 22
34.49999999999999
 13
0.0
 23
0.0
 14
1.0
 24
1.0
 15
0.0
 25
0.0
 16
0.0
 26
0.0
 36
1.0
 17
0.0
 27
0.0
 37
0.0
 40
69.52941176470588
 41
2.078104993597951
 42
50.0
 43
0.0
 44
0.0
 50
0.0
 51
0.0
 71
     0
 72
   100
 73
     1
 74
     3
 75
     0
 76
     0
 77
     0
 78
     0
281
     0
 65
     1
110
0.0
120
0.0
130
0.0
111
1.0
121
0.0
131
0.0
112
0.0
122
1.0
132
0.0
 79
     1
146
0.0
  0
ENDTAB
  0
TABLE
  2
LTYPE
  5
5
330
0
100
AcDbSymbolTable
 70
     1
  0
LTYPE
  5
13
330
5
100
AcDbSymbolTableRecord
100
AcDbLinetypeTableRecord
  2
ByBlock
 70
     0
  3

 72
    65
 73
     0
 40
0.0
  0
LTYPE
  5
14
330
5
100
AcDbSymbolTableRecord
100
AcDbLinetypeTableRecord
  2
ByLayer
 70
     0
  3

 72
    65
 73
     0
 40
0.0
  0
LTYPE
  5
15
330
5
100
AcDbSymbolTableRecord
100
AcDbLinetypeTableRecord
  2
Continuous
 70
     0
  3
Solid line
 72
    65
 73
     0
 40
0.0
  0
ENDTAB
  0
TABLE
  2
LAYER
  5
2
330
0
100
AcDbSymbolTable
 70
     1
  0
LAYER
  5
10
330
2
100
AcDbSymbolTableRecord
100
AcDbLayerTableRecord
  2
0
 70
     0
 62
     7
  6
Continuous
370
    -3
390
F
  0
ENDTAB
  0
TABLE
  2
STYLE
  5
3
330
0
100
AcDbSymbolTable
 70
     1
  0
STYLE
  5
11
330
3
100
AcDbSymbolTableRecord
100
AcDbTextStyleTableRecord
  2
Standard
 70
     0
 40
0.0
 41
1.0
 50
0.0
 71
     0
 42
0.2
  3
txt
  4

  0
ENDTAB
  0
TABLE
  2
VIEW
  5
6
330
0
100
AcDbSymbolTable
 70
     0
  0
ENDTAB
  0
TABLE
  2
UCS
  5
7
330
0
100
AcDbSymbolTable
 70
     0
  0
ENDTAB
  0
TABLE
  2
APPID
  5
9
330
0
100
AcDbSymbolTable
 70
     1
  0
APPID
  5
12
330
9
100
AcDbSymbolTableRecord
100
AcDbRegAppTableRecord
  2
ACAD
 70
     0
  0
ENDTAB
  0
TABLE
  2
DIMSTYLE
  5
A
330
0
100
AcDbSymbolTable
 70
     1
100
AcDbDimStyleTable
 71
     0
  0
DIMSTYLE
105
303
330
A
100
AcDbSymbolTableRecord
100
AcDbDimStyleTableRecord
  2
Standard
 70
     0
340
11
  0
ENDTAB
  0
TABLE
  2
BLOCK_RECORD
  5
1
330
0
100
AcDbSymbolTable
 70
     0
  0
BLOCK_RECORD
  5
1E
330
1
100
AcDbSymbolTableRecord
100
AcDbBlockTableRecord
  2
*Model_Space
340
21
  0
BLOCK_RECORD
  5
1A
330
1
100
AcDbSymbolTableRecord
100
AcDbBlockTableRecord
  2
*Paper_Space
340
1D
  0
ENDTAB
  0
ENDSEC
  0
SECTION
  2
BLOCKS
  0
BLOCK
  5
1F
330
1E
100
AcDbEntity
  8
0
100
AcDbBlockBegin
  2
*Model_Space
 70
     0
 10
0.0
 20
0.0
 30
0.0
  3
*Model_Space
  1

  0
ENDBLK
  5
20
330
1E
100
AcDbEntity
  8
0
100
AcDbBlockEnd
  0
BLOCK
  5
1B
330
1A
100
AcDbEntity
 67
     1
  8
0
100
AcDbBlockBegin
  2
*Paper_Space
 70
     0
 10
0.0
 20
0.0
 30
0.0
  3
*Paper_Space
  1

  0
ENDBLK
  5
1C
330
1A
100
AcDbEntity
 67
     1
  8
0
100
AcDbBlockEnd
  0
ENDSEC
  0
SECTION
  2
ENTITIES
  0
LINE
  5
22
330
1E
100
AcDbEntity
  8
0
100
AcDbLine
 10
3.340899999999999
 20
0.571431999999996
 30
0.0
 11
4.363599999999999
 21
0.171431999999996
 31
0.0
  0
LINE
  5
24
330
1E
100
AcDbEntity
  8
0
100
AcDbLine
 10
3.340899999999999
 20
0.571431999999996
 30
0.0
 11
3.573799999999999
 21
0.571431999999996
 31
0.0
  0
LINE
  5
26
330
1E
100
AcDbEntity
  8
0
100
AcDbLine
 10
3.340899999999999
 20
0.571431999999996
 30
0.0
 11
4.363599999999999
 21
0.171431999999996
 31
0.0
  0
LINE
  5
27
330
1E
100
AcDbEntity
  8
0
100
AcDbLine
 10
3.0
 20
1.142859999999999
 30
0.0
 11
3.340899999999999
 21
0.571431999999996
 31
0.0
  0
LINE
  5
28
330
1E
100
AcDbEntity
  8
0
100
AcDbLine
 10
3.0
 20
1.142859999999999
 30
0.0
 11
3.0
 21
6.857139999999999
 31
0.0
  0
LINE
  5
29
330
1E
100
AcDbEntity
  8
0
100
AcDbLine
 10
3.0
 20
6.857139999999999
 30
0.0
 11
3.0
 21
1.142859999999999
 31
0.0
  0
LINE
  5
2A
330
1E
100
AcDbEntity
  8
0
100
AcDbLine
 10
3.0
 20
6.857139999999999
 30
0.0
 11
3.340899999999999
 21
7.428569999999999
 31
0.0
  0
LINE
  5
2B
330
1E
100
AcDbEntity
  8
0
100
AcDbLine
 10
3.340899999999999
 20
7.428569999999999
 30
0.0
 11
4.363599999999999
 21
7.82857
 31
0.0
  0
LINE
  5
2C
330
1E
100
AcDbEntity
  8
0
100
AcDbLine
 10
3.340899999999999
 20
7.428569999999999
 30
0.0
 11
3.573799999999999
 21
7.428569999999999
 31
0.0
  0
LINE
  5
2F
330
1E
100
AcDbEntity
  8
0
100
AcDbLine
 10
3.573799999999999
 20
7.428569999999999
 30
0.0
 11
4.679199999999999
 21
7.760789999999999
 31
0.0
  0
LINE
  5
31
330
1E
100
AcDbEntity
  8
0
100
AcDbLine
 10
3.573799999999999
 20
0.571431999999996
 30
0.0
 11
4.679199999999999
 21
0.239199999999997
 31
0.0
  0
LINE
  5
32
330
1E
100
AcDbEntity
  8
0
100
AcDbLine
 10
3.573799999999999
 20
0.571431999999996
 30
0.0
 11
4.679199999999999
 21
0.239199999999997
 31
0.0
  0
LINE
  5
33
330
1E
100
AcDbEntity
  8
0
100
AcDbLine
 10
5.3864
 20
-0.0000000000000038
 30
0.0
 11
5.863599999999999
 21
-0.000000000000004
 31
0.0
  0
LINE
  5
35
330
1E
100
AcDbEntity
  8
0
100
AcDbLine
 10
4.363599999999999
 20
0.171431999999996
 30
0.0
 11
5.3864
 21
-0.0000000000000038
 31
0.0
  0
LINE
  5
36
330
1E
100
AcDbEntity
  8
0
100
AcDbLine
 10
4.363599999999999
 20
0.171431999999996
 30
0.0
 11
5.3864
 21
-0.0000000000000038
 31
0.0
  0
LINE
  5
37
330
1E
100
AcDbEntity
  8
0
100
AcDbLine
 10
4.363599999999999
 20
7.82857
 30
0.0
 11
5.3864
 21
8.0
 31
0.0
  0
LINE
  5
38
330
1E
100
AcDbEntity
  8
0
100
AcDbLine
 10
5.3864
 20
8.0
 30
0.0
 11
5.863599999999999
 21
8.0
 31
0.0
  0
LINE
  5
3A
330
1E
100
AcDbEntity
  8
0
100
AcDbLine
 10
4.679199999999999
 20
7.760789999999999
 30
0.0
 11
6.493699999999999
 21
7.8845
 31
0.0
  0
LINE
  5
3D
330
1E
100
AcDbEntity
  8
0
100
AcDbLine
 10
4.679199999999999
 20
0.239199999999997
 30
0.0
 11
6.493699999999999
 21
0.115487999999997
 31
0.0
  0
LINE
  5
40
330
1E
100
AcDbEntity
  8
0
100
AcDbLine
 10
5.863599999999999
 20
-0.000000000000004
 30
0.0
 11
7.0909
 21
-0.0000000000000042
 31
0.0
  0
LINE
  5
41
330
1E
100
AcDbEntity
  8
0
100
AcDbLine
 10
7.0909
 20
-0.0000000000000042
 30
0.0
 11
9.068199999999999
 21
-0.0000000000000044
 31
0.0
  0
LINE
  5
42
330
1E
100
AcDbEntity
  8
0
100
AcDbLine
 10
6.9819
 20
-0.0000000000000038
 30
0.0
 11
7.474499999999999
 21
-0.0000000000000036
 31
0.0
  0
LINE
  5
43
330
1E
100
AcDbEntity
  8
0
100
AcDbLine
 10
6.9819
 20
-0.0000000000000038
 30
0.0
 11
7.503499999999999
 21
-0.000000000000004
 31
0.0
  0
LINE
  5
44
330
1E
100
AcDbEntity
  8
0
100
AcDbLine
 10
7.0909
 20
-0.0000000000000034
 30
0.0
 11
9.068199999999999
 21
-0.0000000000000032
 31
0.0
  0
LINE
  5
45
330
1E
100
AcDbEntity
  8
0
100
AcDbLine
 10
8.604599999999999
 20
-0.0000000000000041
 30
0.0
 11
10.517
 21
-0.0000000000000043
 31
0.0
  0
LINE
  5
46
330
1E
100
AcDbEntity
  8
0
100
AcDbLine
 10
7.503499999999999
 20
-0.000000000000004
 30
0.0
 11
8.604599999999999
 21
-0.0000000000000041
 31
0.0
  0
LINE
  5
47
330
1E
100
AcDbEntity
  8
0
100
AcDbLine
 10
9.068199999999999
 20
-0.0000000000000044
 30
0.0
 11
11.7273
 21
-0.0000000000000045
 31
0.0
  0
LINE
  5
48
330
1E
100
AcDbEntity
  8
0
100
AcDbLine
 10
8.575599999999999
 20
-0.0000000000000034
 30
0.0
 11
10.54599999999999
 21
-0.0000000000000033
 31
0.0
  0
LINE
  5
49
330
1E
100
AcDbEntity
  8
0
100
AcDbLine
 10
7.474499999999999
 20
-0.0000000000000036
 30
0.0
 11
8.575599999999999
 21
-0.0000000000000034
 31
0.0
  0
LINE
  5
4B
330
1E
100
AcDbEntity
  8
0
100
AcDbLine
 10
8.318199999999999
 20
0.207767999999997
 30
0.0
 11
9.596
 21
0.5714319999999971
 31
0.0
  0
LINE
  5
4C
330
1E
100
AcDbEntity
  8
0
100
AcDbLine
 10
8.318199999999999
 20
0.207767999999997
 30
0.0
 11
9.596
 21
0.5714319999999971
 31
0.0
  0
LINE
  5
53
330
1E
100
AcDbEntity
  8
0
100
AcDbLine
 10
9.596
 20
0.5714319999999971
 30
0.0
 11
10.70449999999999
 21
0.5714319999999971
 31
0.0
  0
LINE
  5
56
330
1E
100
AcDbEntity
  8
0
100
AcDbLine
 10
6.493699999999999
 20
0.115487999999997
 30
0.0
 11
8.318199999999999
 21
0.207767999999997
 31
0.0
  0
LINE
  5
5A
330
1E
100
AcDbEntity
  8
0
100
AcDbLine
 10
5.863599999999999
 20
-0.0000000000000036
 30
0.0
 11
7.0909
 21
-0.0000000000000034
 31
0.0
  0
LINE
  5
5D
330
1E
100
AcDbEntity
  8
0
100
AcDbLine
 10
9.596
 20
7.428569999999999
 30
0.0
 11
10.70449999999999
 21
7.428569999999999
 31
0.0
  0
LINE
  5
60
330
1E
100
AcDbEntity
  8
0
100
AcDbLine
 10
10.517
 20
-0.0000000000000043
 30
0.0
 11
12.98
 21
-0.0000000000000044
 31
0.0
  0
LINE
  5
62
330
1E
100
AcDbEntity
  8
0
100
AcDbLine
 10
10.70449999999999
 20
0.5714319999999971
 30
0.0
 11
11.3799
 21
0.5714319999999971
 31
0.0
  0
LINE
  5
67
330
1E
100
AcDbEntity
  8
0
100
AcDbLine
 10
10.70449999999999
 20
7.428569999999999
 30
0.0
 11
11.3799
 21
7.428569999999999
 31
0.0
  0
LINE
  5
69
330
1E
100
AcDbEntity
  8
0
100
AcDbLine
 10
10.54599999999999
 20
-0.0000000000000033
 30
0.0
 11
12.95099999999999
 21
-0.0000000000000032
 31
0.0
  0
LINE
  5
6D
330
1E
100
AcDbEntity
  8
0
100
AcDbLine
 10
8.318199999999999
 20
7.79221
 30
0.0
 11
9.596
 21
7.428569999999999
 31
0.0
  0
LINE
  5
6E
330
1E
100
AcDbEntity
  8
0
100
AcDbLine
 10
11.3799
 20
7.428569999999999
 30
0.0
 11
14.5636
 21
7.86286
 31
0.0
  0
LINE
  5
6F
330
1E
100
AcDbEntity
  8
0
100
AcDbLine
 10
11.7273
 20
-0.0000000000000045
 30
0.0
 11
14.7273
 21
-0.0000000000000046
 31
0.0
  0
LINE
  5
70
330
1E
100
AcDbEntity
  8
0
100
AcDbLine
 10
12.98
 20
-0.0000000000000044
 30
0.0
 11
15.3851
 21
-0.0000000000000044
 31
0.0
  0
LINE
  5
71
330
1E
100
AcDbEntity
  8
0
100
AcDbLine
 10
11.7273
 20
-0.0000000000000031
 30
0.0
 11
14.7273
 21
-0.000000000000003
 31
0.0
  0
LINE
  5
74
330
1E
100
AcDbEntity
  8
0
100
AcDbLine
 10
12.95099999999999
 20
-0.0000000000000032
 30
0.0
 11
15.3851
 21
-0.0000000000000031
 31
0.0
  0
LINE
  5
75
330
1E
100
AcDbEntity
  8
0
100
AcDbLine
 10
11.3799
 20
0.5714319999999971
 30
0.0
 11
14.5636
 21
0.137143999999997
 31
0.0
  0
LINE
  5
76
330
1E
100
AcDbEntity
  8
0
100
AcDbLine
 10
7.0909
 20
8.0
 30
0.0
 11
9.068199999999999
 21
8.0
 31
0.0
  0
LINE
  5
77
330
1E
100
AcDbEntity
  8
0
100
AcDbLine
 10
6.493699999999999
 20
7.8845
 30
0.0
 11
8.318199999999999
 21
7.79221
 31
0.0
  0
LINE
  5
79
330
1E
100
AcDbEntity
  8
0
100
AcDbLine
 10
5.863599999999999
 20
8.0
 30
0.0
 11
7.0909
 21
8.0
 31
0.0
  0
LINE
  5
7A
330
1E
100
AcDbEntity
  8
0
100
AcDbLine
 10
14.5636
 20
7.86286
 30
0.0
 11
18.0
 21
7.94286
 31
0.0
  0
LINE
  5
7B
330
1E
100
AcDbEntity
  8
0
100
AcDbLine
 10
14.7273
 20
-0.0000000000000046
 30
0.0
 11
18.0
 21
-0.0000000000000046
 31
0.0
  0
LINE
  5
7C
330
1E
100
AcDbEntity
  8
0
100
AcDbLine
 10
15.3851
 20
-0.0000000000000044
 30
0.0
 11
17.9929
 21
-0.0000000000000045
 31
0.0
  0
LINE
  5
7D
330
1E
100
AcDbEntity
  8
0
100
AcDbLine
 10
21.2727
 20
-0.0000000000000046
 30
0.0
 11
24.2727
 21
-0.0000000000000045
 31
0.0
  0
LINE
  5
7E
330
1E
100
AcDbEntity
  8
0
100
AcDbLine
 10
18.0
 20
-0.0000000000000046
 30
0.0
 11
21.2727
 21
-0.0000000000000046
 31
0.0
  0
LINE
  5
7F
330
1E
100
AcDbEntity
  8
0
100
AcDbLine
 10
20.5718
 20
-0.0000000000000044
 30
0.0
 11
23.03479999999999
 21
-0.0000000000000044
 31
0.0
  0
LINE
  5
80
330
1E
100
AcDbEntity
  8
0
100
AcDbLine
 10
17.9929
 20
-0.0000000000000045
 30
0.0
 11
20.5718
 21
-0.0000000000000044
 31
0.0
  0
LINE
  5
81
330
1E
100
AcDbEntity
  8
0
100
AcDbLine
 10
23.03479999999999
 20
-0.0000000000000044
 30
0.0
 11
25.4689
 21
-0.0000000000000043
 31
0.0
  0
LINE
  5
82
330
1E
100
AcDbEntity
  8
0
100
AcDbLine
 10
24.2727
 20
-0.0000000000000045
 30
0.0
 11
26.93179999999999
 21
-0.0000000000000044
 31
0.0
  0
LINE
  5
83
330
1E
100
AcDbEntity
  8
0
100
AcDbLine
 10
26.93179999999999
 20
-0.0000000000000044
 30
0.0
 11
28.90909999999999
 21
-0.0000000000000042
 31
0.0
  0
LINE
  5
84
330
1E
100
AcDbEntity
  8
0
100
AcDbLine
 10
27.4393
 20
-0.0000000000000041
 30
0.0
 11
28.5693
 21
-0.000000000000004
 31
0.0
  0
LINE
  5
85
330
1E
100
AcDbEntity
  8
0
100
AcDbLine
 10
28.90909999999999
 20
-0.0000000000000042
 30
0.0
 11
30.1364
 21
-0.000000000000004
 31
0.0
  0
LINE
  5
86
330
1E
100
AcDbEntity
  8
0
100
AcDbLine
 10
25.4689
 20
-0.0000000000000043
 30
0.0
 11
27.4393
 21
-0.0000000000000041
 31
0.0
  0
LINE
  5
87
330
1E
100
AcDbEntity
  8
0
100
AcDbLine
 10
28.5693
 20
-0.000000000000004
 30
0.0
 11
29.004
 21
-0.0000000000000038
 31
0.0
  0
LINE
  5
88
330
1E
100
AcDbEntity
  8
0
100
AcDbLine
 10
30.6136
 20
-0.0000000000000038
 30
0.0
 11
31.6364
 21
0.171431999999996
 31
0.0
  0
LINE
  5
89
330
1E
100
AcDbEntity
  8
0
100
AcDbLine
 10
30.1364
 20
-0.000000000000004
 30
0.0
 11
30.6136
 21
-0.0000000000000038
 31
0.0
  0
LINE
  5
8A
330
1E
100
AcDbEntity
  8
0
100
AcDbLine
 10
30.6136
 20
-0.0000000000000038
 30
0.0
 11
31.6364
 21
0.171431999999996
 31
0.0
  0
LINE
  5
8B
330
1E
100
AcDbEntity
  8
0
100
AcDbLine
 10
17.964
 20
-0.0000000000000031
 30
0.0
 11
20.54289999999999
 21
-0.0000000000000031
 31
0.0
  0
LINE
  5
8E
330
1E
100
AcDbEntity
  8
0
100
AcDbLine
 10
27.4682
 20
-0.0000000000000034
 30
0.0
 11
28.5693
 21
-0.0000000000000036
 31
0.0
  0
LINE
  5
91
330
1E
100
AcDbEntity
  8
0
100
AcDbLine
 10
25.5848
 20
-0.0000000000000033
 30
0.0
 11
27.4682
 21
-0.0000000000000034
 31
0.0
  0
LINE
  5
93
330
1E
100
AcDbEntity
  8
0
100
AcDbLine
 10
26.93179999999999
 20
-0.0000000000000032
 30
0.0
 11
28.90909999999999
 21
-0.0000000000000034
 31
0.0
  0
LINE
  5
96
330
1E
100
AcDbEntity
  8
0
100
AcDbLine
 10
28.90909999999999
 20
-0.0000000000000034
 30
0.0
 11
30.1364
 21
-0.0000000000000036
 31
0.0
  0
LINE
  5
99
330
1E
100
AcDbEntity
  8
0
100
AcDbLine
 10
23.0059
 20
-0.0000000000000032
 30
0.0
 11
25.5848
 21
-0.0000000000000033
 31
0.0
  0
LINE
  5
9C
330
1E
100
AcDbEntity
  8
0
100
AcDbLine
 10
24.2727
 20
-0.0000000000000031
 30
0.0
 11
26.93179999999999
 21
-0.0000000000000032
 31
0.0
  0
LINE
  5
9E
330
1E
100
AcDbEntity
  8
0
100
AcDbLine
 10
20.54289999999999
 20
-0.0000000000000031
 30
0.0
 11
23.0059
 21
-0.0000000000000032
 31
0.0
  0
LINE
  5
9F
330
1E
100
AcDbEntity
  8
0
100
AcDbLine
 10
21.2727
 20
-0.000000000000003
 30
0.0
 11
24.2727
 21
-0.0000000000000031
 31
0.0
  0
LINE
  5
A2
330
1E
100
AcDbEntity
  8
0
100
AcDbLine
 10
28.5693
 20
-0.0000000000000036
 30
0.0
 11
29.004
 21
-0.0000000000000038
 31
0.0
  0
LINE
  5
A3
330
1E
100
AcDbEntity
  8
0
100
AcDbLine
 10
15.3851
 20
-0.0000000000000031
 30
0.0
 11
17.964
 21
-0.0000000000000031
 31
0.0
  0
LINE
  5
A4
330
1E
100
AcDbEntity
  8
0
100
AcDbLine
 10
18.0
 20
-0.000000000000003
 30
0.0
 11
21.2727
 21
-0.000000000000003
 31
0.0
  0
LINE
  5
A7
330
1E
100
AcDbEntity
  8
0
100
AcDbLine
 10
25.2955
 20
0.5714319999999971
 30
0.0
 11
26.404
 21
0.5714319999999971
 31
0.0
  0
LINE
  5
B0
330
1E
100
AcDbEntity
  8
0
100
AcDbLine
 10
24.6201
 20
0.5714319999999971
 30
0.0
 11
25.2955
 21
0.5714319999999971
 31
0.0
  0
LINE
  5
B1
330
1E
100
AcDbEntity
  8
0
100
AcDbLine
 10
21.43639999999999
 20
0.137143999999997
 30
0.0
 11
24.6201
 21
0.5714319999999971
 31
0.0
  0
LINE
  5
B5
330
1E
100
AcDbEntity
  8
0
100
AcDbLine
 10
18.0
 20
0.0571439999999971
 30
0.0
 11
21.43639999999999
 21
0.137143999999997
 31
0.0
  0
LINE
  5
B6
330
1E
100
AcDbEntity
  8
0
100
AcDbLine
 10
29.5063
 20
0.115487999999997
 30
0.0
 11
31.3208
 21
0.239199999999997
 31
0.0
  0
LINE
  5
B7
330
1E
100
AcDbEntity
  8
0
100
AcDbLine
 10
27.6818
 20
0.207767999999997
 30
0.0
 11
29.5063
 21
0.115487999999997
 31
0.0
  0
LINE
  5
B8
330
1E
100
AcDbEntity
  8
0
100
AcDbLine
 10
26.404
 20
0.5714319999999971
 30
0.0
 11
27.6818
 21
0.207767999999997
 31
0.0
  0
LINE
  5
B9
330
1E
100
AcDbEntity
  8
0
100
AcDbLine
 10
26.404
 20
0.5714319999999971
 30
0.0
 11
27.6818
 21
0.207767999999997
 31
0.0
  0
LINE
  5
BA
330
1E
100
AcDbEntity
  8
0
100
AcDbLine
 10
25.2955
 20
7.428569999999999
 30
0.0
 11
26.404
 21
7.428569999999999
 31
0.0
  0
LINE
  5
BF
330
1E
100
AcDbEntity
  8
0
100
AcDbLine
 10
24.6201
 20
7.428569999999999
 30
0.0
 11
25.2955
 21
7.428569999999999
 31
0.0
  0
LINE
  5
C0
330
1E
100
AcDbEntity
  8
0
100
AcDbLine
 10
21.43639999999999
 20
7.86286
 30
0.0
 11
24.6201
 21
7.428569999999999
 31
0.0
  0
LINE
  5
C1
330
1E
100
AcDbEntity
  8
0
100
AcDbLine
 10
18.0
 20
7.94286
 30
0.0
 11
21.43639999999999
 21
7.86286
 31
0.0
  0
LINE
  5
C2
330
1E
100
AcDbEntity
  8
0
100
AcDbLine
 10
28.90909999999999
 20
8.0
 30
0.0
 11
30.1364
 21
8.0
 31
0.0
  0
LINE
  5
C4
330
1E
100
AcDbEntity
  8
0
100
AcDbLine
 10
29.5063
 20
7.8845
 30
0.0
 11
31.3208
 21
7.760789999999999
 31
0.0
  0
LINE
  5
C6
330
1E
100
AcDbEntity
  8
0
100
AcDbLine
 10
27.6818
 20
7.79221
 30
0.0
 11
29.5063
 21
7.8845
 31
0.0
  0
LINE
  5
C7
330
1E
100
AcDbEntity
  8
0
100
AcDbLine
 10
26.404
 20
7.428569999999999
 30
0.0
 11
27.6818
 21
7.79221
 31
0.0
  0
LINE
  5
CA
330
1E
100
AcDbEntity
  8
0
100
AcDbLine
 10
31.3208
 20
0.239199999999997
 30
0.0
 11
32.4262
 21
0.571431999999996
 31
0.0
  0
LINE
  5
CC
330
1E
100
AcDbEntity
  8
0
100
AcDbLine
 10
31.3208
 20
7.760789999999999
 30
0.0
 11
32.4262
 21
7.428569999999999
 31
0.0
  0
LINE
  5
CE
330
1E
100
AcDbEntity
  8
0
100
AcDbLine
 10
31.3208
 20
0.239199999999997
 30
0.0
 11
32.4262
 21
0.571431999999996
 31
0.0
  0
LINE
  5
D1
330
1E
100
AcDbEntity
  8
0
100
AcDbLine
 10
30.1364
 20
8.0
 30
0.0
 11
30.6136
 21
8.0
 31
0.0
  0
LINE
  5
D3
330
1E
100
AcDbEntity
  8
0
100
AcDbLine
 10
14.7273
 20
-0.000000000000003
 30
0.0
 11
18.0
 21
-0.000000000000003
 31
0.0
  0
LINE
  5
D4
330
1E
100
AcDbEntity
  8
0
100
AcDbLine
 10
14.5636
 20
0.137143999999997
 30
0.0
 11
18.0
 21
0.0571439999999971
 31
0.0
  0
LINE
  5
D7
330
1E
100
AcDbEntity
  8
0
100
AcDbLine
 10
30.6136
 20
8.0
 30
0.0
 11
31.49599999999999
 21
8.0
 31
0.0
  0
LINE
  5
D8
330
1E
100
AcDbEntity
  8
0
100
AcDbLine
 10
30.6136
 20
8.0
 30
0.0
 11
31.6364
 21
7.82857
 31
0.0
  0
LINE
  5
D9
330
1E
100
AcDbEntity
  8
0
100
AcDbLine
 10
5.847999999999999
 20
8.0
 30
0.0
 11
8.087999999999999
 21
8.0
 31
0.0
  0
LINE
  5
DA
330
1E
100
AcDbEntity
  8
0
100
AcDbLine
 10
4.503999999999999
 20
8.0
 30
0.0
 11
5.847999999999999
 21
8.0
 31
0.0
  0
LINE
  5
DB
330
1E
100
AcDbEntity
  8
0
100
AcDbLine
 10
4.503999999999999
 20
8.0
 30
0.0
 11
5.3864
 21
8.0
 31
0.0
  0
LINE
  5
DC
330
1E
100
AcDbEntity
  8
0
100
AcDbLine
 10
4.0
 20
8.0
 30
0.0
 11
4.503999999999999
 21
8.0
 31
0.0
  0
LINE
  5
DD
330
1E
100
AcDbEntity
  8
0
100
AcDbLine
 10
4.0
 20
8.0
 30
0.0
 11
4.0
 21
23.9202
 31
0.0
  0
LINE
  5
DE
330
1E
100
AcDbEntity
  8
0
100
AcDbLine
 10
11.7273
 20
8.0
 30
0.0
 11
14.7273
 21
8.0
 31
0.0
  0
LINE
  5
DF
330
1E
100
AcDbEntity
  8
0
100
AcDbLine
 10
9.068199999999999
 20
8.0
 30
0.0
 11
11.7273
 21
8.0
 31
0.0
  0
LINE
  5
E0
330
1E
100
AcDbEntity
  8
0
100
AcDbLine
 10
21.2727
 20
8.0
 30
0.0
 11
24.2727
 21
8.0
 31
0.0
  0
LINE
  5
E1
330
1E
100
AcDbEntity
  8
0
100
AcDbLine
 10
14.7273
 20
8.0
 30
0.0
 11
18.0
 21
8.0
 31
0.0
  0
LINE
  5
E2
330
1E
100
AcDbEntity
  8
0
100
AcDbLine
 10
14.416
 20
8.0
 30
0.0
 11
18.0
 21
8.0
 31
0.0
  0
LINE
  5
E3
330
1E
100
AcDbEntity
  8
0
100
AcDbLine
 10
11.05599999999999
 20
8.0
 30
0.0
 11
14.416
 21
8.0
 31
0.0
  0
LINE
  5
E4
330
1E
100
AcDbEntity
  8
0
100
AcDbLine
 10
8.087999999999999
 20
8.0
 30
0.0
 11
11.05599999999999
 21
8.0
 31
0.0
  0
LINE
  5
E5
330
1E
100
AcDbEntity
  8
0
100
AcDbLine
 10
18.0
 20
8.0
 30
0.0
 11
21.58399999999999
 21
8.0
 31
0.0
  0
LINE
  5
E6
330
1E
100
AcDbEntity
  8
0
100
AcDbLine
 10
18.0
 20
8.0
 30
0.0
 11
21.2727
 21
8.0
 31
0.0
  0
LINE
  5
E7
330
1E
100
AcDbEntity
  8
0
100
AcDbLine
 10
26.93179999999999
 20
8.0
 30
0.0
 11
28.90909999999999
 21
8.0
 31
0.0
  0
LINE
  5
E9
330
1E
100
AcDbEntity
  8
0
100
AcDbLine
 10
24.2727
 20
8.0
 30
0.0
 11
26.93179999999999
 21
8.0
 31
0.0
  0
LINE
  5
EA
330
1E
100
AcDbEntity
  8
0
100
AcDbLine
 10
21.58399999999999
 20
8.0
 30
0.0
 11
24.944
 21
8.0
 31
0.0
  0
LINE
  5
EB
330
1E
100
AcDbEntity
  8
0
100
AcDbLine
 10
2.808
 20
26.288
 30
0.0
 11
5.616
 21
22.616
 31
0.0
  0
LINE
  5
EC
330
1E
100
AcDbEntity
  8
0
100
AcDbLine
 10
2.375999999999999
 20
26.072
 30
0.0
 11
5.256
 21
22.256
 31
0.0
  0
LINE
  5
ED
330
1E
100
AcDbEntity
  8
0
100
AcDbLine
 10
2.576
 20
30.904
 30
0.0
 11
4.112
 21
27.064
 31
0.0
  0
LINE
  5
EE
330
1E
100
AcDbEntity
  8
0
100
AcDbLine
 10
2.576
 20
30.904
 30
0.0
 11
4.112
 21
27.064
 31
0.0
  0
LINE
  5
EF
330
1E
100
AcDbEntity
  8
0
100
AcDbLine
 10
2.383999999999999
 20
35.0
 30
0.0
 11
2.959999999999999
 21
39.032
 31
0.0
  0
LINE
  5
F0
330
1E
100
AcDbEntity
  8
0
100
AcDbLine
 10
2.383999999999999
 20
35.0
 30
0.0
 11
2.959999999999999
 21
30.968
 31
0.0
  0
LINE
  5
F1
330
1E
100
AcDbEntity
  8
0
100
AcDbLine
 10
2.0
 20
35.0
 30
0.0
 11
2.576
 21
39.09599999999999
 31
0.0
  0
LINE
  5
F2
330
1E
100
AcDbEntity
  8
0
100
AcDbLine
 10
2.0
 20
35.0
 30
0.0
 11
2.576
 21
30.904
 31
0.0
  0
LINE
  5
F3
330
1E
100
AcDbEntity
  8
0
100
AcDbLine
 10
2.0
 20
35.0
 30
0.0
 11
2.576
 21
30.904
 31
0.0
  0
LINE
  5
F4
330
1E
100
AcDbEntity
  8
0
100
AcDbLine
 10
4.0
 20
35.0
 30
0.0
 11
4.503999999999999
 21
38.584
 31
0.0
  0
LINE
  5
F5
330
1E
100
AcDbEntity
  8
0
100
AcDbLine
 10
4.0
 20
35.0
 30
0.0
 11
4.503999999999999
 21
31.416
 31
0.0
  0
LINE
  5
F6
330
1E
100
AcDbEntity
  8
0
100
AcDbLine
 10
4.0
 20
35.0
 30
0.0
 11
4.503999999999999
 21
31.416
 31
0.0
  0
LINE
  5
F7
330
1E
100
AcDbEntity
  8
0
100
AcDbLine
 10
2.959999999999999
 20
30.968
 30
0.0
 11
4.496
 21
27.256
 31
0.0
  0
LINE
  5
F8
330
1E
100
AcDbEntity
  8
0
100
AcDbLine
 10
2.959999999999999
 20
39.032
 30
0.0
 11
4.496
 21
42.74399999999999
 31
0.0
  0
LINE
  5
F9
330
1E
100
AcDbEntity
  8
0
100
AcDbLine
 10
2.576
 20
39.09599999999999
 30
0.0
 11
4.112
 21
42.936
 31
0.0
  0
LINE
  5
FA
330
1E
100
AcDbEntity
  8
0
100
AcDbLine
 10
2.808
 20
43.71199999999999
 30
0.0
 11
5.616
 21
47.38399999999999
 31
0.0
  0
LINE
  5
FB
330
1E
100
AcDbEntity
  8
0
100
AcDbLine
 10
1.08
 20
39.536
 30
0.0
 11
2.808
 21
43.71199999999999
 31
0.0
  0
LINE
  5
FC
330
1E
100
AcDbEntity
  8
0
100
AcDbLine
 10
2.375999999999999
 20
43.928
 30
0.0
 11
5.256
 21
47.74399999999999
 31
0.0
  0
LINE
  5
FD
330
1E
100
AcDbEntity
  8
0
100
AcDbLine
 10
0.6480000000000011
 20
39.608
 30
0.0
 11
2.375999999999999
 21
43.928
 31
0.0
  0
LINE
  5
FE
330
1E
100
AcDbEntity
  8
0
100
AcDbLine
 10
1.08
 20
30.464
 30
0.0
 11
2.808
 21
26.288
 31
0.0
  0
LINE
  5
FF
330
1E
100
AcDbEntity
  8
0
100
AcDbLine
 10
0.4320000000000011
 20
35.0
 30
0.0
 11
1.08
 21
30.464
 31
0.0
  0
LINE
  5
100
330
1E
100
AcDbEntity
  8
0
100
AcDbLine
 10
0.4320000000000011
 20
35.0
 30
0.0
 11
1.08
 21
39.536
 31
0.0
  0
LINE
  5
101
330
1E
100
AcDbEntity
  8
0
100
AcDbLine
 10
0.6480000000000011
 20
30.392
 30
0.0
 11
2.375999999999999
 21
26.072
 31
0.0
  0
LINE
  5
102
330
1E
100
AcDbEntity
  8
0
100
AcDbLine
 10
0.000000000000001
 20
35.0
 30
0.0
 11
0.6480000000000011
 21
30.392
 31
0.0
  0
LINE
  5
103
330
1E
100
AcDbEntity
  8
0
100
AcDbLine
 10
0.000000000000001
 20
35.0
 30
0.0
 11
0.6480000000000011
 21
39.608
 31
0.0
  0
LINE
  5
104
330
1E
100
AcDbEntity
  8
0
100
AcDbLine
 10
4.0
 20
46.0798
 30
0.0
 11
4.0
 21
61.0
 31
0.0
  0
LINE
  5
105
330
1E
100
AcDbEntity
  8
0
100
AcDbLine
 10
18.0
 20
17.432
 30
0.0
 11
22.536
 21
18.07999999999999
 31
0.0
  0
LINE
  5
106
330
1E
100
AcDbEntity
  8
0
100
AcDbLine
 10
18.0
 20
17.0
 30
0.0
 11
22.608
 21
17.648
 31
0.0
  0
LINE
  5
107
330
1E
100
AcDbEntity
  8
0
100
AcDbLine
 10
22.608
 20
17.648
 30
0.0
 11
26.928
 21
19.37599999999999
 31
0.0
  0
LINE
  5
108
330
1E
100
AcDbEntity
  8
0
100
AcDbLine
 10
22.536
 20
18.07999999999999
 30
0.0
 11
26.712
 21
19.808
 31
0.0
  0
LINE
  5
109
330
1E
100
AcDbEntity
  8
0
100
AcDbLine
 10
13.904
 20
19.576
 30
0.0
 11
18.0
 21
19.0
 31
0.0
  0
LINE
  5
10A
330
1E
100
AcDbEntity
  8
0
100
AcDbLine
 10
18.0
 20
19.384
 30
0.0
 11
22.03199999999999
 21
19.96
 31
0.0
  0
LINE
  5
10B
330
1E
100
AcDbEntity
  8
0
100
AcDbLine
 10
22.096
 20
19.576
 30
0.0
 11
25.936
 21
21.11199999999999
 31
0.0
  0
LINE
  5
10C
330
1E
100
AcDbEntity
  8
0
100
AcDbLine
 10
18.0
 20
19.0
 30
0.0
 11
22.096
 21
19.576
 31
0.0
  0
LINE
  5
10D
330
1E
100
AcDbEntity
  8
0
100
AcDbLine
 10
13.968
 20
19.96
 30
0.0
 11
18.0
 21
19.384
 31
0.0
  0
LINE
  5
10E
330
1E
100
AcDbEntity
  8
0
100
AcDbLine
 10
18.0
 20
21.0
 30
0.0
 11
21.58399999999999
 21
21.504
 31
0.0
  0
LINE
  5
10F
330
1E
100
AcDbEntity
  8
0
100
AcDbLine
 10
14.416
 20
21.504
 30
0.0
 11
18.0
 21
21.0
 31
0.0
  0
LINE
  5
110
330
1E
100
AcDbEntity
  8
0
100
AcDbLine
 10
21.58399999999999
 20
21.504
 30
0.0
 11
24.944
 21
22.848
 31
0.0
  0
LINE
  5
111
330
1E
100
AcDbEntity
  8
0
100
AcDbLine
 10
10.25599999999999
 20
21.49599999999999
 30
0.0
 11
13.968
 21
19.96
 31
0.0
  0
LINE
  5
112
330
1E
100
AcDbEntity
  8
0
100
AcDbLine
 10
10.06399999999999
 20
21.11199999999999
 30
0.0
 11
13.904
 21
19.576
 31
0.0
  0
LINE
  5
113
330
1E
100
AcDbEntity
  8
0
100
AcDbLine
 10
25.744
 20
21.49599999999999
 30
0.0
 11
29.008
 21
23.99199999999999
 31
0.0
  0
LINE
  5
114
330
1E
100
AcDbEntity
  8
0
100
AcDbLine
 10
22.03199999999999
 20
19.96
 30
0.0
 11
25.744
 21
21.49599999999999
 31
0.0
  0
LINE
  5
115
330
1E
100
AcDbEntity
  8
0
100
AcDbLine
 10
25.936
 20
21.11199999999999
 30
0.0
 11
29.328
 21
23.67199999999999
 31
0.0
  0
LINE
  5
116
330
1E
100
AcDbEntity
  8
0
100
AcDbLine
 10
26.712
 20
19.808
 30
0.0
 11
30.384
 21
22.616
 31
0.0
  0
LINE
  5
117
330
1E
100
AcDbEntity
  8
0
100
AcDbLine
 10
26.928
 20
19.37599999999999
 30
0.0
 11
30.744
 21
22.256
 31
0.0
  0
LINE
  5
118
330
1E
100
AcDbEntity
  8
0
100
AcDbLine
 10
13.464
 20
18.07999999999999
 30
0.0
 11
18.0
 21
17.432
 31
0.0
  0
LINE
  5
119
330
1E
100
AcDbEntity
  8
0
100
AcDbLine
 10
9.288
 20
19.808
 30
0.0
 11
13.464
 21
18.07999999999999
 31
0.0
  0
LINE
  5
11A
330
1E
100
AcDbEntity
  8
0
100
AcDbLine
 10
13.392
 20
17.648
 30
0.0
 11
18.0
 21
17.0
 31
0.0
  0
LINE
  5
11B
330
1E
100
AcDbEntity
  8
0
100
AcDbLine
 10
9.072
 20
19.37599999999999
 30
0.0
 11
13.392
 21
17.648
 31
0.0
  0
LINE
  5
11C
330
1E
100
AcDbEntity
  8
0
100
AcDbLine
 10
4.0
 20
35.0
 30
0.0
 11
4.503999999999999
 21
38.584
 31
0.0
  0
LINE
  5
11D
330
1E
100
AcDbEntity
  8
0
100
AcDbLine
 10
4.496
 20
27.256
 30
0.0
 11
6.992
 21
23.99199999999999
 31
0.0
  0
LINE
  5
11E
330
1E
100
AcDbEntity
  8
0
100
AcDbLine
 10
4.112
 20
27.064
 30
0.0
 11
6.672
 21
23.67199999999999
 31
0.0
  0
LINE
  5
11F
330
1E
100
AcDbEntity
  8
0
100
AcDbLine
 10
4.503999999999999
 20
31.416
 30
0.0
 11
5.847999999999999
 21
28.056
 31
0.0
  0
LINE
  5
120
330
1E
100
AcDbEntity
  8
0
100
AcDbLine
 10
4.503999999999999
 20
38.584
 30
0.0
 11
5.847999999999999
 21
41.94399999999999
 31
0.0
  0
LINE
  5
121
330
1E
100
AcDbEntity
  8
0
100
AcDbLine
 10
4.496
 20
42.74399999999999
 30
0.0
 11
6.992
 21
46.008
 31
0.0
  0
LINE
  5
122
330
1E
100
AcDbEntity
  8
0
100
AcDbLine
 10
4.112
 20
42.936
 30
0.0
 11
6.672
 21
46.328
 31
0.0
  0
LINE
  5
123
330
1E
100
AcDbEntity
  8
0
100
AcDbLine
 10
6.432
 20
31.928
 30
0.0
 11
7.583999999999999
 21
29.048
 31
0.0
  0
LINE
  5
124
330
1E
100
AcDbEntity
  8
0
100
AcDbLine
 10
6.0
 20
35.0
 30
0.0
 11
6.432
 21
38.07199999999999
 31
0.0
  0
LINE
  5
125
330
1E
100
AcDbEntity
  8
0
100
AcDbLine
 10
6.0
 20
35.0
 30
0.0
 11
6.432
 21
31.928
 31
0.0
  0
LINE
  5
126
330
1E
100
AcDbEntity
  8
0
100
AcDbLine
 10
6.432
 20
38.07199999999999
 30
0.0
 11
7.583999999999999
 21
40.952
 31
0.0
  0
LINE
  5
127
330
1E
100
AcDbEntity
  8
0
100
AcDbLine
 10
5.847999999999999
 20
28.056
 30
0.0
 11
8.087999999999999
 21
25.088
 31
0.0
  0
LINE
  5
128
330
1E
100
AcDbEntity
  8
0
100
AcDbLine
 10
5.847999999999999
 20
41.94399999999999
 30
0.0
 11
8.087999999999999
 21
44.912
 31
0.0
  0
LINE
  5
129
330
1E
100
AcDbEntity
  8
0
100
AcDbLine
 10
14.92799999999999
 20
23.43199999999999
 30
0.0
 11
18.0
 21
23.0
 31
0.0
  0
LINE
  5
12A
330
1E
100
AcDbEntity
  8
0
100
AcDbLine
 10
21.072
 20
23.43199999999999
 30
0.0
 11
23.95199999999999
 21
24.584
 31
0.0
  0
LINE
  5
12B
330
1E
100
AcDbEntity
  8
0
100
AcDbLine
 10
18.0
 20
23.0
 30
0.0
 11
21.072
 21
23.43199999999999
 31
0.0
  0
LINE
  5
12C
330
1E
100
AcDbEntity
  8
0
100
AcDbLine
 10
11.05599999999999
 20
22.848
 30
0.0
 11
14.416
 21
21.504
 31
0.0
  0
LINE
  5
12D
330
1E
100
AcDbEntity
  8
0
100
AcDbLine
 10
24.944
 20
22.848
 30
0.0
 11
27.91199999999999
 21
25.088
 31
0.0
  0
LINE
  5
12E
330
1E
100
AcDbEntity
  8
0
100
AcDbLine
 10
7.583999999999999
 20
29.048
 30
0.0
 11
9.503999999999999
 21
26.504
 31
0.0
  0
LINE
  5
12F
330
1E
100
AcDbEntity
  8
0
100
AcDbLine
 10
7.583999999999999
 20
40.952
 30
0.0
 11
9.503999999999999
 21
43.496
 31
0.0
  0
LINE
  5
130
330
1E
100
AcDbEntity
  8
0
100
AcDbLine
 10
8.087999999999999
 20
25.088
 30
0.0
 11
11.05599999999999
 21
22.848
 31
0.0
  0
LINE
  5
131
330
1E
100
AcDbEntity
  8
0
100
AcDbLine
 10
12.048
 20
24.584
 30
0.0
 11
14.92799999999999
 21
23.43199999999999
 31
0.0
  0
LINE
  5
132
330
1E
100
AcDbEntity
  8
0
100
AcDbLine
 10
9.0
 20
29.9874
 30
0.0
 11
9.0
 21
30.5866
 31
0.0
  0
LINE
  5
133
330
1E
100
AcDbEntity
  8
0
100
AcDbLine
 10
9.0
 20
29.9874
 30
0.0
 11
9.231619999999999
 21
29.7034
 31
0.0
  0
LINE
  5
134
330
1E
100
AcDbEntity
  8
0
100
AcDbLine
 10
9.0
 20
30.5866
 30
0.0
 11
9.0
 21
32.7091
 31
0.0
  0
LINE
  5
135
330
1E
100
AcDbEntity
  8
0
100
AcDbLine
 10
9.0
 20
30.5866
 30
0.0
 11
9.0
 21
29.9874
 31
0.0
  0
LINE
  5
137
330
1E
100
AcDbEntity
  8
0
100
AcDbLine
 10
9.0
 20
32.7091
 30
0.0
 11
9.0
 21
35.0
 31
0.0
  0
LINE
  5
138
330
1E
100
AcDbEntity
  8
0
100
AcDbLine
 10
9.0
 20
32.7091
 30
0.0
 11
9.0
 21
30.5866
 31
0.0
  0
LINE
  5
139
330
1E
100
AcDbEntity
  8
0
100
AcDbLine
 10
9.0
 20
40.0127
 30
0.0
 11
9.0
 21
39.4134
 31
0.0
  0
LINE
  5
13A
330
1E
100
AcDbEntity
  8
0
100
AcDbLine
 10
9.0
 20
40.0127
 30
0.0
 11
9.231619999999999
 21
40.2967
 31
0.0
  0
LINE
  5
13B
330
1E
100
AcDbEntity
  8
0
100
AcDbLine
 10
9.0
 20
39.4134
 30
0.0
 11
9.0
 21
37.2909
 31
0.0
  0
LINE
  5
13C
330
1E
100
AcDbEntity
  8
0
100
AcDbLine
 10
9.0
 20
39.4134
 30
0.0
 11
9.0
 21
40.0127
 31
0.0
  0
LINE
  5
13E
330
1E
100
AcDbEntity
  8
0
100
AcDbLine
 10
9.0
 20
37.2909
 30
0.0
 11
9.0
 21
35.0
 31
0.0
  0
LINE
  5
13F
330
1E
100
AcDbEntity
  8
0
100
AcDbLine
 10
9.0
 20
37.2909
 30
0.0
 11
9.0
 21
39.4134
 31
0.0
  0
LINE
  5
142
330
1E
100
AcDbEntity
  8
0
100
AcDbLine
 10
9.231619999999999
 20
29.7034
 30
0.0
 11
9.77138
 21
29.3973
 31
0.0
  0
LINE
  5
145
330
1E
100
AcDbEntity
  8
0
100
AcDbLine
 10
9.231619999999999
 20
40.2967
 30
0.0
 11
9.77138
 21
40.6027
 31
0.0
  0
LINE
  5
146
330
1E
100
AcDbEntity
  8
0
100
AcDbLine
 10
9.0
 20
35.0
 30
0.0
 11
9.0
 21
37.2909
 31
0.0
  0
LINE
  5
147
330
1E
100
AcDbEntity
  8
0
100
AcDbLine
 10
9.0
 20
35.0
 30
0.0
 11
9.0
 21
32.7091
 31
0.0
  0
LINE
  5
148
330
1E
100
AcDbEntity
  8
0
100
AcDbLine
 10
9.503999999999999
 20
26.504
 30
0.0
 11
12.048
 21
24.584
 31
0.0
  0
LINE
  5
149
330
1E
100
AcDbEntity
  8
0
100
AcDbLine
 10
15.55209999999999
 20
26.1194
 30
0.0
 11
16.88769999999999
 21
25.3825
 31
0.0
  0
LINE
  5
14D
330
1E
100
AcDbEntity
  8
0
100
AcDbLine
 10
13.4187
 20
27.3291
 30
0.0
 11
15.55209999999999
 21
26.1194
 31
0.0
  0
LINE
  5
152
330
1E
100
AcDbEntity
  8
0
100
AcDbLine
 10
12.8971
 20
29.8855
 30
0.0
 11
14.46099999999999
 21
28.6492
 31
0.0
  0
LINE
  5
154
330
1E
100
AcDbEntity
  8
0
100
AcDbLine
 10
15.58
 20
30.78
 30
0.0
 11
16.73999999999999
 21
30.3
 31
0.0
  0
LINE
  5
156
330
1E
100
AcDbEntity
  8
0
100
AcDbLine
 10
14.46099999999999
 20
28.6492
 30
0.0
 11
16.2297
 21
27.93449999999999
 31
0.0
  0
LINE
  5
157
330
1E
100
AcDbEntity
  8
0
100
AcDbLine
 10
13.3
 20
33.74
 30
0.0
 11
13.78
 21
32.58
 31
0.0
  0
LINE
  5
159
330
1E
100
AcDbEntity
  8
0
100
AcDbLine
 10
14.624
 20
33.064
 30
0.0
 11
15.24799999999999
 21
32.248
 31
0.0
  0
LINE
  5
15A
330
1E
100
AcDbEntity
  8
0
100
AcDbLine
 10
15.24799999999999
 20
32.248
 30
0.0
 11
16.064
 21
31.624
 31
0.0
  0
LINE
  5
15B
330
1E
100
AcDbEntity
  8
0
100
AcDbLine
 10
16.064
 20
31.624
 30
0.0
 11
16.992
 21
31.24
 31
0.0
  0
LINE
  5
15C
330
1E
100
AcDbEntity
  8
0
100
AcDbLine
 10
14.24
 20
33.99199999999999
 30
0.0
 11
14.624
 21
33.064
 31
0.0
  0
LINE
  5
15E
330
1E
100
AcDbEntity
  8
0
100
AcDbLine
 10
13.78
 20
32.58
 30
0.0
 11
14.56
 21
31.56
 31
0.0
  0
LINE
  5
15F
330
1E
100
AcDbEntity
  8
0
100
AcDbLine
 10
14.56
 20
31.56
 30
0.0
 11
15.58
 21
30.78
 31
0.0
  0
LINE
  5
161
330
1E
100
AcDbEntity
  8
0
100
AcDbLine
 10
11.7782
 20
31.5468
 30
0.0
 11
12.8971
 21
29.8855
 31
0.0
  0
LINE
  5
162
330
1E
100
AcDbEntity
  8
0
100
AcDbLine
 10
11.1638
 20
33.20819999999999
 30
0.0
 11
11.7782
 21
31.5468
 31
0.0
  0
LINE
  5
163
330
1E
100
AcDbEntity
  8
0
100
AcDbLine
 10
11.27369999999999
 20
28.5455
 30
0.0
 11
13.4187
 21
27.3291
 31
0.0
  0
LINE
  5
164
330
1E
100
AcDbEntity
  8
0
100
AcDbLine
 10
11.27369999999999
 20
28.5455
 30
0.0
 11
13.4187
 21
27.3291
 31
0.0
  0
LINE
  5
165
330
1E
100
AcDbEntity
  8
0
100
AcDbLine
 10
9.77138
 20
29.3973
 30
0.0
 11
11.27369999999999
 21
28.5455
 31
0.0
  0
LINE
  5
169
330
1E
100
AcDbEntity
  8
0
100
AcDbLine
 10
19.1123
 20
25.3825
 30
0.0
 11
20.4479
 21
26.1194
 31
0.0
  0
LINE
  5
16C
330
1E
100
AcDbEntity
  8
0
100
AcDbLine
 10
18.0
 20
25.2273
 30
0.0
 11
19.1123
 21
25.3825
 31
0.0
  0
LINE
  5
16D
330
1E
100
AcDbEntity
  8
0
100
AcDbLine
 10
16.992
 20
31.24
 30
0.0
 11
18.0
 21
31.096
 31
0.0
  0
LINE
  5
16F
330
1E
100
AcDbEntity
  8
0
100
AcDbLine
 10
18.0
 20
31.096
 30
0.0
 11
19.008
 21
31.24
 31
0.0
  0
LINE
  5
171
330
1E
100
AcDbEntity
  8
0
100
AcDbLine
 10
16.73999999999999
 20
30.3
 30
0.0
 11
18.0
 21
30.12
 31
0.0
  0
LINE
  5
173
330
1E
100
AcDbEntity
  8
0
100
AcDbLine
 10
18.0
 20
30.12
 30
0.0
 11
19.26
 21
30.3
 31
0.0
  0
LINE
  5
176
330
1E
100
AcDbEntity
  8
0
100
AcDbLine
 10
20.4479
 20
26.1194
 30
0.0
 11
22.58129999999999
 21
27.3291
 31
0.0
  0
LINE
  5
177
330
1E
100
AcDbEntity
  8
0
100
AcDbLine
 10
19.8266
 20
27.93449999999999
 30
0.0
 11
21.57669999999999
 21
28.6685
 31
0.0
  0
LINE
  5
178
330
1E
100
AcDbEntity
  8
0
100
AcDbLine
 10
18.0356
 20
27.6833
 30
0.0
 11
19.8266
 21
27.93449999999999
 31
0.0
  0
LINE
  5
179
330
1E
100
AcDbEntity
  8
0
100
AcDbLine
 10
22.58129999999999
 20
27.3291
 30
0.0
 11
24.7263
 21
28.5455
 31
0.0
  0
LINE
  5
17A
330
1E
100
AcDbEntity
  8
0
100
AcDbLine
 10
22.58129999999999
 20
27.3291
 30
0.0
 11
24.7263
 21
28.5455
 31
0.0
  0
LINE
  5
17B
330
1E
100
AcDbEntity
  8
0
100
AcDbLine
 10
19.93599999999999
 20
31.624
 30
0.0
 11
20.752
 21
32.248
 31
0.0
  0
LINE
  5
17C
330
1E
100
AcDbEntity
  8
0
100
AcDbLine
 10
19.008
 20
31.24
 30
0.0
 11
19.93599999999999
 21
31.624
 31
0.0
  0
LINE
  5
17F
330
1E
100
AcDbEntity
  8
0
100
AcDbLine
 10
20.42
 20
30.78
 30
0.0
 11
21.44
 21
31.56
 31
0.0
  0
LINE
  5
180
330
1E
100
AcDbEntity
  8
0
100
AcDbLine
 10
19.26
 20
30.3
 30
0.0
 11
20.42
 21
30.78
 31
0.0
  0
LINE
  5
181
330
1E
100
AcDbEntity
  8
0
100
AcDbLine
 10
21.37599999999999
 20
33.064
 30
0.0
 11
21.76
 21
33.99199999999999
 31
0.0
  0
LINE
  5
182
330
1E
100
AcDbEntity
  8
0
100
AcDbLine
 10
20.752
 20
32.248
 30
0.0
 11
21.37599999999999
 21
33.064
 31
0.0
  0
LINE
  5
184
330
1E
100
AcDbEntity
  8
0
100
AcDbLine
 10
21.44
 20
31.56
 30
0.0
 11
22.21999999999999
 21
32.58
 31
0.0
  0
LINE
  5
188
330
1E
100
AcDbEntity
  8
0
100
AcDbLine
 10
23.1406
 20
29.9049
 30
0.0
 11
24.2018
 21
31.5662
 31
0.0
  0
LINE
  5
189
330
1E
100
AcDbEntity
  8
0
100
AcDbLine
 10
21.76
 20
33.99199999999999
 30
0.0
 11
21.90399999999999
 21
35.0
 31
0.0
  0
LINE
  5
18A
330
1E
100
AcDbEntity
  8
0
100
AcDbLine
 10
22.21999999999999
 20
32.58
 30
0.0
 11
22.7
 21
33.74
 31
0.0
  0
LINE
  5
18B
330
1E
100
AcDbEntity
  8
0
100
AcDbLine
 10
22.7
 20
33.74
 30
0.0
 11
22.87999999999999
 21
35.0
 31
0.0
  0
LINE
  5
18E
330
1E
100
AcDbEntity
  8
0
100
AcDbLine
 10
24.2018
 20
31.5662
 30
0.0
 11
24.8535
 21
33.1888
 31
0.0
  0
LINE
  5
18F
330
1E
100
AcDbEntity
  8
0
100
AcDbLine
 10
24.8535
 20
33.1888
 30
0.0
 11
25.05819999999999
 21
34.92739999999999
 31
0.0
  0
LINE
  5
192
330
1E
100
AcDbEntity
  8
0
100
AcDbLine
 10
21.57669999999999
 20
28.6685
 30
0.0
 11
23.1406
 21
29.9049
 31
0.0
  0
LINE
  5
193
330
1E
100
AcDbEntity
  8
0
100
AcDbLine
 10
24.7263
 20
28.5455
 30
0.0
 11
26.2286
 21
29.3973
 31
0.0
  0
LINE
  5
194
330
1E
100
AcDbEntity
  8
0
100
AcDbLine
 10
26.2286
 20
29.3973
 30
0.0
 11
26.7684
 21
29.7034
 31
0.0
  0
LINE
  5
19E
330
1E
100
AcDbEntity
  8
0
100
AcDbLine
 10
16.88769999999999
 20
25.3825
 30
0.0
 11
18.0
 21
25.2273
 31
0.0
  0
LINE
  5
19F
330
1E
100
AcDbEntity
  8
0
100
AcDbLine
 10
16.2297
 20
27.93449999999999
 30
0.0
 11
18.0356
 21
27.6833
 31
0.0
  0
LINE
  5
1A0
330
1E
100
AcDbEntity
  8
0
100
AcDbLine
 10
11.108
 20
36.6081
 30
0.0
 11
11.6683
 21
38.2501
 31
0.0
  0
LINE
  5
1A1
330
1E
100
AcDbEntity
  8
0
100
AcDbLine
 10
13.12
 20
35.0
 30
0.0
 11
13.3
 21
36.25999999999999
 31
0.0
  0
LINE
  5
1A2
330
1E
100
AcDbEntity
  8
0
100
AcDbLine
 10
13.12
 20
35.0
 30
0.0
 11
13.3
 21
33.74
 31
0.0
  0
LINE
  5
1A3
330
1E
100
AcDbEntity
  8
0
100
AcDbLine
 10
13.3
 20
36.25999999999999
 30
0.0
 11
13.78
 21
37.42
 31
0.0
  0
LINE
  5
1A6
330
1E
100
AcDbEntity
  8
0
100
AcDbLine
 10
11.6683
 20
38.2501
 30
0.0
 11
12.7668
 21
39.9307
 31
0.0
  0
LINE
  5
1A7
330
1E
100
AcDbEntity
  8
0
100
AcDbLine
 10
11.27369999999999
 20
41.4545
 30
0.0
 11
13.4187
 21
42.6709
 31
0.0
  0
LINE
  5
1A8
330
1E
100
AcDbEntity
  8
0
100
AcDbLine
 10
9.77138
 20
40.6027
 30
0.0
 11
11.27369999999999
 21
41.4545
 31
0.0
  0
LINE
  5
1AA
330
1E
100
AcDbEntity
  8
0
100
AcDbLine
 10
12.7668
 20
39.9307
 30
0.0
 11
14.2935
 21
41.2636
 31
0.0
  0
LINE
  5
1AB
330
1E
100
AcDbEntity
  8
0
100
AcDbLine
 10
14.096
 20
35.0
 30
0.0
 11
14.24
 21
36.008
 31
0.0
  0
LINE
  5
1AC
330
1E
100
AcDbEntity
  8
0
100
AcDbLine
 10
14.096
 20
35.0
 30
0.0
 11
14.24
 21
33.99199999999999
 31
0.0
  0
LINE
  5
1AF
330
1E
100
AcDbEntity
  8
0
100
AcDbLine
 10
14.24
 20
36.008
 30
0.0
 11
14.624
 21
36.93599999999999
 31
0.0
  0
LINE
  5
1B0
330
1E
100
AcDbEntity
  8
0
100
AcDbLine
 10
21.76
 20
36.008
 30
0.0
 11
21.90399999999999
 21
35.0
 31
0.0
  0
LINE
  5
1B1
330
1E
100
AcDbEntity
  8
0
100
AcDbLine
 10
22.7
 20
36.25999999999999
 30
0.0
 11
22.87999999999999
 21
35.0
 31
0.0
  0
LINE
  5
1B2
330
1E
100
AcDbEntity
  8
0
100
AcDbLine
 10
14.624
 20
36.93599999999999
 30
0.0
 11
15.24799999999999
 21
37.75199999999999
 31
0.0
  0
LINE
  5
1B4
330
1E
100
AcDbEntity
  8
0
100
AcDbLine
 10
21.37599999999999
 20
36.93599999999999
 30
0.0
 11
21.76
 21
36.008
 31
0.0
  0
LINE
  5
1B6
330
1E
100
AcDbEntity
  8
0
100
AcDbLine
 10
13.78
 20
37.42
 30
0.0
 11
14.56
 21
38.43999999999999
 31
0.0
  0
LINE
  5
1B7
330
1E
100
AcDbEntity
  8
0
100
AcDbLine
 10
15.24799999999999
 20
37.75199999999999
 30
0.0
 11
16.064
 21
38.376
 31
0.0
  0
LINE
  5
1B9
330
1E
100
AcDbEntity
  8
0
100
AcDbLine
 10
20.752
 20
37.75199999999999
 30
0.0
 11
21.37599999999999
 21
36.93599999999999
 31
0.0
  0
LINE
  5
1BC
330
1E
100
AcDbEntity
  8
0
100
AcDbLine
 10
22.21999999999999
 20
37.42
 30
0.0
 11
22.7
 21
36.25999999999999
 31
0.0
  0
LINE
  5
1BE
330
1E
100
AcDbEntity
  8
0
100
AcDbLine
 10
24.8535
 20
36.6081
 30
0.0
 11
25.05819999999999
 21
34.92739999999999
 31
0.0
  0
LINE
  5
1BF
330
1E
100
AcDbEntity
  8
0
100
AcDbLine
 10
14.56
 20
38.43999999999999
 30
0.0
 11
15.58
 21
39.22
 31
0.0
  0
LINE
  5
1C1
330
1E
100
AcDbEntity
  8
0
100
AcDbLine
 10
16.064
 20
38.376
 30
0.0
 11
16.992
 21
38.75999999999999
 31
0.0
  0
LINE
  5
1C2
330
1E
100
AcDbEntity
  8
0
100
AcDbLine
 10
16.992
 20
38.75999999999999
 30
0.0
 11
18.0
 21
38.904
 31
0.0
  0
LINE
  5
1C5
330
1E
100
AcDbEntity
  8
0
100
AcDbLine
 10
19.008
 20
38.75999999999999
 30
0.0
 11
19.93599999999999
 21
38.376
 31
0.0
  0
LINE
  5
1C6
330
1E
100
AcDbEntity
  8
0
100
AcDbLine
 10
18.0
 20
38.904
 30
0.0
 11
19.008
 21
38.75999999999999
 31
0.0
  0
LINE
  5
1C9
330
1E
100
AcDbEntity
  8
0
100
AcDbLine
 10
15.58
 20
39.22
 30
0.0
 11
16.73999999999999
 21
39.7
 31
0.0
  0
LINE
  5
1CA
330
1E
100
AcDbEntity
  8
0
100
AcDbLine
 10
16.73999999999999
 20
39.7
 30
0.0
 11
18.0
 21
39.88
 31
0.0
  0
LINE
  5
1CD
330
1E
100
AcDbEntity
  8
0
100
AcDbLine
 10
19.26
 20
39.7
 30
0.0
 11
20.42
 21
39.22
 31
0.0
  0
LINE
  5
1CE
330
1E
100
AcDbEntity
  8
0
100
AcDbLine
 10
18.0
 20
39.88
 30
0.0
 11
19.26
 21
39.7
 31
0.0
  0
LINE
  5
1CF
330
1E
100
AcDbEntity
  8
0
100
AcDbLine
 10
19.93599999999999
 20
38.376
 30
0.0
 11
20.752
 21
37.75199999999999
 31
0.0
  0
LINE
  5
1D1
330
1E
100
AcDbEntity
  8
0
100
AcDbLine
 10
21.44
 20
38.43999999999999
 30
0.0
 11
22.21999999999999
 21
37.42
 31
0.0
  0
LINE
  5
1D2
330
1E
100
AcDbEntity
  8
0
100
AcDbLine
 10
20.42
 20
39.22
 30
0.0
 11
21.44
 21
38.43999999999999
 31
0.0
  0
LINE
  5
1D9
330
1E
100
AcDbEntity
  8
0
100
AcDbLine
 10
23.2337
 20
39.8727
 30
0.0
 11
24.3322
 21
38.23069999999999
 31
0.0
  0
LINE
  5
1DA
330
1E
100
AcDbEntity
  8
0
100
AcDbLine
 10
24.3322
 20
38.23069999999999
 30
0.0
 11
24.8535
 21
36.6081
 31
0.0
  0
LINE
  5
1DB
330
1E
100
AcDbEntity
  8
0
100
AcDbLine
 10
26.2286
 20
40.6027
 30
0.0
 11
26.7684
 21
40.2967
 31
0.0
  0
LINE
  5
1DD
330
1E
100
AcDbEntity
  8
0
100
AcDbLine
 10
21.5898
 20
41.32159999999999
 30
0.0
 11
23.2337
 21
39.8727
 31
0.0
  0
LINE
  5
1DF
330
1E
100
AcDbEntity
  8
0
100
AcDbLine
 10
19.8211
 20
42.0556
 30
0.0
 11
21.5898
 21
41.32159999999999
 31
0.0
  0
LINE
  5
1E0
330
1E
100
AcDbEntity
  8
0
100
AcDbLine
 10
24.7263
 20
41.4545
 30
0.0
 11
26.2286
 21
40.6027
 31
0.0
  0
LINE
  5
1E4
330
1E
100
AcDbEntity
  8
0
100
AcDbLine
 10
22.58129999999999
 20
42.6709
 30
0.0
 11
24.7263
 21
41.4545
 31
0.0
  0
LINE
  5
1E7
330
1E
100
AcDbEntity
  8
0
100
AcDbLine
 10
17.9407
 20
42.34539999999999
 30
0.0
 11
19.8211
 21
42.0556
 31
0.0
  0
LINE
  5
1E8
330
1E
100
AcDbEntity
  8
0
100
AcDbLine
 10
15.9486
 20
41.9977
 30
0.0
 11
17.9407
 21
42.34539999999999
 31
0.0
  0
LINE
  5
1E9
330
1E
100
AcDbEntity
  8
0
100
AcDbLine
 10
14.2935
 20
41.2636
 30
0.0
 11
15.9486
 21
41.9977
 31
0.0
  0
LINE
  5
1EB
330
1E
100
AcDbEntity
  8
0
100
AcDbLine
 10
13.4187
 20
42.6709
 30
0.0
 11
15.55209999999999
 21
43.88049999999999
 31
0.0
  0
LINE
  5
1EC
330
1E
100
AcDbEntity
  8
0
100
AcDbLine
 10
10.92179999999999
 20
34.8888
 30
0.0
 11
11.108
 21
36.6081
 31
0.0
  0
LINE
  5
1ED
330
1E
100
AcDbEntity
  8
0
100
AcDbLine
 10
10.92179999999999
 20
34.8888
 30
0.0
 11
11.1638
 21
33.20819999999999
 31
0.0
  0
LINE
  5
1EE
330
1E
100
AcDbEntity
  8
0
100
AcDbLine
 10
9.503999999999999
 20
43.496
 30
0.0
 11
12.048
 21
45.416
 31
0.0
  0
LINE
  5
1EF
330
1E
100
AcDbEntity
  8
0
100
AcDbLine
 10
19.1123
 20
44.6175
 30
0.0
 11
20.4479
 21
43.88049999999999
 31
0.0
  0
LINE
  5
1F0
330
1E
100
AcDbEntity
  8
0
100
AcDbLine
 10
20.4479
 20
43.88049999999999
 30
0.0
 11
22.58129999999999
 21
42.6709
 31
0.0
  0
LINE
  5
1F3
330
1E
100
AcDbEntity
  8
0
100
AcDbLine
 10
18.0
 20
44.77269999999999
 30
0.0
 11
19.1123
 21
44.6175
 31
0.0
  0
LINE
  5
1F6
330
1E
100
AcDbEntity
  8
0
100
AcDbLine
 10
16.88769999999999
 20
44.6175
 30
0.0
 11
18.0
 21
44.77269999999999
 31
0.0
  0
LINE
  5
1F9
330
1E
100
AcDbEntity
  8
0
100
AcDbLine
 10
15.55209999999999
 20
43.88049999999999
 30
0.0
 11
16.88769999999999
 21
44.6175
 31
0.0
  0
LINE
  5
1FA
330
1E
100
AcDbEntity
  8
0
100
AcDbLine
 10
26.49599999999999
 20
43.496
 30
0.0
 11
28.416
 21
40.952
 31
0.0
  0
LINE
  5
1FB
330
1E
100
AcDbEntity
  8
0
100
AcDbLine
 10
26.7684
 20
29.7034
 30
0.0
 11
27.0
 21
29.9874
 31
0.0
  0
LINE
  5
1FC
330
1E
100
AcDbEntity
  8
0
100
AcDbLine
 10
27.0
 20
29.9874
 30
0.0
 11
27.0
 21
30.5866
 31
0.0
  0
LINE
  5
1FE
330
1E
100
AcDbEntity
  8
0
100
AcDbLine
 10
26.7684
 20
40.2967
 30
0.0
 11
27.0
 21
40.0127
 31
0.0
  0
LINE
  5
200
330
1E
100
AcDbEntity
  8
0
100
AcDbLine
 10
27.0
 20
40.0127
 30
0.0
 11
27.0
 21
39.4134
 31
0.0
  0
LINE
  5
201
330
1E
100
AcDbEntity
  8
0
100
AcDbLine
 10
27.0
 20
39.4134
 30
0.0
 11
27.0
 21
37.2909
 31
0.0
  0
LINE
  5
202
330
1E
100
AcDbEntity
  8
0
100
AcDbLine
 10
27.0
 20
39.4134
 30
0.0
 11
27.0
 21
40.0127
 31
0.0
  0
LINE
  5
203
330
1E
100
AcDbEntity
  8
0
100
AcDbLine
 10
27.0
 20
37.2909
 30
0.0
 11
27.0
 21
35.0
 31
0.0
  0
LINE
  5
204
330
1E
100
AcDbEntity
  8
0
100
AcDbLine
 10
27.0
 20
37.2909
 30
0.0
 11
27.0
 21
39.4134
 31
0.0
  0
LINE
  5
205
330
1E
100
AcDbEntity
  8
0
100
AcDbLine
 10
27.0
 20
32.7091
 30
0.0
 11
27.0
 21
30.5866
 31
0.0
  0
LINE
  5
206
330
1E
100
AcDbEntity
  8
0
100
AcDbLine
 10
27.0
 20
32.7091
 30
0.0
 11
27.0
 21
35.0
 31
0.0
  0
LINE
  5
207
330
1E
100
AcDbEntity
  8
0
100
AcDbLine
 10
27.0
 20
35.0
 30
0.0
 11
27.0
 21
32.7091
 31
0.0
  0
LINE
  5
208
330
1E
100
AcDbEntity
  8
0
100
AcDbLine
 10
27.0
 20
35.0
 30
0.0
 11
27.0
 21
37.2909
 31
0.0
  0
LINE
  5
209
330
1E
100
AcDbEntity
  8
0
100
AcDbLine
 10
27.0
 20
30.5866
 30
0.0
 11
27.0
 21
32.7091
 31
0.0
  0
LINE
  5
20A
330
1E
100
AcDbEntity
  8
0
100
AcDbLine
 10
27.0
 20
30.5866
 30
0.0
 11
27.0
 21
29.9874
 31
0.0
  0
LINE
  5
20B
330
1E
100
AcDbEntity
  8
0
100
AcDbLine
 10
26.49599999999999
 20
26.504
 30
0.0
 11
28.416
 21
29.048
 31
0.0
  0
LINE
  5
20C
330
1E
100
AcDbEntity
  8
0
100
AcDbLine
 10
23.95199999999999
 20
24.584
 30
0.0
 11
26.49599999999999
 21
26.504
 31
0.0
  0
LINE
  5
20D
330
1E
100
AcDbEntity
  8
0
100
AcDbLine
 10
8.087999999999999
 20
44.912
 30
0.0
 11
11.05599999999999
 21
47.152
 31
0.0
  0
LINE
  5
210
330
1E
100
AcDbEntity
  8
0
100
AcDbLine
 10
12.048
 20
45.416
 30
0.0
 11
14.92799999999999
 21
46.568
 31
0.0
  0
LINE
  5
211
330
1E
100
AcDbEntity
  8
0
100
AcDbLine
 10
23.95199999999999
 20
45.416
 30
0.0
 11
26.49599999999999
 21
43.496
 31
0.0
  0
LINE
  5
212
330
1E
100
AcDbEntity
  8
0
100
AcDbLine
 10
27.91199999999999
 20
44.912
 30
0.0
 11
30.152
 21
41.94399999999999
 31
0.0
  0
LINE
  5
213
330
1E
100
AcDbEntity
  8
0
100
AcDbLine
 10
27.91199999999999
 20
25.088
 30
0.0
 11
30.152
 21
28.056
 31
0.0
  0
LINE
  5
214
330
1E
100
AcDbEntity
  8
0
100
AcDbLine
 10
6.992
 20
23.99199999999999
 30
0.0
 11
10.25599999999999
 21
21.49599999999999
 31
0.0
  0
LINE
  5
215
330
1E
100
AcDbEntity
  8
0
100
AcDbLine
 10
6.672
 20
23.67199999999999
 30
0.0
 11
10.06399999999999
 21
21.11199999999999
 31
0.0
  0
LINE
  5
216
330
1E
100
AcDbEntity
  8
0
100
AcDbLine
 10
6.992
 20
46.008
 30
0.0
 11
10.25599999999999
 21
48.504
 31
0.0
  0
LINE
  5
217
330
1E
100
AcDbEntity
  8
0
100
AcDbLine
 10
5.616
 20
22.616
 30
0.0
 11
9.288
 21
19.808
 31
0.0
  0
LINE
  5
218
330
1E
100
AcDbEntity
  8
0
100
AcDbLine
 10
5.256
 20
22.256
 30
0.0
 11
9.072
 21
19.37599999999999
 31
0.0
  0
LINE
  5
219
330
1E
100
AcDbEntity
  8
0
100
AcDbLine
 10
4.0
 20
23.9202
 30
0.0
 11
4.0
 21
8.0
 31
0.0
  0
LINE
  5
21A
330
1E
100
AcDbEntity
  8
0
100
AcDbLine
 10
24.944
 20
8.0
 30
0.0
 11
27.91199999999999
 21
8.0
 31
0.0
  0
LINE
  5
21B
330
1E
100
AcDbEntity
  8
0
100
AcDbLine
 10
28.416
 20
40.952
 30
0.0
 11
29.568
 21
38.07199999999999
 31
0.0
  0
LINE
  5
21C
330
1E
100
AcDbEntity
  8
0
100
AcDbLine
 10
28.416
 20
29.048
 30
0.0
 11
29.568
 21
31.928
 31
0.0
  0
LINE
  5
21D
330
1E
100
AcDbEntity
  8
0
100
AcDbLine
 10
29.008
 20
46.008
 30
0.0
 11
31.504
 21
42.74399999999999
 31
0.0
  0
LINE
  5
21E
330
1E
100
AcDbEntity
  8
0
100
AcDbLine
 10
29.568
 20
38.07199999999999
 30
0.0
 11
30.0
 21
35.0
 31
0.0
  0
LINE
  5
21F
330
1E
100
AcDbEntity
  8
0
100
AcDbLine
 10
29.568
 20
31.928
 30
0.0
 11
30.0
 21
35.0
 31
0.0
  0
LINE
  5
220
330
1E
100
AcDbEntity
  8
0
100
AcDbLine
 10
30.152
 20
41.94399999999999
 30
0.0
 11
31.49599999999999
 21
38.584
 31
0.0
  0
LINE
  5
221
330
1E
100
AcDbEntity
  8
0
100
AcDbLine
 10
30.152
 20
28.056
 30
0.0
 11
31.49599999999999
 21
31.416
 31
0.0
  0
LINE
  5
222
330
1E
100
AcDbEntity
  8
0
100
AcDbLine
 10
29.008
 20
23.99199999999999
 30
0.0
 11
31.504
 21
27.256
 31
0.0
  0
LINE
  5
223
330
1E
100
AcDbEntity
  8
0
100
AcDbLine
 10
29.328
 20
23.67199999999999
 30
0.0
 11
31.888
 21
27.064
 31
0.0
  0
LINE
  5
224
330
1E
100
AcDbEntity
  8
0
100
AcDbLine
 10
31.49599999999999
 20
38.584
 30
0.0
 11
32.0
 21
35.0
 31
0.0
  0
LINE
  5
225
330
1E
100
AcDbEntity
  8
0
100
AcDbLine
 10
31.49599999999999
 20
31.416
 30
0.0
 11
32.0
 21
35.0
 31
0.0
  0
LINE
  5
226
330
1E
100
AcDbEntity
  8
0
100
AcDbLine
 10
31.49599999999999
 20
31.416
 30
0.0
 11
32.0
 21
35.0
 31
0.0
  0
LINE
  5
227
330
1E
100
AcDbEntity
  8
0
100
AcDbLine
 10
30.384
 20
22.616
 30
0.0
 11
33.192
 21
26.288
 31
0.0
  0
LINE
  5
228
330
1E
100
AcDbEntity
  8
0
100
AcDbLine
 10
30.744
 20
22.256
 30
0.0
 11
33.624
 21
26.072
 31
0.0
  0
LINE
  5
229
330
1E
100
AcDbEntity
  8
0
100
AcDbLine
 10
27.91199999999999
 20
8.0
 30
0.0
 11
30.152
 21
8.0
 31
0.0
  0
LINE
  5
22A
330
1E
100
AcDbEntity
  8
0
100
AcDbLine
 10
30.152
 20
8.0
 30
0.0
 11
31.49599999999999
 21
8.0
 31
0.0
  0
LINE
  5
22B
330
1E
100
AcDbEntity
  8
0
100
AcDbLine
 10
31.6364
 20
0.171431999999996
 30
0.0
 11
32.6591
 21
0.571431999999996
 31
0.0
  0
LINE
  5
22C
330
1E
100
AcDbEntity
  8
0
100
AcDbLine
 10
31.6364
 20
0.171431999999996
 30
0.0
 11
32.6591
 21
0.571431999999996
 31
0.0
  0
LINE
  5
22E
330
1E
100
AcDbEntity
  8
0
100
AcDbLine
 10
31.6364
 20
7.82857
 30
0.0
 11
32.6591
 21
7.428569999999999
 31
0.0
  0
LINE
  5
22F
330
1E
100
AcDbEntity
  8
0
100
AcDbLine
 10
31.504
 20
42.74399999999999
 30
0.0
 11
33.04
 21
39.032
 31
0.0
  0
LINE
  5
230
330
1E
100
AcDbEntity
  8
0
100
AcDbLine
 10
31.888
 20
42.936
 30
0.0
 11
33.424
 21
39.09599999999999
 31
0.0
  0
LINE
  5
231
330
1E
100
AcDbEntity
  8
0
100
AcDbLine
 10
31.504
 20
27.256
 30
0.0
 11
33.04
 21
30.968
 31
0.0
  0
LINE
  5
232
330
1E
100
AcDbEntity
  8
0
100
AcDbLine
 10
31.888
 20
27.064
 30
0.0
 11
33.424
 21
30.904
 31
0.0
  0
LINE
  5
233
330
1E
100
AcDbEntity
  8
0
100
AcDbLine
 10
32.0
 20
23.9202
 30
0.0
 11
32.0
 21
8.0
 31
0.0
  0
LINE
  5
234
330
1E
100
AcDbEntity
  8
0
100
AcDbLine
 10
31.49599999999999
 20
8.0
 30
0.0
 11
32.0
 21
8.0
 31
0.0
  0
LINE
  5
235
330
1E
100
AcDbEntity
  8
0
100
AcDbLine
 10
5.616
 20
47.38399999999999
 30
0.0
 11
9.288
 21
50.192
 31
0.0
  0
LINE
  5
236
330
1E
100
AcDbEntity
  8
0
100
AcDbLine
 10
5.256
 20
47.74399999999999
 30
0.0
 11
9.072
 21
50.624
 31
0.0
  0
LINE
  5
237
330
1E
100
AcDbEntity
  8
0
100
AcDbLine
 10
6.672
 20
46.328
 30
0.0
 11
10.06399999999999
 21
48.888
 31
0.0
  0
LINE
  5
238
330
1E
100
AcDbEntity
  8
0
100
AcDbLine
 10
11.05599999999999
 20
47.152
 30
0.0
 11
14.416
 21
48.496
 31
0.0
  0
LINE
  5
239
330
1E
100
AcDbEntity
  8
0
100
AcDbLine
 10
10.25599999999999
 20
48.504
 30
0.0
 11
13.968
 21
50.04
 31
0.0
  0
LINE
  5
23A
330
1E
100
AcDbEntity
  8
0
100
AcDbLine
 10
10.06399999999999
 20
48.888
 30
0.0
 11
13.904
 21
50.424
 31
0.0
  0
LINE
  5
23B
330
1E
100
AcDbEntity
  8
0
100
AcDbLine
 10
9.288
 20
50.192
 30
0.0
 11
13.464
 21
51.92
 31
0.0
  0
LINE
  5
23C
330
1E
100
AcDbEntity
  8
0
100
AcDbLine
 10
9.072
 20
50.624
 30
0.0
 11
13.392
 21
52.35199999999999
 31
0.0
  0
LINE
  5
240
330
1E
100
AcDbEntity
  8
0
100
AcDbLine
 10
14.92799999999999
 20
46.568
 30
0.0
 11
18.0
 21
47.0
 31
0.0
  0
LINE
  5
241
330
1E
100
AcDbEntity
  8
0
100
AcDbLine
 10
18.0
 20
47.0
 30
0.0
 11
21.072
 21
46.568
 31
0.0
  0
LINE
  5
242
330
1E
100
AcDbEntity
  8
0
100
AcDbLine
 10
14.416
 20
48.496
 30
0.0
 11
18.0
 21
49.0
 31
0.0
  0
LINE
  5
243
330
1E
100
AcDbEntity
  8
0
100
AcDbLine
 10
18.0
 20
49.0
 30
0.0
 11
21.58399999999999
 21
48.496
 31
0.0
  0
LINE
  5
244
330
1E
100
AcDbEntity
  8
0
100
AcDbLine
 10
13.968
 20
50.04
 30
0.0
 11
18.0
 21
50.61600000000001
 31
0.0
  0
LINE
  5
245
330
1E
100
AcDbEntity
  8
0
100
AcDbLine
 10
13.904
 20
50.424
 30
0.0
 11
18.0
 21
51.0
 31
0.0
  0
LINE
  5
246
330
1E
100
AcDbEntity
  8
0
100
AcDbLine
 10
18.0
 20
50.61600000000001
 30
0.0
 11
22.03199999999999
 21
50.04
 31
0.0
  0
LINE
  5
247
330
1E
100
AcDbEntity
  8
0
100
AcDbLine
 10
21.072
 20
46.568
 30
0.0
 11
23.95199999999999
 21
45.416
 31
0.0
  0
LINE
  5
248
330
1E
100
AcDbEntity
  8
0
100
AcDbLine
 10
21.58399999999999
 20
48.496
 30
0.0
 11
24.944
 21
47.152
 31
0.0
  0
LINE
  5
249
330
1E
100
AcDbEntity
  8
0
100
AcDbLine
 10
18.0
 20
51.0
 30
0.0
 11
22.096
 21
50.424
 31
0.0
  0
LINE
  5
24E
330
1E
100
AcDbEntity
  8
0
100
AcDbLine
 10
18.0
 20
52.56800000000001
 30
0.0
 11
22.536
 21
51.92
 31
0.0
  0
LINE
  5
253
330
1E
100
AcDbEntity
  8
0
100
AcDbLine
 10
18.0
 20
53.0
 30
0.0
 11
22.608
 21
52.35199999999999
 31
0.0
  0
LINE
  5
255
330
1E
100
AcDbEntity
  8
0
100
AcDbLine
 10
13.464
 20
51.92
 30
0.0
 11
18.0
 21
52.56800000000001
 31
0.0
  0
LINE
  5
256
330
1E
100
AcDbEntity
  8
0
100
AcDbLine
 10
13.392
 20
52.35199999999999
 30
0.0
 11
18.0
 21
53.0
 31
0.0
  0
LINE
  5
259
330
1E
100
AcDbEntity
  8
0
100
AcDbLine
 10
14.416
 20
61.0
 30
0.0
 11
18.0
 21
61.0
 31
0.0
  0
LINE
  5
25A
330
1E
100
AcDbEntity
  8
0
100
AcDbLine
 10
11.05599999999999
 20
61.0
 30
0.0
 11
14.416
 21
61.0
 31
0.0
  0
LINE
  5
25B
330
1E
100
AcDbEntity
  8
0
100
AcDbLine
 10
8.087999999999999
 20
61.0
 30
0.0
 11
11.05599999999999
 21
61.0
 31
0.0
  0
LINE
  5
25C
330
1E
100
AcDbEntity
  8
0
100
AcDbLine
 10
5.847999999999999
 20
61.0
 30
0.0
 11
8.087999999999999
 21
61.0
 31
0.0
  0
LINE
  5
25D
330
1E
100
AcDbEntity
  8
0
100
AcDbLine
 10
4.503999999999999
 20
61.0
 30
0.0
 11
5.847999999999999
 21
61.0
 31
0.0
  0
LINE
  5
25E
330
1E
100
AcDbEntity
  8
0
100
AcDbLine
 10
4.0
 20
61.0
 30
0.0
 11
4.0
 21
46.0798
 31
0.0
  0
LINE
  5
25F
330
1E
100
AcDbEntity
  8
0
100
AcDbLine
 10
4.0
 20
61.0
 30
0.0
 11
4.503999999999999
 21
61.0
 31
0.0
  0
LINE
  5
260
330
1E
100
AcDbEntity
  8
0
100
AcDbLine
 10
18.0
 20
61.0
 30
0.0
 11
21.58399999999999
 21
61.0
 31
0.0
  0
LINE
  5
261
330
1E
100
AcDbEntity
  8
0
100
AcDbLine
 10
24.944
 20
47.152
 30
0.0
 11
27.91199999999999
 21
44.912
 31
0.0
  0
LINE
  5
262
330
1E
100
AcDbEntity
  8
0
100
AcDbLine
 10
25.744
 20
48.504
 30
0.0
 11
29.008
 21
46.008
 31
0.0
  0
LINE
  5
263
330
1E
100
AcDbEntity
  8
0
100
AcDbLine
 10
22.03199999999999
 20
50.04
 30
0.0
 11
25.744
 21
48.504
 31
0.0
  0
LINE
  5
264
330
1E
100
AcDbEntity
  8
0
100
AcDbLine
 10
25.936
 20
48.888
 30
0.0
 11
29.328
 21
46.328
 31
0.0
  0
LINE
  5
265
330
1E
100
AcDbEntity
  8
0
100
AcDbLine
 10
22.096
 20
50.424
 30
0.0
 11
25.936
 21
48.888
 31
0.0
  0
LINE
  5
266
330
1E
100
AcDbEntity
  8
0
100
AcDbLine
 10
26.712
 20
50.192
 30
0.0
 11
30.384
 21
47.38399999999999
 31
0.0
  0
LINE
  5
267
330
1E
100
AcDbEntity
  8
0
100
AcDbLine
 10
22.536
 20
51.92
 30
0.0
 11
26.712
 21
50.192
 31
0.0
  0
LINE
  5
26B
330
1E
100
AcDbEntity
  8
0
100
AcDbLine
 10
22.608
 20
52.35199999999999
 30
0.0
 11
26.928
 21
50.624
 31
0.0
  0
LINE
  5
26C
330
1E
100
AcDbEntity
  8
0
100
AcDbLine
 10
26.928
 20
50.624
 30
0.0
 11
30.744
 21
47.74399999999999
 31
0.0
  0
LINE
  5
270
330
1E
100
AcDbEntity
  8
0
100
AcDbLine
 10
21.58399999999999
 20
61.0
 30
0.0
 11
24.944
 21
61.0
 31
0.0
  0
LINE
  5
271
330
1E
100
AcDbEntity
  8
0
100
AcDbLine
 10
24.944
 20
61.0
 30
0.0
 11
27.91199999999999
 21
61.0
 31
0.0
  0
LINE
  5
272
330
1E
100
AcDbEntity
  8
0
100
AcDbLine
 10
29.328
 20
46.328
 30
0.0
 11
31.888
 21
42.936
 31
0.0
  0
LINE
  5
273
330
1E
100
AcDbEntity
  8
0
100
AcDbLine
 10
30.384
 20
47.38399999999999
 30
0.0
 11
33.192
 21
43.71199999999999
 31
0.0
  0
LINE
  5
276
330
1E
100
AcDbEntity
  8
0
100
AcDbLine
 10
30.744
 20
47.74399999999999
 30
0.0
 11
33.624
 21
43.928
 31
0.0
  0
LINE
  5
277
330
1E
100
AcDbEntity
  8
0
100
AcDbLine
 10
30.6136
 20
61.0
 30
0.0
 11
31.6364
 21
61.1714
 31
0.0
  0
LINE
  5
279
330
1E
100
AcDbEntity
  8
0
100
AcDbLine
 10
27.91199999999999
 20
61.0
 30
0.0
 11
30.152
 21
61.0
 31
0.0
  0
LINE
  5
27B
330
1E
100
AcDbEntity
  8
0
100
AcDbLine
 10
4.363599999999999
 20
61.1714
 30
0.0
 11
5.3864
 21
61.0
 31
0.0
  0
LINE
  5
27C
330
1E
100
AcDbEntity
  8
0
100
AcDbLine
 10
3.340899999999999
 20
61.5714
 30
0.0
 11
4.363599999999999
 21
61.1714
 31
0.0
  0
LINE
  5
27E
330
1E
100
AcDbEntity
  8
0
100
AcDbLine
 10
3.340899999999999
 20
61.5714
 30
0.0
 11
3.573799999999999
 21
61.5714
 31
0.0
  0
LINE
  5
27F
330
1E
100
AcDbEntity
  8
0
100
AcDbLine
 10
3.0
 20
62.1429
 30
0.0
 11
3.340899999999999
 21
61.5714
 31
0.0
  0
LINE
  5
280
330
1E
100
AcDbEntity
  8
0
100
AcDbLine
 10
3.0
 20
62.1429
 30
0.0
 11
3.0
 21
67.8571
 31
0.0
  0
LINE
  5
281
330
1E
100
AcDbEntity
  8
0
100
AcDbLine
 10
3.0
 20
67.8571
 30
0.0
 11
3.0
 21
62.1429
 31
0.0
  0
LINE
  5
282
330
1E
100
AcDbEntity
  8
0
100
AcDbLine
 10
3.0
 20
67.8571
 30
0.0
 11
3.340899999999999
 21
68.4286
 31
0.0
  0
LINE
  5
285
330
1E
100
AcDbEntity
  8
0
100
AcDbLine
 10
3.573799999999999
 20
61.5714
 30
0.0
 11
4.679199999999999
 21
61.2392
 31
0.0
  0
LINE
  5
286
330
1E
100
AcDbEntity
  8
0
100
AcDbLine
 10
8.318199999999999
 20
61.20779999999999
 30
0.0
 11
9.596
 21
61.5714
 31
0.0
  0
LINE
  5
28C
330
1E
100
AcDbEntity
  8
0
100
AcDbLine
 10
9.596
 20
61.5714
 30
0.0
 11
10.70449999999999
 21
61.5714
 31
0.0
  0
LINE
  5
28F
330
1E
100
AcDbEntity
  8
0
100
AcDbLine
 10
6.493699999999999
 20
61.1155
 30
0.0
 11
8.318199999999999
 21
61.20779999999999
 31
0.0
  0
LINE
  5
293
330
1E
100
AcDbEntity
  8
0
100
AcDbLine
 10
4.679199999999999
 20
61.2392
 30
0.0
 11
6.493699999999999
 21
61.1155
 31
0.0
  0
LINE
  5
294
330
1E
100
AcDbEntity
  8
0
100
AcDbLine
 10
3.340899999999999
 20
68.4286
 30
0.0
 11
4.363599999999999
 21
68.82859999999999
 31
0.0
  0
LINE
  5
295
330
1E
100
AcDbEntity
  8
0
100
AcDbLine
 10
3.340899999999999
 20
68.4286
 30
0.0
 11
3.573799999999999
 21
68.4286
 31
0.0
  0
LINE
  5
296
330
1E
100
AcDbEntity
  8
0
100
AcDbLine
 10
3.573799999999999
 20
68.4286
 30
0.0
 11
4.679199999999999
 21
68.7608
 31
0.0
  0
LINE
  5
29A
330
1E
100
AcDbEntity
  8
0
100
AcDbLine
 10
9.596
 20
68.4286
 30
0.0
 11
10.70449999999999
 21
68.4286
 31
0.0
  0
LINE
  5
29E
330
1E
100
AcDbEntity
  8
0
100
AcDbLine
 10
10.70449999999999
 20
61.5714
 30
0.0
 11
11.3799
 21
61.5714
 31
0.0
  0
LINE
  5
2A1
330
1E
100
AcDbEntity
  8
0
100
AcDbLine
 10
10.70449999999999
 20
68.4286
 30
0.0
 11
11.3799
 21
68.4286
 31
0.0
  0
LINE
  5
2A6
330
1E
100
AcDbEntity
  8
0
100
AcDbLine
 10
4.363599999999999
 20
68.82859999999999
 30
0.0
 11
5.3864
 21
69.0
 31
0.0
  0
LINE
  5
2A7
330
1E
100
AcDbEntity
  8
0
100
AcDbLine
 10
8.318199999999999
 20
68.7922
 30
0.0
 11
9.596
 21
68.4286
 31
0.0
  0
LINE
  5
2A9
330
1E
100
AcDbEntity
  8
0
100
AcDbLine
 10
4.679199999999999
 20
68.7608
 30
0.0
 11
6.493699999999999
 21
68.8845
 31
0.0
  0
LINE
  5
2AA
330
1E
100
AcDbEntity
  8
0
100
AcDbLine
 10
11.3799
 20
68.4286
 30
0.0
 11
14.5636
 21
68.86289999999999
 31
0.0
  0
LINE
  5
2AB
330
1E
100
AcDbEntity
  8
0
100
AcDbLine
 10
11.3799
 20
61.5714
 30
0.0
 11
14.5636
 21
61.1371
 31
0.0
  0
LINE
  5
2AD
330
1E
100
AcDbEntity
  8
0
100
AcDbLine
 10
7.0909
 20
69.0
 30
0.0
 11
26.93179999999999
 21
69.0
 31
0.0
  0
LINE
  5
2AE
330
1E
100
AcDbEntity
  8
0
100
AcDbLine
 10
6.493699999999999
 20
68.8845
 30
0.0
 11
8.318199999999999
 21
68.7922
 31
0.0
  0
LINE
  5
2B0
330
1E
100
AcDbEntity
  8
0
100
AcDbLine
 10
5.3864
 20
69.0
 30
0.0
 11
7.0909
 21
69.0
 31
0.0
  0
LINE
  5
2B1
330
1E
100
AcDbEntity
  8
0
100
AcDbLine
 10
14.5636
 20
68.86289999999999
 30
0.0
 11
18.0
 21
68.94289999999999
 31
0.0
  0
LINE
  5
2B3
330
1E
100
AcDbEntity
  8
0
100
AcDbLine
 10
25.2955
 20
61.5714
 30
0.0
 11
26.404
 21
61.5714
 31
0.0
  0
LINE
  5
2BC
330
1E
100
AcDbEntity
  8
0
100
AcDbLine
 10
24.6201
 20
61.5714
 30
0.0
 11
25.2955
 21
61.5714
 31
0.0
  0
LINE
  5
2BD
330
1E
100
AcDbEntity
  8
0
100
AcDbLine
 10
21.43639999999999
 20
61.1371
 30
0.0
 11
24.6201
 21
61.5714
 31
0.0
  0
LINE
  5
2C0
330
1E
100
AcDbEntity
  8
0
100
AcDbLine
 10
18.0
 20
61.0571
 30
0.0
 11
21.43639999999999
 21
61.1371
 31
0.0
  0
LINE
  5
2C1
330
1E
100
AcDbEntity
  8
0
100
AcDbLine
 10
25.2955
 20
68.4286
 30
0.0
 11
26.404
 21
68.4286
 31
0.0
  0
LINE
  5
2C5
330
1E
100
AcDbEntity
  8
0
100
AcDbLine
 10
24.6201
 20
68.4286
 30
0.0
 11
25.2955
 21
68.4286
 31
0.0
  0
LINE
  5
2C6
330
1E
100
AcDbEntity
  8
0
100
AcDbLine
 10
21.43639999999999
 20
68.86289999999999
 30
0.0
 11
24.6201
 21
68.4286
 31
0.0
  0
LINE
  5
2C7
330
1E
100
AcDbEntity
  8
0
100
AcDbLine
 10
18.0
 20
68.94289999999999
 30
0.0
 11
21.43639999999999
 21
68.86289999999999
 31
0.0
  0
LINE
  5
2C9
330
1E
100
AcDbEntity
  8
0
100
AcDbLine
 10
31.3208
 20
61.2392
 30
0.0
 11
32.4262
 21
61.5714
 31
0.0
  0
LINE
  5
2CC
330
1E
100
AcDbEntity
  8
0
100
AcDbLine
 10
29.5063
 20
61.1155
 30
0.0
 11
31.3208
 21
61.2392
 31
0.0
  0
LINE
  5
2CD
330
1E
100
AcDbEntity
  8
0
100
AcDbLine
 10
27.6818
 20
61.20779999999999
 30
0.0
 11
29.5063
 21
61.1155
 31
0.0
  0
LINE
  5
2CE
330
1E
100
AcDbEntity
  8
0
100
AcDbLine
 10
31.3208
 20
68.7608
 30
0.0
 11
32.4262
 21
68.4286
 31
0.0
  0
LINE
  5
2D0
330
1E
100
AcDbEntity
  8
0
100
AcDbLine
 10
26.93179999999999
 20
69.0
 30
0.0
 11
28.90909999999999
 21
69.0
 31
0.0
  0
LINE
  5
2D2
330
1E
100
AcDbEntity
  8
0
100
AcDbLine
 10
28.90909999999999
 20
69.0
 30
0.0
 11
30.1364
 21
69.0
 31
0.0
  0
LINE
  5
2D4
330
1E
100
AcDbEntity
  8
0
100
AcDbLine
 10
30.6136
 20
69.0
 30
0.0
 11
31.6364
 21
68.82859999999999
 31
0.0
  0
LINE
  5
2D5
330
1E
100
AcDbEntity
  8
0
100
AcDbLine
 10
29.5063
 20
68.8845
 30
0.0
 11
31.3208
 21
68.7608
 31
0.0
  0
LINE
  5
2D7
330
1E
100
AcDbEntity
  8
0
100
AcDbLine
 10
27.6818
 20
68.7922
 30
0.0
 11
29.5063
 21
68.8845
 31
0.0
  0
LINE
  5
2D8
330
1E
100
AcDbEntity
  8
0
100
AcDbLine
 10
26.404
 20
68.4286
 30
0.0
 11
27.6818
 21
68.7922
 31
0.0
  0
LINE
  5
2D9
330
1E
100
AcDbEntity
  8
0
100
AcDbLine
 10
26.404
 20
61.5714
 30
0.0
 11
27.6818
 21
61.20779999999999
 31
0.0
  0
LINE
  5
2DB
330
1E
100
AcDbEntity
  8
0
100
AcDbLine
 10
30.1364
 20
69.0
 30
0.0
 11
30.6136
 21
69.0
 31
0.0
  0
LINE
  5
2DD
330
1E
100
AcDbEntity
  8
0
100
AcDbLine
 10
14.5636
 20
61.1371
 30
0.0
 11
18.0
 21
61.0571
 31
0.0
  0
LINE
  5
2DF
330
1E
100
AcDbEntity
  8
0
100
AcDbLine
 10
30.152
 20
61.0
 30
0.0
 11
31.49599999999999
 21
61.0
 31
0.0
  0
LINE
  5
2E0
330
1E
100
AcDbEntity
  8
0
100
AcDbLine
 10
31.6364
 20
61.1714
 30
0.0
 11
32.6591
 21
61.5714
 31
0.0
  0
LINE
  5
2E2
330
1E
100
AcDbEntity
  8
0
100
AcDbLine
 10
31.6364
 20
68.82859999999999
 30
0.0
 11
32.6591
 21
68.4286
 31
0.0
  0
LINE
  5
2E3
330
1E
100
AcDbEntity
  8
0
100
AcDbLine
 10
32.0
 20
61.0
 30
0.0
 11
32.0
 21
46.0798
 31
0.0
  0
LINE
  5
2E4
330
1E
100
AcDbEntity
  8
0
100
AcDbLine
 10
31.49599999999999
 20
61.0
 30
0.0
 11
32.0
 21
61.0
 31
0.0
  0
LINE
  5
2E5
330
1E
100
AcDbEntity
  8
0
100
AcDbLine
 10
32.0
 20
46.0798
 30
0.0
 11
32.0
 21
61.0
 31
0.0
  0
LINE
  5
2E6
330
1E
100
AcDbEntity
  8
0
100
AcDbLine
 10
32.6591
 20
0.571431999999996
 30
0.0
 11
33.0
 21
1.142859999999999
 31
0.0
  0
LINE
  5
2E7
330
1E
100
AcDbEntity
  8
0
100
AcDbLine
 10
32.6591
 20
7.428569999999999
 30
0.0
 11
33.0
 21
6.857139999999999
 31
0.0
  0
LINE
  5
2E9
330
1E
100
AcDbEntity
  8
0
100
AcDbLine
 10
32.4262
 20
7.428569999999999
 30
0.0
 11
32.6591
 21
7.428569999999999
 31
0.0
  0
LINE
  5
2EB
330
1E
100
AcDbEntity
  8
0
100
AcDbLine
 10
32.4262
 20
0.571431999999996
 30
0.0
 11
32.6591
 21
0.571431999999996
 31
0.0
  0
LINE
  5
2EC
330
1E
100
AcDbEntity
  8
0
100
AcDbLine
 10
33.192
 20
26.288
 30
0.0
 11
34.92
 21
30.464
 31
0.0
  0
LINE
  5
2ED
330
1E
100
AcDbEntity
  8
0
100
AcDbLine
 10
33.624
 20
26.072
 30
0.0
 11
35.35199999999999
 21
30.392
 31
0.0
  0
LINE
  5
2EE
330
1E
100
AcDbEntity
  8
0
100
AcDbLine
 10
33.04
 20
39.032
 30
0.0
 11
33.616
 21
35.0
 31
0.0
  0
LINE
  5
2EF
330
1E
100
AcDbEntity
  8
0
100
AcDbLine
 10
33.424
 20
39.09599999999999
 30
0.0
 11
34.0
 21
35.0
 31
0.0
  0
LINE
  5
2F0
330
1E
100
AcDbEntity
  8
0
100
AcDbLine
 10
33.04
 20
30.968
 30
0.0
 11
33.616
 21
35.0
 31
0.0
  0
LINE
  5
2F1
330
1E
100
AcDbEntity
  8
0
100
AcDbLine
 10
33.424
 20
30.904
 30
0.0
 11
34.0
 21
35.0
 31
0.0
  0
LINE
  5
2F2
330
1E
100
AcDbEntity
  8
0
100
AcDbLine
 10
33.192
 20
43.71199999999999
 30
0.0
 11
34.92
 21
39.536
 31
0.0
  0
LINE
  5
2F3
330
1E
100
AcDbEntity
  8
0
100
AcDbLine
 10
34.92
 20
39.536
 30
0.0
 11
35.568
 21
35.0
 31
0.0
  0
LINE
  5
2F4
330
1E
100
AcDbEntity
  8
0
100
AcDbLine
 10
33.624
 20
43.928
 30
0.0
 11
35.35199999999999
 21
39.608
 31
0.0
  0
LINE
  5
2F5
330
1E
100
AcDbEntity
  8
0
100
AcDbLine
 10
35.35199999999999
 20
39.608
 30
0.0
 11
36.0
 21
35.0
 31
0.0
  0
LINE
  5
2F6
330
1E
100
AcDbEntity
  8
0
100
AcDbLine
 10
34.92
 20
30.464
 30
0.0
 11
35.568
 21
35.0
 31
0.0
  0
LINE
  5
2F7
330
1E
100
AcDbEntity
  8
0
100
AcDbLine
 10
35.35199999999999
 20
30.392
 30
0.0
 11
36.0
 21
35.0
 31
0.0
  0
LINE
  5
2F8
330
1E
100
AcDbEntity
  8
0
100
AcDbLine
 10
33.0
 20
6.857139999999999
 30
0.0
 11
33.0
 21
1.142859999999999
 31
0.0
  0
LINE
  5
2F9
330
1E
100
AcDbEntity
  8
0
100
AcDbLine
 10
33.0
 20
1.142859999999999
 30
0.0
 11
33.0
 21
6.857139999999999
 31
0.0
  0
LINE
  5
2FA
330
1E
100
AcDbEntity
  8
0
100
AcDbLine
 10
32.6591
 20
61.5714
 30
0.0
 11
33.0
 21
62.1429
 31
0.0
  0
LINE
  5
2FB
330
1E
100
AcDbEntity
  8
0
100
AcDbLine
 10
33.0
 20
67.8571
 30
0.0
 11
33.0
 21
62.1429
 31
0.0
  0
LINE
  5
2FC
330
1E
100
AcDbEntity
  8
0
100
AcDbLine
 10
33.0
 20
62.1429
 30
0.0
 11
33.0
 21
67.8571
 31
0.0
  0
LINE
  5
2FD
330
1E
100
AcDbEntity
  8
0
100
AcDbLine
 10
32.6591
 20
68.4286
 30
0.0
 11
33.0
 21
67.8571
 31
0.0
  0
LINE
  5
2FF
330
1E
100
AcDbEntity
  8
0
100
AcDbLine
 10
32.4262
 20
68.4286
 30
0.0
 11
32.6591
 21
68.4286
 31
0.0
  0
LINE
  5
301
330
1E
100
AcDbEntity
  8
0
100
AcDbLine
 10
32.4262
 20
61.5714
 30
0.0
 11
32.6591
 21
61.5714
 31
0.0
  0
LINE
  5
302
330
1E
100
AcDbEntity
  8
0
100
AcDbLine
 10
32.0
 20
8.0
 30
0.0
 11
32.0
 21
23.9202
 31
0.0
  0
ENDSEC
  0
SECTION
  2
OBJECTS
  0
DICTIONARY
  5
C
330
0
100
AcDbDictionary
281
     1
  3
ACAD_GROUP
350
D
  3
ACAD_LAYOUT
350
19
  3
ACAD_MLINESTYLE
350
16
  3
ACAD_PLOTSETTINGS
350
18
  3
ACAD_PLOTSTYLENAME
350
E
  3
AcDbVariableDictionary
350
307
  0
DICTIONARY
  5
D
102
{ACAD_REACTORS
330
C
102
}
330
C
100
AcDbDictionary
281
     1
  0
DICTIONARY
  5
19
102
{ACAD_REACTORS
330
C
102
}
330
C
100
AcDbDictionary
281
     1
  3
Layout1
350
1D
  3
Model
350
21
  0
DICTIONARY
  5
16
102
{ACAD_REACTORS
330
C
102
}
330
C
100
AcDbDictionary
281
     1
  3
Standard
350
17
  0
DICTIONARY
  5
18
102
{ACAD_REACTORS
330
C
102
}
330
C
100
AcDbDictionary
281
     1
  0
ACDBDICTIONARYWDFLT
  5
E
102
{ACAD_REACTORS
330
C
102
}
330
C
100
AcDbDictionary
281
     1
  3
Normal
350
F
100
AcDbDictionaryWithDefault
340
F
  0
DICTIONARY
  5
307
102
{ACAD_REACTORS
330
C
102
}
330
C
100
AcDbDictionary
281
     1
  3
DIMASSOC
350
308
  0
LAYOUT
  5
1D
102
{ACAD_REACTORS
330
19
102
}
330
19
100
AcDbPlotSettings
  1

  2
hp deskjet 980c series
  4

  6

 40
0.0
 41
0.0
 42
0.0
 43
0.0
 44
0.0
 45
0.0
 46
0.0
 47
0.0
 48
0.0
 49
0.0
140
0.0
141
0.0
142
1.0
143
1.0
 70
   688
 72
     0
 73
     0
 74
     5
  7

 75
    16
147
1.0
148
0.0
149
0.0
100
AcDbLayout
  1
Layout1
 70
     1
 71
     1
 10
0.0
 20
0.0
 11
12.0
 21
9.0
 12
0.0
 22
0.0
 32
0.0
 14
1.000000000000000E+20
 24
1.000000000000000E+20
 34
1.000000000000000E+20
 15
-1.000000000000000E+20
 25
-1.000000000000000E+20
 35
-1.000000000000000E+20
146
0.0
 13
0.0
 23
0.0
 33
0.0
 16
1.0
 26
0.0
 36
0.0
 17
0.0
 27
1.0
 37
0.0
 76
     0
330
1A
  0
LAYOUT
  5
21
102
{ACAD_REACTORS
330
19
102
}
330
19
100
AcDbPlotSettings
  1

  2
hp deskjet 980c series
  4

  6

 40
0.0
 41
0.0
 42
0.0
 43
0.0
 44
0.0
 45
0.0
 46
0.0
 47
0.0
 48
0.0
 49
0.0
140
0.0
141
0.0
142
1.0
143
1.0
 70
  1712
 72
     0
 73
     0
 74
     0
  7

 75
     0
147
1.0
148
0.0
149
0.0
100
AcDbLayout
  1
Model
 70
     1
 71
     0
 10
0.0
 20
0.0
 11
12.0
 21
9.0
 12
0.0
 22
0.0
 32
0.0
 14
0.0
 24
0.0
 34
0.0
 15
0.0
 25
0.0
 35
0.0
146
0.0
 13
0.0
 23
0.0
 33
0.0
 16
1.0
 26
0.0
 36
0.0
 17
0.0
 27
1.0
 37
0.0
 76
     0
330
1E
  0
MLINESTYLE
  5
17
102
{ACAD_REACTORS
330
16
102
}
330
16
100
AcDbMlineStyle
  2
STANDARD
 70
     0
  3

 62
   256
 51
90.0
 52
90.0
 71
     2
 49
0.5
 62
   256
  6
BYLAYER
 49
-0.5
 62
   256
  6
BYLAYER
  0
ACDBPLACEHOLDER
  5
F
102
{ACAD_REACTORS
330
E
102
}
330
E
  0
DICTIONARYVAR
  5
308
102
{ACAD_REACTORS
330
307
102
}
330
307
100
DictionaryVariables
280
     0
  1
1
  0
ENDSEC
  0
EOF
