  0
SECTION
  2
HEADER
  9
$ACADVER
  1
AC1015
  9
$ACADMAINTVER
 70
    13
  9
$DWGCODEPAGE
  3
ANSI_1252
  9
$INSBASE
 10
0.0
 20
0.0
 30
0.0
  9
$EXTMIN
 10
0.000000000000001
 20
-0.0000000000000064
 30
0.0
  9
$EXTMAX
 10
36.0
 20
90.0
 30
0.0
  9
$LIMMIN
 10
0.0
 20
0.0
  9
$LIMMAX
 10
12.0
 20
9.0
  9
$ORTHOMODE
 70
     0
  9
$REGENMODE
 70
     1
  9
$FILLMODE
 70
     1
  9
$QTEXTMODE
 70
     0
  9
$MIRRTEXT
 70
     1
  9
$LTSCALE
 40
1.0
  9
$ATTMODE
 70
     1
  9
$TEXTSIZE
 40
0.2
  9
$TRACEWID
 40
0.05
  9
$TEXTSTYLE
  7
Standard
  9
$CLAYER
  8
0
  9
$CELTYPE
  6
Continuous
  9
$CECOLOR
 62
   256
  9
$CELTSCALE
 40
1.0
  9
$DISPSILH
 70
     0
  9
$DIMSCALE
 40
1.0
  9
$DIMASZ
 40
0.18
  9
$DIMEXO
 40
0.0625
  9
$DIMDLI
 40
0.38
  9
$DIMRND
 40
0.0
  9
$DIMDLE
 40
0.0
  9
$DIMEXE
 40
0.18
  9
$DIMTP
 40
0.0
  9
$DIMTM
 40
0.0
  9
$DIMTXT
 40
0.18
  9
$DIMCEN
 40
0.09
  9
$DIMTSZ
 40
0.0
  9
$DIMTOL
 70
     0
  9
$DIMLIM
 70
     0
  9
$DIMTIH
 70
     1
  9
$DIMTOH
 70
     1
  9
$DIMSE1
 70
     0
  9
$DIMSE2
 70
     0
  9
$DIMTAD
 70
     0
  9
$DIMZIN
 70
     0
  9
$DIMBLK
  1

  9
$DIMASO
 70
     1
  9
$DIMSHO
 70
     1
  9
$DIMPOST
  1

  9
$DIMAPOST
  1

  9
$DIMALT
 70
     0
  9
$DIMALTD
 70
     2
  9
$DIMALTF
 40
25.4
  9
$DIMLFAC
 40
1.0
  9
$DIMTOFL
 70
     0
  9
$DIMTVP
 40
0.0
  9
$DIMTIX
 70
     0
  9
$DIMSOXD
 70
     0
  9
$DIMSAH
 70
     0
  9
$DIMBLK1
  1

  9
$DIMBLK2
  1

  9
$DIMSTYLE
  2
Standard
  9
$DIMCLRD
 70
     0
  9
$DIMCLRE
 70
     0
  9
$DIMCLRT
 70
     0
  9
$DIMTFAC
 40
1.0
  9
$DIMGAP
 40
0.09
  9
$DIMJUST
 70
     0
  9
$DIMSD1
 70
     0
  9
$DIMSD2
 70
     0
  9
$DIMTOLJ
 70
     1
  9
$DIMTZIN
 70
     0
  9
$DIMALTZ
 70
     0
  9
$DIMALTTZ
 70
     0
  9
$DIMUPT
 70
     0
  9
$DIMDEC
 70
     4
  9
$DIMTDEC
 70
     4
  9
$DIMALTU
 70
     2
  9
$DIMALTTD
 70
     2
  9
$DIMTXSTY
  7
Standard
  9
$DIMAUNIT
 70
     0
  9
$DIMADEC
 70
     0
  9
$DIMALTRND
 40
0.0
  9
$DIMAZIN
 70
     0
  9
$DIMDSEP
 70
    46
  9
$DIMATFIT
 70
     3
  9
$DIMFRAC
 70
     0
  9
$DIMLDRBLK
  1

  9
$DIMLUNIT
 70
     2
  9
$DIMLWD
 70
    -2
  9
$DIMLWE
 70
    -2
  9
$DIMTMOVE
 70
     0
  9
$LUNITS
 70
     2
  9
$LUPREC
 70
     4
  9
$SKETCHINC
 40
0.1
  9
$FILLETRAD
 40
0.0
  9
$AUNITS
 70
     0
  9
$AUPREC
 70
     0
  9
$MENU
  1
.
  9
$ELEVATION
 40
0.0
  9
$PELEVATION
 40
0.0
  9
$THICKNESS
 40
0.0
  9
$LIMCHECK
 70
     0
  9
$CHAMFERA
 40
0.0
  9
$CHAMFERB
 40
0.0
  9
$CHAMFERC
 40
0.0
  9
$CHAMFERD
 40
0.0
  9
$SKPOLY
 70
     0
  9
$TDCREATE
 40
2454779.689963102
  9
$TDUCREATE
 40
2454779.648296435
  9
$TDUPDATE
 40
2454779.695347939
  9
$TDUUPDATE
 40
2454779.653681273
  9
$TDINDWG
 40
0.0053850231
  9
$TDUSRTIMER
 40
0.0053850231
  9
$USRTIMER
 70
     1
  9
$ANGBASE
 50
0.0
  9
$ANGDIR
 70
     0
  9
$PDMODE
 70
     0
  9
$PDSIZE
 40
0.0
  9
$PLINEWID
 40
0.0
  9
$SPLFRAME
 70
     0
  9
$SPLINETYPE
 70
     6
  9
$SPLINESEGS
 70
     8
  9
$HANDSEED
  5
396
  9
$SURFTAB1
 70
     6
  9
$SURFTAB2
 70
     6
  9
$SURFTYPE
 70
     6
  9
$SURFU
 70
     6
  9
$SURFV
 70
     6
  9
$UCSBASE
  2

  9
$UCSNAME
  2

  9
$UCSORG
 10
0.0
 20
0.0
 30
0.0
  9
$UCSXDIR
 10
1.0
 20
0.0
 30
0.0
  9
$UCSYDIR
 10
0.0
 20
1.0
 30
0.0
  9
$UCSORTHOREF
  2

  9
$UCSORTHOVIEW
 70
     1
  9
$UCSORGTOP
 10
0.0
 20
0.0
 30
0.0
  9
$UCSORGBOTTOM
 10
0.0
 20
0.0
 30
0.0
  9
$UCSORGLEFT
 10
0.0
 20
0.0
 30
0.0
  9
$UCSORGRIGHT
 10
0.0
 20
0.0
 30
0.0
  9
$UCSORGFRONT
 10
0.0
 20
0.0
 30
0.0
  9
$UCSORGBACK
 10
0.0
 20
0.0
 30
0.0
  9
$PUCSBASE
  2

  9
$PUCSNAME
  2

  9
$PUCSORG
 10
0.0
 20
0.0
 30
0.0
  9
$PUCSXDIR
 10
1.0
 20
0.0
 30
0.0
  9
$PUCSYDIR
 10
0.0
 20
1.0
 30
0.0
  9
$PUCSORTHOREF
  2

  9
$PUCSORTHOVIEW
 70
     0
  9
$PUCSORGTOP
 10
0.0
 20
0.0
 30
0.0
  9
$PUCSORGBOTTOM
 10
0.0
 20
0.0
 30
0.0
  9
$PUCSORGLEFT
 10
0.0
 20
0.0
 30
0.0
  9
$PUCSORGRIGHT
 10
0.0
 20
0.0
 30
0.0
  9
$PUCSORGFRONT
 10
0.0
 20
0.0
 30
0.0
  9
$PUCSORGBACK
 10
0.0
 20
0.0
 30
0.0
  9
$USERI1
 70
     0
  9
$USERI2
 70
     0
  9
$USERI3
 70
     0
  9
$USERI4
 70
     0
  9
$USERI5
 70
     0
  9
$USERR1
 40
0.0
  9
$USERR2
 40
0.0
  9
$USERR3
 40
0.0
  9
$USERR4
 40
0.0
  9
$USERR5
 40
0.0
  9
$WORLDVIEW
 70
     1
  9
$SHADEDGE
 70
     3
  9
$SHADEDIF
 70
    70
  9
$TILEMODE
 70
     1
  9
$MAXACTVP
 70
    64
  9
$PINSBASE
 10
0.0
 20
0.0
 30
0.0
  9
$PLIMCHECK
 70
     0
  9
$PEXTMIN
 10
1.000000000000000E+20
 20
1.000000000000000E+20
 30
1.000000000000000E+20
  9
$PEXTMAX
 10
-1.000000000000000E+20
 20
-1.000000000000000E+20
 30
-1.000000000000000E+20
  9
$PLIMMIN
 10
0.0
 20
0.0
  9
$PLIMMAX
 10
12.0
 20
9.0
  9
$UNITMODE
 70
     0
  9
$VISRETAIN
 70
     1
  9
$PLINEGEN
 70
     0
  9
$PSLTSCALE
 70
     1
  9
$TREEDEPTH
 70
  3020
  9
$CMLSTYLE
  2
Standard
  9
$CMLJUST
 70
     0
  9
$CMLSCALE
 40
1.0
  9
$PROXYGRAPHICS
 70
     1
  9
$MEASUREMENT
 70
     0
  9
$CELWEIGHT
370
    -1
  9
$ENDCAPS
280
     0
  9
$JOINSTYLE
280
     0
  9
$LWDISPLAY
290
     0
  9
$INSUNITS
 70
     0
  9
$HYPERLINKBASE
  1

  9
$STYLESHEET
  1

  9
$XEDIT
290
     1
  9
$CEPSNTYPE
380
     0
  9
$PSTYLEMODE
290
     1
  9
$FINGERPRINTGUID
  2
{3ADC2CEF-75E6-43EC-92EB-B792D6EAAA97}
  9
$VERSIONGUID
  2
{7FF509BC-1685-40DA-B007-E81725EC0B5C}
  9
$EXTNAMES
290
     1
  9
$PSVPSCALE
 40
0.0
  9
$OLESTARTUP
290
     0
  0
ENDSEC
  0
SECTION
  2
CLASSES
  0
CLASS
  1
ACDBDICTIONARYWDFLT
  2
AcDbDictionaryWithDefault
  3
AutoCAD 2000
 90
        0
280
     0
281
     0
  0
CLASS
  1
ACDBPLACEHOLDER
  2
AcDbPlaceHolder
  3
AutoCAD 2000
 90
        0
280
     0
281
     0
  0
CLASS
  1
LAYOUT
  2
AcDbLayout
  3
AutoCAD 2000
 90
        0
280
     0
281
     0
  0
CLASS
  1
DICTIONARYVAR
  2
AcDbDictionaryVar
  3
AutoCAD 2000
 90
        0
280
     0
281
     0
  0
ENDSEC
  0
SECTION
  2
TABLES
  0
TABLE
  2
VPORT
  5
8
330
0
100
AcDbSymbolTable
 70
     2
  0
VPORT
  5
395
330
8
100
AcDbSymbolTableRecord
100
AcDbViewportTableRecord
  2
*Active
 70
     0
 10
0.0
 20
0.0
 11
1.0
 21
1.0
 12
18.0
 22
44.99999999999999
 13
0.0
 23
0.0
 14
1.0
 24
1.0
 15
0.0
 25
0.0
 16
0.0
 26
0.0
 36
1.0
 17
0.0
 27
0.0
 37
0.0
 40
90.69053708439898
 41
2.078104993597951
 42
50.0
 43
0.0
 44
0.0
 50
0.0
 51
0.0
 71
     0
 72
   100
 73
     1
 74
     3
 75
     0
 76
     0
 77
     0
 78
     0
281
     0
 65
     1
110
0.0
120
0.0
130
0.0
111
1.0
121
0.0
131
0.0
112
0.0
122
1.0
132
0.0
 79
     1
146
0.0
  0
ENDTAB
  0
TABLE
  2
LTYPE
  5
5
330
0
100
AcDbSymbolTable
 70
     1
  0
LTYPE
  5
13
330
5
100
AcDbSymbolTableRecord
100
AcDbLinetypeTableRecord
  2
ByBlock
 70
     0
  3

 72
    65
 73
     0
 40
0.0
  0
LTYPE
  5
14
330
5
100
AcDbSymbolTableRecord
100
AcDbLinetypeTableRecord
  2
ByLayer
 70
     0
  3

 72
    65
 73
     0
 40
0.0
  0
LTYPE
  5
15
330
5
100
AcDbSymbolTableRecord
100
AcDbLinetypeTableRecord
  2
Continuous
 70
     0
  3
Solid line
 72
    65
 73
     0
 40
0.0
  0
ENDTAB
  0
TABLE
  2
LAYER
  5
2
330
0
100
AcDbSymbolTable
 70
     1
  0
LAYER
  5
10
330
2
100
AcDbSymbolTableRecord
100
AcDbLayerTableRecord
  2
0
 70
     0
 62
     7
  6
Continuous
370
    -3
390
F
  0
ENDTAB
  0
TABLE
  2
STYLE
  5
3
330
0
100
AcDbSymbolTable
 70
     1
  0
STYLE
  5
11
330
3
100
AcDbSymbolTableRecord
100
AcDbTextStyleTableRecord
  2
Standard
 70
     0
 40
0.0
 41
1.0
 50
0.0
 71
     0
 42
0.2
  3
txt
  4

  0
ENDTAB
  0
TABLE
  2
VIEW
  5
6
330
0
100
AcDbSymbolTable
 70
     0
  0
ENDTAB
  0
TABLE
  2
UCS
  5
7
330
0
100
AcDbSymbolTable
 70
     0
  0
ENDTAB
  0
TABLE
  2
APPID
  5
9
330
0
100
AcDbSymbolTable
 70
     1
  0
APPID
  5
12
330
9
100
AcDbSymbolTableRecord
100
AcDbRegAppTableRecord
  2
ACAD
 70
     0
  0
ENDTAB
  0
TABLE
  2
DIMSTYLE
  5
A
330
0
100
AcDbSymbolTable
 70
     1
100
AcDbDimStyleTable
 71
     0
  0
DIMSTYLE
105
306
330
A
100
AcDbSymbolTableRecord
100
AcDbDimStyleTableRecord
  2
Standard
 70
     0
340
11
  0
ENDTAB
  0
TABLE
  2
BLOCK_RECORD
  5
1
330
0
100
AcDbSymbolTable
 70
     0
  0
BLOCK_RECORD
  5
1E
330
1
100
AcDbSymbolTableRecord
100
AcDbBlockTableRecord
  2
*Model_Space
340
21
  0
BLOCK_RECORD
  5
1A
330
1
100
AcDbSymbolTableRecord
100
AcDbBlockTableRecord
  2
*Paper_Space
340
1D
  0
ENDTAB
  0
ENDSEC
  0
SECTION
  2
BLOCKS
  0
BLOCK
  5
1F
330
1E
100
AcDbEntity
  8
0
100
AcDbBlockBegin
  2
*Model_Space
 70
     0
 10
0.0
 20
0.0
 30
0.0
  3
*Model_Space
  1

  0
ENDBLK
  5
20
330
1E
100
AcDbEntity
  8
0
100
AcDbBlockEnd
  0
BLOCK
  5
1B
330
1A
100
AcDbEntity
 67
     1
  8
0
100
AcDbBlockBegin
  2
*Paper_Space
 70
     0
 10
0.0
 20
0.0
 30
0.0
  3
*Paper_Space
  1

  0
ENDBLK
  5
1C
330
1A
100
AcDbEntity
 67
     1
  8
0
100
AcDbBlockEnd
  0
ENDSEC
  0
SECTION
  2
ENTITIES
  0
LINE
  5
22
330
1E
100
AcDbEntity
  8
0
100
AcDbLine
 10
0.000000000000001
 20
1.428569999999989
 30
0.0
 11
0.409100000000001
 21
0.714289999999995
 31
0.0
  0
LINE
  5
23
330
1E
100
AcDbEntity
  8
0
100
AcDbLine
 10
0.000000000000001
 20
1.428569999999989
 30
0.0
 11
0.000000000000001
 21
8.571429999999999
 31
0.0
  0
LINE
  5
28
330
1E
100
AcDbEntity
  8
0
100
AcDbLine
 10
0.000000000000001
 20
8.571429999999999
 30
0.0
 11
0.000000000000001
 21
1.428569999999989
 31
0.0
  0
LINE
  5
29
330
1E
100
AcDbEntity
  8
0
100
AcDbLine
 10
0.000000000000001
 20
8.571429999999999
 30
0.0
 11
0.409100000000001
 21
9.285709999999999
 31
0.0
  0
LINE
  5
2B
330
1E
100
AcDbEntity
  8
0
100
AcDbLine
 10
1.6363
 20
0.214289999999995
 30
0.0
 11
2.8637
 21
-0.0000000000000054
 31
0.0
  0
LINE
  5
2C
330
1E
100
AcDbEntity
  8
0
100
AcDbLine
 10
1.6363
 20
0.214289999999995
 30
0.0
 11
2.8637
 21
-0.0000000000000054
 31
0.0
  0
LINE
  5
2E
330
1E
100
AcDbEntity
  8
0
100
AcDbLine
 10
0.688600000000001
 20
0.714289999999995
 30
0.0
 11
2.015
 21
0.298999999999995
 31
0.0
  0
LINE
  5
2F
330
1E
100
AcDbEntity
  8
0
100
AcDbLine
 10
0.409100000000001
 20
0.714289999999995
 30
0.0
 11
1.6363
 21
0.214289999999995
 31
0.0
  0
LINE
  5
31
330
1E
100
AcDbEntity
  8
0
100
AcDbLine
 10
0.409100000000001
 20
0.714289999999995
 30
0.0
 11
0.688600000000001
 21
0.714289999999995
 31
0.0
  0
LINE
  5
35
330
1E
100
AcDbEntity
  8
0
100
AcDbLine
 10
0.409100000000001
 20
9.285709999999999
 30
0.0
 11
1.6363
 21
9.785709999999991
 31
0.0
  0
LINE
  5
36
330
1E
100
AcDbEntity
  8
0
100
AcDbLine
 10
0.409100000000001
 20
9.285709999999999
 30
0.0
 11
0.688600000000001
 21
9.285709999999999
 31
0.0
  0
LINE
  5
39
330
1E
100
AcDbEntity
  8
0
100
AcDbLine
 10
1.6363
 20
9.785709999999991
 30
0.0
 11
2.8637
 21
9.999999999999991
 31
0.0
  0
LINE
  5
3B
330
1E
100
AcDbEntity
  8
0
100
AcDbLine
 10
0.688600000000001
 20
9.285709999999999
 30
0.0
 11
2.015
 21
9.700989999999999
 31
0.0
  0
LINE
  5
3C
330
1E
100
AcDbEntity
  8
0
100
AcDbLine
 10
0.688600000000001
 20
9.285709999999999
 30
0.0
 11
2.015
 21
9.700989999999999
 31
0.0
  0
LINE
  5
3D
330
1E
100
AcDbEntity
  8
0
100
AcDbLine
 10
0.688600000000001
 20
0.714289999999995
 30
0.0
 11
2.015
 21
0.298999999999995
 31
0.0
  0
LINE
  5
3F
330
1E
100
AcDbEntity
  8
0
100
AcDbLine
 10
2.015
 20
9.700989999999999
 30
0.0
 11
4.1924
 21
9.855629999999999
 31
0.0
  0
LINE
  5
41
330
1E
100
AcDbEntity
  8
0
100
AcDbLine
 10
2.015
 20
0.298999999999995
 30
0.0
 11
4.1924
 21
0.144359999999995
 31
0.0
  0
LINE
  5
44
330
1E
100
AcDbEntity
  8
0
100
AcDbLine
 10
3.4363
 20
-0.0000000000000057
 30
0.0
 11
4.909099999999999
 21
-0.0000000000000059
 31
0.0
  0
LINE
  5
45
330
1E
100
AcDbEntity
  8
0
100
AcDbLine
 10
2.8637
 20
-0.0000000000000054
 30
0.0
 11
3.4363
 21
-0.0000000000000057
 31
0.0
  0
LINE
  5
46
330
1E
100
AcDbEntity
  8
0
100
AcDbLine
 10
4.909099999999999
 20
-0.0000000000000059
 30
0.0
 11
7.281799999999999
 21
-0.0000000000000061
 31
0.0
  0
LINE
  5
47
330
1E
100
AcDbEntity
  8
0
100
AcDbLine
 10
4.778299999999999
 20
-0.0000000000000054
 30
0.0
 11
5.369399999999999
 21
-0.0000000000000052
 31
0.0
  0
LINE
  5
48
330
1E
100
AcDbEntity
  8
0
100
AcDbLine
 10
4.778299999999999
 20
-0.0000000000000054
 30
0.0
 11
5.4042
 21
-0.0000000000000056
 31
0.0
  0
LINE
  5
49
330
1E
100
AcDbEntity
  8
0
100
AcDbLine
 10
4.909099999999999
 20
-0.0000000000000049
 30
0.0
 11
7.281799999999999
 21
-0.0000000000000047
 31
0.0
  0
LINE
  5
4A
330
1E
100
AcDbEntity
  8
0
100
AcDbLine
 10
6.7255
 20
-0.0000000000000058
 30
0.0
 11
9.0204
 21
-0.000000000000006
 31
0.0
  0
LINE
  5
4B
330
1E
100
AcDbEntity
  8
0
100
AcDbLine
 10
5.4042
 20
-0.0000000000000056
 30
0.0
 11
6.7255
 21
-0.0000000000000058
 31
0.0
  0
LINE
  5
4C
330
1E
100
AcDbEntity
  8
0
100
AcDbLine
 10
7.281799999999999
 20
-0.0000000000000061
 30
0.0
 11
10.47279999999999
 21
-0.0000000000000063
 31
0.0
  0
LINE
  5
4D
330
1E
100
AcDbEntity
  8
0
100
AcDbLine
 10
9.0204
 20
-0.000000000000006
 30
0.0
 11
11.97599999999999
 21
-0.0000000000000061
 31
0.0
  0
LINE
  5
4E
330
1E
100
AcDbEntity
  8
0
100
AcDbLine
 10
9.055199999999999
 20
-0.0000000000000048
 30
0.0
 11
11.9412
 21
-0.0000000000000047
 31
0.0
  0
LINE
  5
4F
330
1E
100
AcDbEntity
  8
0
100
AcDbLine
 10
6.690699999999999
 20
-0.000000000000005
 30
0.0
 11
9.055199999999999
 21
-0.0000000000000048
 31
0.0
  0
LINE
  5
50
330
1E
100
AcDbEntity
  8
0
100
AcDbLine
 10
5.369399999999999
 20
-0.0000000000000052
 30
0.0
 11
6.690699999999999
 21
-0.000000000000005
 31
0.0
  0
LINE
  5
51
330
1E
100
AcDbEntity
  8
0
100
AcDbLine
 10
6.3818
 20
0.259709999999995
 30
0.0
 11
7.915199999999999
 21
0.714289999999996
 31
0.0
  0
LINE
  5
58
330
1E
100
AcDbEntity
  8
0
100
AcDbLine
 10
7.915199999999999
 20
0.714289999999996
 30
0.0
 11
9.2454
 21
0.714289999999996
 31
0.0
  0
LINE
  5
5B
330
1E
100
AcDbEntity
  8
0
100
AcDbLine
 10
4.1924
 20
0.144359999999995
 30
0.0
 11
6.3818
 21
0.259709999999995
 31
0.0
  0
LINE
  5
5F
330
1E
100
AcDbEntity
  8
0
100
AcDbLine
 10
3.4363
 20
-0.0000000000000051
 30
0.0
 11
4.909099999999999
 21
-0.0000000000000049
 31
0.0
  0
LINE
  5
60
330
1E
100
AcDbEntity
  8
0
100
AcDbLine
 10
3.0
 20
9.999999999999991
 30
0.0
 11
3.0
 21
35.24519999999999
 31
0.0
  0
LINE
  5
61
330
1E
100
AcDbEntity
  8
0
100
AcDbLine
 10
2.8637
 20
9.999999999999991
 30
0.0
 11
3.4363
 21
10.0
 31
0.0
  0
LINE
  5
62
330
1E
100
AcDbEntity
  8
0
100
AcDbLine
 10
7.281799999999999
 20
10.0
 30
0.0
 11
10.47279999999999
 21
10.0
 31
0.0
  0
LINE
  5
63
330
1E
100
AcDbEntity
  8
0
100
AcDbLine
 10
4.909099999999999
 20
10.0
 30
0.0
 11
7.281799999999999
 21
10.0
 31
0.0
  0
LINE
  5
64
330
1E
100
AcDbEntity
  8
0
100
AcDbLine
 10
4.1924
 20
9.855629999999999
 30
0.0
 11
6.3818
 21
9.74025999999999
 31
0.0
  0
LINE
  5
65
330
1E
100
AcDbEntity
  8
0
100
AcDbLine
 10
6.3818
 20
9.74025999999999
 30
0.0
 11
7.915199999999999
 21
9.285709999999999
 31
0.0
  0
LINE
  5
68
330
1E
100
AcDbEntity
  8
0
100
AcDbLine
 10
7.915199999999999
 20
9.285709999999999
 30
0.0
 11
9.2454
 21
9.285709999999999
 31
0.0
  0
LINE
  5
6A
330
1E
100
AcDbEntity
  8
0
100
AcDbLine
 10
3.4363
 20
10.0
 30
0.0
 11
4.909099999999999
 21
10.0
 31
0.0
  0
LINE
  5
71
330
1E
100
AcDbEntity
  8
0
100
AcDbLine
 10
9.2454
 20
0.714289999999996
 30
0.0
 11
10.05589999999999
 21
0.714289999999996
 31
0.0
  0
LINE
  5
76
330
1E
100
AcDbEntity
  8
0
100
AcDbLine
 10
9.2454
 20
9.285709999999999
 30
0.0
 11
10.05589999999999
 21
9.285709999999999
 31
0.0
  0
LINE
  5
78
330
1E
100
AcDbEntity
  8
0
100
AcDbLine
 10
10.05589999999999
 20
9.285709999999999
 30
0.0
 11
13.8763
 21
9.828569999999999
 31
0.0
  0
LINE
  5
79
330
1E
100
AcDbEntity
  8
0
100
AcDbLine
 10
10.47279999999999
 20
-0.0000000000000063
 30
0.0
 11
14.0728
 21
-0.0000000000000064
 31
0.0
  0
LINE
  5
7A
330
1E
100
AcDbEntity
  8
0
100
AcDbLine
 10
10.47279999999999
 20
-0.0000000000000045
 30
0.0
 11
14.0728
 21
-0.0000000000000044
 31
0.0
  0
LINE
  5
7D
330
1E
100
AcDbEntity
  8
0
100
AcDbLine
 10
11.97599999999999
 20
-0.0000000000000061
 30
0.0
 11
14.86209999999999
 21
-0.0000000000000062
 31
0.0
  0
LINE
  5
7E
330
1E
100
AcDbEntity
  8
0
100
AcDbLine
 10
11.9412
 20
-0.0000000000000047
 30
0.0
 11
14.86209999999999
 21
-0.0000000000000046
 31
0.0
  0
LINE
  5
7F
330
1E
100
AcDbEntity
  8
0
100
AcDbLine
 10
13.8763
 20
0.171429999999996
 30
0.0
 11
18.0
 21
0.0714299999999957
 31
0.0
  0
LINE
  5
80
330
1E
100
AcDbEntity
  8
0
100
AcDbLine
 10
10.05589999999999
 20
0.714289999999996
 30
0.0
 11
13.8763
 21
0.171429999999996
 31
0.0
  0
LINE
  5
81
330
1E
100
AcDbEntity
  8
0
100
AcDbLine
 10
10.05589999999999
 20
0.714289999999996
 30
0.0
 11
13.8763
 21
0.171429999999996
 31
0.0
  0
LINE
  5
82
330
1E
100
AcDbEntity
  8
0
100
AcDbLine
 10
10.47279999999999
 20
10.0
 30
0.0
 11
14.0728
 21
10.0
 31
0.0
  0
LINE
  5
83
330
1E
100
AcDbEntity
  8
0
100
AcDbLine
 10
13.8763
 20
9.828569999999999
 30
0.0
 11
18.0
 21
9.92857
 31
0.0
  0
LINE
  5
84
330
1E
100
AcDbEntity
  8
0
100
AcDbLine
 10
14.0728
 20
-0.0000000000000064
 30
0.0
 11
18.0
 21
-0.0000000000000064
 31
0.0
  0
LINE
  5
85
330
1E
100
AcDbEntity
  8
0
100
AcDbLine
 10
14.86209999999999
 20
-0.0000000000000062
 30
0.0
 11
17.9915
 21
-0.0000000000000062
 31
0.0
  0
LINE
  5
86
330
1E
100
AcDbEntity
  8
0
100
AcDbLine
 10
18.0
 20
-0.0000000000000064
 30
0.0
 11
21.9272
 21
-0.0000000000000064
 31
0.0
  0
LINE
  5
87
330
1E
100
AcDbEntity
  8
0
100
AcDbLine
 10
17.9915
 20
-0.0000000000000062
 30
0.0
 11
21.0862
 21
-0.0000000000000062
 31
0.0
  0
LINE
  5
88
330
1E
100
AcDbEntity
  8
0
100
AcDbLine
 10
17.9568
 20
-0.0000000000000046
 30
0.0
 11
21.0515
 21
-0.0000000000000046
 31
0.0
  0
LINE
  5
89
330
1E
100
AcDbEntity
  8
0
100
AcDbLine
 10
21.9272
 20
-0.0000000000000064
 30
0.0
 11
25.5273
 21
-0.0000000000000063
 31
0.0
  0
LINE
  5
8A
330
1E
100
AcDbEntity
  8
0
100
AcDbLine
 10
21.0862
 20
-0.0000000000000062
 30
0.0
 11
24.0418
 21
-0.0000000000000061
 31
0.0
  0
LINE
  5
8B
330
1E
100
AcDbEntity
  8
0
100
AcDbLine
 10
21.0515
 20
-0.0000000000000046
 30
0.0
 11
24.007
 21
-0.0000000000000047
 31
0.0
  0
LINE
  5
8C
330
1E
100
AcDbEntity
  8
0
100
AcDbLine
 10
21.9272
 20
-0.0000000000000044
 30
0.0
 11
25.5273
 21
-0.0000000000000045
 31
0.0
  0
LINE
  5
8E
330
1E
100
AcDbEntity
  8
0
100
AcDbLine
 10
14.86209999999999
 20
-0.0000000000000046
 30
0.0
 11
17.9568
 21
-0.0000000000000046
 31
0.0
  0
LINE
  5
8F
330
1E
100
AcDbEntity
  8
0
100
AcDbLine
 10
18.0
 20
0.0714299999999957
 30
0.0
 11
22.12369999999999
 21
0.171429999999996
 31
0.0
  0
LINE
  5
90
330
1E
100
AcDbEntity
  8
0
100
AcDbLine
 10
18.0
 20
-0.0000000000000044
 30
0.0
 11
21.9272
 21
-0.0000000000000044
 31
0.0
  0
LINE
  5
91
330
1E
100
AcDbEntity
  8
0
100
AcDbLine
 10
18.0
 20
10.0
 30
0.0
 11
21.9272
 21
10.0
 31
0.0
  0
LINE
  5
92
330
1E
100
AcDbEntity
  8
0
100
AcDbLine
 10
18.0
 20
9.92857
 30
0.0
 11
22.12369999999999
 21
9.828569999999999
 31
0.0
  0
LINE
  5
94
330
1E
100
AcDbEntity
  8
0
100
AcDbLine
 10
22.12369999999999
 20
0.171429999999996
 30
0.0
 11
25.94409999999999
 21
0.714289999999996
 31
0.0
  0
LINE
  5
95
330
1E
100
AcDbEntity
  8
0
100
AcDbLine
 10
22.12369999999999
 20
9.828569999999999
 30
0.0
 11
25.94409999999999
 21
9.285709999999999
 31
0.0
  0
LINE
  5
96
330
1E
100
AcDbEntity
  8
0
100
AcDbLine
 10
22.12369999999999
 20
0.171429999999996
 30
0.0
 11
25.94409999999999
 21
0.714289999999996
 31
0.0
  0
LINE
  5
9A
330
1E
100
AcDbEntity
  8
0
100
AcDbLine
 10
18.0
 20
0.0714299999999957
 30
0.0
 11
22.12369999999999
 21
0.171429999999996
 31
0.0
  0
LINE
  5
9B
330
1E
100
AcDbEntity
  8
0
100
AcDbLine
 10
21.9272
 20
10.0
 30
0.0
 11
25.5273
 21
10.0
 31
0.0
  0
LINE
  5
9C
330
1E
100
AcDbEntity
  8
0
100
AcDbLine
 10
14.0728
 20
10.0
 30
0.0
 11
18.0
 21
10.0
 31
0.0
  0
LINE
  5
9D
330
1E
100
AcDbEntity
  8
0
100
AcDbLine
 10
14.0728
 20
-0.0000000000000044
 30
0.0
 11
18.0
 21
-0.0000000000000044
 31
0.0
  0
LINE
  5
9E
330
1E
100
AcDbEntity
  8
0
100
AcDbLine
 10
13.8763
 20
0.171429999999996
 30
0.0
 11
18.0
 21
0.0714299999999957
 31
0.0
  0
LINE
  5
A1
330
1E
100
AcDbEntity
  8
0
100
AcDbLine
 10
18.0
 20
27.43199999999999
 30
0.0
 11
22.536
 21
28.07999999999999
 31
0.0
  0
LINE
  5
A2
330
1E
100
AcDbEntity
  8
0
100
AcDbLine
 10
18.0
 20
27.0
 30
0.0
 11
22.608
 21
27.648
 31
0.0
  0
LINE
  5
A3
330
1E
100
AcDbEntity
  8
0
100
AcDbLine
 10
24.0418
 20
-0.0000000000000061
 30
0.0
 11
26.9626
 21
-0.000000000000006
 31
0.0
  0
LINE
  5
A4
330
1E
100
AcDbEntity
  8
0
100
AcDbLine
 10
25.5273
 20
-0.0000000000000063
 30
0.0
 11
28.71819999999999
 21
-0.0000000000000061
 31
0.0
  0
LINE
  5
A5
330
1E
100
AcDbEntity
  8
0
100
AcDbLine
 10
29.3271
 20
-0.0000000000000058
 30
0.0
 11
30.68319999999999
 21
-0.0000000000000056
 31
0.0
  0
LINE
  5
A6
330
1E
100
AcDbEntity
  8
0
100
AcDbLine
 10
31.0909
 20
-0.0000000000000059
 30
0.0
 11
32.5636
 21
-0.0000000000000057
 31
0.0
  0
LINE
  5
A7
330
1E
100
AcDbEntity
  8
0
100
AcDbLine
 10
28.71819999999999
 20
-0.0000000000000061
 30
0.0
 11
31.0909
 21
-0.0000000000000059
 31
0.0
  0
LINE
  5
A8
330
1E
100
AcDbEntity
  8
0
100
AcDbLine
 10
26.9626
 20
-0.000000000000006
 30
0.0
 11
29.3271
 21
-0.0000000000000058
 31
0.0
  0
LINE
  5
A9
330
1E
100
AcDbEntity
  8
0
100
AcDbLine
 10
30.68319999999999
 20
-0.0000000000000056
 30
0.0
 11
31.2048
 21
-0.0000000000000054
 31
0.0
  0
LINE
  5
AB
330
1E
100
AcDbEntity
  8
0
100
AcDbLine
 10
32.5636
 20
-0.0000000000000057
 30
0.0
 11
33.1364
 21
-0.0000000000000054
 31
0.0
  0
LINE
  5
AE
330
1E
100
AcDbEntity
  8
0
100
AcDbLine
 10
27.1017
 20
-0.0000000000000048
 30
0.0
 11
29.36189999999999
 21
-0.000000000000005
 31
0.0
  0
LINE
  5
AF
330
1E
100
AcDbEntity
  8
0
100
AcDbLine
 10
24.007
 20
-0.0000000000000047
 30
0.0
 11
27.1017
 21
-0.0000000000000048
 31
0.0
  0
LINE
  5
B2
330
1E
100
AcDbEntity
  8
0
100
AcDbLine
 10
26.7545
 20
0.714289999999996
 30
0.0
 11
28.0848
 21
0.714289999999996
 31
0.0
  0
LINE
  5
BA
330
1E
100
AcDbEntity
  8
0
100
AcDbLine
 10
25.94409999999999
 20
0.714289999999996
 30
0.0
 11
26.7545
 21
0.714289999999996
 31
0.0
  0
LINE
  5
BB
330
1E
100
AcDbEntity
  8
0
100
AcDbLine
 10
25.5273
 20
-0.0000000000000045
 30
0.0
 11
28.71819999999999
 21
-0.0000000000000047
 31
0.0
  0
LINE
  5
BD
330
1E
100
AcDbEntity
  8
0
100
AcDbLine
 10
29.36189999999999
 20
-0.000000000000005
 30
0.0
 11
30.68319999999999
 21
-0.0000000000000052
 31
0.0
  0
LINE
  5
C2
330
1E
100
AcDbEntity
  8
0
100
AcDbLine
 10
28.71819999999999
 20
-0.0000000000000047
 30
0.0
 11
31.0909
 21
-0.0000000000000049
 31
0.0
  0
LINE
  5
C5
330
1E
100
AcDbEntity
  8
0
100
AcDbLine
 10
31.0909
 20
-0.0000000000000049
 30
0.0
 11
32.5636
 21
-0.0000000000000051
 31
0.0
  0
LINE
  5
CA
330
1E
100
AcDbEntity
  8
0
100
AcDbLine
 10
31.8076
 20
0.144359999999995
 30
0.0
 11
33.985
 21
0.298999999999995
 31
0.0
  0
LINE
  5
CB
330
1E
100
AcDbEntity
  8
0
100
AcDbLine
 10
29.6182
 20
0.259709999999995
 30
0.0
 11
31.8076
 21
0.144359999999995
 31
0.0
  0
LINE
  5
CC
330
1E
100
AcDbEntity
  8
0
100
AcDbLine
 10
28.0848
 20
0.714289999999996
 30
0.0
 11
29.6182
 21
0.259709999999995
 31
0.0
  0
LINE
  5
CD
330
1E
100
AcDbEntity
  8
0
100
AcDbLine
 10
23.096
 20
10.0
 30
0.0
 11
26.93599999999999
 21
10.0
 31
0.0
  0
LINE
  5
CE
330
1E
100
AcDbEntity
  8
0
100
AcDbLine
 10
26.7545
 20
9.285709999999999
 30
0.0
 11
28.0848
 21
9.285709999999999
 31
0.0
  0
LINE
  5
D0
330
1E
100
AcDbEntity
  8
0
100
AcDbLine
 10
26.93599999999999
 20
10.0
 30
0.0
 11
30.328
 21
10.0
 31
0.0
  0
LINE
  5
D4
330
1E
100
AcDbEntity
  8
0
100
AcDbLine
 10
25.94409999999999
 20
9.285709999999999
 30
0.0
 11
26.7545
 21
9.285709999999999
 31
0.0
  0
LINE
  5
D5
330
1E
100
AcDbEntity
  8
0
100
AcDbLine
 10
25.5273
 20
10.0
 30
0.0
 11
28.71819999999999
 21
10.0
 31
0.0
  0
LINE
  5
D6
330
1E
100
AcDbEntity
  8
0
100
AcDbLine
 10
28.71819999999999
 20
10.0
 30
0.0
 11
31.0909
 21
10.0
 31
0.0
  0
LINE
  5
D8
330
1E
100
AcDbEntity
  8
0
100
AcDbLine
 10
30.328
 20
10.0
 30
0.0
 11
32.888
 21
10.0
 31
0.0
  0
LINE
  5
D9
330
1E
100
AcDbEntity
  8
0
100
AcDbLine
 10
31.0909
 20
10.0
 30
0.0
 11
32.5636
 21
10.0
 31
0.0
  0
LINE
  5
DB
330
1E
100
AcDbEntity
  8
0
100
AcDbLine
 10
31.8076
 20
9.855629999999999
 30
0.0
 11
33.985
 21
9.700989999999999
 31
0.0
  0
LINE
  5
DD
330
1E
100
AcDbEntity
  8
0
100
AcDbLine
 10
29.6182
 20
9.74025999999999
 30
0.0
 11
31.8076
 21
9.855629999999999
 31
0.0
  0
LINE
  5
DE
330
1E
100
AcDbEntity
  8
0
100
AcDbLine
 10
28.0848
 20
9.285709999999999
 30
0.0
 11
29.6182
 21
9.74025999999999
 31
0.0
  0
LINE
  5
E1
330
1E
100
AcDbEntity
  8
0
100
AcDbLine
 10
34.3636
 20
0.214289999999995
 30
0.0
 11
35.59089999999999
 21
0.714289999999995
 31
0.0
  0
LINE
  5
E2
330
1E
100
AcDbEntity
  8
0
100
AcDbLine
 10
33.985
 20
0.298999999999995
 30
0.0
 11
35.3114
 21
0.714289999999995
 31
0.0
  0
LINE
  5
E4
330
1E
100
AcDbEntity
  8
0
100
AcDbLine
 10
32.888
 20
10.0
 30
0.0
 11
34.424
 21
10.0
 31
0.0
  0
LINE
  5
E5
330
1E
100
AcDbEntity
  8
0
100
AcDbLine
 10
33.1364
 20
9.999999999999991
 30
0.0
 11
34.3636
 21
9.785709999999991
 31
0.0
  0
LINE
  5
E6
330
1E
100
AcDbEntity
  8
0
100
AcDbLine
 10
33.1364
 20
9.999999999999991
 30
0.0
 11
34.424
 21
9.999999999999991
 31
0.0
  0
LINE
  5
E7
330
1E
100
AcDbEntity
  8
0
100
AcDbLine
 10
35.59089999999999
 20
0.714289999999995
 30
0.0
 11
36.0
 21
1.428569999999989
 31
0.0
  0
LINE
  5
E8
330
1E
100
AcDbEntity
  8
0
100
AcDbLine
 10
34.424
 20
9.999999999999991
 30
0.0
 11
35.0
 21
9.999999999999991
 31
0.0
  0
LINE
  5
E9
330
1E
100
AcDbEntity
  8
0
100
AcDbLine
 10
34.424
 20
10.0
 30
0.0
 11
35.0
 21
9.999999999999991
 31
0.0
  0
LINE
  5
EA
330
1E
100
AcDbEntity
  8
0
100
AcDbLine
 10
35.0
 20
9.999999999999991
 30
0.0
 11
35.0
 21
39.512
 31
0.0
  0
LINE
  5
EC
330
1E
100
AcDbEntity
  8
0
100
AcDbLine
 10
34.3636
 20
9.785709999999991
 30
0.0
 11
35.59089999999999
 21
9.285709999999999
 31
0.0
  0
LINE
  5
ED
330
1E
100
AcDbEntity
  8
0
100
AcDbLine
 10
36.0
 20
8.571429999999999
 30
0.0
 11
36.0
 21
1.428569999999989
 31
0.0
  0
LINE
  5
EE
330
1E
100
AcDbEntity
  8
0
100
AcDbLine
 10
36.0
 20
1.428569999999989
 30
0.0
 11
36.0
 21
8.571429999999999
 31
0.0
  0
LINE
  5
EF
330
1E
100
AcDbEntity
  8
0
100
AcDbLine
 10
35.59089999999999
 20
9.285709999999999
 30
0.0
 11
36.0
 21
8.571429999999999
 31
0.0
  0
LINE
  5
F1
330
1E
100
AcDbEntity
  8
0
100
AcDbLine
 10
35.3114
 20
9.285709999999999
 30
0.0
 11
35.59089999999999
 21
9.285709999999999
 31
0.0
  0
LINE
  5
F3
330
1E
100
AcDbEntity
  8
0
100
AcDbLine
 10
35.3114
 20
0.714289999999995
 30
0.0
 11
35.59089999999999
 21
0.714289999999995
 31
0.0
  0
LINE
  5
F4
330
1E
100
AcDbEntity
  8
0
100
AcDbLine
 10
33.985
 20
9.700989999999999
 30
0.0
 11
35.3114
 21
9.285709999999999
 31
0.0
  0
LINE
  5
F6
330
1E
100
AcDbEntity
  8
0
100
AcDbLine
 10
33.985
 20
0.298999999999995
 30
0.0
 11
35.3114
 21
0.714289999999995
 31
0.0
  0
LINE
  5
F9
330
1E
100
AcDbEntity
  8
0
100
AcDbLine
 10
32.5636
 20
10.0
 30
0.0
 11
33.1364
 21
9.999999999999991
 31
0.0
  0
LINE
  5
FB
330
1E
100
AcDbEntity
  8
0
100
AcDbLine
 10
30.68319999999999
 20
-0.0000000000000052
 30
0.0
 11
31.2048
 21
-0.0000000000000054
 31
0.0
  0
LINE
  5
FC
330
1E
100
AcDbEntity
  8
0
100
AcDbLine
 10
22.608
 20
27.648
 30
0.0
 11
26.928
 21
29.37599999999999
 31
0.0
  0
LINE
  5
FD
330
1E
100
AcDbEntity
  8
0
100
AcDbLine
 10
22.536
 20
28.07999999999999
 30
0.0
 11
26.712
 21
29.808
 31
0.0
  0
LINE
  5
FE
330
1E
100
AcDbEntity
  8
0
100
AcDbLine
 10
18.0
 20
29.0
 30
0.0
 11
22.096
 21
29.576
 31
0.0
  0
LINE
  5
FF
330
1E
100
AcDbEntity
  8
0
100
AcDbLine
 10
13.904
 20
29.576
 30
0.0
 11
18.0
 21
29.0
 31
0.0
  0
LINE
  5
100
330
1E
100
AcDbEntity
  8
0
100
AcDbLine
 10
18.0
 20
29.384
 30
0.0
 11
22.03199999999999
 21
29.96
 31
0.0
  0
LINE
  5
101
330
1E
100
AcDbEntity
  8
0
100
AcDbLine
 10
13.968
 20
29.96
 30
0.0
 11
18.0
 21
29.384
 31
0.0
  0
LINE
  5
102
330
1E
100
AcDbEntity
  8
0
100
AcDbLine
 10
18.0
 20
31.0
 30
0.0
 11
21.58399999999999
 21
31.504
 31
0.0
  0
LINE
  5
103
330
1E
100
AcDbEntity
  8
0
100
AcDbLine
 10
14.416
 20
31.504
 30
0.0
 11
18.0
 21
31.0
 31
0.0
  0
LINE
  5
104
330
1E
100
AcDbEntity
  8
0
100
AcDbLine
 10
21.58399999999999
 20
31.504
 30
0.0
 11
24.944
 21
32.848
 31
0.0
  0
LINE
  5
105
330
1E
100
AcDbEntity
  8
0
100
AcDbLine
 10
10.25599999999999
 20
31.49599999999999
 30
0.0
 11
13.968
 21
29.96
 31
0.0
  0
LINE
  5
106
330
1E
100
AcDbEntity
  8
0
100
AcDbLine
 10
10.06399999999999
 20
31.112
 30
0.0
 11
13.904
 21
29.576
 31
0.0
  0
LINE
  5
107
330
1E
100
AcDbEntity
  8
0
100
AcDbLine
 10
25.744
 20
31.49599999999999
 30
0.0
 11
29.008
 21
33.99199999999999
 31
0.0
  0
LINE
  5
108
330
1E
100
AcDbEntity
  8
0
100
AcDbLine
 10
22.03199999999999
 20
29.96
 30
0.0
 11
25.744
 21
31.49599999999999
 31
0.0
  0
LINE
  5
109
330
1E
100
AcDbEntity
  8
0
100
AcDbLine
 10
25.936
 20
31.112
 30
0.0
 11
29.328
 21
33.67199999999999
 31
0.0
  0
LINE
  5
10A
330
1E
100
AcDbEntity
  8
0
100
AcDbLine
 10
22.096
 20
29.576
 30
0.0
 11
25.936
 21
31.112
 31
0.0
  0
LINE
  5
10B
330
1E
100
AcDbEntity
  8
0
100
AcDbLine
 10
26.712
 20
29.808
 30
0.0
 11
30.384
 21
32.616
 31
0.0
  0
LINE
  5
10C
330
1E
100
AcDbEntity
  8
0
100
AcDbLine
 10
26.928
 20
29.37599999999999
 30
0.0
 11
30.744
 21
32.256
 31
0.0
  0
LINE
  5
10D
330
1E
100
AcDbEntity
  8
0
100
AcDbLine
 10
30.744
 20
32.256
 30
0.0
 11
33.624
 21
36.07199999999999
 31
0.0
  0
LINE
  5
10E
330
1E
100
AcDbEntity
  8
0
100
AcDbLine
 10
13.464
 20
28.07999999999999
 30
0.0
 11
18.0
 21
27.43199999999999
 31
0.0
  0
LINE
  5
10F
330
1E
100
AcDbEntity
  8
0
100
AcDbLine
 10
9.288
 20
29.808
 30
0.0
 11
13.464
 21
28.07999999999999
 31
0.0
  0
LINE
  5
110
330
1E
100
AcDbEntity
  8
0
100
AcDbLine
 10
13.392
 20
27.648
 30
0.0
 11
18.0
 21
27.0
 31
0.0
  0
LINE
  5
111
330
1E
100
AcDbEntity
  8
0
100
AcDbLine
 10
9.072
 20
29.37599999999999
 30
0.0
 11
13.392
 21
27.648
 31
0.0
  0
LINE
  5
112
330
1E
100
AcDbEntity
  8
0
100
AcDbLine
 10
30.384
 20
32.616
 30
0.0
 11
33.192
 21
36.288
 31
0.0
  0
LINE
  5
113
330
1E
100
AcDbEntity
  8
0
100
AcDbLine
 10
14.92799999999999
 20
33.43199999999999
 30
0.0
 11
18.0
 21
33.0
 31
0.0
  0
LINE
  5
114
330
1E
100
AcDbEntity
  8
0
100
AcDbLine
 10
21.072
 20
33.43199999999999
 30
0.0
 11
23.95199999999999
 21
34.584
 31
0.0
  0
LINE
  5
115
330
1E
100
AcDbEntity
  8
0
100
AcDbLine
 10
18.0
 20
33.0
 30
0.0
 11
21.072
 21
33.43199999999999
 31
0.0
  0
LINE
  5
116
330
1E
100
AcDbEntity
  8
0
100
AcDbLine
 10
11.05599999999999
 20
32.848
 30
0.0
 11
14.416
 21
31.504
 31
0.0
  0
LINE
  5
117
330
1E
100
AcDbEntity
  8
0
100
AcDbLine
 10
24.944
 20
32.848
 30
0.0
 11
27.91199999999999
 21
35.088
 31
0.0
  0
LINE
  5
118
330
1E
100
AcDbEntity
  8
0
100
AcDbLine
 10
6.992
 20
33.99199999999999
 30
0.0
 11
10.25599999999999
 21
31.49599999999999
 31
0.0
  0
LINE
  5
119
330
1E
100
AcDbEntity
  8
0
100
AcDbLine
 10
6.672
 20
33.67199999999999
 30
0.0
 11
10.06399999999999
 21
31.112
 31
0.0
  0
LINE
  5
11A
330
1E
100
AcDbEntity
  8
0
100
AcDbLine
 10
18.0
 20
35.0
 30
0.0
 11
18.5203
 21
35.07009999999999
 31
0.0
  0
LINE
  5
11B
330
1E
100
AcDbEntity
  8
0
100
AcDbLine
 10
18.5203
 20
35.07009999999999
 30
0.0
 11
19.1123
 21
35.3825
 31
0.0
  0
LINE
  5
11C
330
1E
100
AcDbEntity
  8
0
100
AcDbLine
 10
17.4797
 20
35.07009999999999
 30
0.0
 11
18.0
 21
35.0
 31
0.0
  0
LINE
  5
11D
330
1E
100
AcDbEntity
  8
0
100
AcDbLine
 10
12.048
 20
34.584
 30
0.0
 11
14.92799999999999
 21
33.43199999999999
 31
0.0
  0
LINE
  5
11E
330
1E
100
AcDbEntity
  8
0
100
AcDbLine
 10
23.95199999999999
 20
34.584
 30
0.0
 11
26.49599999999999
 21
36.50399999999999
 31
0.0
  0
LINE
  5
11F
330
1E
100
AcDbEntity
  8
0
100
AcDbLine
 10
3.0
 20
35.24519999999999
 30
0.0
 11
3.0
 21
9.999999999999991
 31
0.0
  0
LINE
  5
120
330
1E
100
AcDbEntity
  8
0
100
AcDbLine
 10
19.1123
 20
35.3825
 30
0.0
 11
20.4479
 21
36.1194
 31
0.0
  0
LINE
  5
127
330
1E
100
AcDbEntity
  8
0
100
AcDbLine
 10
16.88769999999999
 20
35.3825
 30
0.0
 11
17.4797
 21
35.07009999999999
 31
0.0
  0
LINE
  5
12A
330
1E
100
AcDbEntity
  8
0
100
AcDbLine
 10
8.087999999999999
 20
35.088
 30
0.0
 11
11.05599999999999
 21
32.848
 31
0.0
  0
LINE
  5
12B
330
1E
100
AcDbEntity
  8
0
100
AcDbLine
 10
27.91199999999999
 20
35.088
 30
0.0
 11
30.152
 21
38.056
 31
0.0
  0
LINE
  5
12C
330
1E
100
AcDbEntity
  8
0
100
AcDbLine
 10
29.008
 20
33.99199999999999
 30
0.0
 11
31.504
 21
37.256
 31
0.0
  0
LINE
  5
12D
330
1E
100
AcDbEntity
  8
0
100
AcDbLine
 10
29.328
 20
33.67199999999999
 30
0.0
 11
31.888
 21
37.064
 31
0.0
  0
LINE
  5
12E
330
1E
100
AcDbEntity
  8
0
100
AcDbLine
 10
20.4479
 20
36.1194
 30
0.0
 11
22.58129999999999
 21
37.32909999999999
 31
0.0
  0
LINE
  5
12F
330
1E
100
AcDbEntity
  8
0
100
AcDbLine
 10
15.55209999999999
 20
36.1194
 30
0.0
 11
16.88769999999999
 21
35.3825
 31
0.0
  0
LINE
  5
132
330
1E
100
AcDbEntity
  8
0
100
AcDbLine
 10
9.503999999999999
 20
36.50399999999999
 30
0.0
 11
12.048
 21
34.584
 31
0.0
  0
LINE
  5
137
330
1E
100
AcDbEntity
  8
0
100
AcDbLine
 10
26.49599999999999
 20
36.50399999999999
 30
0.0
 11
28.416
 21
39.048
 31
0.0
  0
LINE
  5
138
330
1E
100
AcDbEntity
  8
0
100
AcDbLine
 10
4.112
 20
37.064
 30
0.0
 11
6.672
 21
33.67199999999999
 31
0.0
  0
LINE
  5
13A
330
1E
100
AcDbEntity
  8
0
100
AcDbLine
 10
13.4187
 20
37.32909999999999
 30
0.0
 11
15.55209999999999
 21
36.1194
 31
0.0
  0
LINE
  5
13D
330
1E
100
AcDbEntity
  8
0
100
AcDbLine
 10
19.8266
 20
37.93439999999999
 30
0.0
 11
21.57669999999999
 21
38.6685
 31
0.0
  0
LINE
  5
13E
330
1E
100
AcDbEntity
  8
0
100
AcDbLine
 10
18.0356
 20
37.6833
 30
0.0
 11
19.8266
 21
37.93439999999999
 31
0.0
  0
LINE
  5
13F
330
1E
100
AcDbEntity
  8
0
100
AcDbLine
 10
22.58129999999999
 20
37.32909999999999
 30
0.0
 11
24.7263
 21
38.5454
 31
0.0
  0
LINE
  5
140
330
1E
100
AcDbEntity
  8
0
100
AcDbLine
 10
16.2297
 20
37.93439999999999
 30
0.0
 11
18.0356
 21
37.6833
 31
0.0
  0
LINE
  5
141
330
1E
100
AcDbEntity
  8
0
100
AcDbLine
 10
24.7263
 20
38.5454
 30
0.0
 11
26.2286
 21
39.3973
 31
0.0
  0
LINE
  5
142
330
1E
100
AcDbEntity
  8
0
100
AcDbLine
 10
21.57669999999999
 20
38.6685
 30
0.0
 11
23.1406
 21
39.90489999999999
 31
0.0
  0
LINE
  5
144
330
1E
100
AcDbEntity
  8
0
100
AcDbLine
 10
14.46099999999999
 20
38.6492
 30
0.0
 11
16.2297
 21
37.93439999999999
 31
0.0
  0
LINE
  5
145
330
1E
100
AcDbEntity
  8
0
100
AcDbLine
 10
11.27369999999999
 20
38.5454
 30
0.0
 11
13.4187
 21
37.32909999999999
 31
0.0
  0
LINE
  5
148
330
1E
100
AcDbEntity
  8
0
100
AcDbLine
 10
9.0
 20
39.9874
 30
0.0
 11
9.0
 21
40.58659999999999
 31
0.0
  0
LINE
  5
149
330
1E
100
AcDbEntity
  8
0
100
AcDbLine
 10
9.0
 20
39.9874
 30
0.0
 11
9.231619999999999
 21
39.7034
 31
0.0
  0
LINE
  5
14A
330
1E
100
AcDbEntity
  8
0
100
AcDbLine
 10
9.0
 20
39.9874
 30
0.0
 11
9.231619999999999
 21
39.7034
 31
0.0
  0
LINE
  5
14B
330
1E
100
AcDbEntity
  8
0
100
AcDbLine
 10
9.231619999999999
 20
39.7034
 30
0.0
 11
9.77138
 21
39.3973
 31
0.0
  0
LINE
  5
14C
330
1E
100
AcDbEntity
  8
0
100
AcDbLine
 10
26.2286
 20
39.3973
 30
0.0
 11
26.7684
 21
39.7034
 31
0.0
  0
LINE
  5
14D
330
1E
100
AcDbEntity
  8
0
100
AcDbLine
 10
26.2286
 20
39.3973
 30
0.0
 11
26.7684
 21
39.7034
 31
0.0
  0
LINE
  5
14F
330
1E
100
AcDbEntity
  8
0
100
AcDbLine
 10
18.0
 20
40.11999999999999
 30
0.0
 11
19.26
 21
40.3
 31
0.0
  0
LINE
  5
151
330
1E
100
AcDbEntity
  8
0
100
AcDbLine
 10
27.0
 20
39.9874
 30
0.0
 11
27.0
 21
40.58659999999999
 31
0.0
  0
LINE
  5
152
330
1E
100
AcDbEntity
  8
0
100
AcDbLine
 10
26.7684
 20
39.7034
 30
0.0
 11
27.0
 21
39.9874
 31
0.0
  0
LINE
  5
153
330
1E
100
AcDbEntity
  8
0
100
AcDbLine
 10
23.1406
 20
39.90489999999999
 30
0.0
 11
24.2018
 21
41.5662
 31
0.0
  0
LINE
  5
154
330
1E
100
AcDbEntity
  8
0
100
AcDbLine
 10
16.73999999999999
 20
40.3
 30
0.0
 11
18.0
 21
40.11999999999999
 31
0.0
  0
LINE
  5
156
330
1E
100
AcDbEntity
  8
0
100
AcDbLine
 10
19.26
 20
40.3
 30
0.0
 11
20.42
 21
40.78
 31
0.0
  0
LINE
  5
159
330
1E
100
AcDbEntity
  8
0
100
AcDbLine
 10
12.8971
 20
39.8855
 30
0.0
 11
14.46099999999999
 21
38.6492
 31
0.0
  0
LINE
  5
15A
330
1E
100
AcDbEntity
  8
0
100
AcDbLine
 10
9.77138
 20
39.3973
 30
0.0
 11
11.27369999999999
 21
38.5454
 31
0.0
  0
LINE
  5
15C
330
1E
100
AcDbEntity
  8
0
100
AcDbLine
 10
9.231619999999999
 20
39.7034
 30
0.0
 11
9.77138
 21
39.3973
 31
0.0
  0
LINE
  5
15D
330
1E
100
AcDbEntity
  8
0
100
AcDbLine
 10
7.583999999999999
 20
39.048
 30
0.0
 11
9.503999999999999
 21
36.50399999999999
 31
0.0
  0
LINE
  5
15E
330
1E
100
AcDbEntity
  8
0
100
AcDbLine
 10
28.416
 20
39.048
 30
0.0
 11
29.568
 21
41.928
 31
0.0
  0
LINE
  5
15F
330
1E
100
AcDbEntity
  8
0
100
AcDbLine
 10
5.847999999999999
 20
38.056
 30
0.0
 11
8.087999999999999
 21
35.088
 31
0.0
  0
LINE
  5
160
330
1E
100
AcDbEntity
  8
0
100
AcDbLine
 10
30.152
 20
38.056
 30
0.0
 11
31.49599999999999
 21
41.416
 31
0.0
  0
LINE
  5
161
330
1E
100
AcDbEntity
  8
0
100
AcDbLine
 10
4.496
 20
37.256
 30
0.0
 11
6.992
 21
33.99199999999999
 31
0.0
  0
LINE
  5
162
330
1E
100
AcDbEntity
  8
0
100
AcDbLine
 10
31.504
 20
37.256
 30
0.0
 11
33.04
 21
40.968
 31
0.0
  0
LINE
  5
163
330
1E
100
AcDbEntity
  8
0
100
AcDbLine
 10
31.888
 20
37.064
 30
0.0
 11
33.424
 21
40.904
 31
0.0
  0
LINE
  5
164
330
1E
100
AcDbEntity
  8
0
100
AcDbLine
 10
35.0
 20
39.512
 30
0.0
 11
35.0
 21
9.999999999999991
 31
0.0
  0
LINE
  5
165
330
1E
100
AcDbEntity
  8
0
100
AcDbLine
 10
33.192
 20
36.288
 30
0.0
 11
34.92
 21
40.464
 31
0.0
  0
LINE
  5
166
330
1E
100
AcDbEntity
  8
0
100
AcDbLine
 10
33.624
 20
36.07199999999999
 30
0.0
 11
35.35199999999999
 21
40.392
 31
0.0
  0
LINE
  5
167
330
1E
100
AcDbEntity
  8
0
100
AcDbLine
 10
35.35199999999999
 20
40.392
 30
0.0
 11
36.0
 21
45.0
 31
0.0
  0
LINE
  5
168
330
1E
100
AcDbEntity
  8
0
100
AcDbLine
 10
5.616
 20
32.616
 30
0.0
 11
9.288
 21
29.808
 31
0.0
  0
LINE
  5
169
330
1E
100
AcDbEntity
  8
0
100
AcDbLine
 10
2.808
 20
36.288
 30
0.0
 11
5.616
 21
32.616
 31
0.0
  0
LINE
  5
16A
330
1E
100
AcDbEntity
  8
0
100
AcDbLine
 10
5.256
 20
32.256
 30
0.0
 11
9.072
 21
29.37599999999999
 31
0.0
  0
LINE
  5
16B
330
1E
100
AcDbEntity
  8
0
100
AcDbLine
 10
2.375999999999999
 20
36.07199999999999
 30
0.0
 11
5.256
 21
32.256
 31
0.0
  0
LINE
  5
175
330
1E
100
AcDbEntity
  8
0
100
AcDbLine
 10
34.92
 20
40.464
 30
0.0
 11
35.568
 21
45.0
 31
0.0
  0
LINE
  5
177
330
1E
100
AcDbEntity
  8
0
100
AcDbLine
 10
15.58
 20
40.78
 30
0.0
 11
16.73999999999999
 21
40.3
 31
0.0
  0
LINE
  5
178
330
1E
100
AcDbEntity
  8
0
100
AcDbLine
 10
20.42
 20
40.78
 30
0.0
 11
21.44
 21
41.56
 31
0.0
  0
LINE
  5
17A
330
1E
100
AcDbEntity
  8
0
100
AcDbLine
 10
27.0
 20
40.58659999999999
 30
0.0
 11
27.0
 21
42.70909999999999
 31
0.0
  0
LINE
  5
17B
330
1E
100
AcDbEntity
  8
0
100
AcDbLine
 10
27.0
 20
40.58659999999999
 30
0.0
 11
27.0
 21
39.9874
 31
0.0
  0
LINE
  5
17E
330
1E
100
AcDbEntity
  8
0
100
AcDbLine
 10
9.0
 20
40.58659999999999
 30
0.0
 11
9.0
 21
42.70909999999999
 31
0.0
  0
LINE
  5
17F
330
1E
100
AcDbEntity
  8
0
100
AcDbLine
 10
9.0
 20
40.58659999999999
 30
0.0
 11
9.0
 21
39.9874
 31
0.0
  0
LINE
  5
181
330
1E
100
AcDbEntity
  8
0
100
AcDbLine
 10
2.959999999999999
 20
40.968
 30
0.0
 11
4.496
 21
37.256
 31
0.0
  0
LINE
  5
182
330
1E
100
AcDbEntity
  8
0
100
AcDbLine
 10
2.576
 20
40.904
 30
0.0
 11
4.112
 21
37.064
 31
0.0
  0
LINE
  5
183
330
1E
100
AcDbEntity
  8
0
100
AcDbLine
 10
16.992
 20
41.24
 30
0.0
 11
18.0
 21
41.096
 31
0.0
  0
LINE
  5
185
330
1E
100
AcDbEntity
  8
0
100
AcDbLine
 10
19.008
 20
41.24
 30
0.0
 11
19.93599999999999
 21
41.62399999999999
 31
0.0
  0
LINE
  5
186
330
1E
100
AcDbEntity
  8
0
100
AcDbLine
 10
18.0
 20
41.096
 30
0.0
 11
19.008
 21
41.24
 31
0.0
  0
LINE
  5
188
330
1E
100
AcDbEntity
  8
0
100
AcDbLine
 10
4.503999999999999
 20
41.416
 30
0.0
 11
5.847999999999999
 21
38.056
 31
0.0
  0
LINE
  5
18C
330
1E
100
AcDbEntity
  8
0
100
AcDbLine
 10
14.56
 20
41.56
 30
0.0
 11
15.58
 21
40.78
 31
0.0
  0
LINE
  5
18D
330
1E
100
AcDbEntity
  8
0
100
AcDbLine
 10
16.064
 20
41.62399999999999
 30
0.0
 11
16.992
 21
41.24
 31
0.0
  0
LINE
  5
18E
330
1E
100
AcDbEntity
  8
0
100
AcDbLine
 10
19.93599999999999
 20
41.62399999999999
 30
0.0
 11
20.752
 21
42.248
 31
0.0
  0
LINE
  5
18F
330
1E
100
AcDbEntity
  8
0
100
AcDbLine
 10
21.44
 20
41.56
 30
0.0
 11
22.21999999999999
 21
42.58
 31
0.0
  0
LINE
  5
190
330
1E
100
AcDbEntity
  8
0
100
AcDbLine
 10
24.2018
 20
41.5662
 30
0.0
 11
24.8535
 21
43.1888
 31
0.0
  0
LINE
  5
191
330
1E
100
AcDbEntity
  8
0
100
AcDbLine
 10
11.7782
 20
41.54679999999999
 30
0.0
 11
12.8971
 21
39.8855
 31
0.0
  0
LINE
  5
192
330
1E
100
AcDbEntity
  8
0
100
AcDbLine
 10
6.432
 20
41.928
 30
0.0
 11
7.583999999999999
 21
39.048
 31
0.0
  0
LINE
  5
193
330
1E
100
AcDbEntity
  8
0
100
AcDbLine
 10
9.0
 20
42.70909999999999
 30
0.0
 11
9.0
 21
45.0
 31
0.0
  0
LINE
  5
194
330
1E
100
AcDbEntity
  8
0
100
AcDbLine
 10
9.0
 20
42.70909999999999
 30
0.0
 11
9.0
 21
40.58659999999999
 31
0.0
  0
LINE
  5
195
330
1E
100
AcDbEntity
  8
0
100
AcDbLine
 10
15.24799999999999
 20
42.248
 30
0.0
 11
16.064
 21
41.62399999999999
 31
0.0
  0
LINE
  5
197
330
1E
100
AcDbEntity
  8
0
100
AcDbLine
 10
20.752
 20
42.248
 30
0.0
 11
21.37599999999999
 21
43.06399999999999
 31
0.0
  0
LINE
  5
199
330
1E
100
AcDbEntity
  8
0
100
AcDbLine
 10
14.624
 20
43.06399999999999
 30
0.0
 11
15.24799999999999
 21
42.248
 31
0.0
  0
LINE
  5
19A
330
1E
100
AcDbEntity
  8
0
100
AcDbLine
 10
21.37599999999999
 20
43.06399999999999
 30
0.0
 11
21.76
 21
43.99199999999999
 31
0.0
  0
LINE
  5
19C
330
1E
100
AcDbEntity
  8
0
100
AcDbLine
 10
13.78
 20
42.58
 30
0.0
 11
14.56
 21
41.56
 31
0.0
  0
LINE
  5
19E
330
1E
100
AcDbEntity
  8
0
100
AcDbLine
 10
22.21999999999999
 20
42.58
 30
0.0
 11
22.7
 21
43.74
 31
0.0
  0
LINE
  5
19F
330
1E
100
AcDbEntity
  8
0
100
AcDbLine
 10
24.8535
 20
43.1888
 30
0.0
 11
25.05819999999999
 21
44.9274
 31
0.0
  0
LINE
  5
1A0
330
1E
100
AcDbEntity
  8
0
100
AcDbLine
 10
27.0
 20
42.70909999999999
 30
0.0
 11
27.0
 21
40.58659999999999
 31
0.0
  0
LINE
  5
1A1
330
1E
100
AcDbEntity
  8
0
100
AcDbLine
 10
27.0
 20
42.70909999999999
 30
0.0
 11
27.0
 21
45.0
 31
0.0
  0
LINE
  5
1A3
330
1E
100
AcDbEntity
  8
0
100
AcDbLine
 10
13.3
 20
43.74
 30
0.0
 11
13.78
 21
42.58
 31
0.0
  0
LINE
  5
1A6
330
1E
100
AcDbEntity
  8
0
100
AcDbLine
 10
14.24
 20
43.99199999999999
 30
0.0
 11
14.624
 21
43.06399999999999
 31
0.0
  0
LINE
  5
1A8
330
1E
100
AcDbEntity
  8
0
100
AcDbLine
 10
14.096
 20
45.0
 30
0.0
 11
14.24
 21
46.008
 31
0.0
  0
LINE
  5
1A9
330
1E
100
AcDbEntity
  8
0
100
AcDbLine
 10
14.096
 20
45.0
 30
0.0
 11
14.24
 21
43.99199999999999
 31
0.0
  0
LINE
  5
1AC
330
1E
100
AcDbEntity
  8
0
100
AcDbLine
 10
21.76
 20
43.99199999999999
 30
0.0
 11
21.90399999999999
 21
45.0
 31
0.0
  0
LINE
  5
1AE
330
1E
100
AcDbEntity
  8
0
100
AcDbLine
 10
13.12
 20
45.0
 30
0.0
 11
13.3
 21
46.26
 31
0.0
  0
LINE
  5
1AF
330
1E
100
AcDbEntity
  8
0
100
AcDbLine
 10
13.12
 20
45.0
 30
0.0
 11
13.3
 21
43.74
 31
0.0
  0
LINE
  5
1B2
330
1E
100
AcDbEntity
  8
0
100
AcDbLine
 10
22.7
 20
43.74
 30
0.0
 11
22.87999999999999
 21
45.0
 31
0.0
  0
LINE
  5
1B5
330
1E
100
AcDbEntity
  8
0
100
AcDbLine
 10
27.0
 20
45.0
 30
0.0
 11
27.0
 21
42.70909999999999
 31
0.0
  0
LINE
  5
1B6
330
1E
100
AcDbEntity
  8
0
100
AcDbLine
 10
27.0
 20
45.0
 30
0.0
 11
27.0
 21
47.2909
 31
0.0
  0
LINE
  5
1B7
330
1E
100
AcDbEntity
  8
0
100
AcDbLine
 10
11.1638
 20
43.2082
 30
0.0
 11
11.7782
 21
41.54679999999999
 31
0.0
  0
LINE
  5
1B8
330
1E
100
AcDbEntity
  8
0
100
AcDbLine
 10
10.92179999999999
 20
44.8888
 30
0.0
 11
11.108
 21
46.6081
 31
0.0
  0
LINE
  5
1B9
330
1E
100
AcDbEntity
  8
0
100
AcDbLine
 10
10.92179999999999
 20
44.8888
 30
0.0
 11
11.1638
 21
43.2082
 31
0.0
  0
LINE
  5
1BA
330
1E
100
AcDbEntity
  8
0
100
AcDbLine
 10
14.24
 20
46.008
 30
0.0
 11
14.624
 21
46.936
 31
0.0
  0
LINE
  5
1BC
330
1E
100
AcDbEntity
  8
0
100
AcDbLine
 10
21.76
 20
46.008
 30
0.0
 11
21.90399999999999
 21
45.0
 31
0.0
  0
LINE
  5
1BD
330
1E
100
AcDbEntity
  8
0
100
AcDbLine
 10
13.3
 20
46.26
 30
0.0
 11
13.78
 21
47.41999999999999
 31
0.0
  0
LINE
  5
1BF
330
1E
100
AcDbEntity
  8
0
100
AcDbLine
 10
22.7
 20
46.26
 30
0.0
 11
22.87999999999999
 21
45.0
 31
0.0
  0
LINE
  5
1C1
330
1E
100
AcDbEntity
  8
0
100
AcDbLine
 10
24.8535
 20
46.6081
 30
0.0
 11
25.05819999999999
 21
44.9274
 31
0.0
  0
LINE
  5
1C2
330
1E
100
AcDbEntity
  8
0
100
AcDbLine
 10
14.624
 20
46.936
 30
0.0
 11
15.24799999999999
 21
47.75199999999999
 31
0.0
  0
LINE
  5
1C4
330
1E
100
AcDbEntity
  8
0
100
AcDbLine
 10
21.37599999999999
 20
46.936
 30
0.0
 11
21.76
 21
46.008
 31
0.0
  0
LINE
  5
1C6
330
1E
100
AcDbEntity
  8
0
100
AcDbLine
 10
13.78
 20
47.41999999999999
 30
0.0
 11
14.56
 21
48.44
 31
0.0
  0
LINE
  5
1C7
330
1E
100
AcDbEntity
  8
0
100
AcDbLine
 10
15.24799999999999
 20
47.75199999999999
 30
0.0
 11
16.064
 21
48.37600000000001
 31
0.0
  0
LINE
  5
1C9
330
1E
100
AcDbEntity
  8
0
100
AcDbLine
 10
20.752
 20
47.75199999999999
 30
0.0
 11
21.37599999999999
 21
46.936
 31
0.0
  0
LINE
  5
1CC
330
1E
100
AcDbEntity
  8
0
100
AcDbLine
 10
22.21999999999999
 20
47.41999999999999
 30
0.0
 11
22.7
 21
46.26
 31
0.0
  0
LINE
  5
1CD
330
1E
100
AcDbEntity
  8
0
100
AcDbLine
 10
27.0
 20
47.2909
 30
0.0
 11
27.0
 21
45.0
 31
0.0
  0
LINE
  5
1CE
330
1E
100
AcDbEntity
  8
0
100
AcDbLine
 10
27.0
 20
47.2909
 30
0.0
 11
27.0
 21
49.4134
 31
0.0
  0
LINE
  5
1CF
330
1E
100
AcDbEntity
  8
0
100
AcDbLine
 10
11.108
 20
46.6081
 30
0.0
 11
11.6683
 21
48.2501
 31
0.0
  0
LINE
  5
1D0
330
1E
100
AcDbEntity
  8
0
100
AcDbLine
 10
9.0
 20
47.2909
 30
0.0
 11
9.0
 21
45.0
 31
0.0
  0
LINE
  5
1D1
330
1E
100
AcDbEntity
  8
0
100
AcDbLine
 10
9.0
 20
47.2909
 30
0.0
 11
9.0
 21
49.4134
 31
0.0
  0
LINE
  5
1D2
330
1E
100
AcDbEntity
  8
0
100
AcDbLine
 10
9.0
 20
45.0
 30
0.0
 11
9.0
 21
47.2909
 31
0.0
  0
LINE
  5
1D3
330
1E
100
AcDbEntity
  8
0
100
AcDbLine
 10
9.0
 20
45.0
 30
0.0
 11
9.0
 21
42.70909999999999
 31
0.0
  0
LINE
  5
1D4
330
1E
100
AcDbEntity
  8
0
100
AcDbLine
 10
6.0
 20
45.0
 30
0.0
 11
6.432
 21
48.07199999999999
 31
0.0
  0
LINE
  5
1D5
330
1E
100
AcDbEntity
  8
0
100
AcDbLine
 10
6.0
 20
45.0
 30
0.0
 11
6.432
 21
41.928
 31
0.0
  0
LINE
  5
1D6
330
1E
100
AcDbEntity
  8
0
100
AcDbLine
 10
16.064
 20
48.37600000000001
 30
0.0
 11
16.992
 21
48.76
 31
0.0
  0
LINE
  5
1D8
330
1E
100
AcDbEntity
  8
0
100
AcDbLine
 10
19.93599999999999
 20
48.37600000000001
 30
0.0
 11
20.752
 21
47.75199999999999
 31
0.0
  0
LINE
  5
1DA
330
1E
100
AcDbEntity
  8
0
100
AcDbLine
 10
14.56
 20
48.44
 30
0.0
 11
15.58
 21
49.22
 31
0.0
  0
LINE
  5
1DC
330
1E
100
AcDbEntity
  8
0
100
AcDbLine
 10
21.44
 20
48.44
 30
0.0
 11
22.21999999999999
 21
47.41999999999999
 31
0.0
  0
LINE
  5
1DD
330
1E
100
AcDbEntity
  8
0
100
AcDbLine
 10
24.3322
 20
48.2307
 30
0.0
 11
24.8535
 21
46.6081
 31
0.0
  0
LINE
  5
1DE
330
1E
100
AcDbEntity
  8
0
100
AcDbLine
 10
11.6683
 20
48.2501
 30
0.0
 11
12.7668
 21
49.9307
 31
0.0
  0
LINE
  5
1DF
330
1E
100
AcDbEntity
  8
0
100
AcDbLine
 10
6.432
 20
48.07199999999999
 30
0.0
 11
7.583999999999999
 21
50.952
 31
0.0
  0
LINE
  5
1E0
330
1E
100
AcDbEntity
  8
0
100
AcDbLine
 10
29.568
 20
48.07199999999999
 30
0.0
 11
30.0
 21
45.0
 31
0.0
  0
LINE
  5
1E1
330
1E
100
AcDbEntity
  8
0
100
AcDbLine
 10
29.568
 20
41.928
 30
0.0
 11
30.0
 21
45.0
 31
0.0
  0
LINE
  5
1E2
330
1E
100
AcDbEntity
  8
0
100
AcDbLine
 10
4.0
 20
45.0
 30
0.0
 11
4.503999999999999
 21
48.58399999999999
 31
0.0
  0
LINE
  5
1E3
330
1E
100
AcDbEntity
  8
0
100
AcDbLine
 10
4.0
 20
45.0
 30
0.0
 11
4.503999999999999
 21
41.416
 31
0.0
  0
LINE
  5
1E4
330
1E
100
AcDbEntity
  8
0
100
AcDbLine
 10
16.992
 20
48.76
 30
0.0
 11
18.0
 21
48.90399999999999
 31
0.0
  0
LINE
  5
1E6
330
1E
100
AcDbEntity
  8
0
100
AcDbLine
 10
18.0
 20
48.90399999999999
 30
0.0
 11
19.008
 21
48.76
 31
0.0
  0
LINE
  5
1E7
330
1E
100
AcDbEntity
  8
0
100
AcDbLine
 10
19.008
 20
48.76
 30
0.0
 11
19.93599999999999
 21
48.37600000000001
 31
0.0
  0
LINE
  5
1EA
330
1E
100
AcDbEntity
  8
0
100
AcDbLine
 10
4.503999999999999
 20
48.58399999999999
 30
0.0
 11
5.847999999999999
 21
51.94399999999999
 31
0.0
  0
LINE
  5
1EB
330
1E
100
AcDbEntity
  8
0
100
AcDbLine
 10
31.49599999999999
 20
48.58399999999999
 30
0.0
 11
32.0
 21
45.0
 31
0.0
  0
LINE
  5
1EC
330
1E
100
AcDbEntity
  8
0
100
AcDbLine
 10
31.49599999999999
 20
41.416
 30
0.0
 11
32.0
 21
45.0
 31
0.0
  0
LINE
  5
1ED
330
1E
100
AcDbEntity
  8
0
100
AcDbLine
 10
2.383999999999999
 20
45.0
 30
0.0
 11
2.959999999999999
 21
49.032
 31
0.0
  0
LINE
  5
1EE
330
1E
100
AcDbEntity
  8
0
100
AcDbLine
 10
2.383999999999999
 20
45.0
 30
0.0
 11
2.959999999999999
 21
40.968
 31
0.0
  0
LINE
  5
1EF
330
1E
100
AcDbEntity
  8
0
100
AcDbLine
 10
2.959999999999999
 20
49.032
 30
0.0
 11
4.496
 21
52.74399999999999
 31
0.0
  0
LINE
  5
1F0
330
1E
100
AcDbEntity
  8
0
100
AcDbLine
 10
2.0
 20
45.0
 30
0.0
 11
2.576
 21
49.09600000000001
 31
0.0
  0
LINE
  5
1F1
330
1E
100
AcDbEntity
  8
0
100
AcDbLine
 10
2.0
 20
45.0
 30
0.0
 11
2.576
 21
40.904
 31
0.0
  0
LINE
  5
1F2
330
1E
100
AcDbEntity
  8
0
100
AcDbLine
 10
15.58
 20
49.22
 30
0.0
 11
16.73999999999999
 21
49.7
 31
0.0
  0
LINE
  5
1F4
330
1E
100
AcDbEntity
  8
0
100
AcDbLine
 10
20.42
 20
49.22
 30
0.0
 11
21.44
 21
48.44
 31
0.0
  0
LINE
  5
1F6
330
1E
100
AcDbEntity
  8
0
100
AcDbLine
 10
27.0
 20
49.4134
 30
0.0
 11
27.0
 21
47.2909
 31
0.0
  0
LINE
  5
1F7
330
1E
100
AcDbEntity
  8
0
100
AcDbLine
 10
27.0
 20
49.4134
 30
0.0
 11
27.0
 21
50.0127
 31
0.0
  0
LINE
  5
1FA
330
1E
100
AcDbEntity
  8
0
100
AcDbLine
 10
9.0
 20
49.4134
 30
0.0
 11
9.0
 21
47.2909
 31
0.0
  0
LINE
  5
1FB
330
1E
100
AcDbEntity
  8
0
100
AcDbLine
 10
9.0
 20
49.4134
 30
0.0
 11
9.0
 21
50.0127
 31
0.0
  0
LINE
  5
1FD
330
1E
100
AcDbEntity
  8
0
100
AcDbLine
 10
2.576
 20
49.09600000000001
 30
0.0
 11
4.112
 21
52.93600000000001
 31
0.0
  0
LINE
  5
1FE
330
1E
100
AcDbEntity
  8
0
100
AcDbLine
 10
33.04
 20
49.032
 30
0.0
 11
33.616
 21
45.0
 31
0.0
  0
LINE
  5
1FF
330
1E
100
AcDbEntity
  8
0
100
AcDbLine
 10
33.424
 20
49.09600000000001
 30
0.0
 11
34.0
 21
45.0
 31
0.0
  0
LINE
  5
200
330
1E
100
AcDbEntity
  8
0
100
AcDbLine
 10
33.04
 20
40.968
 30
0.0
 11
33.616
 21
45.0
 31
0.0
  0
LINE
  5
201
330
1E
100
AcDbEntity
  8
0
100
AcDbLine
 10
33.424
 20
40.904
 30
0.0
 11
34.0
 21
45.0
 31
0.0
  0
LINE
  5
204
330
1E
100
AcDbEntity
  8
0
100
AcDbLine
 10
16.73999999999999
 20
49.7
 30
0.0
 11
18.0
 21
49.88
 31
0.0
  0
LINE
  5
206
330
1E
100
AcDbEntity
  8
0
100
AcDbLine
 10
19.26
 20
49.7
 30
0.0
 11
20.42
 21
49.22
 31
0.0
  0
LINE
  5
209
330
1E
100
AcDbEntity
  8
0
100
AcDbLine
 10
18.0
 20
49.88
 30
0.0
 11
19.26
 21
49.7
 31
0.0
  0
LINE
  5
20A
330
1E
100
AcDbEntity
  8
0
100
AcDbLine
 10
27.0
 20
50.0127
 30
0.0
 11
27.0
 21
49.4134
 31
0.0
  0
LINE
  5
20B
330
1E
100
AcDbEntity
  8
0
100
AcDbLine
 10
23.2337
 20
49.8727
 30
0.0
 11
24.3322
 21
48.2307
 31
0.0
  0
LINE
  5
20C
330
1E
100
AcDbEntity
  8
0
100
AcDbLine
 10
12.7668
 20
49.9307
 30
0.0
 11
14.2935
 21
51.2636
 31
0.0
  0
LINE
  5
20D
330
1E
100
AcDbEntity
  8
0
100
AcDbLine
 10
26.7684
 20
50.2967
 30
0.0
 11
27.0
 21
50.0127
 31
0.0
  0
LINE
  5
20E
330
1E
100
AcDbEntity
  8
0
100
AcDbLine
 10
26.2286
 20
50.6027
 30
0.0
 11
26.7684
 21
50.2967
 31
0.0
  0
LINE
  5
210
330
1E
100
AcDbEntity
  8
0
100
AcDbLine
 10
9.77138
 20
50.6027
 30
0.0
 11
11.27369999999999
 21
51.4545
 31
0.0
  0
LINE
  5
212
330
1E
100
AcDbEntity
  8
0
100
AcDbLine
 10
9.231619999999999
 20
50.2967
 30
0.0
 11
9.77138
 21
50.6027
 31
0.0
  0
LINE
  5
213
330
1E
100
AcDbEntity
  8
0
100
AcDbLine
 10
9.0
 20
50.0127
 30
0.0
 11
9.0
 21
49.4134
 31
0.0
  0
LINE
  5
214
330
1E
100
AcDbEntity
  8
0
100
AcDbLine
 10
9.0
 20
50.0127
 30
0.0
 11
9.231619999999999
 21
50.2967
 31
0.0
  0
LINE
  5
215
330
1E
100
AcDbEntity
  8
0
100
AcDbLine
 10
7.583999999999999
 20
50.952
 30
0.0
 11
9.503999999999999
 21
53.496
 31
0.0
  0
LINE
  5
216
330
1E
100
AcDbEntity
  8
0
100
AcDbLine
 10
11.27369999999999
 20
51.4545
 30
0.0
 11
13.4187
 21
52.6709
 31
0.0
  0
LINE
  5
217
330
1E
100
AcDbEntity
  8
0
100
AcDbLine
 10
21.5898
 20
51.32159999999999
 30
0.0
 11
23.2337
 21
49.8727
 31
0.0
  0
LINE
  5
218
330
1E
100
AcDbEntity
  8
0
100
AcDbLine
 10
24.7263
 20
51.4545
 30
0.0
 11
26.2286
 21
50.6027
 31
0.0
  0
LINE
  5
219
330
1E
100
AcDbEntity
  8
0
100
AcDbLine
 10
14.2935
 20
51.2636
 30
0.0
 11
15.9486
 21
51.9977
 31
0.0
  0
LINE
  5
21A
330
1E
100
AcDbEntity
  8
0
100
AcDbLine
 10
28.416
 20
50.952
 30
0.0
 11
29.568
 21
48.07199999999999
 31
0.0
  0
LINE
  5
21B
330
1E
100
AcDbEntity
  8
0
100
AcDbLine
 10
5.847999999999999
 20
51.94399999999999
 30
0.0
 11
8.087999999999999
 21
54.912
 31
0.0
  0
LINE
  5
21D
330
1E
100
AcDbEntity
  8
0
100
AcDbLine
 10
19.8211
 20
52.0556
 30
0.0
 11
21.5898
 21
51.32159999999999
 31
0.0
  0
LINE
  5
21E
330
1E
100
AcDbEntity
  8
0
100
AcDbLine
 10
22.58129999999999
 20
52.6709
 30
0.0
 11
24.7263
 21
51.4545
 31
0.0
  0
LINE
  5
220
330
1E
100
AcDbEntity
  8
0
100
AcDbLine
 10
17.9407
 20
52.34539999999999
 30
0.0
 11
19.8211
 21
52.0556
 31
0.0
  0
LINE
  5
221
330
1E
100
AcDbEntity
  8
0
100
AcDbLine
 10
15.9486
 20
51.9977
 30
0.0
 11
17.9407
 21
52.34539999999999
 31
0.0
  0
LINE
  5
223
330
1E
100
AcDbEntity
  8
0
100
AcDbLine
 10
13.4187
 20
52.6709
 30
0.0
 11
15.55209999999999
 21
53.88049999999999
 31
0.0
  0
LINE
  5
224
330
1E
100
AcDbEntity
  8
0
100
AcDbLine
 10
30.152
 20
51.94399999999999
 30
0.0
 11
31.49599999999999
 21
48.58399999999999
 31
0.0
  0
LINE
  5
225
330
1E
100
AcDbEntity
  8
0
100
AcDbLine
 10
4.496
 20
52.74399999999999
 30
0.0
 11
6.992
 21
56.008
 31
0.0
  0
LINE
  5
226
330
1E
100
AcDbEntity
  8
0
100
AcDbLine
 10
4.112
 20
52.93600000000001
 30
0.0
 11
6.672
 21
56.328
 31
0.0
  0
LINE
  5
227
330
1E
100
AcDbEntity
  8
0
100
AcDbLine
 10
31.504
 20
52.74399999999999
 30
0.0
 11
33.04
 21
49.032
 31
0.0
  0
LINE
  5
22C
330
1E
100
AcDbEntity
  8
0
100
AcDbLine
 10
9.503999999999999
 20
53.496
 30
0.0
 11
12.048
 21
55.416
 31
0.0
  0
LINE
  5
22D
330
1E
100
AcDbEntity
  8
0
100
AcDbLine
 10
26.49599999999999
 20
53.496
 30
0.0
 11
28.416
 21
50.952
 31
0.0
  0
LINE
  5
22E
330
1E
100
AcDbEntity
  8
0
100
AcDbLine
 10
31.888
 20
52.93600000000001
 30
0.0
 11
33.424
 21
49.09600000000001
 31
0.0
  0
LINE
  5
230
330
1E
100
AcDbEntity
  8
0
100
AcDbLine
 10
33.192
 20
53.71199999999999
 30
0.0
 11
34.92
 21
49.536
 31
0.0
  0
LINE
  5
231
330
1E
100
AcDbEntity
  8
0
100
AcDbLine
 10
34.92
 20
49.536
 30
0.0
 11
35.568
 21
45.0
 31
0.0
  0
LINE
  5
232
330
1E
100
AcDbEntity
  8
0
100
AcDbLine
 10
35.35199999999999
 20
49.608
 30
0.0
 11
36.0
 21
45.0
 31
0.0
  0
LINE
  5
233
330
1E
100
AcDbEntity
  8
0
100
AcDbLine
 10
20.4479
 20
53.88049999999999
 30
0.0
 11
22.58129999999999
 21
52.6709
 31
0.0
  0
LINE
  5
235
330
1E
100
AcDbEntity
  8
0
100
AcDbLine
 10
15.55209999999999
 20
53.88049999999999
 30
0.0
 11
16.88769999999999
 21
54.6175
 31
0.0
  0
LINE
  5
236
330
1E
100
AcDbEntity
  8
0
100
AcDbLine
 10
33.624
 20
53.92800000000001
 30
0.0
 11
35.35199999999999
 21
49.608
 31
0.0
  0
LINE
  5
237
330
1E
100
AcDbEntity
  8
0
100
AcDbLine
 10
2.808
 20
53.71199999999999
 30
0.0
 11
5.616
 21
57.38399999999999
 31
0.0
  0
LINE
  5
238
330
1E
100
AcDbEntity
  8
0
100
AcDbLine
 10
1.08
 20
49.536
 30
0.0
 11
2.808
 21
53.71199999999999
 31
0.0
  0
LINE
  5
256
330
1E
100
AcDbEntity
  8
0
100
AcDbLine
 10
19.1123
 20
54.6175
 30
0.0
 11
20.4479
 21
53.88049999999999
 31
0.0
  0
LINE
  5
259
330
1E
100
AcDbEntity
  8
0
100
AcDbLine
 10
18.0
 20
54.7727
 30
0.0
 11
19.1123
 21
54.6175
 31
0.0
  0
LINE
  5
25C
330
1E
100
AcDbEntity
  8
0
100
AcDbLine
 10
16.88769999999999
 20
54.6175
 30
0.0
 11
18.0
 21
54.7727
 31
0.0
  0
LINE
  5
25E
330
1E
100
AcDbEntity
  8
0
100
AcDbLine
 10
8.087999999999999
 20
54.912
 30
0.0
 11
11.05599999999999
 21
57.152
 31
0.0
  0
LINE
  5
260
330
1E
100
AcDbEntity
  8
0
100
AcDbLine
 10
12.048
 20
55.416
 30
0.0
 11
14.92799999999999
 21
56.568
 31
0.0
  0
LINE
  5
261
330
1E
100
AcDbEntity
  8
0
100
AcDbLine
 10
23.95199999999999
 20
55.416
 30
0.0
 11
26.49599999999999
 21
53.496
 31
0.0
  0
LINE
  5
262
330
1E
100
AcDbEntity
  8
0
100
AcDbLine
 10
27.91199999999999
 20
54.912
 30
0.0
 11
30.152
 21
51.94399999999999
 31
0.0
  0
LINE
  5
263
330
1E
100
AcDbEntity
  8
0
100
AcDbLine
 10
6.992
 20
56.008
 30
0.0
 11
10.25599999999999
 21
58.504
 31
0.0
  0
LINE
  5
264
330
1E
100
AcDbEntity
  8
0
100
AcDbLine
 10
14.92799999999999
 20
56.568
 30
0.0
 11
18.0
 21
57.0
 31
0.0
  0
LINE
  5
265
330
1E
100
AcDbEntity
  8
0
100
AcDbLine
 10
21.072
 20
56.568
 30
0.0
 11
23.95199999999999
 21
55.416
 31
0.0
  0
LINE
  5
266
330
1E
100
AcDbEntity
  8
0
100
AcDbLine
 10
18.0
 20
57.0
 30
0.0
 11
21.072
 21
56.568
 31
0.0
  0
LINE
  5
267
330
1E
100
AcDbEntity
  8
0
100
AcDbLine
 10
11.05599999999999
 20
57.152
 30
0.0
 11
14.416
 21
58.496
 31
0.0
  0
LINE
  5
268
330
1E
100
AcDbEntity
  8
0
100
AcDbLine
 10
24.944
 20
57.152
 30
0.0
 11
27.91199999999999
 21
54.912
 31
0.0
  0
LINE
  5
269
330
1E
100
AcDbEntity
  8
0
100
AcDbLine
 10
6.672
 20
56.328
 30
0.0
 11
10.06399999999999
 21
58.888
 31
0.0
  0
LINE
  5
26A
330
1E
100
AcDbEntity
  8
0
100
AcDbLine
 10
29.008
 20
56.008
 30
0.0
 11
31.504
 21
52.74399999999999
 31
0.0
  0
LINE
  5
26B
330
1E
100
AcDbEntity
  8
0
100
AcDbLine
 10
29.328
 20
56.328
 30
0.0
 11
31.888
 21
52.93600000000001
 31
0.0
  0
LINE
  5
26C
330
1E
100
AcDbEntity
  8
0
100
AcDbLine
 10
14.416
 20
58.496
 30
0.0
 11
18.0
 21
59.0
 31
0.0
  0
LINE
  5
26D
330
1E
100
AcDbEntity
  8
0
100
AcDbLine
 10
21.58399999999999
 20
58.496
 30
0.0
 11
24.944
 21
57.152
 31
0.0
  0
LINE
  5
26E
330
1E
100
AcDbEntity
  8
0
100
AcDbLine
 10
10.25599999999999
 20
58.504
 30
0.0
 11
13.968
 21
60.04
 31
0.0
  0
LINE
  5
26F
330
1E
100
AcDbEntity
  8
0
100
AcDbLine
 10
10.06399999999999
 20
58.888
 30
0.0
 11
13.904
 21
60.424
 31
0.0
  0
LINE
  5
270
330
1E
100
AcDbEntity
  8
0
100
AcDbLine
 10
25.744
 20
58.504
 30
0.0
 11
29.008
 21
56.008
 31
0.0
  0
LINE
  5
271
330
1E
100
AcDbEntity
  8
0
100
AcDbLine
 10
18.0
 20
59.0
 30
0.0
 11
21.58399999999999
 21
58.496
 31
0.0
  0
LINE
  5
272
330
1E
100
AcDbEntity
  8
0
100
AcDbLine
 10
13.968
 20
60.04
 30
0.0
 11
18.0
 21
60.61600000000001
 31
0.0
  0
LINE
  5
273
330
1E
100
AcDbEntity
  8
0
100
AcDbLine
 10
22.03199999999999
 20
60.04
 30
0.0
 11
25.744
 21
58.504
 31
0.0
  0
LINE
  5
274
330
1E
100
AcDbEntity
  8
0
100
AcDbLine
 10
25.936
 20
58.888
 30
0.0
 11
29.328
 21
56.328
 31
0.0
  0
LINE
  5
275
330
1E
100
AcDbEntity
  8
0
100
AcDbLine
 10
26.712
 20
60.192
 30
0.0
 11
30.384
 21
57.38399999999999
 31
0.0
  0
LINE
  5
276
330
1E
100
AcDbEntity
  8
0
100
AcDbLine
 10
30.384
 20
57.38399999999999
 30
0.0
 11
33.192
 21
53.71199999999999
 31
0.0
  0
LINE
  5
277
330
1E
100
AcDbEntity
  8
0
100
AcDbLine
 10
30.744
 20
57.74399999999999
 30
0.0
 11
33.624
 21
53.92800000000001
 31
0.0
  0
LINE
  5
278
330
1E
100
AcDbEntity
  8
0
100
AcDbLine
 10
13.904
 20
60.424
 30
0.0
 11
18.0
 21
61.0
 31
0.0
  0
LINE
  5
279
330
1E
100
AcDbEntity
  8
0
100
AcDbLine
 10
22.096
 20
60.424
 30
0.0
 11
25.936
 21
58.888
 31
0.0
  0
LINE
  5
27A
330
1E
100
AcDbEntity
  8
0
100
AcDbLine
 10
18.0
 20
60.61600000000001
 30
0.0
 11
22.03199999999999
 21
60.04
 31
0.0
  0
LINE
  5
27C
330
1E
100
AcDbEntity
  8
0
100
AcDbLine
 10
26.928
 20
60.624
 30
0.0
 11
30.744
 21
57.74399999999999
 31
0.0
  0
LINE
  5
27E
330
1E
100
AcDbEntity
  8
0
100
AcDbLine
 10
5.616
 20
57.38399999999999
 30
0.0
 11
9.288
 21
60.192
 31
0.0
  0
LINE
  5
29E
330
1E
100
AcDbEntity
  8
0
100
AcDbLine
 10
18.0
 20
61.0
 30
0.0
 11
22.096
 21
60.424
 31
0.0
  0
LINE
  5
2FD
330
1E
100
AcDbEntity
  8
0
100
AcDbLine
 10
5.256
 20
57.74399999999999
 30
0.0
 11
9.072
 21
60.624
 31
0.0
  0
LINE
  5
2FE
330
1E
100
AcDbEntity
  8
0
100
AcDbLine
 10
2.375999999999999
 20
53.92800000000001
 30
0.0
 11
5.256
 21
57.74399999999999
 31
0.0
  0
LINE
  5
2FF
330
1E
100
AcDbEntity
  8
0
100
AcDbLine
 10
0.6480000000000011
 20
49.608
 30
0.0
 11
2.375999999999999
 21
53.92800000000001
 31
0.0
  0
LINE
  5
300
330
1E
100
AcDbEntity
  8
0
100
AcDbLine
 10
1.08
 20
40.464
 30
0.0
 11
2.808
 21
36.288
 31
0.0
  0
LINE
  5
301
330
1E
100
AcDbEntity
  8
0
100
AcDbLine
 10
0.4320000000000011
 20
45.0
 30
0.0
 11
1.08
 21
40.464
 31
0.0
  0
LINE
  5
302
330
1E
100
AcDbEntity
  8
0
100
AcDbLine
 10
0.4320000000000011
 20
45.0
 30
0.0
 11
1.08
 21
49.536
 31
0.0
  0
LINE
  5
303
330
1E
100
AcDbEntity
  8
0
100
AcDbLine
 10
0.6480000000000011
 20
40.392
 30
0.0
 11
2.375999999999999
 21
36.07199999999999
 31
0.0
  0
LINE
  5
304
330
1E
100
AcDbEntity
  8
0
100
AcDbLine
 10
0.000000000000001
 20
45.0
 30
0.0
 11
0.6480000000000011
 21
40.392
 31
0.0
  0
LINE
  5
305
330
1E
100
AcDbEntity
  8
0
100
AcDbLine
 10
0.000000000000001
 20
45.0
 30
0.0
 11
0.6480000000000011
 21
49.608
 31
0.0
  0
LINE
  5
30A
330
1E
100
AcDbEntity
  8
0
100
AcDbLine
 10
33.1364
 20
-0.0000000000000054
 30
0.0
 11
34.3636
 21
0.214289999999995
 31
0.0
  0
LINE
  5
30B
330
1E
100
AcDbEntity
  8
0
100
AcDbLine
 10
18.0
 20
80.07142999999999
 30
0.0
 11
22.12369999999999
 21
80.17143
 31
0.0
  0
LINE
  5
30C
330
1E
100
AcDbEntity
  8
0
100
AcDbLine
 10
18.0
 20
80.0
 30
0.0
 11
21.9272
 21
80.0
 31
0.0
  0
LINE
  5
30D
330
1E
100
AcDbEntity
  8
0
100
AcDbLine
 10
18.0
 20
89.92857
 30
0.0
 11
22.12369999999999
 21
89.82857
 31
0.0
  0
LINE
  5
30E
330
1E
100
AcDbEntity
  8
0
100
AcDbLine
 10
18.0
 20
90.0
 30
0.0
 11
21.9272
 21
90.0
 31
0.0
  0
LINE
  5
30F
330
1E
100
AcDbEntity
  8
0
100
AcDbLine
 10
18.0
 20
89.92857
 30
0.0
 11
22.12369999999999
 21
89.82857
 31
0.0
  0
LINE
  5
310
330
1E
100
AcDbEntity
  8
0
100
AcDbLine
 10
17.9568
 20
90.0
 30
0.0
 11
21.0515
 21
90.0
 31
0.0
  0
LINE
  5
311
330
1E
100
AcDbEntity
  8
0
100
AcDbLine
 10
17.9915
 20
90.0
 30
0.0
 11
21.0862
 21
90.0
 31
0.0
  0
LINE
  5
312
330
1E
100
AcDbEntity
  8
0
100
AcDbLine
 10
18.0
 20
90.0
 30
0.0
 11
21.9272
 21
90.0
 31
0.0
  0
LINE
  5
313
330
1E
100
AcDbEntity
  8
0
100
AcDbLine
 10
6.3818
 20
80.25974000000001
 30
0.0
 11
7.915199999999999
 21
80.71429
 31
0.0
  0
LINE
  5
314
330
1E
100
AcDbEntity
  8
0
100
AcDbLine
 10
6.3818
 20
89.74028999999999
 30
0.0
 11
7.915199999999999
 21
89.28571000000001
 31
0.0
  0
LINE
  5
315
330
1E
100
AcDbEntity
  8
0
100
AcDbLine
 10
6.690699999999999
 20
90.0
 30
0.0
 11
9.055199999999999
 21
90.0
 31
0.0
  0
LINE
  5
316
330
1E
100
AcDbEntity
  8
0
100
AcDbLine
 10
6.7255
 20
90.0
 30
0.0
 11
9.0204
 21
90.0
 31
0.0
  0
LINE
  5
317
330
1E
100
AcDbEntity
  8
0
100
AcDbLine
 10
4.909099999999999
 20
80.0
 30
0.0
 11
7.281799999999999
 21
80.0
 31
0.0
  0
LINE
  5
318
330
1E
100
AcDbEntity
  8
0
100
AcDbLine
 10
4.909099999999999
 20
90.0
 30
0.0
 11
7.281799999999999
 21
90.0
 31
0.0
  0
LINE
  5
319
330
1E
100
AcDbEntity
  8
0
100
AcDbLine
 10
4.909099999999999
 20
90.0
 30
0.0
 11
7.281799999999999
 21
90.0
 31
0.0
  0
LINE
  5
31A
330
1E
100
AcDbEntity
  8
0
100
AcDbLine
 10
3.0
 20
54.75480000000001
 30
0.0
 11
3.0
 21
80.00000000000001
 31
0.0
  0
LINE
  5
31B
330
1E
100
AcDbEntity
  8
0
100
AcDbLine
 10
3.0
 20
80.00000000000001
 30
0.0
 11
3.0
 21
54.75480000000001
 31
0.0
  0
LINE
  5
31C
330
1E
100
AcDbEntity
  8
0
100
AcDbLine
 10
0.688600000000001
 20
80.71429
 30
0.0
 11
2.015
 21
80.29901
 31
0.0
  0
LINE
  5
31D
330
1E
100
AcDbEntity
  8
0
100
AcDbLine
 10
0.688600000000001
 20
80.71429
 30
0.0
 11
2.015
 21
80.29901
 31
0.0
  0
LINE
  5
31E
330
1E
100
AcDbEntity
  8
0
100
AcDbLine
 10
0.409100000000001
 20
80.71429
 30
0.0
 11
1.6363
 21
80.21429000000001
 31
0.0
  0
LINE
  5
31F
330
1E
100
AcDbEntity
  8
0
100
AcDbLine
 10
0.688600000000001
 20
89.28571000000001
 30
0.0
 11
2.015
 21
89.701
 31
0.0
  0
LINE
  5
320
330
1E
100
AcDbEntity
  8
0
100
AcDbLine
 10
0.688600000000001
 20
89.28571000000001
 30
0.0
 11
2.015
 21
89.701
 31
0.0
  0
LINE
  5
321
330
1E
100
AcDbEntity
  8
0
100
AcDbLine
 10
0.409100000000001
 20
89.28571000000001
 30
0.0
 11
1.6363
 21
89.78571
 31
0.0
  0
LINE
  5
322
330
1E
100
AcDbEntity
  8
0
100
AcDbLine
 10
0.000000000000001
 20
81.42857000000001
 30
0.0
 11
0.000000000000001
 21
88.57143
 31
0.0
  0
LINE
  5
323
330
1E
100
AcDbEntity
  8
0
100
AcDbLine
 10
0.000000000000001
 20
88.57143
 30
0.0
 11
0.000000000000001
 21
81.42857000000001
 31
0.0
  0
LINE
  5
324
330
1E
100
AcDbEntity
  8
0
100
AcDbLine
 10
0.409100000000001
 20
89.28571000000001
 30
0.0
 11
0.688600000000001
 21
89.28571000000001
 31
0.0
  0
LINE
  5
325
330
1E
100
AcDbEntity
  8
0
100
AcDbLine
 10
0.000000000000001
 20
88.57143
 30
0.0
 11
0.409100000000001
 21
89.28571000000001
 31
0.0
  0
LINE
  5
326
330
1E
100
AcDbEntity
  8
0
100
AcDbLine
 10
0.409100000000001
 20
80.71429
 30
0.0
 11
0.688600000000001
 21
80.71429
 31
0.0
  0
LINE
  5
327
330
1E
100
AcDbEntity
  8
0
100
AcDbLine
 10
0.000000000000001
 20
81.42857000000001
 30
0.0
 11
0.409100000000001
 21
80.71429
 31
0.0
  0
LINE
  5
328
330
1E
100
AcDbEntity
  8
0
100
AcDbLine
 10
3.4363
 20
90.0
 30
0.0
 11
4.909099999999999
 21
90.0
 31
0.0
  0
LINE
  5
329
330
1E
100
AcDbEntity
  8
0
100
AcDbLine
 10
3.4363
 20
90.0
 30
0.0
 11
4.909099999999999
 21
90.0
 31
0.0
  0
LINE
  5
32A
330
1E
100
AcDbEntity
  8
0
100
AcDbLine
 10
2.015
 20
89.701
 30
0.0
 11
4.1924
 21
89.85564000000001
 31
0.0
  0
LINE
  5
32B
330
1E
100
AcDbEntity
  8
0
100
AcDbLine
 10
1.6363
 20
89.78571
 30
0.0
 11
2.8637
 21
90.0
 31
0.0
  0
LINE
  5
32C
330
1E
100
AcDbEntity
  8
0
100
AcDbLine
 10
1.6363
 20
89.78571
 30
0.0
 11
2.8637
 21
90.0
 31
0.0
  0
LINE
  5
32D
330
1E
100
AcDbEntity
  8
0
100
AcDbLine
 10
2.8637
 20
90.0
 30
0.0
 11
3.4363
 21
90.0
 31
0.0
  0
LINE
  5
32E
330
1E
100
AcDbEntity
  8
0
100
AcDbLine
 10
4.778299999999999
 20
90.0
 30
0.0
 11
5.4042
 21
90.0
 31
0.0
  0
LINE
  5
32F
330
1E
100
AcDbEntity
  8
0
100
AcDbLine
 10
4.778299999999999
 20
90.0
 30
0.0
 11
5.369399999999999
 21
90.0
 31
0.0
  0
LINE
  5
330
330
1E
100
AcDbEntity
  8
0
100
AcDbLine
 10
4.1924
 20
89.85564000000001
 30
0.0
 11
6.3818
 21
89.74028999999999
 31
0.0
  0
LINE
  5
331
330
1E
100
AcDbEntity
  8
0
100
AcDbLine
 10
5.369399999999999
 20
90.0
 30
0.0
 11
6.690699999999999
 21
90.0
 31
0.0
  0
LINE
  5
332
330
1E
100
AcDbEntity
  8
0
100
AcDbLine
 10
5.4042
 20
90.0
 30
0.0
 11
6.7255
 21
90.0
 31
0.0
  0
LINE
  5
333
330
1E
100
AcDbEntity
  8
0
100
AcDbLine
 10
3.4363
 20
80.0
 30
0.0
 11
4.909099999999999
 21
80.0
 31
0.0
  0
LINE
  5
334
330
1E
100
AcDbEntity
  8
0
100
AcDbLine
 10
2.015
 20
80.29901
 30
0.0
 11
4.1924
 21
80.14436999999999
 31
0.0
  0
LINE
  5
335
330
1E
100
AcDbEntity
  8
0
100
AcDbLine
 10
1.6363
 20
80.21429000000001
 30
0.0
 11
2.8637
 21
80.00000000000001
 31
0.0
  0
LINE
  5
336
330
1E
100
AcDbEntity
  8
0
100
AcDbLine
 10
2.8637
 20
80.00000000000001
 30
0.0
 11
3.4363
 21
80.0
 31
0.0
  0
LINE
  5
337
330
1E
100
AcDbEntity
  8
0
100
AcDbLine
 10
4.1924
 20
80.14436999999999
 30
0.0
 11
6.3818
 21
80.25974000000001
 31
0.0
  0
LINE
  5
338
330
1E
100
AcDbEntity
  8
0
100
AcDbLine
 10
10.47279999999999
 20
80.0
 30
0.0
 11
14.0728
 21
80.0
 31
0.0
  0
LINE
  5
339
330
1E
100
AcDbEntity
  8
0
100
AcDbLine
 10
10.05589999999999
 20
80.71429
 30
0.0
 11
13.8763
 21
80.17143
 31
0.0
  0
LINE
  5
33A
330
1E
100
AcDbEntity
  8
0
100
AcDbLine
 10
10.05589999999999
 20
89.28571000000001
 30
0.0
 11
13.8763
 21
89.82857
 31
0.0
  0
LINE
  5
33B
330
1E
100
AcDbEntity
  8
0
100
AcDbLine
 10
10.05589999999999
 20
89.28571000000001
 30
0.0
 11
13.8763
 21
89.82857
 31
0.0
  0
LINE
  5
33C
330
1E
100
AcDbEntity
  8
0
100
AcDbLine
 10
11.9412
 20
90.0
 30
0.0
 11
14.86209999999999
 21
90.0
 31
0.0
  0
LINE
  5
33D
330
1E
100
AcDbEntity
  8
0
100
AcDbLine
 10
11.97599999999999
 20
90.0
 30
0.0
 11
14.86209999999999
 21
90.0
 31
0.0
  0
LINE
  5
33E
330
1E
100
AcDbEntity
  8
0
100
AcDbLine
 10
10.47279999999999
 20
90.0
 30
0.0
 11
14.0728
 21
90.0
 31
0.0
  0
LINE
  5
33F
330
1E
100
AcDbEntity
  8
0
100
AcDbLine
 10
10.47279999999999
 20
90.0
 30
0.0
 11
14.0728
 21
90.0
 31
0.0
  0
LINE
  5
340
330
1E
100
AcDbEntity
  8
0
100
AcDbLine
 10
9.2454
 20
89.28571000000001
 30
0.0
 11
10.05589999999999
 21
89.28571000000001
 31
0.0
  0
LINE
  5
341
330
1E
100
AcDbEntity
  8
0
100
AcDbLine
 10
9.055199999999999
 20
90.0
 30
0.0
 11
11.9412
 21
90.0
 31
0.0
  0
LINE
  5
342
330
1E
100
AcDbEntity
  8
0
100
AcDbLine
 10
9.0204
 20
90.0
 30
0.0
 11
11.97599999999999
 21
90.0
 31
0.0
  0
LINE
  5
343
330
1E
100
AcDbEntity
  8
0
100
AcDbLine
 10
7.281799999999999
 20
90.0
 30
0.0
 11
10.47279999999999
 21
90.0
 31
0.0
  0
LINE
  5
344
330
1E
100
AcDbEntity
  8
0
100
AcDbLine
 10
7.915199999999999
 20
89.28571000000001
 30
0.0
 11
9.2454
 21
89.28571000000001
 31
0.0
  0
LINE
  5
345
330
1E
100
AcDbEntity
  8
0
100
AcDbLine
 10
9.2454
 20
80.71429
 30
0.0
 11
10.05589999999999
 21
80.71429
 31
0.0
  0
LINE
  5
346
330
1E
100
AcDbEntity
  8
0
100
AcDbLine
 10
7.281799999999999
 20
80.0
 30
0.0
 11
10.47279999999999
 21
80.0
 31
0.0
  0
LINE
  5
347
330
1E
100
AcDbEntity
  8
0
100
AcDbLine
 10
7.915199999999999
 20
80.71429
 30
0.0
 11
9.2454
 21
80.71429
 31
0.0
  0
LINE
  5
348
330
1E
100
AcDbEntity
  8
0
100
AcDbLine
 10
13.8763
 20
89.82857
 30
0.0
 11
18.0
 21
89.92857
 31
0.0
  0
LINE
  5
349
330
1E
100
AcDbEntity
  8
0
100
AcDbLine
 10
14.0728
 20
90.0
 30
0.0
 11
18.0
 21
90.0
 31
0.0
  0
LINE
  5
34A
330
1E
100
AcDbEntity
  8
0
100
AcDbLine
 10
14.86209999999999
 20
90.0
 30
0.0
 11
17.9568
 21
90.0
 31
0.0
  0
LINE
  5
34B
330
1E
100
AcDbEntity
  8
0
100
AcDbLine
 10
14.86209999999999
 20
90.0
 30
0.0
 11
17.9915
 21
90.0
 31
0.0
  0
LINE
  5
34C
330
1E
100
AcDbEntity
  8
0
100
AcDbLine
 10
14.0728
 20
90.0
 30
0.0
 11
18.0
 21
90.0
 31
0.0
  0
LINE
  5
34D
330
1E
100
AcDbEntity
  8
0
100
AcDbLine
 10
13.8763
 20
89.82857
 30
0.0
 11
18.0
 21
89.92857
 31
0.0
  0
LINE
  5
34E
330
1E
100
AcDbEntity
  8
0
100
AcDbLine
 10
14.0728
 20
80.0
 30
0.0
 11
18.0
 21
80.0
 31
0.0
  0
LINE
  5
34F
330
1E
100
AcDbEntity
  8
0
100
AcDbLine
 10
13.8763
 20
80.17143
 30
0.0
 11
18.0
 21
80.07142999999999
 31
0.0
  0
LINE
  5
350
330
1E
100
AcDbEntity
  8
0
100
AcDbLine
 10
28.71819999999999
 20
80.0
 30
0.0
 11
31.0909
 21
80.0
 31
0.0
  0
LINE
  5
351
330
1E
100
AcDbEntity
  8
0
100
AcDbLine
 10
28.0848
 20
80.71429
 30
0.0
 11
29.6182
 21
80.25974000000001
 31
0.0
  0
LINE
  5
352
330
1E
100
AcDbEntity
  8
0
100
AcDbLine
 10
26.93599999999999
 20
80.0
 30
0.0
 11
30.328
 21
80.0
 31
0.0
  0
LINE
  5
353
330
1E
100
AcDbEntity
  8
0
100
AcDbLine
 10
28.71819999999999
 20
90.0
 30
0.0
 11
31.0909
 21
90.0
 31
0.0
  0
LINE
  5
354
330
1E
100
AcDbEntity
  8
0
100
AcDbLine
 10
28.71819999999999
 20
90.0
 30
0.0
 11
31.0909
 21
90.0
 31
0.0
  0
LINE
  5
355
330
1E
100
AcDbEntity
  8
0
100
AcDbLine
 10
28.0848
 20
89.28571000000001
 30
0.0
 11
29.6182
 21
89.74028999999999
 31
0.0
  0
LINE
  5
356
330
1E
100
AcDbEntity
  8
0
100
AcDbLine
 10
27.1017
 20
90.0
 30
0.0
 11
29.36189999999999
 21
90.0
 31
0.0
  0
LINE
  5
357
330
1E
100
AcDbEntity
  8
0
100
AcDbLine
 10
26.9626
 20
90.0
 30
0.0
 11
29.3271
 21
90.0
 31
0.0
  0
LINE
  5
358
330
1E
100
AcDbEntity
  8
0
100
AcDbLine
 10
23.096
 20
80.0
 30
0.0
 11
26.93599999999999
 21
80.0
 31
0.0
  0
LINE
  5
359
330
1E
100
AcDbEntity
  8
0
100
AcDbLine
 10
21.9272
 20
80.0
 30
0.0
 11
25.5273
 21
80.0
 31
0.0
  0
LINE
  5
35A
330
1E
100
AcDbEntity
  8
0
100
AcDbLine
 10
22.12369999999999
 20
80.17143
 30
0.0
 11
25.94409999999999
 21
80.71429
 31
0.0
  0
LINE
  5
35B
330
1E
100
AcDbEntity
  8
0
100
AcDbLine
 10
21.0515
 20
90.0
 30
0.0
 11
24.007
 21
90.0
 31
0.0
  0
LINE
  5
35C
330
1E
100
AcDbEntity
  8
0
100
AcDbLine
 10
21.0862
 20
90.0
 30
0.0
 11
24.0418
 21
90.0
 31
0.0
  0
LINE
  5
35D
330
1E
100
AcDbEntity
  8
0
100
AcDbLine
 10
22.12369999999999
 20
89.82857
 30
0.0
 11
25.94409999999999
 21
89.28571000000001
 31
0.0
  0
LINE
  5
35E
330
1E
100
AcDbEntity
  8
0
100
AcDbLine
 10
22.12369999999999
 20
89.82857
 30
0.0
 11
25.94409999999999
 21
89.28571000000001
 31
0.0
  0
LINE
  5
35F
330
1E
100
AcDbEntity
  8
0
100
AcDbLine
 10
21.9272
 20
90.0
 30
0.0
 11
25.5273
 21
90.0
 31
0.0
  0
LINE
  5
360
330
1E
100
AcDbEntity
  8
0
100
AcDbLine
 10
21.9272
 20
90.0
 30
0.0
 11
25.5273
 21
90.0
 31
0.0
  0
LINE
  5
361
330
1E
100
AcDbEntity
  8
0
100
AcDbLine
 10
25.94409999999999
 20
89.28571000000001
 30
0.0
 11
26.7545
 21
89.28571000000001
 31
0.0
  0
LINE
  5
362
330
1E
100
AcDbEntity
  8
0
100
AcDbLine
 10
24.007
 20
90.0
 30
0.0
 11
27.1017
 21
90.0
 31
0.0
  0
LINE
  5
363
330
1E
100
AcDbEntity
  8
0
100
AcDbLine
 10
24.0418
 20
90.0
 30
0.0
 11
26.9626
 21
90.0
 31
0.0
  0
LINE
  5
364
330
1E
100
AcDbEntity
  8
0
100
AcDbLine
 10
25.5273
 20
90.0
 30
0.0
 11
28.71819999999999
 21
90.0
 31
0.0
  0
LINE
  5
365
330
1E
100
AcDbEntity
  8
0
100
AcDbLine
 10
25.5273
 20
90.0
 30
0.0
 11
28.71819999999999
 21
90.0
 31
0.0
  0
LINE
  5
366
330
1E
100
AcDbEntity
  8
0
100
AcDbLine
 10
26.7545
 20
89.28571000000001
 30
0.0
 11
28.0848
 21
89.28571000000001
 31
0.0
  0
LINE
  5
367
330
1E
100
AcDbEntity
  8
0
100
AcDbLine
 10
25.94409999999999
 20
80.71429
 30
0.0
 11
26.7545
 21
80.71429
 31
0.0
  0
LINE
  5
368
330
1E
100
AcDbEntity
  8
0
100
AcDbLine
 10
25.5273
 20
80.0
 30
0.0
 11
28.71819999999999
 21
80.0
 31
0.0
  0
LINE
  5
369
330
1E
100
AcDbEntity
  8
0
100
AcDbLine
 10
26.7545
 20
80.71429
 30
0.0
 11
28.0848
 21
80.71429
 31
0.0
  0
LINE
  5
36A
330
1E
100
AcDbEntity
  8
0
100
AcDbLine
 10
35.0
 20
50.48799999999999
 30
0.0
 11
35.0
 21
80.00000000000001
 31
0.0
  0
LINE
  5
36B
330
1E
100
AcDbEntity
  8
0
100
AcDbLine
 10
35.0
 20
80.00000000000001
 30
0.0
 11
35.0
 21
50.48799999999999
 31
0.0
  0
LINE
  5
36C
330
1E
100
AcDbEntity
  8
0
100
AcDbLine
 10
34.424
 20
80.0
 30
0.0
 11
35.0
 21
80.00000000000001
 31
0.0
  0
LINE
  5
36D
330
1E
100
AcDbEntity
  8
0
100
AcDbLine
 10
34.424
 20
80.00000000000001
 30
0.0
 11
35.0
 21
80.00000000000001
 31
0.0
  0
LINE
  5
36E
330
1E
100
AcDbEntity
  8
0
100
AcDbLine
 10
34.3636
 20
80.21429000000001
 30
0.0
 11
35.59089999999999
 21
80.71429
 31
0.0
  0
LINE
  5
36F
330
1E
100
AcDbEntity
  8
0
100
AcDbLine
 10
33.985
 20
80.29901
 30
0.0
 11
35.3114
 21
80.71429
 31
0.0
  0
LINE
  5
370
330
1E
100
AcDbEntity
  8
0
100
AcDbLine
 10
34.3636
 20
89.78571
 30
0.0
 11
35.59089999999999
 21
89.28571000000001
 31
0.0
  0
LINE
  5
371
330
1E
100
AcDbEntity
  8
0
100
AcDbLine
 10
33.985
 20
89.701
 30
0.0
 11
35.3114
 21
89.28571000000001
 31
0.0
  0
LINE
  5
372
330
1E
100
AcDbEntity
  8
0
100
AcDbLine
 10
33.985
 20
89.701
 30
0.0
 11
35.3114
 21
89.28571000000001
 31
0.0
  0
LINE
  5
373
330
1E
100
AcDbEntity
  8
0
100
AcDbLine
 10
31.8076
 20
89.85564000000001
 30
0.0
 11
33.985
 21
89.701
 31
0.0
  0
LINE
  5
374
330
1E
100
AcDbEntity
  8
0
100
AcDbLine
 10
31.0909
 20
90.0
 30
0.0
 11
32.5636
 21
90.0
 31
0.0
  0
LINE
  5
375
330
1E
100
AcDbEntity
  8
0
100
AcDbLine
 10
31.0909
 20
90.0
 30
0.0
 11
32.5636
 21
90.0
 31
0.0
  0
LINE
  5
376
330
1E
100
AcDbEntity
  8
0
100
AcDbLine
 10
29.6182
 20
89.74028999999999
 30
0.0
 11
31.8076
 21
89.85564000000001
 31
0.0
  0
LINE
  5
377
330
1E
100
AcDbEntity
  8
0
100
AcDbLine
 10
29.36189999999999
 20
90.0
 30
0.0
 11
30.68319999999999
 21
90.0
 31
0.0
  0
LINE
  5
378
330
1E
100
AcDbEntity
  8
0
100
AcDbLine
 10
29.3271
 20
90.0
 30
0.0
 11
30.68319999999999
 21
90.0
 31
0.0
  0
LINE
  5
379
330
1E
100
AcDbEntity
  8
0
100
AcDbLine
 10
30.68319999999999
 20
90.0
 30
0.0
 11
31.2048
 21
90.0
 31
0.0
  0
LINE
  5
37A
330
1E
100
AcDbEntity
  8
0
100
AcDbLine
 10
30.68319999999999
 20
90.0
 30
0.0
 11
31.2048
 21
90.0
 31
0.0
  0
LINE
  5
37B
330
1E
100
AcDbEntity
  8
0
100
AcDbLine
 10
33.1364
 20
90.0
 30
0.0
 11
34.3636
 21
89.78571
 31
0.0
  0
LINE
  5
37C
330
1E
100
AcDbEntity
  8
0
100
AcDbLine
 10
32.5636
 20
90.0
 30
0.0
 11
33.1364
 21
90.0
 31
0.0
  0
LINE
  5
37D
330
1E
100
AcDbEntity
  8
0
100
AcDbLine
 10
31.8076
 20
80.14436999999999
 30
0.0
 11
33.985
 21
80.29901
 31
0.0
  0
LINE
  5
37E
330
1E
100
AcDbEntity
  8
0
100
AcDbLine
 10
31.0909
 20
80.0
 30
0.0
 11
32.5636
 21
80.0
 31
0.0
  0
LINE
  5
37F
330
1E
100
AcDbEntity
  8
0
100
AcDbLine
 10
30.328
 20
80.0
 30
0.0
 11
32.888
 21
80.0
 31
0.0
  0
LINE
  5
380
330
1E
100
AcDbEntity
  8
0
100
AcDbLine
 10
29.6182
 20
80.25974000000001
 30
0.0
 11
31.8076
 21
80.14436999999999
 31
0.0
  0
LINE
  5
381
330
1E
100
AcDbEntity
  8
0
100
AcDbLine
 10
33.1364
 20
80.00000000000001
 30
0.0
 11
34.3636
 21
80.21429000000001
 31
0.0
  0
LINE
  5
382
330
1E
100
AcDbEntity
  8
0
100
AcDbLine
 10
33.1364
 20
80.00000000000001
 30
0.0
 11
34.424
 21
80.00000000000001
 31
0.0
  0
LINE
  5
383
330
1E
100
AcDbEntity
  8
0
100
AcDbLine
 10
32.888
 20
80.0
 30
0.0
 11
34.424
 21
80.0
 31
0.0
  0
LINE
  5
384
330
1E
100
AcDbEntity
  8
0
100
AcDbLine
 10
32.5636
 20
80.0
 30
0.0
 11
33.1364
 21
80.00000000000001
 31
0.0
  0
LINE
  5
385
330
1E
100
AcDbEntity
  8
0
100
AcDbLine
 10
36.0
 20
88.57143
 30
0.0
 11
36.0
 21
81.42857000000001
 31
0.0
  0
LINE
  5
386
330
1E
100
AcDbEntity
  8
0
100
AcDbLine
 10
36.0
 20
81.42857000000001
 30
0.0
 11
36.0
 21
88.57143
 31
0.0
  0
LINE
  5
387
330
1E
100
AcDbEntity
  8
0
100
AcDbLine
 10
35.3114
 20
89.28571000000001
 30
0.0
 11
35.59089999999999
 21
89.28571000000001
 31
0.0
  0
LINE
  5
388
330
1E
100
AcDbEntity
  8
0
100
AcDbLine
 10
35.59089999999999
 20
89.28571000000001
 30
0.0
 11
36.0
 21
88.57143
 31
0.0
  0
LINE
  5
389
330
1E
100
AcDbEntity
  8
0
100
AcDbLine
 10
35.3114
 20
80.71429
 30
0.0
 11
35.59089999999999
 21
80.71429
 31
0.0
  0
LINE
  5
38A
330
1E
100
AcDbEntity
  8
0
100
AcDbLine
 10
35.59089999999999
 20
80.71429
 30
0.0
 11
36.0
 21
81.42857000000001
 31
0.0
  0
LINE
  5
38B
330
1E
100
AcDbEntity
  8
0
100
AcDbLine
 10
18.0
 20
63.0
 30
0.0
 11
22.608
 21
62.35199999999999
 31
0.0
  0
LINE
  5
38C
330
1E
100
AcDbEntity
  8
0
100
AcDbLine
 10
18.0
 20
62.568
 30
0.0
 11
22.536
 21
61.92
 31
0.0
  0
LINE
  5
38D
330
1E
100
AcDbEntity
  8
0
100
AcDbLine
 10
9.072
 20
60.624
 30
0.0
 11
13.392
 21
62.35199999999999
 31
0.0
  0
LINE
  5
38E
330
1E
100
AcDbEntity
  8
0
100
AcDbLine
 10
9.288
 20
60.19199999999999
 30
0.0
 11
13.464
 21
61.92
 31
0.0
  0
LINE
  5
38F
330
1E
100
AcDbEntity
  8
0
100
AcDbLine
 10
13.392
 20
62.35199999999999
 30
0.0
 11
18.0
 21
63.0
 31
0.0
  0
LINE
  5
390
330
1E
100
AcDbEntity
  8
0
100
AcDbLine
 10
13.464
 20
61.92
 30
0.0
 11
18.0
 21
62.568
 31
0.0
  0
LINE
  5
391
330
1E
100
AcDbEntity
  8
0
100
AcDbLine
 10
22.536
 20
61.92
 30
0.0
 11
26.712
 21
60.19199999999999
 31
0.0
  0
LINE
  5
392
330
1E
100
AcDbEntity
  8
0
100
AcDbLine
 10
22.608
 20
62.35199999999999
 30
0.0
 11
26.928
 21
60.624
 31
0.0
  0
ENDSEC
  0
SECTION
  2
OBJECTS
  0
DICTIONARY
  5
C
330
0
100
AcDbDictionary
281
     1
  3
ACAD_GROUP
350
D
  3
ACAD_LAYOUT
350
19
  3
ACAD_MLINESTYLE
350
16
  3
ACAD_PLOTSETTINGS
350
18
  3
ACAD_PLOTSTYLENAME
350
E
  3
AcDbVariableDictionary
350
393
  0
DICTIONARY
  5
D
102
{ACAD_REACTORS
330
C
102
}
330
C
100
AcDbDictionary
281
     1
  0
DICTIONARY
  5
19
102
{ACAD_REACTORS
330
C
102
}
330
C
100
AcDbDictionary
281
     1
  3
Layout1
350
1D
  3
Model
350
21
  0
DICTIONARY
  5
16
102
{ACAD_REACTORS
330
C
102
}
330
C
100
AcDbDictionary
281
     1
  3
Standard
350
17
  0
DICTIONARY
  5
18
102
{ACAD_REACTORS
330
C
102
}
330
C
100
AcDbDictionary
281
     1
  0
ACDBDICTIONARYWDFLT
  5
E
102
{ACAD_REACTORS
330
C
102
}
330
C
100
AcDbDictionary
281
     1
  3
Normal
350
F
100
AcDbDictionaryWithDefault
340
F
  0
DICTIONARY
  5
393
102
{ACAD_REACTORS
330
C
102
}
330
C
100
AcDbDictionary
281
     1
  3
DIMASSOC
350
394
  0
LAYOUT
  5
1D
102
{ACAD_REACTORS
330
19
102
}
330
19
100
AcDbPlotSettings
  1

  2
hp deskjet 980c series
  4

  6

 40
0.0
 41
0.0
 42
0.0
 43
0.0
 44
0.0
 45
0.0
 46
0.0
 47
0.0
 48
0.0
 49
0.0
140
0.0
141
0.0
142
1.0
143
1.0
 70
   688
 72
     0
 73
     0
 74
     5
  7

 75
    16
147
1.0
148
0.0
149
0.0
100
AcDbLayout
  1
Layout1
 70
     1
 71
     1
 10
0.0
 20
0.0
 11
12.0
 21
9.0
 12
0.0
 22
0.0
 32
0.0
 14
1.000000000000000E+20
 24
1.000000000000000E+20
 34
1.000000000000000E+20
 15
-1.000000000000000E+20
 25
-1.000000000000000E+20
 35
-1.000000000000000E+20
146
0.0
 13
0.0
 23
0.0
 33
0.0
 16
1.0
 26
0.0
 36
0.0
 17
0.0
 27
1.0
 37
0.0
 76
     0
330
1A
  0
LAYOUT
  5
21
102
{ACAD_REACTORS
330
19
102
}
330
19
100
AcDbPlotSettings
  1

  2
hp deskjet 980c series
  4

  6

 40
0.0
 41
0.0
 42
0.0
 43
0.0
 44
0.0
 45
0.0
 46
0.0
 47
0.0
 48
0.0
 49
0.0
140
0.0
141
0.0
142
1.0
143
1.0
 70
  1712
 72
     0
 73
     0
 74
     0
  7

 75
     0
147
1.0
148
0.0
149
0.0
100
AcDbLayout
  1
Model
 70
     1
 71
     0
 10
0.0
 20
0.0
 11
12.0
 21
9.0
 12
0.0
 22
0.0
 32
0.0
 14
0.0
 24
0.0
 34
0.0
 15
0.0
 25
0.0
 35
0.0
146
0.0
 13
0.0
 23
0.0
 33
0.0
 16
1.0
 26
0.0
 36
0.0
 17
0.0
 27
1.0
 37
0.0
 76
     0
330
1E
  0
MLINESTYLE
  5
17
102
{ACAD_REACTORS
330
16
102
}
330
16
100
AcDbMlineStyle
  2
STANDARD
 70
     0
  3

 62
   256
 51
90.0
 52
90.0
 71
     2
 49
0.5
 62
   256
  6
BYLAYER
 49
-0.5
 62
   256
  6
BYLAYER
  0
ACDBPLACEHOLDER
  5
F
102
{ACAD_REACTORS
330
E
102
}
330
E
  0
DICTIONARYVAR
  5
394
102
{ACAD_REACTORS
330
393
102
}
330
393
100
DictionaryVariables
280
     0
  1
1
  0
ENDSEC
  0
EOF
