  0
SECTION
  2
HEADER
  9
$ACADVER
  1
AC1015
  9
$ACADMAINTVER
 70
    13
  9
$DWGCODEPAGE
  3
ANSI_1252
  9
$INSBASE
 10
0.0
 20
0.0
 30
0.0
  9
$EXTMIN
 10
0.0
 20
-0.0000000000000009
 30
0.0
  9
$EXTMAX
 10
700.0
 20
200.0
 30
0.0
  9
$LIMMIN
 10
0.0
 20
0.0
  9
$LIMMAX
 10
12.0
 20
9.0
  9
$ORTHOMODE
 70
     0
  9
$REGENMODE
 70
     1
  9
$FILLMODE
 70
     1
  9
$QTEXTMODE
 70
     0
  9
$MIRRTEXT
 70
     1
  9
$LTSCALE
 40
1.0
  9
$ATTMODE
 70
     1
  9
$TEXTSIZE
 40
0.2
  9
$TRACEWID
 40
0.05
  9
$TEXTSTYLE
  7
Standard
  9
$CLAYER
  8
0
  9
$CELTYPE
  6
Continuous
  9
$CECOLOR
 62
   256
  9
$CELTSCALE
 40
1.0
  9
$DISPSILH
 70
     0
  9
$DIMSCALE
 40
1.0
  9
$DIMASZ
 40
0.18
  9
$DIMEXO
 40
0.0625
  9
$DIMDLI
 40
0.38
  9
$DIMRND
 40
0.0
  9
$DIMDLE
 40
0.0
  9
$DIMEXE
 40
0.18
  9
$DIMTP
 40
0.0
  9
$DIMTM
 40
0.0
  9
$DIMTXT
 40
0.18
  9
$DIMCEN
 40
0.09
  9
$DIMTSZ
 40
0.0
  9
$DIMTOL
 70
     0
  9
$DIMLIM
 70
     0
  9
$DIMTIH
 70
     1
  9
$DIMTOH
 70
     1
  9
$DIMSE1
 70
     0
  9
$DIMSE2
 70
     0
  9
$DIMTAD
 70
     0
  9
$DIMZIN
 70
     0
  9
$DIMBLK
  1

  9
$DIMASO
 70
     1
  9
$DIMSHO
 70
     1
  9
$DIMPOST
  1

  9
$DIMAPOST
  1

  9
$DIMALT
 70
     0
  9
$DIMALTD
 70
     2
  9
$DIMALTF
 40
25.4
  9
$DIMLFAC
 40
1.0
  9
$DIMTOFL
 70
     0
  9
$DIMTVP
 40
0.0
  9
$DIMTIX
 70
     0
  9
$DIMSOXD
 70
     0
  9
$DIMSAH
 70
     0
  9
$DIMBLK1
  1

  9
$DIMBLK2
  1

  9
$DIMSTYLE
  2
Standard
  9
$DIMCLRD
 70
     0
  9
$DIMCLRE
 70
     0
  9
$DIMCLRT
 70
     0
  9
$DIMTFAC
 40
1.0
  9
$DIMGAP
 40
0.09
  9
$DIMJUST
 70
     0
  9
$DIMSD1
 70
     0
  9
$DIMSD2
 70
     0
  9
$DIMTOLJ
 70
     1
  9
$DIMTZIN
 70
     0
  9
$DIMALTZ
 70
     0
  9
$DIMALTTZ
 70
     0
  9
$DIMUPT
 70
     0
  9
$DIMDEC
 70
     4
  9
$DIMTDEC
 70
     4
  9
$DIMALTU
 70
     2
  9
$DIMALTTD
 70
     2
  9
$DIMTXSTY
  7
Standard
  9
$DIMAUNIT
 70
     0
  9
$DIMADEC
 70
     0
  9
$DIMALTRND
 40
0.0
  9
$DIMAZIN
 70
     0
  9
$DIMDSEP
 70
    46
  9
$DIMATFIT
 70
     3
  9
$DIMFRAC
 70
     0
  9
$DIMLDRBLK
  1

  9
$DIMLUNIT
 70
     2
  9
$DIMLWD
 70
    -2
  9
$DIMLWE
 70
    -2
  9
$DIMTMOVE
 70
     0
  9
$LUNITS
 70
     2
  9
$LUPREC
 70
     4
  9
$SKETCHINC
 40
0.1
  9
$FILLETRAD
 40
0.0
  9
$AUNITS
 70
     0
  9
$AUPREC
 70
     0
  9
$MENU
  1
.
  9
$ELEVATION
 40
0.0
  9
$PELEVATION
 40
0.0
  9
$THICKNESS
 40
0.0
  9
$LIMCHECK
 70
     0
  9
$CHAMFERA
 40
0.0
  9
$CHAMFERB
 40
0.0
  9
$CHAMFERC
 40
0.0
  9
$CHAMFERD
 40
0.0
  9
$SKPOLY
 70
     0
  9
$TDCREATE
 40
2454779.890453194
  9
$TDUCREATE
 40
2454779.848786527
  9
$TDUPDATE
 40
2454779.893742222
  9
$TDUUPDATE
 40
2454779.852075555
  9
$TDINDWG
 40
0.0032890278
  9
$TDUSRTIMER
 40
0.0032890278
  9
$USRTIMER
 70
     1
  9
$ANGBASE
 50
0.0
  9
$ANGDIR
 70
     0
  9
$PDMODE
 70
     0
  9
$PDSIZE
 40
0.0
  9
$PLINEWID
 40
0.0
  9
$SPLFRAME
 70
     0
  9
$SPLINETYPE
 70
     6
  9
$SPLINESEGS
 70
     8
  9
$HANDSEED
  5
1AF
  9
$SURFTAB1
 70
     6
  9
$SURFTAB2
 70
     6
  9
$SURFTYPE
 70
     6
  9
$SURFU
 70
     6
  9
$SURFV
 70
     6
  9
$UCSBASE
  2

  9
$UCSNAME
  2

  9
$UCSORG
 10
0.0
 20
0.0
 30
0.0
  9
$UCSXDIR
 10
1.0
 20
0.0
 30
0.0
  9
$UCSYDIR
 10
0.0
 20
1.0
 30
0.0
  9
$UCSORTHOREF
  2

  9
$UCSORTHOVIEW
 70
     1
  9
$UCSORGTOP
 10
0.0
 20
0.0
 30
0.0
  9
$UCSORGBOTTOM
 10
0.0
 20
0.0
 30
0.0
  9
$UCSORGLEFT
 10
0.0
 20
0.0
 30
0.0
  9
$UCSORGRIGHT
 10
0.0
 20
0.0
 30
0.0
  9
$UCSORGFRONT
 10
0.0
 20
0.0
 30
0.0
  9
$UCSORGBACK
 10
0.0
 20
0.0
 30
0.0
  9
$PUCSBASE
  2

  9
$PUCSNAME
  2

  9
$PUCSORG
 10
0.0
 20
0.0
 30
0.0
  9
$PUCSXDIR
 10
1.0
 20
0.0
 30
0.0
  9
$PUCSYDIR
 10
0.0
 20
1.0
 30
0.0
  9
$PUCSORTHOREF
  2

  9
$PUCSORTHOVIEW
 70
     0
  9
$PUCSORGTOP
 10
0.0
 20
0.0
 30
0.0
  9
$PUCSORGBOTTOM
 10
0.0
 20
0.0
 30
0.0
  9
$PUCSORGLEFT
 10
0.0
 20
0.0
 30
0.0
  9
$PUCSORGRIGHT
 10
0.0
 20
0.0
 30
0.0
  9
$PUCSORGFRONT
 10
0.0
 20
0.0
 30
0.0
  9
$PUCSORGBACK
 10
0.0
 20
0.0
 30
0.0
  9
$USERI1
 70
     0
  9
$USERI2
 70
     0
  9
$USERI3
 70
     0
  9
$USERI4
 70
     0
  9
$USERI5
 70
     0
  9
$USERR1
 40
0.0
  9
$USERR2
 40
0.0
  9
$USERR3
 40
0.0
  9
$USERR4
 40
0.0
  9
$USERR5
 40
0.0
  9
$WORLDVIEW
 70
     1
  9
$SHADEDGE
 70
     3
  9
$SHADEDIF
 70
    70
  9
$TILEMODE
 70
     1
  9
$MAXACTVP
 70
    64
  9
$PINSBASE
 10
0.0
 20
0.0
 30
0.0
  9
$PLIMCHECK
 70
     0
  9
$PEXTMIN
 10
1.000000000000000E+20
 20
1.000000000000000E+20
 30
1.000000000000000E+20
  9
$PEXTMAX
 10
-1.000000000000000E+20
 20
-1.000000000000000E+20
 30
-1.000000000000000E+20
  9
$PLIMMIN
 10
0.0
 20
0.0
  9
$PLIMMAX
 10
12.0
 20
9.0
  9
$UNITMODE
 70
     0
  9
$VISRETAIN
 70
     1
  9
$PLINEGEN
 70
     0
  9
$PSLTSCALE
 70
     1
  9
$TREEDEPTH
 70
  3020
  9
$CMLSTYLE
  2
Standard
  9
$CMLJUST
 70
     0
  9
$CMLSCALE
 40
1.0
  9
$PROXYGRAPHICS
 70
     1
  9
$MEASUREMENT
 70
     0
  9
$CELWEIGHT
370
    -1
  9
$ENDCAPS
280
     0
  9
$JOINSTYLE
280
     0
  9
$LWDISPLAY
290
     0
  9
$INSUNITS
 70
     0
  9
$HYPERLINKBASE
  1

  9
$STYLESHEET
  1

  9
$XEDIT
290
     1
  9
$CEPSNTYPE
380
     0
  9
$PSTYLEMODE
290
     1
  9
$FINGERPRINTGUID
  2
{E14FD18D-CD48-49B0-A561-72748D684BFF}
  9
$VERSIONGUID
  2
{DB090831-929D-4E4C-894F-9F49696CC405}
  9
$EXTNAMES
290
     1
  9
$PSVPSCALE
 40
0.0
  9
$OLESTARTUP
290
     0
  0
ENDSEC
  0
SECTION
  2
CLASSES
  0
CLASS
  1
ACDBDICTIONARYWDFLT
  2
AcDbDictionaryWithDefault
  3
AutoCAD 2000
 90
        0
280
     0
281
     0
  0
CLASS
  1
ACDBPLACEHOLDER
  2
AcDbPlaceHolder
  3
AutoCAD 2000
 90
        0
280
     0
281
     0
  0
CLASS
  1
LAYOUT
  2
AcDbLayout
  3
AutoCAD 2000
 90
        0
280
     0
281
     0
  0
CLASS
  1
DICTIONARYVAR
  2
AcDbDictionaryVar
  3
AutoCAD 2000
 90
        0
280
     0
281
     0
  0
ENDSEC
  0
SECTION
  2
TABLES
  0
TABLE
  2
VPORT
  5
8
330
0
100
AcDbSymbolTable
 70
     2
  0
VPORT
  5
1AE
330
8
100
AcDbSymbolTableRecord
100
AcDbViewportTableRecord
  2
*Active
 70
     0
 10
0.0
 20
0.0
 11
1.0
 21
1.0
 12
350.0
 22
100.0
 13
0.0
 23
0.0
 14
1.0
 24
1.0
 15
0.0
 25
0.0
 16
0.0
 26
0.0
 36
1.0
 17
0.0
 27
0.0
 37
0.0
 40
338.0898506384515
 41
2.078104993597951
 42
50.0
 43
0.0
 44
0.0
 50
0.0
 51
0.0
 71
     0
 72
   100
 73
     1
 74
     3
 75
     0
 76
     0
 77
     0
 78
     0
281
     0
 65
     1
110
0.0
120
0.0
130
0.0
111
1.0
121
0.0
131
0.0
112
0.0
122
1.0
132
0.0
 79
     1
146
0.0
  0
ENDTAB
  0
TABLE
  2
LTYPE
  5
5
330
0
100
AcDbSymbolTable
 70
     1
  0
LTYPE
  5
13
330
5
100
AcDbSymbolTableRecord
100
AcDbLinetypeTableRecord
  2
ByBlock
 70
     0
  3

 72
    65
 73
     0
 40
0.0
  0
LTYPE
  5
14
330
5
100
AcDbSymbolTableRecord
100
AcDbLinetypeTableRecord
  2
ByLayer
 70
     0
  3

 72
    65
 73
     0
 40
0.0
  0
LTYPE
  5
15
330
5
100
AcDbSymbolTableRecord
100
AcDbLinetypeTableRecord
  2
Continuous
 70
     0
  3
Solid line
 72
    65
 73
     0
 40
0.0
  0
ENDTAB
  0
TABLE
  2
LAYER
  5
2
330
0
100
AcDbSymbolTable
 70
     1
  0
LAYER
  5
10
330
2
100
AcDbSymbolTableRecord
100
AcDbLayerTableRecord
  2
0
 70
     0
 62
     7
  6
Continuous
370
    -3
390
F
  0
ENDTAB
  0
TABLE
  2
STYLE
  5
3
330
0
100
AcDbSymbolTable
 70
     1
  0
STYLE
  5
11
330
3
100
AcDbSymbolTableRecord
100
AcDbTextStyleTableRecord
  2
Standard
 70
     0
 40
0.0
 41
1.0
 50
0.0
 71
     0
 42
0.2
  3
txt
  4

  0
ENDTAB
  0
TABLE
  2
VIEW
  5
6
330
0
100
AcDbSymbolTable
 70
     0
  0
ENDTAB
  0
TABLE
  2
UCS
  5
7
330
0
100
AcDbSymbolTable
 70
     0
  0
ENDTAB
  0
TABLE
  2
APPID
  5
9
330
0
100
AcDbSymbolTable
 70
     1
  0
APPID
  5
12
330
9
100
AcDbSymbolTableRecord
100
AcDbRegAppTableRecord
  2
ACAD
 70
     0
  0
ENDTAB
  0
TABLE
  2
DIMSTYLE
  5
A
330
0
100
AcDbSymbolTable
 70
     1
100
AcDbDimStyleTable
 71
     0
  0
DIMSTYLE
105
1A8
330
A
100
AcDbSymbolTableRecord
100
AcDbDimStyleTableRecord
  2
Standard
 70
     0
340
11
  0
ENDTAB
  0
TABLE
  2
BLOCK_RECORD
  5
1
330
0
100
AcDbSymbolTable
 70
     0
  0
BLOCK_RECORD
  5
1E
330
1
100
AcDbSymbolTableRecord
100
AcDbBlockTableRecord
  2
*Model_Space
340
21
  0
BLOCK_RECORD
  5
1A
330
1
100
AcDbSymbolTableRecord
100
AcDbBlockTableRecord
  2
*Paper_Space
340
1D
  0
ENDTAB
  0
ENDSEC
  0
SECTION
  2
BLOCKS
  0
BLOCK
  5
1F
330
1E
100
AcDbEntity
  8
0
100
AcDbBlockBegin
  2
*Model_Space
 70
     0
 10
0.0
 20
0.0
 30
0.0
  3
*Model_Space
  1

  0
ENDBLK
  5
20
330
1E
100
AcDbEntity
  8
0
100
AcDbBlockEnd
  0
BLOCK
  5
1B
330
1A
100
AcDbEntity
 67
     1
  8
0
100
AcDbBlockBegin
  2
*Paper_Space
 70
     0
 10
0.0
 20
0.0
 30
0.0
  3
*Paper_Space
  1

  0
ENDBLK
  5
1C
330
1A
100
AcDbEntity
 67
     1
  8
0
100
AcDbBlockEnd
  0
ENDSEC
  0
SECTION
  2
ENTITIES
  0
LINE
  5
22
330
1E
100
AcDbEntity
  8
0
100
AcDbLine
 10
0.0
 20
200.0
 30
0.0
 11
700.0
 21
200.0
 31
0.0
  0
LINE
  5
23
330
1E
100
AcDbEntity
  8
0
100
AcDbLine
 10
0.0
 20
200.0
 30
0.0
 11
70.0
 21
176.510067114094
 31
0.0
  0
LINE
  5
24
330
1E
100
AcDbEntity
  8
0
100
AcDbLine
 10
0.0
 20
0.0
 30
0.0
 11
126.65
 21
42.5
 31
0.0
  0
LINE
  5
25
330
1E
100
AcDbEntity
  8
0
100
AcDbLine
 10
0.0000000000000003
 20
200.0
 30
0.0
 11
700.0
 21
200.0
 31
0.0
  0
LINE
  5
26
330
1E
100
AcDbEntity
  8
0
100
AcDbLine
 10
0.0000000000000003
 20
200.0
 30
0.0
 11
0.0000000000000003
 21
0.0
 31
0.0
  0
LINE
  5
27
330
1E
100
AcDbEntity
  8
0
100
AcDbLine
 10
0.0000000000000003
 20
200.0
 30
0.0
 11
70.0
 21
176.510067114094
 31
0.0
  0
LINE
  5
28
330
1E
100
AcDbEntity
  8
0
100
AcDbLine
 10
0.0000000000000003
 20
0.0000000000000022
 30
0.0
 11
0.0000000000000003
 21
200.0
 31
0.0
  0
LINE
  5
29
330
1E
100
AcDbEntity
  8
0
100
AcDbLine
 10
0.0000000000000003
 20
0.0000000000000022
 30
0.0
 11
126.65
 21
42.5
 31
0.0
  0
LINE
  5
2A
330
1E
100
AcDbEntity
  8
0
100
AcDbLine
 10
0.0
 20
-0.0000000000000009
 30
0.0
 11
700.0
 21
-0.0000000000000009
 31
0.0
  0
LINE
  5
2B
330
1E
100
AcDbEntity
  8
0
100
AcDbLine
 10
70.0
 20
42.5
 30
0.0
 11
630.0
 21
42.5
 31
0.0
  0
LINE
  5
2C
330
1E
100
AcDbEntity
  8
0
100
AcDbLine
 10
70.0
 20
42.5
 30
0.0
 11
630.0
 21
42.5
 31
0.0
  0
LINE
  5
2D
330
1E
100
AcDbEntity
  8
0
100
AcDbLine
 10
70.0
 20
42.5
 30
0.0
 11
70.0
 21
187.5
 31
0.0
  0
LINE
  5
2E
330
1E
100
AcDbEntity
  8
0
100
AcDbLine
 10
154.152
 20
106.8079999999999
 30
0.0
 11
157.2239999999999
 21
99.12799999999998
 31
0.0
  0
LINE
  5
2F
330
1E
100
AcDbEntity
  8
0
100
AcDbLine
 10
157.2239999999999
 20
99.12799999999998
 30
0.0
 11
162.3439999999999
 21
92.34400000000009
 31
0.0
  0
LINE
  5
30
330
1E
100
AcDbEntity
  8
0
100
AcDbLine
 10
153.0
 20
115.0
 30
0.0
 11
154.152
 21
123.192
 31
0.0
  0
LINE
  5
31
330
1E
100
AcDbEntity
  8
0
100
AcDbLine
 10
153.0
 20
115.0
 30
0.0
 11
154.152
 21
106.8079999999999
 31
0.0
  0
LINE
  5
32
330
1E
100
AcDbEntity
  8
0
100
AcDbLine
 10
154.152
 20
123.192
 30
0.0
 11
157.2239999999999
 21
130.872
 31
0.0
  0
LINE
  5
33
330
1E
100
AcDbEntity
  8
0
100
AcDbLine
 10
162.3439999999999
 20
92.34400000000009
 30
0.0
 11
169.1279999999999
 21
87.22399999999998
 31
0.0
  0
LINE
  5
34
330
1E
100
AcDbEntity
  8
0
100
AcDbLine
 10
169.1279999999999
 20
87.22399999999998
 30
0.0
 11
176.8079999999999
 21
84.152
 31
0.0
  0
LINE
  5
35
330
1E
100
AcDbEntity
  8
0
100
AcDbLine
 10
157.2239999999999
 20
130.872
 30
0.0
 11
162.3439999999999
 21
137.656
 31
0.0
  0
LINE
  5
36
330
1E
100
AcDbEntity
  8
0
100
AcDbLine
 10
162.3439999999999
 20
137.656
 30
0.0
 11
169.1279999999999
 21
142.776
 31
0.0
  0
LINE
  5
37
330
1E
100
AcDbEntity
  8
0
100
AcDbLine
 10
176.8079999999999
 20
84.152
 30
0.0
 11
185.0
 21
83.0
 31
0.0
  0
LINE
  5
38
330
1E
100
AcDbEntity
  8
0
100
AcDbLine
 10
193.192
 20
84.152
 30
0.0
 11
200.872
 21
87.22399999999998
 31
0.0
  0
LINE
  5
39
330
1E
100
AcDbEntity
  8
0
100
AcDbLine
 10
185.0
 20
83.0
 30
0.0
 11
193.192
 21
84.152
 31
0.0
  0
LINE
  5
3A
330
1E
100
AcDbEntity
  8
0
100
AcDbLine
 10
169.1279999999999
 20
142.776
 30
0.0
 11
176.8079999999999
 21
145.8479999999999
 31
0.0
  0
LINE
  5
3B
330
1E
100
AcDbEntity
  8
0
100
AcDbLine
 10
176.8079999999999
 20
145.8479999999999
 30
0.0
 11
185.0
 21
147.0
 31
0.0
  0
LINE
  5
3C
330
1E
100
AcDbEntity
  8
0
100
AcDbLine
 10
207.6559999999999
 20
92.34400000000009
 30
0.0
 11
212.7759999999999
 21
99.12799999999998
 31
0.0
  0
LINE
  5
3D
330
1E
100
AcDbEntity
  8
0
100
AcDbLine
 10
200.872
 20
87.22399999999998
 30
0.0
 11
207.6559999999999
 21
92.34400000000009
 31
0.0
  0
LINE
  5
3E
330
1E
100
AcDbEntity
  8
0
100
AcDbLine
 10
215.8479999999999
 20
106.8079999999999
 30
0.0
 11
217.0
 21
115.0
 31
0.0
  0
LINE
  5
3F
330
1E
100
AcDbEntity
  8
0
100
AcDbLine
 10
212.7759999999999
 20
99.12799999999998
 30
0.0
 11
215.8479999999999
 21
106.8079999999999
 31
0.0
  0
LINE
  5
40
330
1E
100
AcDbEntity
  8
0
100
AcDbLine
 10
264.1519999999999
 20
106.8079999999999
 30
0.0
 11
267.2239999999999
 21
99.12799999999998
 31
0.0
  0
LINE
  5
41
330
1E
100
AcDbEntity
  8
0
100
AcDbLine
 10
263.0
 20
115.0
 30
0.0
 11
264.1519999999999
 21
123.192
 31
0.0
  0
LINE
  5
42
330
1E
100
AcDbEntity
  8
0
100
AcDbLine
 10
263.0
 20
115.0
 30
0.0
 11
264.1519999999999
 21
106.8079999999999
 31
0.0
  0
LINE
  5
43
330
1E
100
AcDbEntity
  8
0
100
AcDbLine
 10
278.0079999999999
 20
98.008
 30
0.0
 11
283.096
 21
94.168
 31
0.0
  0
LINE
  5
44
330
1E
100
AcDbEntity
  8
0
100
AcDbLine
 10
278.0079999999999
 20
98.008
 30
0.0
 11
283.096
 21
94.168
 31
0.0
  0
LINE
  5
45
330
1E
100
AcDbEntity
  8
0
100
AcDbLine
 10
275.884
 20
95.884
 30
0.0
 11
281.6079999999999
 21
91.5640000000001
 31
0.0
  0
LINE
  5
46
330
1E
100
AcDbEntity
  8
0
100
AcDbLine
 10
274.168
 20
103.096
 30
0.0
 11
278.0079999999999
 21
98.008
 31
0.0
  0
LINE
  5
47
330
1E
100
AcDbEntity
  8
0
100
AcDbLine
 10
274.168
 20
103.096
 30
0.0
 11
278.0079999999999
 21
98.008
 31
0.0
  0
LINE
  5
48
330
1E
100
AcDbEntity
  8
0
100
AcDbLine
 10
271.864
 20
108.856
 30
0.0
 11
274.168
 21
103.096
 31
0.0
  0
LINE
  5
49
330
1E
100
AcDbEntity
  8
0
100
AcDbLine
 10
271.0
 20
115.0
 30
0.0
 11
271.864
 21
121.1439999999999
 31
0.0
  0
LINE
  5
4A
330
1E
100
AcDbEntity
  8
0
100
AcDbLine
 10
271.0
 20
115.0
 30
0.0
 11
271.864
 21
108.856
 31
0.0
  0
LINE
  5
4B
330
1E
100
AcDbEntity
  8
0
100
AcDbLine
 10
271.564
 20
101.6079999999999
 30
0.0
 11
275.884
 21
95.884
 31
0.0
  0
LINE
  5
4C
330
1E
100
AcDbEntity
  8
0
100
AcDbLine
 10
268.9719999999999
 20
108.088
 30
0.0
 11
271.564
 21
101.6079999999999
 31
0.0
  0
LINE
  5
4D
330
1E
100
AcDbEntity
  8
0
100
AcDbLine
 10
274.168
 20
126.9039999999999
 30
0.0
 11
278.0079999999999
 21
131.992
 31
0.0
  0
LINE
  5
4E
330
1E
100
AcDbEntity
  8
0
100
AcDbLine
 10
271.864
 20
121.1439999999999
 30
0.0
 11
274.168
 21
126.9039999999999
 31
0.0
  0
LINE
  5
4F
330
1E
100
AcDbEntity
  8
0
100
AcDbLine
 10
271.564
 20
128.3919999999999
 30
0.0
 11
275.884
 21
134.116
 31
0.0
  0
LINE
  5
50
330
1E
100
AcDbEntity
  8
0
100
AcDbLine
 10
268.9719999999999
 20
121.9119999999999
 30
0.0
 11
271.564
 21
128.3919999999999
 31
0.0
  0
LINE
  5
51
330
1E
100
AcDbEntity
  8
0
100
AcDbLine
 10
268.0
 20
115.0
 30
0.0
 11
268.9719999999999
 21
121.9119999999999
 31
0.0
  0
LINE
  5
52
330
1E
100
AcDbEntity
  8
0
100
AcDbLine
 10
268.0
 20
115.0
 30
0.0
 11
268.9719999999999
 21
108.088
 31
0.0
  0
LINE
  5
53
330
1E
100
AcDbEntity
  8
0
100
AcDbLine
 10
267.2239999999999
 20
99.12799999999998
 30
0.0
 11
272.344
 21
92.34400000000009
 31
0.0
  0
LINE
  5
54
330
1E
100
AcDbEntity
  8
0
100
AcDbLine
 10
272.344
 20
92.34400000000009
 30
0.0
 11
279.1279999999999
 21
87.22399999999998
 31
0.0
  0
LINE
  5
55
330
1E
100
AcDbEntity
  8
0
100
AcDbLine
 10
295.0
 20
91.0
 30
0.0
 11
301.144
 21
91.86399999999999
 31
0.0
  0
LINE
  5
56
330
1E
100
AcDbEntity
  8
0
100
AcDbLine
 10
288.0879999999999
 20
88.97200000000001
 30
0.0
 11
295.0
 21
88.0
 31
0.0
  0
LINE
  5
57
330
1E
100
AcDbEntity
  8
0
100
AcDbLine
 10
288.856
 20
91.86399999999999
 30
0.0
 11
295.0
 21
91.0
 31
0.0
  0
LINE
  5
58
330
1E
100
AcDbEntity
  8
0
100
AcDbLine
 10
283.096
 20
94.168
 30
0.0
 11
288.856
 21
91.86399999999999
 31
0.0
  0
LINE
  5
59
330
1E
100
AcDbEntity
  8
0
100
AcDbLine
 10
281.6079999999999
 20
91.5640000000001
 30
0.0
 11
288.0879999999999
 21
88.97200000000001
 31
0.0
  0
LINE
  5
5A
330
1E
100
AcDbEntity
  8
0
100
AcDbLine
 10
295.0
 20
88.0
 30
0.0
 11
301.912
 21
88.97200000000001
 31
0.0
  0
LINE
  5
5B
330
1E
100
AcDbEntity
  8
0
100
AcDbLine
 10
291.4159999999999
 20
101.5039999999999
 30
0.0
 11
295.0
 21
101.0
 31
0.0
  0
LINE
  5
5C
330
1E
100
AcDbEntity
  8
0
100
AcDbLine
 10
301.144
 20
91.86399999999999
 30
0.0
 11
306.904
 21
94.168
 31
0.0
  0
LINE
  5
5D
330
1E
100
AcDbEntity
  8
0
100
AcDbLine
 10
301.912
 20
88.97200000000001
 30
0.0
 11
308.3919999999999
 21
91.5640000000001
 31
0.0
  0
LINE
  5
5E
330
1E
100
AcDbEntity
  8
0
100
AcDbLine
 10
295.0
 20
101.0
 30
0.0
 11
298.5839999999999
 21
101.5039999999999
 31
0.0
  0
LINE
  5
5F
330
1E
100
AcDbEntity
  8
0
100
AcDbLine
 10
295.0
 20
107.192
 30
0.0
 11
297.0159999999999
 21
107.4799999999999
 31
0.0
  0
LINE
  5
60
330
1E
100
AcDbEntity
  8
0
100
AcDbLine
 10
292.984
 20
107.4799999999999
 30
0.0
 11
295.0
 21
107.192
 31
0.0
  0
LINE
  5
61
330
1E
100
AcDbEntity
  8
0
100
AcDbLine
 10
291.032
 20
108.0559999999999
 30
0.0
 11
292.952
 21
107.288
 31
0.0
  0
LINE
  5
62
330
1E
100
AcDbEntity
  8
0
100
AcDbLine
 10
292.952
 20
107.288
 30
0.0
 11
295.0
 21
107.0
 31
0.0
  0
LINE
  5
63
330
1E
100
AcDbEntity
  8
0
100
AcDbLine
 10
297.0159999999999
 20
107.4799999999999
 30
0.0
 11
298.872
 21
108.2479999999999
 31
0.0
  0
LINE
  5
64
330
1E
100
AcDbEntity
  8
0
100
AcDbLine
 10
298.968
 20
108.0559999999999
 30
0.0
 11
300.6639999999999
 21
109.336
 31
0.0
  0
LINE
  5
65
330
1E
100
AcDbEntity
  8
0
100
AcDbLine
 10
297.048
 20
107.288
 30
0.0
 11
298.968
 21
108.0559999999999
 31
0.0
  0
LINE
  5
66
330
1E
100
AcDbEntity
  8
0
100
AcDbLine
 10
295.0
 20
107.0
 30
0.0
 11
297.048
 21
107.288
 31
0.0
  0
LINE
  5
67
330
1E
100
AcDbEntity
  8
0
100
AcDbLine
 10
288.056
 20
102.848
 30
0.0
 11
291.4159999999999
 21
101.5039999999999
 31
0.0
  0
LINE
  5
68
330
1E
100
AcDbEntity
  8
0
100
AcDbLine
 10
285.0879999999999
 20
105.088
 30
0.0
 11
288.056
 21
102.848
 31
0.0
  0
LINE
  5
69
330
1E
100
AcDbEntity
  8
0
100
AcDbLine
 10
287.0
 20
115.0
 30
0.0
 11
287.288
 21
117.0479999999999
 31
0.0
  0
LINE
  5
6A
330
1E
100
AcDbEntity
  8
0
100
AcDbLine
 10
287.0
 20
115.0
 30
0.0
 11
287.288
 21
112.952
 31
0.0
  0
LINE
  5
6B
330
1E
100
AcDbEntity
  8
0
100
AcDbLine
 10
287.48
 20
112.9839999999999
 30
0.0
 11
288.248
 21
111.1279999999999
 31
0.0
  0
LINE
  5
6C
330
1E
100
AcDbEntity
  8
0
100
AcDbLine
 10
287.288
 20
112.952
 30
0.0
 11
288.056
 21
111.032
 31
0.0
  0
LINE
  5
6D
330
1E
100
AcDbEntity
  8
0
100
AcDbLine
 10
288.248
 20
111.1279999999999
 30
0.0
 11
289.4959999999999
 21
109.496
 31
0.0
  0
LINE
  5
6E
330
1E
100
AcDbEntity
  8
0
100
AcDbLine
 10
289.4959999999999
 20
109.496
 30
0.0
 11
291.128
 21
108.2479999999999
 31
0.0
  0
LINE
  5
6F
330
1E
100
AcDbEntity
  8
0
100
AcDbLine
 10
288.056
 20
111.032
 30
0.0
 11
289.336
 21
109.336
 31
0.0
  0
LINE
  5
70
330
1E
100
AcDbEntity
  8
0
100
AcDbLine
 10
289.336
 20
109.336
 30
0.0
 11
291.032
 21
108.0559999999999
 31
0.0
  0
LINE
  5
71
330
1E
100
AcDbEntity
  8
0
100
AcDbLine
 10
287.192
 20
115.0
 30
0.0
 11
287.48
 21
117.016
 31
0.0
  0
LINE
  5
72
330
1E
100
AcDbEntity
  8
0
100
AcDbLine
 10
287.192
 20
115.0
 30
0.0
 11
287.48
 21
112.9839999999999
 31
0.0
  0
LINE
  5
75
330
1E
100
AcDbEntity
  8
0
100
AcDbLine
 10
291.128
 20
108.2479999999999
 30
0.0
 11
292.984
 21
107.4799999999999
 31
0.0
  0
LINE
  5
76
330
1E
100
AcDbEntity
  8
0
100
AcDbLine
 10
300.504
 20
109.496
 30
0.0
 11
301.752
 21
111.1279999999999
 31
0.0
  0
LINE
  5
77
330
1E
100
AcDbEntity
  8
0
100
AcDbLine
 10
298.872
 20
108.2479999999999
 30
0.0
 11
300.504
 21
109.496
 31
0.0
  0
LINE
  5
78
330
1E
100
AcDbEntity
  8
0
100
AcDbLine
 10
300.6639999999999
 20
109.336
 30
0.0
 11
301.944
 21
111.032
 31
0.0
  0
LINE
  5
79
330
1E
100
AcDbEntity
  8
0
100
AcDbLine
 10
295.0
 20
110.12
 30
0.0
 11
296.26
 21
110.2999999999999
 31
0.0
  0
LINE
  5
7A
330
1E
100
AcDbEntity
  8
0
100
AcDbLine
 10
290.3
 20
113.7399999999999
 30
0.0
 11
290.7799999999999
 21
112.5799999999999
 31
0.0
  0
LINE
  5
7C
330
1E
100
AcDbEntity
  8
0
100
AcDbLine
 10
290.7799999999999
 20
112.5799999999999
 30
0.0
 11
291.5599999999999
 21
111.56
 31
0.0
  0
LINE
  5
7D
330
1E
100
AcDbEntity
  8
0
100
AcDbLine
 10
291.5599999999999
 20
111.56
 30
0.0
 11
292.5799999999999
 21
110.78
 31
0.0
  0
LINE
  5
80
330
1E
100
AcDbEntity
  8
0
100
AcDbLine
 10
293.74
 20
110.2999999999999
 30
0.0
 11
295.0
 21
110.12
 31
0.0
  0
LINE
  5
81
330
1E
100
AcDbEntity
  8
0
100
AcDbLine
 10
292.5799999999999
 20
110.78
 30
0.0
 11
293.74
 21
110.2999999999999
 31
0.0
  0
LINE
  5
82
330
1E
100
AcDbEntity
  8
0
100
AcDbLine
 10
296.26
 20
110.2999999999999
 30
0.0
 11
297.42
 21
110.78
 31
0.0
  0
LINE
  5
85
330
1E
100
AcDbEntity
  8
0
100
AcDbLine
 10
298.4399999999999
 20
111.56
 30
0.0
 11
299.22
 21
112.5799999999999
 31
0.0
  0
LINE
  5
86
330
1E
100
AcDbEntity
  8
0
100
AcDbLine
 10
297.42
 20
110.78
 30
0.0
 11
298.4399999999999
 21
111.56
 31
0.0
  0
LINE
  5
87
330
1E
100
AcDbEntity
  8
0
100
AcDbLine
 10
301.752
 20
111.1279999999999
 30
0.0
 11
302.5199999999999
 21
112.9839999999999
 31
0.0
  0
LINE
  5
88
330
1E
100
AcDbEntity
  8
0
100
AcDbLine
 10
301.944
 20
111.032
 30
0.0
 11
302.712
 21
112.952
 31
0.0
  0
LINE
  5
89
330
1E
100
AcDbEntity
  8
0
100
AcDbLine
 10
299.22
 20
112.5799999999999
 30
0.0
 11
299.6999999999999
 21
113.7399999999999
 31
0.0
  0
LINE
  5
8A
330
1E
100
AcDbEntity
  8
0
100
AcDbLine
 10
299.6999999999999
 20
113.7399999999999
 30
0.0
 11
299.88
 21
115.0
 31
0.0
  0
LINE
  5
90
330
1E
100
AcDbEntity
  8
0
100
AcDbLine
 10
290.12
 20
115.0
 30
0.0
 11
290.3
 21
116.26
 31
0.0
  0
LINE
  5
91
330
1E
100
AcDbEntity
  8
0
100
AcDbLine
 10
290.12
 20
115.0
 30
0.0
 11
290.3
 21
113.7399999999999
 31
0.0
  0
LINE
  5
92
330
1E
100
AcDbEntity
  8
0
100
AcDbLine
 10
282.848
 20
108.0559999999999
 30
0.0
 11
285.0879999999999
 21
105.088
 31
0.0
  0
LINE
  5
93
330
1E
100
AcDbEntity
  8
0
100
AcDbLine
 10
281.504
 20
111.416
 30
0.0
 11
282.848
 21
108.0559999999999
 31
0.0
  0
LINE
  5
94
330
1E
100
AcDbEntity
  8
0
100
AcDbLine
 10
298.5839999999999
 20
101.5039999999999
 30
0.0
 11
301.944
 21
102.848
 31
0.0
  0
LINE
  5
95
330
1E
100
AcDbEntity
  8
0
100
AcDbLine
 10
302.5199999999999
 20
112.9839999999999
 30
0.0
 11
302.808
 21
115.0
 31
0.0
  0
LINE
  5
96
330
1E
100
AcDbEntity
  8
0
100
AcDbLine
 10
302.712
 20
112.952
 30
0.0
 11
303.0
 21
115.0
 31
0.0
  0
LINE
  5
97
330
1E
100
AcDbEntity
  8
0
100
AcDbLine
 10
301.944
 20
102.848
 30
0.0
 11
304.912
 21
105.088
 31
0.0
  0
LINE
  5
98
330
1E
100
AcDbEntity
  8
0
100
AcDbLine
 10
287.48
 20
117.016
 30
0.0
 11
288.248
 21
118.872
 31
0.0
  0
LINE
  5
99
330
1E
100
AcDbEntity
  8
0
100
AcDbLine
 10
287.288
 20
117.0479999999999
 30
0.0
 11
288.056
 21
118.9679999999999
 31
0.0
  0
LINE
  5
9B
330
1E
100
AcDbEntity
  8
0
100
AcDbLine
 10
290.3
 20
116.26
 30
0.0
 11
290.7799999999999
 21
117.42
 31
0.0
  0
LINE
  5
9C
330
1E
100
AcDbEntity
  8
0
100
AcDbLine
 10
288.248
 20
118.872
 30
0.0
 11
289.4959999999999
 21
120.5039999999999
 31
0.0
  0
LINE
  5
9D
330
1E
100
AcDbEntity
  8
0
100
AcDbLine
 10
288.056
 20
118.9679999999999
 30
0.0
 11
289.336
 21
120.6639999999999
 31
0.0
  0
LINE
  5
9F
330
1E
100
AcDbEntity
  8
0
100
AcDbLine
 10
290.7799999999999
 20
117.42
 30
0.0
 11
291.5599999999999
 21
118.4399999999999
 31
0.0
  0
LINE
  5
A0
330
1E
100
AcDbEntity
  8
0
100
AcDbLine
 10
291.5599999999999
 20
118.4399999999999
 30
0.0
 11
292.5799999999999
 21
119.2199999999999
 31
0.0
  0
LINE
  5
A2
330
1E
100
AcDbEntity
  8
0
100
AcDbLine
 10
292.5799999999999
 20
119.2199999999999
 30
0.0
 11
293.74
 21
119.7
 31
0.0
  0
LINE
  5
A4
330
1E
100
AcDbEntity
  8
0
100
AcDbLine
 10
293.74
 20
119.7
 30
0.0
 11
295.0
 21
119.88
 31
0.0
  0
LINE
  5
A5
330
1E
100
AcDbEntity
  8
0
100
AcDbLine
 10
289.4959999999999
 20
120.5039999999999
 30
0.0
 11
291.128
 21
121.752
 31
0.0
  0
LINE
  5
A6
330
1E
100
AcDbEntity
  8
0
100
AcDbLine
 10
289.336
 20
120.6639999999999
 30
0.0
 11
291.032
 21
121.944
 31
0.0
  0
LINE
  5
A7
330
1E
100
AcDbEntity
  8
0
100
AcDbLine
 10
291.128
 20
121.752
 30
0.0
 11
292.984
 21
122.52
 31
0.0
  0
LINE
  5
A8
330
1E
100
AcDbEntity
  8
0
100
AcDbLine
 10
291.032
 20
121.944
 30
0.0
 11
292.952
 21
122.7119999999999
 31
0.0
  0
LINE
  5
AA
330
1E
100
AcDbEntity
  8
0
100
AcDbLine
 10
299.6999999999999
 20
116.26
 30
0.0
 11
299.88
 21
115.0
 31
0.0
  0
LINE
  5
AB
330
1E
100
AcDbEntity
  8
0
100
AcDbLine
 10
302.5199999999999
 20
117.016
 30
0.0
 11
302.808
 21
115.0
 31
0.0
  0
LINE
  5
AC
330
1E
100
AcDbEntity
  8
0
100
AcDbLine
 10
302.712
 20
117.0479999999999
 30
0.0
 11
303.0
 21
115.0
 31
0.0
  0
LINE
  5
AE
330
1E
100
AcDbEntity
  8
0
100
AcDbLine
 10
301.944
 20
118.9679999999999
 30
0.0
 11
302.712
 21
117.0479999999999
 31
0.0
  0
LINE
  5
AF
330
1E
100
AcDbEntity
  8
0
100
AcDbLine
 10
301.752
 20
118.872
 30
0.0
 11
302.5199999999999
 21
117.016
 31
0.0
  0
LINE
  5
B1
330
1E
100
AcDbEntity
  8
0
100
AcDbLine
 10
299.22
 20
117.42
 30
0.0
 11
299.6999999999999
 21
116.26
 31
0.0
  0
LINE
  5
B2
330
1E
100
AcDbEntity
  8
0
100
AcDbLine
 10
298.4399999999999
 20
118.4399999999999
 30
0.0
 11
299.22
 21
117.42
 31
0.0
  0
LINE
  5
B4
330
1E
100
AcDbEntity
  8
0
100
AcDbLine
 10
297.42
 20
119.2199999999999
 30
0.0
 11
298.4399999999999
 21
118.4399999999999
 31
0.0
  0
LINE
  5
B5
330
1E
100
AcDbEntity
  8
0
100
AcDbLine
 10
300.6639999999999
 20
120.6639999999999
 30
0.0
 11
301.944
 21
118.9679999999999
 31
0.0
  0
LINE
  5
B6
330
1E
100
AcDbEntity
  8
0
100
AcDbLine
 10
300.504
 20
120.5039999999999
 30
0.0
 11
301.752
 21
118.872
 31
0.0
  0
LINE
  5
B7
330
1E
100
AcDbEntity
  8
0
100
AcDbLine
 10
298.968
 20
121.944
 30
0.0
 11
300.6639999999999
 21
120.6639999999999
 31
0.0
  0
LINE
  5
B8
330
1E
100
AcDbEntity
  8
0
100
AcDbLine
 10
298.872
 20
121.752
 30
0.0
 11
300.504
 21
120.5039999999999
 31
0.0
  0
LINE
  5
B9
330
1E
100
AcDbEntity
  8
0
100
AcDbLine
 10
296.26
 20
119.7
 30
0.0
 11
297.42
 21
119.2199999999999
 31
0.0
  0
LINE
  5
BA
330
1E
100
AcDbEntity
  8
0
100
AcDbLine
 10
295.0
 20
119.88
 30
0.0
 11
296.26
 21
119.7
 31
0.0
  0
LINE
  5
BB
330
1E
100
AcDbEntity
  8
0
100
AcDbLine
 10
292.984
 20
122.52
 30
0.0
 11
295.0
 21
122.808
 31
0.0
  0
LINE
  5
BC
330
1E
100
AcDbEntity
  8
0
100
AcDbLine
 10
292.952
 20
122.7119999999999
 30
0.0
 11
295.0
 21
123.0
 31
0.0
  0
LINE
  5
BD
330
1E
100
AcDbEntity
  8
0
100
AcDbLine
 10
297.048
 20
122.7119999999999
 30
0.0
 11
298.968
 21
121.944
 31
0.0
  0
LINE
  5
BE
330
1E
100
AcDbEntity
  8
0
100
AcDbLine
 10
297.0159999999999
 20
122.52
 30
0.0
 11
298.872
 21
121.752
 31
0.0
  0
LINE
  5
BF
330
1E
100
AcDbEntity
  8
0
100
AcDbLine
 10
295.0
 20
123.0
 30
0.0
 11
297.048
 21
122.7119999999999
 31
0.0
  0
LINE
  5
C0
330
1E
100
AcDbEntity
  8
0
100
AcDbLine
 10
295.0
 20
122.808
 30
0.0
 11
297.0159999999999
 21
122.52
 31
0.0
  0
LINE
  5
C1
330
1E
100
AcDbEntity
  8
0
100
AcDbLine
 10
301.944
 20
127.1519999999999
 30
0.0
 11
304.912
 21
124.912
 31
0.0
  0
LINE
  5
C2
330
1E
100
AcDbEntity
  8
0
100
AcDbLine
 10
298.5839999999999
 20
128.496
 30
0.0
 11
301.944
 21
127.1519999999999
 31
0.0
  0
LINE
  5
C3
330
1E
100
AcDbEntity
  8
0
100
AcDbLine
 10
295.0
 20
129.0
 30
0.0
 11
298.5839999999999
 21
128.496
 31
0.0
  0
LINE
  5
C4
330
1E
100
AcDbEntity
  8
0
100
AcDbLine
 10
291.4159999999999
 20
128.496
 30
0.0
 11
295.0
 21
129.0
 31
0.0
  0
LINE
  5
C5
330
1E
100
AcDbEntity
  8
0
100
AcDbLine
 10
288.056
 20
127.1519999999999
 30
0.0
 11
291.4159999999999
 21
128.496
 31
0.0
  0
LINE
  5
C6
330
1E
100
AcDbEntity
  8
0
100
AcDbLine
 10
285.0879999999999
 20
124.912
 30
0.0
 11
288.056
 21
127.1519999999999
 31
0.0
  0
LINE
  5
C7
330
1E
100
AcDbEntity
  8
0
100
AcDbLine
 10
282.848
 20
121.944
 30
0.0
 11
285.0879999999999
 21
124.912
 31
0.0
  0
LINE
  5
C8
330
1E
100
AcDbEntity
  8
0
100
AcDbLine
 10
281.504
 20
118.5839999999999
 30
0.0
 11
282.848
 21
121.944
 31
0.0
  0
LINE
  5
C9
330
1E
100
AcDbEntity
  8
0
100
AcDbLine
 10
281.0
 20
115.0
 30
0.0
 11
281.504
 21
118.5839999999999
 31
0.0
  0
LINE
  5
CA
330
1E
100
AcDbEntity
  8
0
100
AcDbLine
 10
281.0
 20
115.0
 30
0.0
 11
281.504
 21
111.416
 31
0.0
  0
LINE
  5
CB
330
1E
100
AcDbEntity
  8
0
100
AcDbLine
 10
279.1279999999999
 20
87.22399999999998
 30
0.0
 11
286.8079999999999
 21
84.152
 31
0.0
  0
LINE
  5
CC
330
1E
100
AcDbEntity
  8
0
100
AcDbLine
 10
286.8079999999999
 20
84.152
 30
0.0
 11
295.0
 21
83.0
 31
0.0
  0
LINE
  5
CD
330
1E
100
AcDbEntity
  8
0
100
AcDbLine
 10
306.904
 20
94.168
 30
0.0
 11
311.992
 21
98.008
 31
0.0
  0
LINE
  5
CE
330
1E
100
AcDbEntity
  8
0
100
AcDbLine
 10
308.3919999999999
 20
91.5640000000001
 30
0.0
 11
314.1159999999999
 21
95.884
 31
0.0
  0
LINE
  5
CF
330
1E
100
AcDbEntity
  8
0
100
AcDbLine
 10
304.912
 20
105.088
 30
0.0
 11
307.152
 21
108.0559999999999
 31
0.0
  0
LINE
  5
D0
330
1E
100
AcDbEntity
  8
0
100
AcDbLine
 10
307.152
 20
108.0559999999999
 30
0.0
 11
308.4959999999999
 21
111.416
 31
0.0
  0
LINE
  5
D1
330
1E
100
AcDbEntity
  8
0
100
AcDbLine
 10
311.992
 20
98.008
 30
0.0
 11
315.8319999999999
 21
103.096
 31
0.0
  0
LINE
  5
D2
330
1E
100
AcDbEntity
  8
0
100
AcDbLine
 10
315.8319999999999
 20
103.096
 30
0.0
 11
318.1359999999999
 21
108.856
 31
0.0
  0
LINE
  5
D3
330
1E
100
AcDbEntity
  8
0
100
AcDbLine
 10
314.1159999999999
 20
95.884
 30
0.0
 11
318.4359999999999
 21
101.6079999999999
 31
0.0
  0
LINE
  5
D4
330
1E
100
AcDbEntity
  8
0
100
AcDbLine
 10
308.4959999999999
 20
111.416
 30
0.0
 11
309.0
 21
115.0
 31
0.0
  0
LINE
  5
D5
330
1E
100
AcDbEntity
  8
0
100
AcDbLine
 10
304.912
 20
124.912
 30
0.0
 11
307.152
 21
121.944
 31
0.0
  0
LINE
  5
D6
330
1E
100
AcDbEntity
  8
0
100
AcDbLine
 10
315.8319999999999
 20
126.9039999999999
 30
0.0
 11
318.1359999999999
 21
121.1439999999999
 31
0.0
  0
LINE
  5
D7
330
1E
100
AcDbEntity
  8
0
100
AcDbLine
 10
307.152
 20
121.944
 30
0.0
 11
308.4959999999999
 21
118.5839999999999
 31
0.0
  0
LINE
  5
D8
330
1E
100
AcDbEntity
  8
0
100
AcDbLine
 10
308.4959999999999
 20
118.5839999999999
 30
0.0
 11
309.0
 21
115.0
 31
0.0
  0
LINE
  5
D9
330
1E
100
AcDbEntity
  8
0
100
AcDbLine
 10
318.1359999999999
 20
108.856
 30
0.0
 11
319.0
 21
115.0
 31
0.0
  0
LINE
  5
DA
330
1E
100
AcDbEntity
  8
0
100
AcDbLine
 10
318.1359999999999
 20
121.1439999999999
 30
0.0
 11
319.0
 21
115.0
 31
0.0
  0
LINE
  5
DB
330
1E
100
AcDbEntity
  8
0
100
AcDbLine
 10
318.4359999999999
 20
101.6079999999999
 30
0.0
 11
321.028
 21
108.088
 31
0.0
  0
LINE
  5
DC
330
1E
100
AcDbEntity
  8
0
100
AcDbLine
 10
321.028
 20
108.088
 30
0.0
 11
322.0
 21
115.0
 31
0.0
  0
LINE
  5
DD
330
1E
100
AcDbEntity
  8
0
100
AcDbLine
 10
318.4359999999999
 20
128.3919999999999
 30
0.0
 11
321.028
 21
121.9119999999999
 31
0.0
  0
LINE
  5
DE
330
1E
100
AcDbEntity
  8
0
100
AcDbLine
 10
321.028
 20
121.9119999999999
 30
0.0
 11
322.0
 21
115.0
 31
0.0
  0
LINE
  5
DF
330
1E
100
AcDbEntity
  8
0
100
AcDbLine
 10
325.848
 20
106.8079999999999
 30
0.0
 11
327.0
 21
115.0
 31
0.0
  0
LINE
  5
E0
330
1E
100
AcDbEntity
  8
0
100
AcDbLine
 10
322.7759999999999
 20
99.12799999999998
 30
0.0
 11
325.848
 21
106.8079999999999
 31
0.0
  0
LINE
  5
E1
330
1E
100
AcDbEntity
  8
0
100
AcDbLine
 10
317.656
 20
92.34400000000009
 30
0.0
 11
322.7759999999999
 21
99.12799999999998
 31
0.0
  0
LINE
  5
E2
330
1E
100
AcDbEntity
  8
0
100
AcDbLine
 10
310.872
 20
87.22399999999998
 30
0.0
 11
317.656
 21
92.34400000000009
 31
0.0
  0
LINE
  5
E3
330
1E
100
AcDbEntity
  8
0
100
AcDbLine
 10
303.1919999999999
 20
84.152
 30
0.0
 11
310.872
 21
87.22399999999998
 31
0.0
  0
LINE
  5
E4
330
1E
100
AcDbEntity
  8
0
100
AcDbLine
 10
295.0
 20
83.0
 30
0.0
 11
303.1919999999999
 21
84.152
 31
0.0
  0
LINE
  5
E5
330
1E
100
AcDbEntity
  8
0
100
AcDbLine
 10
264.1519999999999
 20
123.192
 30
0.0
 11
267.2239999999999
 21
130.872
 31
0.0
  0
LINE
  5
E6
330
1E
100
AcDbEntity
  8
0
100
AcDbLine
 10
267.2239999999999
 20
130.872
 30
0.0
 11
272.344
 21
137.656
 31
0.0
  0
LINE
  5
E7
330
1E
100
AcDbEntity
  8
0
100
AcDbLine
 10
374.1519999999999
 20
106.8079999999999
 30
0.0
 11
377.224
 21
99.12799999999998
 31
0.0
  0
LINE
  5
E8
330
1E
100
AcDbEntity
  8
0
100
AcDbLine
 10
387.768
 20
105.0
 30
0.0
 11
390.876
 21
100.8756999999999
 31
0.0
  0
LINE
  5
E9
330
1E
100
AcDbEntity
  8
0
100
AcDbLine
 10
385.734
 20
109.7458
 30
0.0
 11
387.768
 21
105.0
 31
0.0
  0
LINE
  5
EA
330
1E
100
AcDbEntity
  8
0
100
AcDbLine
 10
385.0
 20
115.0
 30
0.0
 11
385.734
 21
120.2539999999999
 31
0.0
  0
LINE
  5
EB
330
1E
100
AcDbEntity
  8
0
100
AcDbLine
 10
385.0
 20
115.0
 30
0.0
 11
385.734
 21
109.7458
 31
0.0
  0
LINE
  5
EC
330
1E
100
AcDbEntity
  8
0
100
AcDbLine
 10
377.224
 20
99.12799999999998
 30
0.0
 11
382.344
 21
92.34400000000009
 31
0.0
  0
LINE
  5
ED
330
1E
100
AcDbEntity
  8
0
100
AcDbLine
 10
382.344
 20
92.34400000000009
 30
0.0
 11
389.128
 21
87.22399999999998
 31
0.0
  0
LINE
  5
EE
330
1E
100
AcDbEntity
  8
0
100
AcDbLine
 10
395.0
 20
97.76839999999999
 30
0.0
 11
399.7459999999999
 21
95.73449999999999
 31
0.0
  0
LINE
  5
EF
330
1E
100
AcDbEntity
  8
0
100
AcDbLine
 10
390.876
 20
100.8756999999999
 30
0.0
 11
395.0
 21
97.76839999999999
 31
0.0
  0
LINE
  5
F1
330
1E
100
AcDbEntity
  8
0
100
AcDbLine
 10
399.7459999999999
 20
95.73449999999999
 30
0.0
 11
405.0
 21
95.0
 31
0.0
  0
LINE
  5
F2
330
1E
100
AcDbEntity
  8
0
100
AcDbLine
 10
405.0
 20
95.0
 30
0.0
 11
410.254
 21
95.73449999999999
 31
0.0
  0
LINE
  5
F3
330
1E
100
AcDbEntity
  8
0
100
AcDbLine
 10
400.864
 20
110.8643999999999
 30
0.0
 11
402.085
 21
109.9492
 31
0.0
  0
LINE
  5
F4
330
1E
100
AcDbEntity
  8
0
100
AcDbLine
 10
402.085
 20
109.9492
 30
0.0
 11
403.475
 21
109.3728999999999
 31
0.0
  0
LINE
  5
F6
330
1E
100
AcDbEntity
  8
0
100
AcDbLine
 10
403.475
 20
109.3728999999999
 30
0.0
 11
405.0
 21
109.1695
 31
0.0
  0
LINE
  5
F7
330
1E
100
AcDbEntity
  8
0
100
AcDbLine
 10
405.0
 20
109.1695
 30
0.0
 11
406.5249999999999
 21
109.3728999999999
 31
0.0
  0
LINE
  5
FB
330
1E
100
AcDbEntity
  8
0
100
AcDbLine
 10
399.949
 20
112.0846999999999
 30
0.0
 11
400.864
 21
110.8643999999999
 31
0.0
  0
LINE
  5
FD
330
1E
100
AcDbEntity
  8
0
100
AcDbLine
 10
399.373
 20
113.4746
 30
0.0
 11
399.949
 21
112.0846999999999
 31
0.0
  0
LINE
  5
FF
330
1E
100
AcDbEntity
  8
0
100
AcDbLine
 10
399.169
 20
115.0
 30
0.0
 11
399.373
 21
116.525
 31
0.0
  0
LINE
  5
100
330
1E
100
AcDbEntity
  8
0
100
AcDbLine
 10
399.169
 20
115.0
 30
0.0
 11
399.373
 21
113.4746
 31
0.0
  0
LINE
  5
101
330
1E
100
AcDbEntity
  8
0
100
AcDbLine
 10
389.128
 20
87.22399999999998
 30
0.0
 11
396.808
 21
84.152
 31
0.0
  0
LINE
  5
102
330
1E
100
AcDbEntity
  8
0
100
AcDbLine
 10
396.808
 20
84.152
 30
0.0
 11
405.0
 21
83.0
 31
0.0
  0
LINE
  5
103
330
1E
100
AcDbEntity
  8
0
100
AcDbLine
 10
406.5249999999999
 20
109.3728999999999
 30
0.0
 11
407.915
 21
109.9492
 31
0.0
  0
LINE
  5
104
330
1E
100
AcDbEntity
  8
0
100
AcDbLine
 10
407.915
 20
109.9492
 30
0.0
 11
409.1359999999999
 21
110.8643999999999
 31
0.0
  0
LINE
  5
106
330
1E
100
AcDbEntity
  8
0
100
AcDbLine
 10
410.254
 20
95.73449999999999
 30
0.0
 11
415.0
 21
97.76839999999999
 31
0.0
  0
LINE
  5
107
330
1E
100
AcDbEntity
  8
0
100
AcDbLine
 10
415.0
 20
97.76839999999999
 30
0.0
 11
419.124
 21
100.8756999999999
 31
0.0
  0
LINE
  5
108
330
1E
100
AcDbEntity
  8
0
100
AcDbLine
 10
419.124
 20
100.8756999999999
 30
0.0
 11
422.2319999999999
 21
105.0
 31
0.0
  0
LINE
  5
10A
330
1E
100
AcDbEntity
  8
0
100
AcDbLine
 10
410.0509999999999
 20
112.0846999999999
 30
0.0
 11
410.6269999999999
 21
113.4746
 31
0.0
  0
LINE
  5
10B
330
1E
100
AcDbEntity
  8
0
100
AcDbLine
 10
409.1359999999999
 20
110.8643999999999
 30
0.0
 11
410.0509999999999
 21
112.0846999999999
 31
0.0
  0
LINE
  5
10C
330
1E
100
AcDbEntity
  8
0
100
AcDbLine
 10
410.6269999999999
 20
113.4746
 30
0.0
 11
410.8309999999999
 21
115.0
 31
0.0
  0
LINE
  5
10F
330
1E
100
AcDbEntity
  8
0
100
AcDbLine
 10
424.2659999999999
 20
109.7458
 30
0.0
 11
425.0
 21
115.0
 31
0.0
  0
LINE
  5
110
330
1E
100
AcDbEntity
  8
0
100
AcDbLine
 10
422.2319999999999
 20
105.0
 30
0.0
 11
424.2659999999999
 21
109.7458
 31
0.0
  0
LINE
  5
111
330
1E
100
AcDbEntity
  8
0
100
AcDbLine
 10
435.848
 20
106.8079999999999
 30
0.0
 11
437.0
 21
115.0
 31
0.0
  0
LINE
  5
112
330
1E
100
AcDbEntity
  8
0
100
AcDbLine
 10
432.776
 20
99.12799999999998
 30
0.0
 11
435.848
 21
106.8079999999999
 31
0.0
  0
LINE
  5
113
330
1E
100
AcDbEntity
  8
0
100
AcDbLine
 10
427.6559999999999
 20
92.34400000000009
 30
0.0
 11
432.776
 21
99.12799999999998
 31
0.0
  0
LINE
  5
114
330
1E
100
AcDbEntity
  8
0
100
AcDbLine
 10
420.8719999999999
 20
87.22399999999998
 30
0.0
 11
427.6559999999999
 21
92.34400000000009
 31
0.0
  0
LINE
  5
115
330
1E
100
AcDbEntity
  8
0
100
AcDbLine
 10
413.1919999999999
 20
84.152
 30
0.0
 11
420.8719999999999
 21
87.22399999999998
 31
0.0
  0
LINE
  5
116
330
1E
100
AcDbEntity
  8
0
100
AcDbLine
 10
405.0
 20
83.0
 30
0.0
 11
413.1919999999999
 21
84.152
 31
0.0
  0
LINE
  5
117
330
1E
100
AcDbEntity
  8
0
100
AcDbLine
 10
373.0
 20
115.0
 30
0.0
 11
374.1519999999999
 21
123.192
 31
0.0
  0
LINE
  5
118
330
1E
100
AcDbEntity
  8
0
100
AcDbLine
 10
373.0
 20
115.0
 30
0.0
 11
374.1519999999999
 21
106.8079999999999
 31
0.0
  0
LINE
  5
119
330
1E
100
AcDbEntity
  8
0
100
AcDbLine
 10
484.152
 20
106.8079999999999
 30
0.0
 11
487.2239999999999
 21
99.12799999999998
 31
0.0
  0
LINE
  5
11B
330
1E
100
AcDbEntity
  8
0
100
AcDbLine
 10
399.373
 20
116.525
 30
0.0
 11
399.949
 21
117.915
 31
0.0
  0
LINE
  5
11C
330
1E
100
AcDbEntity
  8
0
100
AcDbLine
 10
410.6269999999999
 20
116.525
 30
0.0
 11
410.8309999999999
 21
115.0
 31
0.0
  0
LINE
  5
11D
330
1E
100
AcDbEntity
  8
0
100
AcDbLine
 10
409.1359999999999
 20
119.136
 30
0.0
 11
410.0509999999999
 21
117.915
 31
0.0
  0
LINE
  5
11E
330
1E
100
AcDbEntity
  8
0
100
AcDbLine
 10
410.0509999999999
 20
117.915
 30
0.0
 11
410.6269999999999
 21
116.525
 31
0.0
  0
LINE
  5
121
330
1E
100
AcDbEntity
  8
0
100
AcDbLine
 10
399.949
 20
117.915
 30
0.0
 11
400.864
 21
119.136
 31
0.0
  0
LINE
  5
122
330
1E
100
AcDbEntity
  8
0
100
AcDbLine
 10
385.734
 20
120.2539999999999
 30
0.0
 11
387.768
 21
125.0
 31
0.0
  0
LINE
  5
123
330
1E
100
AcDbEntity
  8
0
100
AcDbLine
 10
387.768
 20
125.0
 30
0.0
 11
390.876
 21
129.1239999999999
 31
0.0
  0
LINE
  5
124
330
1E
100
AcDbEntity
  8
0
100
AcDbLine
 10
390.876
 20
129.1239999999999
 30
0.0
 11
395.0
 21
132.2319999999999
 31
0.0
  0
LINE
  5
128
330
1E
100
AcDbEntity
  8
0
100
AcDbLine
 10
424.2659999999999
 20
120.2539999999999
 30
0.0
 11
425.0
 21
115.0
 31
0.0
  0
LINE
  5
12A
330
1E
100
AcDbEntity
  8
0
100
AcDbLine
 10
407.915
 20
120.0509999999999
 30
0.0
 11
409.1359999999999
 21
119.136
 31
0.0
  0
LINE
  5
12B
330
1E
100
AcDbEntity
  8
0
100
AcDbLine
 10
406.5249999999999
 20
120.627
 30
0.0
 11
407.915
 21
120.0509999999999
 31
0.0
  0
LINE
  5
12D
330
1E
100
AcDbEntity
  8
0
100
AcDbLine
 10
419.124
 20
129.1239999999999
 30
0.0
 11
422.2319999999999
 21
125.0
 31
0.0
  0
LINE
  5
12E
330
1E
100
AcDbEntity
  8
0
100
AcDbLine
 10
422.2319999999999
 20
125.0
 30
0.0
 11
424.2659999999999
 21
120.2539999999999
 31
0.0
  0
LINE
  5
12F
330
1E
100
AcDbEntity
  8
0
100
AcDbLine
 10
405.0
 20
120.8299999999999
 30
0.0
 11
406.5249999999999
 21
120.627
 31
0.0
  0
LINE
  5
131
330
1E
100
AcDbEntity
  8
0
100
AcDbLine
 10
403.475
 20
120.627
 30
0.0
 11
405.0
 21
120.8299999999999
 31
0.0
  0
LINE
  5
132
330
1E
100
AcDbEntity
  8
0
100
AcDbLine
 10
402.085
 20
120.0509999999999
 30
0.0
 11
403.475
 21
120.627
 31
0.0
  0
LINE
  5
133
330
1E
100
AcDbEntity
  8
0
100
AcDbLine
 10
400.864
 20
119.136
 30
0.0
 11
402.085
 21
120.0509999999999
 31
0.0
  0
LINE
  5
134
330
1E
100
AcDbEntity
  8
0
100
AcDbLine
 10
374.1519999999999
 20
123.192
 30
0.0
 11
377.224
 21
130.872
 31
0.0
  0
LINE
  5
135
330
1E
100
AcDbEntity
  8
0
100
AcDbLine
 10
377.224
 20
130.872
 30
0.0
 11
382.344
 21
137.656
 31
0.0
  0
LINE
  5
136
330
1E
100
AcDbEntity
  8
0
100
AcDbLine
 10
435.848
 20
123.192
 30
0.0
 11
437.0
 21
115.0
 31
0.0
  0
LINE
  5
137
330
1E
100
AcDbEntity
  8
0
100
AcDbLine
 10
432.776
 20
130.872
 30
0.0
 11
435.848
 21
123.192
 31
0.0
  0
LINE
  5
138
330
1E
100
AcDbEntity
  8
0
100
AcDbLine
 10
483.0
 20
115.0
 30
0.0
 11
484.152
 21
123.192
 31
0.0
  0
LINE
  5
139
330
1E
100
AcDbEntity
  8
0
100
AcDbLine
 10
483.0
 20
115.0
 30
0.0
 11
484.152
 21
106.8079999999999
 31
0.0
  0
LINE
  5
13A
330
1E
100
AcDbEntity
  8
0
100
AcDbLine
 10
487.2239999999999
 20
99.12799999999998
 30
0.0
 11
492.344
 21
92.34400000000009
 31
0.0
  0
LINE
  5
13B
330
1E
100
AcDbEntity
  8
0
100
AcDbLine
 10
492.344
 20
92.34400000000009
 30
0.0
 11
499.128
 21
87.22399999999998
 31
0.0
  0
LINE
  5
13C
330
1E
100
AcDbEntity
  8
0
100
AcDbLine
 10
499.128
 20
87.22399999999998
 30
0.0
 11
506.8080000000001
 21
84.152
 31
0.0
  0
LINE
  5
13D
330
1E
100
AcDbEntity
  8
0
100
AcDbLine
 10
506.8080000000001
 20
84.152
 30
0.0
 11
515.0
 21
83.0
 31
0.0
  0
LINE
  5
13E
330
1E
100
AcDbEntity
  8
0
100
AcDbLine
 10
545.848
 20
106.8079999999999
 30
0.0
 11
547.0
 21
115.0
 31
0.0
  0
LINE
  5
13F
330
1E
100
AcDbEntity
  8
0
100
AcDbLine
 10
542.7759999999999
 20
99.12799999999998
 30
0.0
 11
545.848
 21
106.8079999999999
 31
0.0
  0
LINE
  5
140
330
1E
100
AcDbEntity
  8
0
100
AcDbLine
 10
537.6559999999999
 20
92.34400000000009
 30
0.0
 11
542.7759999999999
 21
99.12799999999998
 31
0.0
  0
LINE
  5
141
330
1E
100
AcDbEntity
  8
0
100
AcDbLine
 10
530.872
 20
87.22399999999998
 30
0.0
 11
537.6559999999999
 21
92.34400000000009
 31
0.0
  0
LINE
  5
142
330
1E
100
AcDbEntity
  8
0
100
AcDbLine
 10
523.192
 20
84.152
 30
0.0
 11
530.872
 21
87.22399999999998
 31
0.0
  0
LINE
  5
143
330
1E
100
AcDbEntity
  8
0
100
AcDbLine
 10
515.0
 20
83.0
 30
0.0
 11
523.192
 21
84.152
 31
0.0
  0
LINE
  5
144
330
1E
100
AcDbEntity
  8
0
100
AcDbLine
 10
484.152
 20
123.192
 30
0.0
 11
487.2239999999999
 21
130.872
 31
0.0
  0
LINE
  5
145
330
1E
100
AcDbEntity
  8
0
100
AcDbLine
 10
487.2239999999999
 20
130.872
 30
0.0
 11
492.344
 21
137.656
 31
0.0
  0
LINE
  5
146
330
1E
100
AcDbEntity
  8
0
100
AcDbLine
 10
545.848
 20
123.192
 30
0.0
 11
547.0
 21
115.0
 31
0.0
  0
LINE
  5
147
330
1E
100
AcDbEntity
  8
0
100
AcDbLine
 10
542.7759999999999
 20
130.872
 30
0.0
 11
545.848
 21
123.192
 31
0.0
  0
LINE
  5
148
330
1E
100
AcDbEntity
  8
0
100
AcDbLine
 10
325.848
 20
123.192
 30
0.0
 11
327.0
 21
115.0
 31
0.0
  0
LINE
  5
149
330
1E
100
AcDbEntity
  8
0
100
AcDbLine
 10
322.7759999999999
 20
130.872
 30
0.0
 11
325.848
 21
123.192
 31
0.0
  0
LINE
  5
14A
330
1E
100
AcDbEntity
  8
0
100
AcDbLine
 10
215.8479999999999
 20
123.192
 30
0.0
 11
217.0
 21
115.0
 31
0.0
  0
LINE
  5
14B
330
1E
100
AcDbEntity
  8
0
100
AcDbLine
 10
278.0079999999999
 20
131.992
 30
0.0
 11
283.096
 21
135.8319999999999
 31
0.0
  0
LINE
  5
14C
330
1E
100
AcDbEntity
  8
0
100
AcDbLine
 10
301.144
 20
138.1359999999999
 30
0.0
 11
306.904
 21
135.8319999999999
 31
0.0
  0
LINE
  5
14D
330
1E
100
AcDbEntity
  8
0
100
AcDbLine
 10
306.904
 20
135.8319999999999
 30
0.0
 11
311.992
 21
131.992
 31
0.0
  0
LINE
  5
14E
330
1E
100
AcDbEntity
  8
0
100
AcDbLine
 10
295.0
 20
139.0
 30
0.0
 11
301.144
 21
138.1359999999999
 31
0.0
  0
LINE
  5
14F
330
1E
100
AcDbEntity
  8
0
100
AcDbLine
 10
288.856
 20
138.1359999999999
 30
0.0
 11
295.0
 21
139.0
 31
0.0
  0
LINE
  5
150
330
1E
100
AcDbEntity
  8
0
100
AcDbLine
 10
283.096
 20
135.8319999999999
 30
0.0
 11
288.856
 21
138.1359999999999
 31
0.0
  0
LINE
  5
151
330
1E
100
AcDbEntity
  8
0
100
AcDbLine
 10
301.912
 20
141.028
 30
0.0
 11
308.3919999999999
 21
138.436
 31
0.0
  0
LINE
  5
152
330
1E
100
AcDbEntity
  8
0
100
AcDbLine
 10
308.3919999999999
 20
138.436
 30
0.0
 11
314.1159999999999
 21
134.116
 31
0.0
  0
LINE
  5
153
330
1E
100
AcDbEntity
  8
0
100
AcDbLine
 10
295.0
 20
142.0
 30
0.0
 11
301.912
 21
141.028
 31
0.0
  0
LINE
  5
154
330
1E
100
AcDbEntity
  8
0
100
AcDbLine
 10
288.0879999999999
 20
141.028
 30
0.0
 11
295.0
 21
142.0
 31
0.0
  0
LINE
  5
155
330
1E
100
AcDbEntity
  8
0
100
AcDbLine
 10
281.6079999999999
 20
138.436
 30
0.0
 11
288.0879999999999
 21
141.028
 31
0.0
  0
LINE
  5
156
330
1E
100
AcDbEntity
  8
0
100
AcDbLine
 10
275.884
 20
134.116
 30
0.0
 11
281.6079999999999
 21
138.436
 31
0.0
  0
LINE
  5
157
330
1E
100
AcDbEntity
  8
0
100
AcDbLine
 10
272.344
 20
137.656
 30
0.0
 11
279.1279999999999
 21
142.776
 31
0.0
  0
LINE
  5
158
330
1E
100
AcDbEntity
  8
0
100
AcDbLine
 10
279.1279999999999
 20
142.776
 30
0.0
 11
286.8079999999999
 21
145.8479999999999
 31
0.0
  0
LINE
  5
159
330
1E
100
AcDbEntity
  8
0
100
AcDbLine
 10
311.992
 20
131.992
 30
0.0
 11
315.8319999999999
 21
126.9039999999999
 31
0.0
  0
LINE
  5
15A
330
1E
100
AcDbEntity
  8
0
100
AcDbLine
 10
314.1159999999999
 20
134.116
 30
0.0
 11
318.4359999999999
 21
128.3919999999999
 31
0.0
  0
LINE
  5
15B
330
1E
100
AcDbEntity
  8
0
100
AcDbLine
 10
415.0
 20
132.2319999999999
 30
0.0
 11
419.124
 21
129.1239999999999
 31
0.0
  0
LINE
  5
15C
330
1E
100
AcDbEntity
  8
0
100
AcDbLine
 10
410.254
 20
134.2659999999999
 30
0.0
 11
415.0
 21
132.2319999999999
 31
0.0
  0
LINE
  5
15D
330
1E
100
AcDbEntity
  8
0
100
AcDbLine
 10
405.0
 20
135.0
 30
0.0
 11
410.254
 21
134.2659999999999
 31
0.0
  0
LINE
  5
15E
330
1E
100
AcDbEntity
  8
0
100
AcDbLine
 10
399.7459999999999
 20
134.2659999999999
 30
0.0
 11
405.0
 21
135.0
 31
0.0
  0
LINE
  5
15F
330
1E
100
AcDbEntity
  8
0
100
AcDbLine
 10
395.0
 20
132.2319999999999
 30
0.0
 11
399.7459999999999
 21
134.2659999999999
 31
0.0
  0
LINE
  5
160
330
1E
100
AcDbEntity
  8
0
100
AcDbLine
 10
382.344
 20
137.656
 30
0.0
 11
389.128
 21
142.776
 31
0.0
  0
LINE
  5
161
330
1E
100
AcDbEntity
  8
0
100
AcDbLine
 10
427.6559999999999
 20
137.656
 30
0.0
 11
432.776
 21
130.872
 31
0.0
  0
LINE
  5
162
330
1E
100
AcDbEntity
  8
0
100
AcDbLine
 10
492.344
 20
137.656
 30
0.0
 11
499.128
 21
142.776
 31
0.0
  0
LINE
  5
163
330
1E
100
AcDbEntity
  8
0
100
AcDbLine
 10
537.6559999999999
 20
137.656
 30
0.0
 11
542.7759999999999
 21
130.872
 31
0.0
  0
LINE
  5
164
330
1E
100
AcDbEntity
  8
0
100
AcDbLine
 10
389.128
 20
142.776
 30
0.0
 11
396.808
 21
145.8479999999999
 31
0.0
  0
LINE
  5
165
330
1E
100
AcDbEntity
  8
0
100
AcDbLine
 10
420.8719999999999
 20
142.776
 30
0.0
 11
427.6559999999999
 21
137.656
 31
0.0
  0
LINE
  5
166
330
1E
100
AcDbEntity
  8
0
100
AcDbLine
 10
499.128
 20
142.776
 30
0.0
 11
506.8080000000001
 21
145.8479999999999
 31
0.0
  0
LINE
  5
167
330
1E
100
AcDbEntity
  8
0
100
AcDbLine
 10
530.872
 20
142.776
 30
0.0
 11
537.6559999999999
 21
137.656
 31
0.0
  0
LINE
  5
168
330
1E
100
AcDbEntity
  8
0
100
AcDbLine
 10
317.656
 20
137.656
 30
0.0
 11
322.7759999999999
 21
130.872
 31
0.0
  0
LINE
  5
169
330
1E
100
AcDbEntity
  8
0
100
AcDbLine
 10
310.872
 20
142.776
 30
0.0
 11
317.656
 21
137.656
 31
0.0
  0
LINE
  5
16A
330
1E
100
AcDbEntity
  8
0
100
AcDbLine
 10
212.7759999999999
 20
130.872
 30
0.0
 11
215.8479999999999
 21
123.192
 31
0.0
  0
LINE
  5
16B
330
1E
100
AcDbEntity
  8
0
100
AcDbLine
 10
207.6559999999999
 20
137.656
 30
0.0
 11
212.7759999999999
 21
130.872
 31
0.0
  0
LINE
  5
16C
330
1E
100
AcDbEntity
  8
0
100
AcDbLine
 10
286.8079999999999
 20
145.8479999999999
 30
0.0
 11
295.0
 21
147.0
 31
0.0
  0
LINE
  5
16D
330
1E
100
AcDbEntity
  8
0
100
AcDbLine
 10
396.808
 20
145.8479999999999
 30
0.0
 11
405.0
 21
147.0
 31
0.0
  0
LINE
  5
16E
330
1E
100
AcDbEntity
  8
0
100
AcDbLine
 10
413.1919999999999
 20
145.8479999999999
 30
0.0
 11
420.8719999999999
 21
142.776
 31
0.0
  0
LINE
  5
16F
330
1E
100
AcDbEntity
  8
0
100
AcDbLine
 10
506.8080000000001
 20
145.8479999999999
 30
0.0
 11
515.0
 21
147.0
 31
0.0
  0
LINE
  5
170
330
1E
100
AcDbEntity
  8
0
100
AcDbLine
 10
523.192
 20
145.8479999999999
 30
0.0
 11
530.872
 21
142.776
 31
0.0
  0
LINE
  5
171
330
1E
100
AcDbEntity
  8
0
100
AcDbLine
 10
405.0
 20
147.0
 30
0.0
 11
413.1919999999999
 21
145.8479999999999
 31
0.0
  0
LINE
  5
172
330
1E
100
AcDbEntity
  8
0
100
AcDbLine
 10
515.0
 20
147.0
 30
0.0
 11
523.192
 21
145.8479999999999
 31
0.0
  0
LINE
  5
173
330
1E
100
AcDbEntity
  8
0
100
AcDbLine
 10
303.1919999999999
 20
145.8479999999999
 30
0.0
 11
310.872
 21
142.776
 31
0.0
  0
LINE
  5
174
330
1E
100
AcDbEntity
  8
0
100
AcDbLine
 10
295.0
 20
147.0
 30
0.0
 11
303.1919999999999
 21
145.8479999999999
 31
0.0
  0
LINE
  5
175
330
1E
100
AcDbEntity
  8
0
100
AcDbLine
 10
200.872
 20
142.776
 30
0.0
 11
207.6559999999999
 21
137.656
 31
0.0
  0
LINE
  5
176
330
1E
100
AcDbEntity
  8
0
100
AcDbLine
 10
193.192
 20
145.8479999999999
 30
0.0
 11
200.872
 21
142.776
 31
0.0
  0
LINE
  5
177
330
1E
100
AcDbEntity
  8
0
100
AcDbLine
 10
70.0
 20
187.5
 30
0.0
 11
630.0
 21
187.5
 31
0.0
  0
LINE
  5
178
330
1E
100
AcDbEntity
  8
0
100
AcDbLine
 10
90.0
 20
187.5
 30
0.0
 11
90.0
 21
197.5
 31
0.0
  0
LINE
  5
179
330
1E
100
AcDbEntity
  8
0
100
AcDbLine
 10
118.0
 20
187.5
 30
0.0
 11
118.0
 21
195.5
 31
0.0
  0
LINE
  5
17A
330
1E
100
AcDbEntity
  8
0
100
AcDbLine
 10
118.0
 20
187.5
 30
0.0
 11
118.0
 21
189.4999999999999
 31
0.0
  0
LINE
  5
17B
330
1E
100
AcDbEntity
  8
0
100
AcDbLine
 10
120.0
 20
187.5
 30
0.0
 11
120.0
 21
197.5
 31
0.0
  0
LINE
  5
17C
330
1E
100
AcDbEntity
  8
0
100
AcDbLine
 10
92.0
 20
189.4999999999999
 30
0.0
 11
92.0
 21
187.5
 31
0.0
  0
LINE
  5
17D
330
1E
100
AcDbEntity
  8
0
100
AcDbLine
 10
92.0
 20
189.4999999999999
 30
0.0
 11
118.0
 21
189.4999999999999
 31
0.0
  0
LINE
  5
17E
330
1E
100
AcDbEntity
  8
0
100
AcDbLine
 10
92.0
 20
195.5
 30
0.0
 11
118.0
 21
195.5
 31
0.0
  0
LINE
  5
17F
330
1E
100
AcDbEntity
  8
0
100
AcDbLine
 10
120.0
 20
195.5
 30
0.0
 11
580.0
 21
195.5
 31
0.0
  0
LINE
  5
180
330
1E
100
AcDbEntity
  8
0
100
AcDbLine
 10
118.0
 20
189.4999999999999
 30
0.0
 11
118.0
 21
187.5
 31
0.0
  0
LINE
  5
181
330
1E
100
AcDbEntity
  8
0
100
AcDbLine
 10
120.0
 20
197.5
 30
0.0
 11
120.0
 21
187.5
 31
0.0
  0
LINE
  5
182
330
1E
100
AcDbEntity
  8
0
100
AcDbLine
 10
118.0
 20
195.5
 30
0.0
 11
120.0
 21
197.5
 31
0.0
  0
LINE
  5
183
330
1E
100
AcDbEntity
  8
0
100
AcDbLine
 10
118.0
 20
195.5
 30
0.0
 11
118.0
 21
187.5
 31
0.0
  0
LINE
  5
184
330
1E
100
AcDbEntity
  8
0
100
AcDbLine
 10
92.0
 20
195.5
 30
0.0
 11
92.0
 21
187.5
 31
0.0
  0
LINE
  5
185
330
1E
100
AcDbEntity
  8
0
100
AcDbLine
 10
92.0
 20
195.5
 30
0.0
 11
118.0
 21
195.5
 31
0.0
  0
LINE
  5
186
330
1E
100
AcDbEntity
  8
0
100
AcDbLine
 10
92.0
 20
187.5
 30
0.0
 11
92.0
 21
195.5
 31
0.0
  0
LINE
  5
187
330
1E
100
AcDbEntity
  8
0
100
AcDbLine
 10
92.0
 20
187.5
 30
0.0
 11
92.0
 21
189.4999999999999
 31
0.0
  0
LINE
  5
188
330
1E
100
AcDbEntity
  8
0
100
AcDbLine
 10
90.0
 20
197.5
 30
0.0
 11
90.0
 21
187.5
 31
0.0
  0
LINE
  5
189
330
1E
100
AcDbEntity
  8
0
100
AcDbLine
 10
90.0
 20
197.5
 30
0.0
 11
92.0
 21
195.5
 31
0.0
  0
LINE
  5
18A
330
1E
100
AcDbEntity
  8
0
100
AcDbLine
 10
90.0
 20
197.5
 30
0.0
 11
120.0
 21
197.5
 31
0.0
  0
LINE
  5
18B
330
1E
100
AcDbEntity
  8
0
100
AcDbLine
 10
70.0
 20
187.5
 30
0.0
 11
70.0
 21
42.5
 31
0.0
  0
LINE
  5
18C
330
1E
100
AcDbEntity
  8
0
100
AcDbLine
 10
70.0
 20
187.5
 30
0.0
 11
630.0
 21
187.5
 31
0.0
  0
LINE
  5
18D
330
1E
100
AcDbEntity
  8
0
100
AcDbLine
 10
185.0
 20
147.0
 30
0.0
 11
193.192
 21
145.8479999999999
 31
0.0
  0
LINE
  5
18E
330
1E
100
AcDbEntity
  8
0
100
AcDbLine
 10
630.0
 20
42.5
 30
0.0
 11
630.0
 21
187.5
 31
0.0
  0
LINE
  5
18F
330
1E
100
AcDbEntity
  8
0
100
AcDbLine
 10
582.0
 20
187.5
 30
0.0
 11
582.0
 21
195.5
 31
0.0
  0
LINE
  5
190
330
1E
100
AcDbEntity
  8
0
100
AcDbLine
 10
582.0
 20
187.5
 30
0.0
 11
582.0
 21
189.4999999999999
 31
0.0
  0
LINE
  5
191
330
1E
100
AcDbEntity
  8
0
100
AcDbLine
 10
582.0
 20
189.4999999999999
 30
0.0
 11
608.0
 21
189.4999999999999
 31
0.0
  0
LINE
  5
192
330
1E
100
AcDbEntity
  8
0
100
AcDbLine
 10
582.0
 20
189.4999999999999
 30
0.0
 11
582.0
 21
187.5
 31
0.0
  0
LINE
  5
193
330
1E
100
AcDbEntity
  8
0
100
AcDbLine
 10
608.0
 20
189.4999999999999
 30
0.0
 11
608.0
 21
187.5
 31
0.0
  0
LINE
  5
194
330
1E
100
AcDbEntity
  8
0
100
AcDbLine
 10
608.0
 20
189.4999999999999
 30
0.0
 11
608.0
 21
195.5
 31
0.0
  0
LINE
  5
195
330
1E
100
AcDbEntity
  8
0
100
AcDbLine
 10
608.0
 20
187.5
 30
0.0
 11
608.0
 21
195.5
 31
0.0
  0
LINE
  5
196
330
1E
100
AcDbEntity
  8
0
100
AcDbLine
 10
608.0
 20
187.5
 30
0.0
 11
608.0
 21
189.4999999999999
 31
0.0
  0
LINE
  5
197
330
1E
100
AcDbEntity
  8
0
100
AcDbLine
 10
610.0
 20
187.5
 30
0.0
 11
610.0
 21
197.5
 31
0.0
  0
LINE
  5
198
330
1E
100
AcDbEntity
  8
0
100
AcDbLine
 10
608.0
 20
195.5
 30
0.0
 11
610.0
 21
197.5
 31
0.0
  0
LINE
  5
199
330
1E
100
AcDbEntity
  8
0
100
AcDbLine
 10
608.0
 20
195.5
 30
0.0
 11
608.0
 21
187.5
 31
0.0
  0
LINE
  5
19A
330
1E
100
AcDbEntity
  8
0
100
AcDbLine
 10
608.0
 20
195.5
 30
0.0
 11
608.0
 21
189.4999999999999
 31
0.0
  0
LINE
  5
19B
330
1E
100
AcDbEntity
  8
0
100
AcDbLine
 10
580.0
 20
197.5
 30
0.0
 11
610.0
 21
197.5
 31
0.0
  0
LINE
  5
19C
330
1E
100
AcDbEntity
  8
0
100
AcDbLine
 10
580.0
 20
197.5
 30
0.0
 11
582.0
 21
195.5
 31
0.0
  0
LINE
  5
19D
330
1E
100
AcDbEntity
  8
0
100
AcDbLine
 10
580.0
 20
197.5
 30
0.0
 11
580.0
 21
187.5
 31
0.0
  0
LINE
  5
19E
330
1E
100
AcDbEntity
  8
0
100
AcDbLine
 10
582.0
 20
195.5
 30
0.0
 11
608.0
 21
195.5
 31
0.0
  0
LINE
  5
19F
330
1E
100
AcDbEntity
  8
0
100
AcDbLine
 10
582.0
 20
195.5
 30
0.0
 11
582.0
 21
187.5
 31
0.0
  0
LINE
  5
1A0
330
1E
100
AcDbEntity
  8
0
100
AcDbLine
 10
630.0
 20
187.5
 30
0.0
 11
630.0
 21
42.5
 31
0.0
  0
LINE
  5
1A1
330
1E
100
AcDbEntity
  8
0
100
AcDbLine
 10
630.0
 20
176.510067114094
 30
0.0
 11
700.0
 21
200.0
 31
0.0
  0
LINE
  5
1A2
330
1E
100
AcDbEntity
  8
0
100
AcDbLine
 10
573.35
 20
42.5
 30
0.0
 11
700.0
 21
0.0000000000000022
 31
0.0
  0
LINE
  5
1A3
330
1E
100
AcDbEntity
  8
0
100
AcDbLine
 10
573.35
 20
42.5
 30
0.0
 11
700.0
 21
0.0
 31
0.0
  0
LINE
  5
1A4
330
1E
100
AcDbEntity
  8
0
100
AcDbLine
 10
700.0
 20
200.0
 30
0.0
 11
700.0
 21
0.0
 31
0.0
  0
LINE
  5
1A5
330
1E
100
AcDbEntity
  8
0
100
AcDbLine
 10
700.0
 20
0.0000000000000022
 30
0.0
 11
700.0
 21
200.0
 31
0.0
  0
LINE
  5
1A6
330
1E
100
AcDbEntity
  8
0
100
AcDbLine
 10
0.0000000000000003
 20
-0.0000000000000009
 30
0.0
 11
0.0000000000000003
 21
200.0
 31
0.0
  0
LINE
  5
1A7
330
1E
100
AcDbEntity
  8
0
100
AcDbLine
 10
0.0000000000000003
 20
-0.0000000000000009
 30
0.0
 11
700.0
 21
-0.0000000000000009
 31
0.0
  0
ENDSEC
  0
SECTION
  2
OBJECTS
  0
DICTIONARY
  5
C
330
0
100
AcDbDictionary
281
     1
  3
ACAD_GROUP
350
D
  3
ACAD_LAYOUT
350
19
  3
ACAD_MLINESTYLE
350
16
  3
ACAD_PLOTSETTINGS
350
18
  3
ACAD_PLOTSTYLENAME
350
E
  3
AcDbVariableDictionary
350
1AC
  0
DICTIONARY
  5
D
102
{ACAD_REACTORS
330
C
102
}
330
C
100
AcDbDictionary
281
     1
  0
DICTIONARY
  5
19
102
{ACAD_REACTORS
330
C
102
}
330
C
100
AcDbDictionary
281
     1
  3
Layout1
350
1D
  3
Model
350
21
  0
DICTIONARY
  5
16
102
{ACAD_REACTORS
330
C
102
}
330
C
100
AcDbDictionary
281
     1
  3
Standard
350
17
  0
DICTIONARY
  5
18
102
{ACAD_REACTORS
330
C
102
}
330
C
100
AcDbDictionary
281
     1
  0
ACDBDICTIONARYWDFLT
  5
E
102
{ACAD_REACTORS
330
C
102
}
330
C
100
AcDbDictionary
281
     1
  3
Normal
350
F
100
AcDbDictionaryWithDefault
340
F
  0
DICTIONARY
  5
1AC
102
{ACAD_REACTORS
330
C
102
}
330
C
100
AcDbDictionary
281
     1
  3
DIMASSOC
350
1AD
  0
LAYOUT
  5
1D
102
{ACAD_REACTORS
330
19
102
}
330
19
100
AcDbPlotSettings
  1

  2
hp deskjet 980c series
  4

  6

 40
0.0
 41
0.0
 42
0.0
 43
0.0
 44
0.0
 45
0.0
 46
0.0
 47
0.0
 48
0.0
 49
0.0
140
0.0
141
0.0
142
1.0
143
1.0
 70
   688
 72
     0
 73
     0
 74
     5
  7

 75
    16
147
1.0
148
0.0
149
0.0
100
AcDbLayout
  1
Layout1
 70
     1
 71
     1
 10
0.0
 20
0.0
 11
12.0
 21
9.0
 12
0.0
 22
0.0
 32
0.0
 14
1.000000000000000E+20
 24
1.000000000000000E+20
 34
1.000000000000000E+20
 15
-1.000000000000000E+20
 25
-1.000000000000000E+20
 35
-1.000000000000000E+20
146
0.0
 13
0.0
 23
0.0
 33
0.0
 16
1.0
 26
0.0
 36
0.0
 17
0.0
 27
1.0
 37
0.0
 76
     0
330
1A
  0
LAYOUT
  5
21
102
{ACAD_REACTORS
330
19
102
}
330
19
100
AcDbPlotSettings
  1

  2
hp deskjet 980c series
  4

  6

 40
0.0
 41
0.0
 42
0.0
 43
0.0
 44
0.0
 45
0.0
 46
0.0
 47
0.0
 48
0.0
 49
0.0
140
0.0
141
0.0
142
1.0
143
1.0
 70
  1712
 72
     0
 73
     0
 74
     0
  7

 75
     0
147
1.0
148
0.0
149
0.0
100
AcDbLayout
  1
Model
 70
     1
 71
     0
 10
0.0
 20
0.0
 11
12.0
 21
9.0
 12
0.0
 22
0.0
 32
0.0
 14
0.0
 24
0.0
 34
0.0
 15
0.0
 25
0.0
 35
0.0
146
0.0
 13
0.0
 23
0.0
 33
0.0
 16
1.0
 26
0.0
 36
0.0
 17
0.0
 27
1.0
 37
0.0
 76
     0
330
1E
  0
MLINESTYLE
  5
17
102
{ACAD_REACTORS
330
16
102
}
330
16
100
AcDbMlineStyle
  2
STANDARD
 70
     0
  3

 62
   256
 51
90.0
 52
90.0
 71
     2
 49
0.5
 62
   256
  6
BYLAYER
 49
-0.5
 62
   256
  6
BYLAYER
  0
ACDBPLACEHOLDER
  5
F
102
{ACAD_REACTORS
330
E
102
}
330
E
  0
DICTIONARYVAR
  5
1AD
102
{ACAD_REACTORS
330
1AC
102
}
330
1AC
100
DictionaryVariables
280
     0
  1
1
  0
ENDSEC
  0
EOF
