  0
SECTION
  2
HEADER
  9
$ACADVER
  1
AC1015
  9
$ACADMAINTVER
 70
    13
  9
$DWGCODEPAGE
  3
ANSI_1252
  9
$INSBASE
 10
0.0
 20
0.0
 30
0.0
  9
$EXTMIN
 10
0.0
 20
-0.000000000000009
 30
0.0
  9
$EXTMAX
 10
700.0
 20
645.0
 30
0.0
  9
$LIMMIN
 10
0.0
 20
0.0
  9
$LIMMAX
 10
12.0
 20
9.0
  9
$ORTHOMODE
 70
     0
  9
$REGENMODE
 70
     1
  9
$FILLMODE
 70
     1
  9
$QTEXTMODE
 70
     0
  9
$MIRRTEXT
 70
     1
  9
$LTSCALE
 40
1.0
  9
$ATTMODE
 70
     1
  9
$TEXTSIZE
 40
0.2
  9
$TRACEWID
 40
0.05
  9
$TEXTSTYLE
  7
Standard
  9
$CLAYER
  8
0
  9
$CELTYPE
  6
Continuous
  9
$CECOLOR
 62
   256
  9
$CELTSCALE
 40
1.0
  9
$DISPSILH
 70
     0
  9
$DIMSCALE
 40
1.0
  9
$DIMASZ
 40
0.18
  9
$DIMEXO
 40
0.0625
  9
$DIMDLI
 40
0.38
  9
$DIMRND
 40
0.0
  9
$DIMDLE
 40
0.0
  9
$DIMEXE
 40
0.18
  9
$DIMTP
 40
0.0
  9
$DIMTM
 40
0.0
  9
$DIMTXT
 40
0.18
  9
$DIMCEN
 40
0.09
  9
$DIMTSZ
 40
0.0
  9
$DIMTOL
 70
     0
  9
$DIMLIM
 70
     0
  9
$DIMTIH
 70
     1
  9
$DIMTOH
 70
     1
  9
$DIMSE1
 70
     0
  9
$DIMSE2
 70
     0
  9
$DIMTAD
 70
     0
  9
$DIMZIN
 70
     0
  9
$DIMBLK
  1

  9
$DIMASO
 70
     1
  9
$DIMSHO
 70
     1
  9
$DIMPOST
  1

  9
$DIMAPOST
  1

  9
$DIMALT
 70
     0
  9
$DIMALTD
 70
     2
  9
$DIMALTF
 40
25.4
  9
$DIMLFAC
 40
1.0
  9
$DIMTOFL
 70
     0
  9
$DIMTVP
 40
0.0
  9
$DIMTIX
 70
     0
  9
$DIMSOXD
 70
     0
  9
$DIMSAH
 70
     0
  9
$DIMBLK1
  1

  9
$DIMBLK2
  1

  9
$DIMSTYLE
  2
Standard
  9
$DIMCLRD
 70
     0
  9
$DIMCLRE
 70
     0
  9
$DIMCLRT
 70
     0
  9
$DIMTFAC
 40
1.0
  9
$DIMGAP
 40
0.09
  9
$DIMJUST
 70
     0
  9
$DIMSD1
 70
     0
  9
$DIMSD2
 70
     0
  9
$DIMTOLJ
 70
     1
  9
$DIMTZIN
 70
     0
  9
$DIMALTZ
 70
     0
  9
$DIMALTTZ
 70
     0
  9
$DIMUPT
 70
     0
  9
$DIMDEC
 70
     4
  9
$DIMTDEC
 70
     4
  9
$DIMALTU
 70
     2
  9
$DIMALTTD
 70
     2
  9
$DIMTXSTY
  7
Standard
  9
$DIMAUNIT
 70
     0
  9
$DIMADEC
 70
     0
  9
$DIMALTRND
 40
0.0
  9
$DIMAZIN
 70
     0
  9
$DIMDSEP
 70
    46
  9
$DIMATFIT
 70
     3
  9
$DIMFRAC
 70
     0
  9
$DIMLDRBLK
  1

  9
$DIMLUNIT
 70
     2
  9
$DIMLWD
 70
    -2
  9
$DIMLWE
 70
    -2
  9
$DIMTMOVE
 70
     0
  9
$LUNITS
 70
     2
  9
$LUPREC
 70
     4
  9
$SKETCHINC
 40
0.1
  9
$FILLETRAD
 40
0.0
  9
$AUNITS
 70
     0
  9
$AUPREC
 70
     0
  9
$MENU
  1
.
  9
$ELEVATION
 40
0.0
  9
$PELEVATION
 40
0.0
  9
$THICKNESS
 40
0.0
  9
$LIMCHECK
 70
     0
  9
$CHAMFERA
 40
0.0
  9
$CHAMFERB
 40
0.0
  9
$CHAMFERC
 40
0.0
  9
$CHAMFERD
 40
0.0
  9
$SKPOLY
 70
     0
  9
$TDCREATE
 40
2454779.890455544
  9
$TDUCREATE
 40
2454779.848788877
  9
$TDUPDATE
 40
2454779.893044340
  9
$TDUUPDATE
 40
2454779.851377673
  9
$TDINDWG
 40
0.0025887963
  9
$TDUSRTIMER
 40
0.0025887963
  9
$USRTIMER
 70
     1
  9
$ANGBASE
 50
0.0
  9
$ANGDIR
 70
     0
  9
$PDMODE
 70
     0
  9
$PDSIZE
 40
0.0
  9
$PLINEWID
 40
0.0
  9
$SPLFRAME
 70
     0
  9
$SPLINETYPE
 70
     6
  9
$SPLINESEGS
 70
     8
  9
$HANDSEED
  5
811
  9
$SURFTAB1
 70
     6
  9
$SURFTAB2
 70
     6
  9
$SURFTYPE
 70
     6
  9
$SURFU
 70
     6
  9
$SURFV
 70
     6
  9
$UCSBASE
  2

  9
$UCSNAME
  2

  9
$UCSORG
 10
0.0
 20
0.0
 30
0.0
  9
$UCSXDIR
 10
1.0
 20
0.0
 30
0.0
  9
$UCSYDIR
 10
0.0
 20
1.0
 30
0.0
  9
$UCSORTHOREF
  2

  9
$UCSORTHOVIEW
 70
     1
  9
$UCSORGTOP
 10
0.0
 20
0.0
 30
0.0
  9
$UCSORGBOTTOM
 10
0.0
 20
0.0
 30
0.0
  9
$UCSORGLEFT
 10
0.0
 20
0.0
 30
0.0
  9
$UCSORGRIGHT
 10
0.0
 20
0.0
 30
0.0
  9
$UCSORGFRONT
 10
0.0
 20
0.0
 30
0.0
  9
$UCSORGBACK
 10
0.0
 20
0.0
 30
0.0
  9
$PUCSBASE
  2

  9
$PUCSNAME
  2

  9
$PUCSORG
 10
0.0
 20
0.0
 30
0.0
  9
$PUCSXDIR
 10
1.0
 20
0.0
 30
0.0
  9
$PUCSYDIR
 10
0.0
 20
1.0
 30
0.0
  9
$PUCSORTHOREF
  2

  9
$PUCSORTHOVIEW
 70
     0
  9
$PUCSORGTOP
 10
0.0
 20
0.0
 30
0.0
  9
$PUCSORGBOTTOM
 10
0.0
 20
0.0
 30
0.0
  9
$PUCSORGLEFT
 10
0.0
 20
0.0
 30
0.0
  9
$PUCSORGRIGHT
 10
0.0
 20
0.0
 30
0.0
  9
$PUCSORGFRONT
 10
0.0
 20
0.0
 30
0.0
  9
$PUCSORGBACK
 10
0.0
 20
0.0
 30
0.0
  9
$USERI1
 70
     0
  9
$USERI2
 70
     0
  9
$USERI3
 70
     0
  9
$USERI4
 70
     0
  9
$USERI5
 70
     0
  9
$USERR1
 40
0.0
  9
$USERR2
 40
0.0
  9
$USERR3
 40
0.0
  9
$USERR4
 40
0.0
  9
$USERR5
 40
0.0
  9
$WORLDVIEW
 70
     1
  9
$SHADEDGE
 70
     3
  9
$SHADEDIF
 70
    70
  9
$TILEMODE
 70
     1
  9
$MAXACTVP
 70
    64
  9
$PINSBASE
 10
0.0
 20
0.0
 30
0.0
  9
$PLIMCHECK
 70
     0
  9
$PEXTMIN
 10
1.000000000000000E+20
 20
1.000000000000000E+20
 30
1.000000000000000E+20
  9
$PEXTMAX
 10
-1.000000000000000E+20
 20
-1.000000000000000E+20
 30
-1.000000000000000E+20
  9
$PLIMMIN
 10
0.0
 20
0.0
  9
$PLIMMAX
 10
12.0
 20
9.0
  9
$UNITMODE
 70
     0
  9
$VISRETAIN
 70
     1
  9
$PLINEGEN
 70
     0
  9
$PSLTSCALE
 70
     1
  9
$TREEDEPTH
 70
  3020
  9
$CMLSTYLE
  2
Standard
  9
$CMLJUST
 70
     0
  9
$CMLSCALE
 40
1.0
  9
$PROXYGRAPHICS
 70
     1
  9
$MEASUREMENT
 70
     0
  9
$CELWEIGHT
370
    -1
  9
$ENDCAPS
280
     0
  9
$JOINSTYLE
280
     0
  9
$LWDISPLAY
290
     0
  9
$INSUNITS
 70
     0
  9
$HYPERLINKBASE
  1

  9
$STYLESHEET
  1

  9
$XEDIT
290
     1
  9
$CEPSNTYPE
380
     0
  9
$PSTYLEMODE
290
     1
  9
$FINGERPRINTGUID
  2
{F43FDD38-4136-4625-823E-30EB57CC5D43}
  9
$VERSIONGUID
  2
{F543B99B-2975-4375-AAE7-D3A26299D95E}
  9
$EXTNAMES
290
     1
  9
$PSVPSCALE
 40
0.0
  9
$OLESTARTUP
290
     0
  0
ENDSEC
  0
SECTION
  2
CLASSES
  0
CLASS
  1
ACDBDICTIONARYWDFLT
  2
AcDbDictionaryWithDefault
  3
AutoCAD 2000
 90
        0
280
     0
281
     0
  0
CLASS
  1
ACDBPLACEHOLDER
  2
AcDbPlaceHolder
  3
AutoCAD 2000
 90
        0
280
     0
281
     0
  0
CLASS
  1
LAYOUT
  2
AcDbLayout
  3
AutoCAD 2000
 90
        0
280
     0
281
     0
  0
CLASS
  1
DICTIONARYVAR
  2
AcDbDictionaryVar
  3
AutoCAD 2000
 90
        0
280
     0
281
     0
  0
ENDSEC
  0
SECTION
  2
TABLES
  0
TABLE
  2
VPORT
  5
8
330
0
100
AcDbSymbolTable
 70
     2
  0
VPORT
  5
810
330
8
100
AcDbSymbolTableRecord
100
AcDbViewportTableRecord
  2
*Active
 70
     0
 10
0.0
 20
0.0
 11
1.0
 21
1.0
 12
350.0
 22
322.5
 13
0.0
 23
0.0
 14
1.0
 24
1.0
 15
0.0
 25
0.0
 16
0.0
 26
0.0
 36
1.0
 17
0.0
 27
0.0
 37
0.0
 40
649.9488491048594
 41
2.078104993597951
 42
50.0
 43
0.0
 44
0.0
 50
0.0
 51
0.0
 71
     0
 72
   100
 73
     1
 74
     3
 75
     0
 76
     0
 77
     0
 78
     0
281
     0
 65
     1
110
0.0
120
0.0
130
0.0
111
1.0
121
0.0
131
0.0
112
0.0
122
1.0
132
0.0
 79
     1
146
0.0
  0
ENDTAB
  0
TABLE
  2
LTYPE
  5
5
330
0
100
AcDbSymbolTable
 70
     1
  0
LTYPE
  5
13
330
5
100
AcDbSymbolTableRecord
100
AcDbLinetypeTableRecord
  2
ByBlock
 70
     0
  3

 72
    65
 73
     0
 40
0.0
  0
LTYPE
  5
14
330
5
100
AcDbSymbolTableRecord
100
AcDbLinetypeTableRecord
  2
ByLayer
 70
     0
  3

 72
    65
 73
     0
 40
0.0
  0
LTYPE
  5
15
330
5
100
AcDbSymbolTableRecord
100
AcDbLinetypeTableRecord
  2
Continuous
 70
     0
  3
Solid line
 72
    65
 73
     0
 40
0.0
  0
ENDTAB
  0
TABLE
  2
LAYER
  5
2
330
0
100
AcDbSymbolTable
 70
     1
  0
LAYER
  5
10
330
2
100
AcDbSymbolTableRecord
100
AcDbLayerTableRecord
  2
0
 70
     0
 62
     7
  6
Continuous
370
    -3
390
F
  0
ENDTAB
  0
TABLE
  2
STYLE
  5
3
330
0
100
AcDbSymbolTable
 70
     1
  0
STYLE
  5
11
330
3
100
AcDbSymbolTableRecord
100
AcDbTextStyleTableRecord
  2
Standard
 70
     0
 40
0.0
 41
1.0
 50
0.0
 71
     0
 42
0.2
  3
txt
  4

  0
ENDTAB
  0
TABLE
  2
VIEW
  5
6
330
0
100
AcDbSymbolTable
 70
     0
  0
ENDTAB
  0
TABLE
  2
UCS
  5
7
330
0
100
AcDbSymbolTable
 70
     0
  0
ENDTAB
  0
TABLE
  2
APPID
  5
9
330
0
100
AcDbSymbolTable
 70
     1
  0
APPID
  5
12
330
9
100
AcDbSymbolTableRecord
100
AcDbRegAppTableRecord
  2
ACAD
 70
     0
  0
ENDTAB
  0
TABLE
  2
DIMSTYLE
  5
A
330
0
100
AcDbSymbolTable
 70
     1
100
AcDbDimStyleTable
 71
     0
  0
DIMSTYLE
105
805
330
A
100
AcDbSymbolTableRecord
100
AcDbDimStyleTableRecord
  2
Standard
 70
     0
340
11
  0
ENDTAB
  0
TABLE
  2
BLOCK_RECORD
  5
1
330
0
100
AcDbSymbolTable
 70
     0
  0
BLOCK_RECORD
  5
1E
330
1
100
AcDbSymbolTableRecord
100
AcDbBlockTableRecord
  2
*Model_Space
340
21
  0
BLOCK_RECORD
  5
1A
330
1
100
AcDbSymbolTableRecord
100
AcDbBlockTableRecord
  2
*Paper_Space
340
1D
  0
ENDTAB
  0
ENDSEC
  0
SECTION
  2
BLOCKS
  0
BLOCK
  5
1F
330
1E
100
AcDbEntity
  8
0
100
AcDbBlockBegin
  2
*Model_Space
 70
     0
 10
0.0
 20
0.0
 30
0.0
  3
*Model_Space
  1

  0
ENDBLK
  5
20
330
1E
100
AcDbEntity
  8
0
100
AcDbBlockEnd
  0
BLOCK
  5
1B
330
1A
100
AcDbEntity
 67
     1
  8
0
100
AcDbBlockBegin
  2
*Paper_Space
 70
     0
 10
0.0
 20
0.0
 30
0.0
  3
*Paper_Space
  1

  0
ENDBLK
  5
1C
330
1A
100
AcDbEntity
 67
     1
  8
0
100
AcDbBlockEnd
  0
ENDSEC
  0
SECTION
  2
ENTITIES
  0
LINE
  5
22
330
1E
100
AcDbEntity
  8
0
100
AcDbLine
 10
0.0
 20
-0.0000000000000069
 30
0.0
 11
700.0
 21
-0.0000000000000069
 31
0.0
  0
LINE
  5
23
330
1E
100
AcDbEntity
  8
0
100
AcDbLine
 10
0.0000000000000003
 20
-0.0000000000000069
 30
0.0
 11
700.0
 21
-0.0000000000000069
 31
0.0
  0
LINE
  5
24
330
1E
100
AcDbEntity
  8
0
100
AcDbLine
 10
0.0000000000000003
 20
-0.0000000000000069
 30
0.0
 11
0.0000000000000003
 21
50.0
 31
0.0
  0
LINE
  5
25
330
1E
100
AcDbEntity
  8
0
100
AcDbLine
 10
0.0
 20
50.0
 30
0.0
 11
149.0
 21
250.0
 31
0.0
  0
LINE
  5
26
330
1E
100
AcDbEntity
  8
0
100
AcDbLine
 10
0.0000000000000003
 20
50.0
 30
0.0
 11
0.0000000000000003
 21
-0.000000000000009
 31
0.0
  0
LINE
  5
27
330
1E
100
AcDbEntity
  8
0
100
AcDbLine
 10
0.0000000000000003
 20
50.0
 30
0.0
 11
0.0000000000000003
 21
0.000000000000009
 31
0.0
  0
LINE
  5
28
330
1E
100
AcDbEntity
  8
0
100
AcDbLine
 10
0.0000000000000003
 20
50.0
 30
0.0
 11
149.0
 21
250.0
 31
0.0
  0
LINE
  5
29
330
1E
100
AcDbEntity
  8
0
100
AcDbLine
 10
0.0
 20
0.0000000000000054
 30
0.0
 11
700.0
 21
0.0000000000000054
 31
0.0
  0
LINE
  5
2A
330
1E
100
AcDbEntity
  8
0
100
AcDbLine
 10
90.0
 20
-0.0000000000000067
 30
0.0
 11
92.0
 21
-0.0000000000000066
 31
0.0
  0
LINE
  5
2B
330
1E
100
AcDbEntity
  8
0
100
AcDbLine
 10
90.0
 20
-0.0000000000000067
 30
0.0
 11
120.0
 21
-0.0000000000000067
 31
0.0
  0
LINE
  5
2C
330
1E
100
AcDbEntity
  8
0
100
AcDbLine
 10
580.0
 20
-0.0000000000000067
 30
0.0
 11
610.0
 21
-0.0000000000000067
 31
0.0
  0
LINE
  5
2D
330
1E
100
AcDbEntity
  8
0
100
AcDbLine
 10
580.0
 20
-0.0000000000000067
 30
0.0
 11
582.0
 21
-0.0000000000000066
 31
0.0
  0
LINE
  5
2E
330
1E
100
AcDbEntity
  8
0
100
AcDbLine
 10
608.0
 20
-0.0000000000000066
 30
0.0
 11
610.0
 21
-0.0000000000000067
 31
0.0
  0
LINE
  5
2F
330
1E
100
AcDbEntity
  8
0
100
AcDbLine
 10
582.0
 20
-0.0000000000000066
 30
0.0
 11
608.0
 21
-0.0000000000000066
 31
0.0
  0
LINE
  5
30
330
1E
100
AcDbEntity
  8
0
100
AcDbLine
 10
580.0
 20
-0.0000000000000061
 30
0.0
 11
582.0
 21
-0.0000000000000061
 31
0.0
  0
LINE
  5
31
330
1E
100
AcDbEntity
  8
0
100
AcDbLine
 10
608.0
 20
-0.0000000000000061
 30
0.0
 11
610.0
 21
-0.0000000000000061
 31
0.0
  0
LINE
  5
32
330
1E
100
AcDbEntity
  8
0
100
AcDbLine
 10
118.0
 20
-0.0000000000000061
 30
0.0
 11
120.0
 21
-0.0000000000000061
 31
0.0
  0
LINE
  5
33
330
1E
100
AcDbEntity
  8
0
100
AcDbLine
 10
118.0
 20
-0.0000000000000066
 30
0.0
 11
120.0
 21
-0.0000000000000067
 31
0.0
  0
LINE
  5
34
330
1E
100
AcDbEntity
  8
0
100
AcDbLine
 10
92.0
 20
-0.0000000000000066
 30
0.0
 11
118.0
 21
-0.0000000000000066
 31
0.0
  0
LINE
  5
35
330
1E
100
AcDbEntity
  8
0
100
AcDbLine
 10
90.0
 20
-0.0000000000000061
 30
0.0
 11
92.0
 21
-0.0000000000000061
 31
0.0
  0
LINE
  5
36
330
1E
100
AcDbEntity
  8
0
100
AcDbLine
 10
120.0
 20
211.073825503356
 30
0.0
 11
120.0
 21
300.0
 31
0.0
  0
LINE
  5
37
330
1E
100
AcDbEntity
  8
0
100
AcDbLine
 10
118.0
 20
208.3892617449659
 30
0.0
 11
118.0
 21
300.0
 31
0.0
  0
LINE
  5
38
330
1E
100
AcDbEntity
  8
0
100
AcDbLine
 10
92.0
 20
173.4899328859059
 30
0.0
 11
92.0
 21
580.0
 31
0.0
  0
LINE
  5
39
330
1E
100
AcDbEntity
  8
0
100
AcDbLine
 10
90.0
 20
170.805369127517
 30
0.0
 11
90.0
 21
580.0
 31
0.0
  0
LINE
  5
3A
330
1E
100
AcDbEntity
  8
0
100
AcDbLine
 10
92.0
 20
300.0
 30
0.0
 11
92.0
 21
325.0
 31
0.0
  0
LINE
  5
3B
330
1E
100
AcDbEntity
  8
0
100
AcDbLine
 10
92.0
 20
300.0
 30
0.0
 11
118.0
 21
300.0
 31
0.0
  0
LINE
  5
3C
330
1E
100
AcDbEntity
  8
0
100
AcDbLine
 10
92.0
 20
300.0
 30
0.0
 11
149.0
 21
300.0
 31
0.0
  0
LINE
  5
3D
330
1E
100
AcDbEntity
  8
0
100
AcDbLine
 10
92.0
 20
325.0
 30
0.0
 11
149.0
 21
325.0
 31
0.0
  0
LINE
  5
3E
330
1E
100
AcDbEntity
  8
0
100
AcDbLine
 10
92.0
 20
300.0
 30
0.0
 11
149.0
 21
300.0
 31
0.0
  0
LINE
  5
3F
330
1E
100
AcDbEntity
  8
0
100
AcDbLine
 10
92.0
 20
300.0
 30
0.0
 11
118.0
 21
300.0
 31
0.0
  0
LINE
  5
40
330
1E
100
AcDbEntity
  8
0
100
AcDbLine
 10
92.0
 20
325.0
 30
0.0
 11
149.0
 21
325.0
 31
0.0
  0
LINE
  5
41
330
1E
100
AcDbEntity
  8
0
100
AcDbLine
 10
92.0
 20
325.0
 30
0.0
 11
92.0
 21
300.0
 31
0.0
  0
LINE
  5
42
330
1E
100
AcDbEntity
  8
0
100
AcDbLine
 10
92.0
 20
400.0
 30
0.0
 11
92.0
 21
580.0
 31
0.0
  0
LINE
  5
43
330
1E
100
AcDbEntity
  8
0
100
AcDbLine
 10
92.0
 20
400.0
 30
0.0
 11
118.0
 21
400.0
 31
0.0
  0
LINE
  5
44
330
1E
100
AcDbEntity
  8
0
100
AcDbLine
 10
118.0
 20
325.0
 30
0.0
 11
118.0
 21
400.0
 31
0.0
  0
LINE
  5
45
330
1E
100
AcDbEntity
  8
0
100
AcDbLine
 10
118.0
 20
325.0
 30
0.0
 11
118.0
 21
580.0
 31
0.0
  0
LINE
  5
46
330
1E
100
AcDbEntity
  8
0
100
AcDbLine
 10
120.0
 20
325.0
 30
0.0
 11
120.0
 21
580.0
 31
0.0
  0
LINE
  5
47
330
1E
100
AcDbEntity
  8
0
100
AcDbLine
 10
120.0
 20
300.0
 30
0.0
 11
120.0
 21
211.073825503356
 31
0.0
  0
LINE
  5
48
330
1E
100
AcDbEntity
  8
0
100
AcDbLine
 10
120.0
 20
300.0
 30
0.0
 11
149.0
 21
300.0
 31
0.0
  0
LINE
  5
49
330
1E
100
AcDbEntity
  8
0
100
AcDbLine
 10
118.0
 20
300.0
 30
0.0
 11
118.0
 21
208.3892617449659
 31
0.0
  0
LINE
  5
4A
330
1E
100
AcDbEntity
  8
0
100
AcDbLine
 10
118.0
 20
400.0
 30
0.0
 11
118.0
 21
325.0
 31
0.0
  0
LINE
  5
4B
330
1E
100
AcDbEntity
  8
0
100
AcDbLine
 10
118.0
 20
400.0
 30
0.0
 11
118.0
 21
580.0
 31
0.0
  0
LINE
  5
4C
330
1E
100
AcDbEntity
  8
0
100
AcDbLine
 10
167.0
 20
450.0
 30
0.0
 11
167.0
 21
483.0
 31
0.0
  0
LINE
  5
4F
330
1E
100
AcDbEntity
  8
0
100
AcDbLine
 10
203.0
 20
450.0
 30
0.0
 11
203.0
 21
483.0
 31
0.0
  0
LINE
  5
53
330
1E
100
AcDbEntity
  8
0
100
AcDbLine
 10
235.0
 20
450.0
 30
0.0
 11
235.0
 21
463.0
 31
0.0
  0
LINE
  5
54
330
1E
100
AcDbEntity
  8
0
100
AcDbLine
 10
215.0
 20
450.0
 30
0.0
 11
215.0
 21
463.0
 31
0.0
  0
LINE
  5
58
330
1E
100
AcDbEntity
  8
0
100
AcDbLine
 10
247.5597303921569
 20
450.0
 30
0.0
 11
247.5709999999999
 21
450.0569999999999
 31
0.0
  0
LINE
  5
5D
330
1E
100
AcDbEntity
  8
0
100
AcDbLine
 10
305.0
 20
450.0
 30
0.0
 11
305.0
 21
463.0
 31
0.0
  0
LINE
  5
5E
330
1E
100
AcDbEntity
  8
0
100
AcDbLine
 10
285.0
 20
450.0
 30
0.0
 11
285.0
 21
463.0
 31
0.0
  0
LINE
  5
5F
330
1E
100
AcDbEntity
  8
0
100
AcDbLine
 10
551.0
 20
300.0
 30
0.0
 11
608.0
 21
300.0
 31
0.0
  0
LINE
  5
60
330
1E
100
AcDbEntity
  8
0
100
AcDbLine
 10
551.0
 20
300.0
 30
0.0
 11
580.0
 21
300.0
 31
0.0
  0
LINE
  5
61
330
1E
100
AcDbEntity
  8
0
100
AcDbLine
 10
551.0
 20
325.0
 30
0.0
 11
608.0
 21
325.0
 31
0.0
  0
LINE
  5
62
330
1E
100
AcDbEntity
  8
0
100
AcDbLine
 10
525.0
 20
450.0
 30
0.0
 11
525.0
 21
465.0
 31
0.0
  0
LINE
  5
63
330
1E
100
AcDbEntity
  8
0
100
AcDbLine
 10
505.0
 20
450.0
 30
0.0
 11
505.0
 21
465.0
 31
0.0
  0
LINE
  5
64
330
1E
100
AcDbEntity
  8
0
100
AcDbLine
 10
551.0
 20
450.0
 30
0.0
 11
551.0
 21
550.0
 31
0.0
  0
LINE
  5
65
330
1E
100
AcDbEntity
  8
0
100
AcDbLine
 10
149.0
 20
250.0
 30
0.0
 11
149.0
 21
550.0
 31
0.0
  0
LINE
  5
66
330
1E
100
AcDbEntity
  8
0
100
AcDbLine
 10
149.0
 20
250.0
 30
0.0
 11
149.0
 21
550.0
 31
0.0
  0
LINE
  5
67
330
1E
100
AcDbEntity
  8
0
100
AcDbLine
 10
610.0
 20
170.805369127517
 30
0.0
 11
610.0
 21
580.0
 31
0.0
  0
LINE
  5
68
330
1E
100
AcDbEntity
  8
0
100
AcDbLine
 10
582.0
 20
208.3892617449659
 30
0.0
 11
582.0
 21
300.0
 31
0.0
  0
LINE
  5
69
330
1E
100
AcDbEntity
  8
0
100
AcDbLine
 10
580.0
 20
300.0
 30
0.0
 11
580.0
 21
211.073825503356
 31
0.0
  0
LINE
  5
6A
330
1E
100
AcDbEntity
  8
0
100
AcDbLine
 10
582.0
 20
300.0
 30
0.0
 11
582.0
 21
208.3892617449659
 31
0.0
  0
LINE
  5
6B
330
1E
100
AcDbEntity
  8
0
100
AcDbLine
 10
582.0
 20
300.0
 30
0.0
 11
608.0
 21
300.0
 31
0.0
  0
LINE
  5
6C
330
1E
100
AcDbEntity
  8
0
100
AcDbLine
 10
582.0
 20
400.0
 30
0.0
 11
608.0
 21
400.0
 31
0.0
  0
LINE
  5
6D
330
1E
100
AcDbEntity
  8
0
100
AcDbLine
 10
582.0
 20
400.0
 30
0.0
 11
582.0
 21
580.0
 31
0.0
  0
LINE
  5
6E
330
1E
100
AcDbEntity
  8
0
100
AcDbLine
 10
582.0
 20
325.0
 30
0.0
 11
582.0
 21
580.0
 31
0.0
  0
LINE
  5
6F
330
1E
100
AcDbEntity
  8
0
100
AcDbLine
 10
580.0
 20
325.0
 30
0.0
 11
580.0
 21
580.0
 31
0.0
  0
LINE
  5
70
330
1E
100
AcDbEntity
  8
0
100
AcDbLine
 10
580.0
 20
211.073825503356
 30
0.0
 11
580.0
 21
300.0
 31
0.0
  0
LINE
  5
71
330
1E
100
AcDbEntity
  8
0
100
AcDbLine
 10
608.0
 20
300.0
 30
0.0
 11
608.0
 21
173.4899328859059
 31
0.0
  0
LINE
  5
72
330
1E
100
AcDbEntity
  8
0
100
AcDbLine
 10
608.0
 20
300.0
 30
0.0
 11
608.0
 21
325.0
 31
0.0
  0
LINE
  5
73
330
1E
100
AcDbEntity
  8
0
100
AcDbLine
 10
608.0
 20
400.0
 30
0.0
 11
608.0
 21
325.0
 31
0.0
  0
LINE
  5
74
330
1E
100
AcDbEntity
  8
0
100
AcDbLine
 10
608.0
 20
400.0
 30
0.0
 11
608.0
 21
580.0
 31
0.0
  0
LINE
  5
75
330
1E
100
AcDbEntity
  8
0
100
AcDbLine
 10
608.0
 20
325.0
 30
0.0
 11
608.0
 21
400.0
 31
0.0
  0
LINE
  5
76
330
1E
100
AcDbEntity
  8
0
100
AcDbLine
 10
608.0
 20
325.0
 30
0.0
 11
608.0
 21
580.0
 31
0.0
  0
LINE
  5
77
330
1E
100
AcDbEntity
  8
0
100
AcDbLine
 10
608.0
 20
325.0
 30
0.0
 11
608.0
 21
300.0
 31
0.0
  0
LINE
  5
78
330
1E
100
AcDbEntity
  8
0
100
AcDbLine
 10
608.0
 20
173.4899328859059
 30
0.0
 11
608.0
 21
300.0
 31
0.0
  0
LINE
  5
79
330
1E
100
AcDbEntity
  8
0
100
AcDbLine
 10
551.0
 20
250.0
 30
0.0
 11
551.0
 21
450.0
 31
0.0
  0
LINE
  5
7A
330
1E
100
AcDbEntity
  8
0
100
AcDbLine
 10
551.0
 20
250.0
 30
0.0
 11
700.0
 21
50.0
 31
0.0
  0
LINE
  5
7B
330
1E
100
AcDbEntity
  8
0
100
AcDbLine
 10
551.0
 20
250.0
 30
0.0
 11
700.0
 21
50.0
 31
0.0
  0
LINE
  5
7C
330
1E
100
AcDbEntity
  8
0
100
AcDbLine
 10
148.7299999999999
 20
578.853
 30
0.0
 11
149.358
 21
578.853
 31
0.0
  0
LINE
  5
7D
330
1E
100
AcDbEntity
  8
0
100
AcDbLine
 10
148.2659999999999
 20
578.853
 30
0.0
 11
148.7299999999999
 21
578.853
 31
0.0
  0
LINE
  5
7E
330
1E
100
AcDbEntity
  8
0
100
AcDbLine
 10
147.963
 20
578.853
 30
0.0
 11
148.2659999999999
 21
578.853
 31
0.0
  0
LINE
  5
7F
330
1E
100
AcDbEntity
  8
0
100
AcDbLine
 10
148.749
 20
578.853
 30
0.0
 11
149.37
 21
578.853
 31
0.0
  0
LINE
  5
80
330
1E
100
AcDbEntity
  8
0
100
AcDbLine
 10
148.2589999999999
 20
578.853
 30
0.0
 11
148.749
 21
578.853
 31
0.0
  0
LINE
  5
81
330
1E
100
AcDbEntity
  8
0
100
AcDbLine
 10
147.96
 20
578.853
 30
0.0
 11
148.2589999999999
 21
578.853
 31
0.0
  0
LINE
  5
82
330
1E
100
AcDbEntity
  8
0
100
AcDbLine
 10
70.0
 20
580.0
 30
0.0
 11
630.0
 21
580.0
 31
0.0
  0
LINE
  5
83
330
1E
100
AcDbEntity
  8
0
100
AcDbLine
 10
70.0
 20
580.0
 30
0.0
 11
147.8679999999999
 21
580.0
 31
0.0
  0
LINE
  5
84
330
1E
100
AcDbEntity
  8
0
100
AcDbLine
 10
72.0
 20
580.0
 30
0.0
 11
628.0
 21
580.0
 31
0.0
  0
LINE
  5
85
330
1E
100
AcDbEntity
  8
0
100
AcDbLine
 10
72.0
 20
580.0
 30
0.0
 11
147.8679999999999
 21
580.0
 31
0.0
  0
LINE
  5
86
330
1E
100
AcDbEntity
  8
0
100
AcDbLine
 10
120.0
 20
580.0
 30
0.0
 11
120.0
 21
325.0
 31
0.0
  0
LINE
  5
87
330
1E
100
AcDbEntity
  8
0
100
AcDbLine
 10
118.0
 20
580.0
 30
0.0
 11
120.0
 21
580.0
 31
0.0
  0
LINE
  5
88
330
1E
100
AcDbEntity
  8
0
100
AcDbLine
 10
118.0
 20
580.0
 30
0.0
 11
118.0
 21
325.0
 31
0.0
  0
LINE
  5
89
330
1E
100
AcDbEntity
  8
0
100
AcDbLine
 10
118.0
 20
580.0
 30
0.0
 11
118.0
 21
400.0
 31
0.0
  0
LINE
  5
8A
330
1E
100
AcDbEntity
  8
0
100
AcDbLine
 10
92.0
 20
580.0
 30
0.0
 11
92.0
 21
173.4899328859059
 31
0.0
  0
LINE
  5
8B
330
1E
100
AcDbEntity
  8
0
100
AcDbLine
 10
92.0
 20
580.0
 30
0.0
 11
118.0
 21
580.0
 31
0.0
  0
LINE
  5
8C
330
1E
100
AcDbEntity
  8
0
100
AcDbLine
 10
92.0
 20
580.0
 30
0.0
 11
92.0
 21
400.0
 31
0.0
  0
LINE
  5
8D
330
1E
100
AcDbEntity
  8
0
100
AcDbLine
 10
90.0
 20
580.0
 30
0.0
 11
92.0
 21
580.0
 31
0.0
  0
LINE
  5
8E
330
1E
100
AcDbEntity
  8
0
100
AcDbLine
 10
90.0
 20
580.0
 30
0.0
 11
90.0
 21
170.805369127517
 31
0.0
  0
LINE
  5
8F
330
1E
100
AcDbEntity
  8
0
100
AcDbLine
 10
72.0
 20
580.0
 30
0.0
 11
628.0
 21
580.0
 31
0.0
  0
LINE
  5
90
330
1E
100
AcDbEntity
  8
0
100
AcDbLine
 10
72.0
 20
580.0
 30
0.0
 11
147.8679999999999
 21
580.0
 31
0.0
  0
LINE
  5
91
330
1E
100
AcDbEntity
  8
0
100
AcDbLine
 10
70.0
 20
580.0
 30
0.0
 11
630.0
 21
580.0
 31
0.0
  0
LINE
  5
92
330
1E
100
AcDbEntity
  8
0
100
AcDbLine
 10
70.0
 20
580.0
 30
0.0
 11
70.0
 21
595.0
 31
0.0
  0
LINE
  5
93
330
1E
100
AcDbEntity
  8
0
100
AcDbLine
 10
70.0
 20
580.0
 30
0.0
 11
72.0
 21
580.0
 31
0.0
  0
LINE
  5
94
330
1E
100
AcDbEntity
  8
0
100
AcDbLine
 10
70.0
 20
580.0
 30
0.0
 11
147.8679999999999
 21
580.0
 31
0.0
  0
LINE
  5
95
330
1E
100
AcDbEntity
  8
0
100
AcDbLine
 10
70.0
 20
595.0
 30
0.0
 11
630.0
 21
595.0
 31
0.0
  0
LINE
  5
96
330
1E
100
AcDbEntity
  8
0
100
AcDbLine
 10
70.0
 20
595.0
 30
0.0
 11
630.0
 21
595.0
 31
0.0
  0
LINE
  5
97
330
1E
100
AcDbEntity
  8
0
100
AcDbLine
 10
70.0
 20
595.0
 30
0.0
 11
70.0
 21
580.0
 31
0.0
  0
LINE
  5
98
330
1E
100
AcDbEntity
  8
0
100
AcDbLine
 10
147.8679999999999
 20
580.0
 30
0.0
 11
147.8679999999999
 21
578.853
 31
0.0
  0
LINE
  5
99
330
1E
100
AcDbEntity
  8
0
100
AcDbLine
 10
147.8679999999999
 20
578.853
 30
0.0
 11
147.963
 21
578.853
 31
0.0
  0
LINE
  5
9A
330
1E
100
AcDbEntity
  8
0
100
AcDbLine
 10
147.8679999999999
 20
578.853
 30
0.0
 11
147.96
 21
578.853
 31
0.0
  0
LINE
  5
9B
330
1E
100
AcDbEntity
  8
0
100
AcDbLine
 10
147.8679999999999
 20
578.853
 30
0.0
 11
147.8679999999999
 21
580.0
 31
0.0
  0
LINE
  5
9C
330
1E
100
AcDbEntity
  8
0
100
AcDbLine
 10
160.206
 20
533.0
 30
0.0
 11
164.7059999999999
 21
533.0
 31
0.0
  0
LINE
  5
9D
330
1E
100
AcDbEntity
  8
0
100
AcDbLine
 10
157.3819999999999
 20
533.0
 30
0.0
 11
160.206
 21
533.0
 31
0.0
  0
LINE
  5
9E
330
1E
100
AcDbEntity
  8
0
100
AcDbLine
 10
167.0
 20
483.0
 30
0.0
 11
167.0
 21
450.0
 31
0.0
  0
LINE
  5
A3
330
1E
100
AcDbEntity
  8
0
100
AcDbLine
 10
185.0
 20
483.0
 30
0.0
 11
190.12
 21
483.0
 31
0.0
  0
LINE
  5
A5
330
1E
100
AcDbEntity
  8
0
100
AcDbLine
 10
190.12
 20
483.0
 30
0.0
 11
194.9199999999999
 21
483.0
 31
0.0
  0
LINE
  5
A6
330
1E
100
AcDbEntity
  8
0
100
AcDbLine
 10
194.9199999999999
 20
483.0
 30
0.0
 11
199.16
 21
483.0
 31
0.0
  0
LINE
  5
A7
330
1E
100
AcDbEntity
  8
0
100
AcDbLine
 10
199.16
 20
483.0
 30
0.0
 11
202.36
 21
483.0
 31
0.0
  0
LINE
  5
A8
330
1E
100
AcDbEntity
  8
0
100
AcDbLine
 10
179.8799999999999
 20
483.0
 30
0.0
 11
185.0
 21
483.0
 31
0.0
  0
LINE
  5
A9
330
1E
100
AcDbEntity
  8
0
100
AcDbLine
 10
175.08
 20
483.0
 30
0.0
 11
179.8799999999999
 21
483.0
 31
0.0
  0
LINE
  5
AA
330
1E
100
AcDbEntity
  8
0
100
AcDbLine
 10
170.84
 20
483.0
 30
0.0
 11
175.08
 21
483.0
 31
0.0
  0
LINE
  5
AB
330
1E
100
AcDbEntity
  8
0
100
AcDbLine
 10
167.6399999999999
 20
483.0
 30
0.0
 11
170.84
 21
483.0
 31
0.0
  0
LINE
  5
AC
330
1E
100
AcDbEntity
  8
0
100
AcDbLine
 10
165.72
 20
483.0
 30
0.0
 11
167.6399999999999
 21
483.0
 31
0.0
  0
LINE
  5
AD
330
1E
100
AcDbEntity
  8
0
100
AcDbLine
 10
165.72
 20
483.0
 30
0.0
 11
167.0
 21
483.0
 31
0.0
  0
LINE
  5
AE
330
1E
100
AcDbEntity
  8
0
100
AcDbLine
 10
190.12
 20
533.0
 30
0.0
 11
194.9199999999999
 21
533.0
 31
0.0
  0
LINE
  5
AF
330
1E
100
AcDbEntity
  8
0
100
AcDbLine
 10
194.9199999999999
 20
533.0
 30
0.0
 11
199.16
 21
533.0
 31
0.0
  0
LINE
  5
B0
330
1E
100
AcDbEntity
  8
0
100
AcDbLine
 10
199.16
 20
533.0
 30
0.0
 11
202.36
 21
533.0
 31
0.0
  0
LINE
  5
B1
330
1E
100
AcDbEntity
  8
0
100
AcDbLine
 10
179.8799999999999
 20
533.0
 30
0.0
 11
185.0
 21
533.0
 31
0.0
  0
LINE
  5
B2
330
1E
100
AcDbEntity
  8
0
100
AcDbLine
 10
175.08
 20
533.0
 30
0.0
 11
179.8799999999999
 21
533.0
 31
0.0
  0
LINE
  5
B3
330
1E
100
AcDbEntity
  8
0
100
AcDbLine
 10
170.84
 20
533.0
 30
0.0
 11
175.08
 21
533.0
 31
0.0
  0
LINE
  5
B4
330
1E
100
AcDbEntity
  8
0
100
AcDbLine
 10
167.6399999999999
 20
533.0
 30
0.0
 11
170.84
 21
533.0
 31
0.0
  0
LINE
  5
B5
330
1E
100
AcDbEntity
  8
0
100
AcDbLine
 10
165.72
 20
533.0
 30
0.0
 11
167.6399999999999
 21
533.0
 31
0.0
  0
LINE
  5
B6
330
1E
100
AcDbEntity
  8
0
100
AcDbLine
 10
165.0
 20
533.0
 30
0.0
 11
165.0
 21
483.0
 31
0.0
  0
LINE
  5
B7
330
1E
100
AcDbEntity
  8
0
100
AcDbLine
 10
165.0
 20
533.0
 30
0.0
 11
165.72
 21
533.0
 31
0.0
  0
LINE
  5
B8
330
1E
100
AcDbEntity
  8
0
100
AcDbLine
 10
165.0
 20
483.0
 30
0.0
 11
165.72
 21
483.0
 31
0.0
  0
LINE
  5
B9
330
1E
100
AcDbEntity
  8
0
100
AcDbLine
 10
165.0
 20
483.0
 30
0.0
 11
165.0
 21
533.0
 31
0.0
  0
LINE
  5
BA
330
1E
100
AcDbEntity
  8
0
100
AcDbLine
 10
164.7059999999999
 20
533.0
 30
0.0
 11
170.706
 21
533.0
 31
0.0
  0
LINE
  5
BB
330
1E
100
AcDbEntity
  8
0
100
AcDbLine
 10
177.5879999999999
 20
533.0
 30
0.0
 11
185.0
 21
533.0
 31
0.0
  0
LINE
  5
BC
330
1E
100
AcDbEntity
  8
0
100
AcDbLine
 10
203.0
 20
483.0
 30
0.0
 11
204.28
 21
483.0
 31
0.0
  0
LINE
  5
BD
330
1E
100
AcDbEntity
  8
0
100
AcDbLine
 10
203.0
 20
483.0
 30
0.0
 11
203.0
 21
450.0
 31
0.0
  0
LINE
  5
BE
330
1E
100
AcDbEntity
  8
0
100
AcDbLine
 10
202.36
 20
533.0
 30
0.0
 11
204.28
 21
533.0
 31
0.0
  0
LINE
  5
BF
330
1E
100
AcDbEntity
  8
0
100
AcDbLine
 10
204.28
 20
533.0
 30
0.0
 11
205.0
 21
533.0
 31
0.0
  0
LINE
  5
C0
330
1E
100
AcDbEntity
  8
0
100
AcDbLine
 10
202.36
 20
483.0
 30
0.0
 11
204.28
 21
483.0
 31
0.0
  0
LINE
  5
C1
330
1E
100
AcDbEntity
  8
0
100
AcDbLine
 10
205.0
 20
533.0
 30
0.0
 11
205.0
 21
483.0
 31
0.0
  0
LINE
  5
C2
330
1E
100
AcDbEntity
  8
0
100
AcDbLine
 10
205.0
 20
483.0
 30
0.0
 11
205.0
 21
533.0
 31
0.0
  0
LINE
  5
C3
330
1E
100
AcDbEntity
  8
0
100
AcDbLine
 10
204.28
 20
483.0
 30
0.0
 11
205.0
 21
483.0
 31
0.0
  0
LINE
  5
C4
330
1E
100
AcDbEntity
  8
0
100
AcDbLine
 10
205.2939999999999
 20
533.0
 30
0.0
 11
209.794
 21
533.0
 31
0.0
  0
LINE
  5
C5
330
1E
100
AcDbEntity
  8
0
100
AcDbLine
 10
209.794
 20
533.0
 30
0.0
 11
212.618
 21
533.0
 31
0.0
  0
LINE
  5
C6
330
1E
100
AcDbEntity
  8
0
100
AcDbLine
 10
212.618
 20
533.0
 30
0.0
 11
213.6759999999999
 21
533.0
 31
0.0
  0
LINE
  5
C7
330
1E
100
AcDbEntity
  8
0
100
AcDbLine
 10
199.294
 20
533.0
 30
0.0
 11
205.2939999999999
 21
533.0
 31
0.0
  0
LINE
  5
C8
330
1E
100
AcDbEntity
  8
0
100
AcDbLine
 10
185.0
 20
533.0
 30
0.0
 11
192.412
 21
533.0
 31
0.0
  0
LINE
  5
C9
330
1E
100
AcDbEntity
  8
0
100
AcDbLine
 10
185.0
 20
533.0
 30
0.0
 11
190.12
 21
533.0
 31
0.0
  0
LINE
  5
CE
330
1E
100
AcDbEntity
  8
0
100
AcDbLine
 10
215.0
 20
463.0
 30
0.0
 11
215.0
 21
450.0
 31
0.0
  0
LINE
  5
CF
330
1E
100
AcDbEntity
  8
0
100
AcDbLine
 10
214.264
 20
463.0
 30
0.0
 11
214.6599999999999
 21
463.0
 31
0.0
  0
LINE
  5
D0
330
1E
100
AcDbEntity
  8
0
100
AcDbLine
 10
214.6599999999999
 20
463.0
 30
0.0
 11
235.0
 21
463.0
 31
0.0
  0
LINE
  5
D1
330
1E
100
AcDbEntity
  8
0
100
AcDbLine
 10
222.228
 20
463.0
 30
0.0
 11
225.0
 21
463.0
 31
0.0
  0
LINE
  5
D2
330
1E
100
AcDbEntity
  8
0
100
AcDbLine
 10
214.3959999999999
 20
463.116
 30
0.0
 11
215.452
 21
463.116
 31
0.0
  0
LINE
  5
D3
330
1E
100
AcDbEntity
  8
0
100
AcDbLine
 10
215.452
 20
463.116
 30
0.0
 11
217.212
 21
463.116
 31
0.0
  0
LINE
  5
D4
330
1E
100
AcDbEntity
  8
0
100
AcDbLine
 10
217.212
 20
463.116
 30
0.0
 11
219.544
 21
463.116
 31
0.0
  0
LINE
  5
D5
330
1E
100
AcDbEntity
  8
0
100
AcDbLine
 10
219.544
 20
463.116
 30
0.0
 11
222.184
 21
463.116
 31
0.0
  0
LINE
  5
D6
330
1E
100
AcDbEntity
  8
0
100
AcDbLine
 10
222.184
 20
463.116
 30
0.0
 11
225.0
 21
463.116
 31
0.0
  0
LINE
  5
D7
330
1E
100
AcDbEntity
  8
0
100
AcDbLine
 10
225.0
 20
463.0
 30
0.0
 11
227.772
 21
463.0
 31
0.0
  0
LINE
  5
D8
330
1E
100
AcDbEntity
  8
0
100
AcDbLine
 10
234.548
 20
463.116
 30
0.0
 11
235.604
 21
463.116
 31
0.0
  0
LINE
  5
D9
330
1E
100
AcDbEntity
  8
0
100
AcDbLine
 10
232.7879999999999
 20
463.116
 30
0.0
 11
234.548
 21
463.116
 31
0.0
  0
LINE
  5
DA
330
1E
100
AcDbEntity
  8
0
100
AcDbLine
 10
230.4559999999999
 20
463.116
 30
0.0
 11
232.7879999999999
 21
463.116
 31
0.0
  0
LINE
  5
DB
330
1E
100
AcDbEntity
  8
0
100
AcDbLine
 10
227.8159999999999
 20
463.116
 30
0.0
 11
230.4559999999999
 21
463.116
 31
0.0
  0
LINE
  5
DC
330
1E
100
AcDbEntity
  8
0
100
AcDbLine
 10
225.0
 20
463.116
 30
0.0
 11
227.8159999999999
 21
463.116
 31
0.0
  0
LINE
  5
DD
330
1E
100
AcDbEntity
  8
0
100
AcDbLine
 10
214.3959999999999
 20
464.8839999999999
 30
0.0
 11
215.452
 21
464.8839999999999
 31
0.0
  0
LINE
  5
DE
330
1E
100
AcDbEntity
  8
0
100
AcDbLine
 10
215.452
 20
464.8839999999999
 30
0.0
 11
217.212
 21
464.8839999999999
 31
0.0
  0
LINE
  5
DF
330
1E
100
AcDbEntity
  8
0
100
AcDbLine
 10
217.212
 20
464.8839999999999
 30
0.0
 11
219.544
 21
464.8839999999999
 31
0.0
  0
LINE
  5
E0
330
1E
100
AcDbEntity
  8
0
100
AcDbLine
 10
219.544
 20
464.8839999999999
 30
0.0
 11
222.184
 21
464.8839999999999
 31
0.0
  0
LINE
  5
E1
330
1E
100
AcDbEntity
  8
0
100
AcDbLine
 10
222.184
 20
464.8839999999999
 30
0.0
 11
225.0
 21
464.8839999999999
 31
0.0
  0
LINE
  5
E2
330
1E
100
AcDbEntity
  8
0
100
AcDbLine
 10
234.548
 20
464.8839999999999
 30
0.0
 11
235.604
 21
464.8839999999999
 31
0.0
  0
LINE
  5
E3
330
1E
100
AcDbEntity
  8
0
100
AcDbLine
 10
232.7879999999999
 20
464.8839999999999
 30
0.0
 11
234.548
 21
464.8839999999999
 31
0.0
  0
LINE
  5
E4
330
1E
100
AcDbEntity
  8
0
100
AcDbLine
 10
230.4559999999999
 20
464.8839999999999
 30
0.0
 11
232.7879999999999
 21
464.8839999999999
 31
0.0
  0
LINE
  5
E5
330
1E
100
AcDbEntity
  8
0
100
AcDbLine
 10
227.8159999999999
 20
464.8839999999999
 30
0.0
 11
230.4559999999999
 21
464.8839999999999
 31
0.0
  0
LINE
  5
E6
330
1E
100
AcDbEntity
  8
0
100
AcDbLine
 10
225.0
 20
464.8839999999999
 30
0.0
 11
227.8159999999999
 21
464.8839999999999
 31
0.0
  0
LINE
  5
E7
330
1E
100
AcDbEntity
  8
0
100
AcDbLine
 10
214.0
 20
463.116
 30
0.0
 11
214.0
 21
464.8839999999999
 31
0.0
  0
LINE
  5
E8
330
1E
100
AcDbEntity
  8
0
100
AcDbLine
 10
214.0
 20
463.116
 30
0.0
 11
214.264
 21
463.0
 31
0.0
  0
LINE
  5
E9
330
1E
100
AcDbEntity
  8
0
100
AcDbLine
 10
214.0
 20
463.116
 30
0.0
 11
214.3959999999999
 21
463.116
 31
0.0
  0
LINE
  5
EA
330
1E
100
AcDbEntity
  8
0
100
AcDbLine
 10
235.7359999999999
 20
463.0
 30
0.0
 11
236.0
 21
463.116
 31
0.0
  0
LINE
  5
EB
330
1E
100
AcDbEntity
  8
0
100
AcDbLine
 10
235.604
 20
464.8839999999999
 30
0.0
 11
236.0
 21
464.8839999999999
 31
0.0
  0
LINE
  5
EC
330
1E
100
AcDbEntity
  8
0
100
AcDbLine
 10
235.604
 20
463.116
 30
0.0
 11
236.0
 21
463.116
 31
0.0
  0
LINE
  5
ED
330
1E
100
AcDbEntity
  8
0
100
AcDbLine
 10
235.34
 20
463.0
 30
0.0
 11
235.7359999999999
 21
463.0
 31
0.0
  0
LINE
  5
EE
330
1E
100
AcDbEntity
  8
0
100
AcDbLine
 10
235.0
 20
463.0
 30
0.0
 11
235.34
 21
463.0
 31
0.0
  0
LINE
  5
EF
330
1E
100
AcDbEntity
  8
0
100
AcDbLine
 10
235.0
 20
463.0
 30
0.0
 11
235.0
 21
450.0
 31
0.0
  0
LINE
  5
F0
330
1E
100
AcDbEntity
  8
0
100
AcDbLine
 10
215.0
 20
465.0
 30
0.0
 11
215.0
 21
468.0
 31
0.0
  0
LINE
  5
F1
330
1E
100
AcDbEntity
  8
0
100
AcDbLine
 10
215.7159999999999
 20
465.0
 30
0.0
 11
217.432
 21
465.0
 31
0.0
  0
LINE
  5
F2
330
1E
100
AcDbEntity
  8
0
100
AcDbLine
 10
215.0
 20
468.0
 30
0.0
 11
215.0
 21
465.0
 31
0.0
  0
LINE
  5
F3
330
1E
100
AcDbEntity
  8
0
100
AcDbLine
 10
215.0
 20
468.0
 30
0.0
 11
215.75
 21
473.694
 31
0.0
  0
LINE
  5
F4
330
1E
100
AcDbEntity
  8
0
100
AcDbLine
 10
219.6759999999999
 20
465.0
 30
0.0
 11
222.228
 21
465.0
 31
0.0
  0
LINE
  5
F5
330
1E
100
AcDbEntity
  8
0
100
AcDbLine
 10
235.0
 20
465.0
 30
0.0
 11
235.0
 21
468.0
 31
0.0
  0
LINE
  5
F6
330
1E
100
AcDbEntity
  8
0
100
AcDbLine
 10
235.34
 20
465.0
 30
0.0
 11
235.7359999999999
 21
465.0
 31
0.0
  0
LINE
  5
F7
330
1E
100
AcDbEntity
  8
0
100
AcDbLine
 10
234.284
 20
465.0
 30
0.0
 11
235.34
 21
465.0
 31
0.0
  0
LINE
  5
F8
330
1E
100
AcDbEntity
  8
0
100
AcDbLine
 10
235.068
 20
468.518
 30
0.0
 11
235.2679999999999
 21
469.0
 31
0.0
  0
LINE
  5
F9
330
1E
100
AcDbEntity
  8
0
100
AcDbLine
 10
235.0
 20
468.0
 30
0.0
 11
235.068
 21
468.518
 31
0.0
  0
LINE
  5
FA
330
1E
100
AcDbEntity
  8
0
100
AcDbLine
 10
235.0
 20
468.0
 30
0.0
 11
235.0
 21
465.0
 31
0.0
  0
LINE
  5
FB
330
1E
100
AcDbEntity
  8
0
100
AcDbLine
 10
214.264
 20
465.0
 30
0.0
 11
234.284
 21
465.0
 31
0.0
  0
LINE
  5
FC
330
1E
100
AcDbEntity
  8
0
100
AcDbLine
 10
227.772
 20
465.0
 30
0.0
 11
230.324
 21
465.0
 31
0.0
  0
LINE
  5
FD
330
1E
100
AcDbEntity
  8
0
100
AcDbLine
 10
214.0
 20
464.8839999999999
 30
0.0
 11
214.264
 21
465.0
 31
0.0
  0
LINE
  5
FE
330
1E
100
AcDbEntity
  8
0
100
AcDbLine
 10
214.0
 20
464.8839999999999
 30
0.0
 11
214.0
 21
463.116
 31
0.0
  0
LINE
  5
FF
330
1E
100
AcDbEntity
  8
0
100
AcDbLine
 10
214.0
 20
464.8839999999999
 30
0.0
 11
214.3959999999999
 21
464.8839999999999
 31
0.0
  0
LINE
  5
100
330
1E
100
AcDbEntity
  8
0
100
AcDbLine
 10
236.0
 20
463.116
 30
0.0
 11
236.0
 21
464.8839999999999
 31
0.0
  0
LINE
  5
101
330
1E
100
AcDbEntity
  8
0
100
AcDbLine
 10
236.0
 20
464.8839999999999
 30
0.0
 11
236.0
 21
463.116
 31
0.0
  0
LINE
  5
102
330
1E
100
AcDbEntity
  8
0
100
AcDbLine
 10
235.7359999999999
 20
465.0
 30
0.0
 11
236.0
 21
464.8839999999999
 31
0.0
  0
LINE
  5
103
330
1E
100
AcDbEntity
  8
0
100
AcDbLine
 10
235.2679999999999
 20
469.0
 30
0.0
 11
235.5859999999999
 21
469.4139999999999
 31
0.0
  0
LINE
  5
11F
330
1E
100
AcDbEntity
  8
0
100
AcDbLine
 10
266.857
 20
469.0
 30
0.0
 11
267.429
 21
469.0
 31
0.0
  0
LINE
  5
123
330
1E
100
AcDbEntity
  8
0
100
AcDbLine
 10
261.1429999999999
 20
469.0
 30
0.0
 11
266.857
 21
469.0
 31
0.0
  0
LINE
  5
124
330
1E
100
AcDbEntity
  8
0
100
AcDbLine
 10
260.5709999999999
 20
469.0
 30
0.0
 11
261.1429999999999
 21
469.0
 31
0.0
  0
LINE
  5
126
330
1E
100
AcDbEntity
  8
0
100
AcDbLine
 10
260.137
 20
469.0
 30
0.0
 11
260.5709999999999
 21
469.0
 31
0.0
  0
LINE
  5
127
330
1E
100
AcDbEntity
  8
0
100
AcDbLine
 10
235.5859999999999
 20
469.4139999999999
 30
0.0
 11
236.0
 21
469.7319999999999
 31
0.0
  0
LINE
  5
128
330
1E
100
AcDbEntity
  8
0
100
AcDbLine
 10
236.0
 20
469.7319999999999
 30
0.0
 11
236.4819999999999
 21
469.9319999999999
 31
0.0
  0
LINE
  5
129
330
1E
100
AcDbEntity
  8
0
100
AcDbLine
 10
237.0
 20
470.0
 30
0.0
 11
260.0
 21
470.0
 31
0.0
  0
LINE
  5
12A
330
1E
100
AcDbEntity
  8
0
100
AcDbLine
 10
260.0
 20
470.0
 30
0.0
 11
260.0
 21
470.36
 31
0.0
  0
LINE
  5
12B
330
1E
100
AcDbEntity
  8
0
100
AcDbLine
 10
260.0
 20
470.36
 30
0.0
 11
260.0
 21
471.3199999999999
 31
0.0
  0
LINE
  5
12C
330
1E
100
AcDbEntity
  8
0
100
AcDbLine
 10
236.4819999999999
 20
469.9319999999999
 30
0.0
 11
237.0
 21
470.0
 31
0.0
  0
LINE
  5
12D
330
1E
100
AcDbEntity
  8
0
100
AcDbLine
 10
260.0
 20
471.3199999999999
 30
0.0
 11
260.0
 21
472.92
 31
0.0
  0
LINE
  5
12E
330
1E
100
AcDbEntity
  8
0
100
AcDbLine
 10
260.0
 20
472.92
 30
0.0
 11
260.0
 21
475.0399999999999
 31
0.0
  0
LINE
  5
12F
330
1E
100
AcDbEntity
  8
0
100
AcDbLine
 10
215.75
 20
473.694
 30
0.0
 11
217.947
 21
479.0
 31
0.0
  0
LINE
  5
130
330
1E
100
AcDbEntity
  8
0
100
AcDbLine
 10
260.0
 20
470.737
 30
0.0
 11
260.0
 21
469.695
 31
0.0
  0
LINE
  5
131
330
1E
100
AcDbEntity
  8
0
100
AcDbLine
 10
260.0
 20
470.737
 30
0.0
 11
260.0
 21
472.416
 31
0.0
  0
LINE
  5
132
330
1E
100
AcDbEntity
  8
0
100
AcDbLine
 10
260.0
 20
472.416
 30
0.0
 11
260.0
 21
474.674
 31
0.0
  0
LINE
  5
133
330
1E
100
AcDbEntity
  8
0
100
AcDbLine
 10
260.0
 20
472.416
 30
0.0
 11
260.0
 21
470.737
 31
0.0
  0
LINE
  5
134
330
1E
100
AcDbEntity
  8
0
100
AcDbLine
 10
260.0
 20
475.0399999999999
 30
0.0
 11
260.0
 21
477.4399999999999
 31
0.0
  0
LINE
  5
135
330
1E
100
AcDbEntity
  8
0
100
AcDbLine
 10
260.0
 20
477.4399999999999
 30
0.0
 11
260.0
 21
480.0
 31
0.0
  0
LINE
  5
136
330
1E
100
AcDbEntity
  8
0
100
AcDbLine
 10
260.0
 20
482.56
 30
0.0
 11
260.0
 21
484.9599999999999
 31
0.0
  0
LINE
  5
137
330
1E
100
AcDbEntity
  8
0
100
AcDbLine
 10
217.947
 20
479.0
 30
0.0
 11
221.444
 21
483.556
 31
0.0
  0
LINE
  5
138
330
1E
100
AcDbEntity
  8
0
100
AcDbLine
 10
260.0
 20
487.08
 30
0.0
 11
260.0
 21
488.68
 31
0.0
  0
LINE
  5
139
330
1E
100
AcDbEntity
  8
0
100
AcDbLine
 10
260.0
 20
484.9599999999999
 30
0.0
 11
260.0
 21
487.08
 31
0.0
  0
LINE
  5
13A
330
1E
100
AcDbEntity
  8
0
100
AcDbLine
 10
226.0
 20
487.053
 30
0.0
 11
231.3059999999999
 21
489.25
 31
0.0
  0
LINE
  5
13B
330
1E
100
AcDbEntity
  8
0
100
AcDbLine
 10
221.444
 20
483.556
 30
0.0
 11
226.0
 21
487.053
 31
0.0
  0
LINE
  5
13C
330
1E
100
AcDbEntity
  8
0
100
AcDbLine
 10
260.0
 20
485.3259999999999
 30
0.0
 11
260.0
 21
487.584
 31
0.0
  0
LINE
  5
13E
330
1E
100
AcDbEntity
  8
0
100
AcDbLine
 10
260.0
 20
485.3259999999999
 30
0.0
 11
260.0
 21
482.779
 31
0.0
  0
LINE
  5
13F
330
1E
100
AcDbEntity
  8
0
100
AcDbLine
 10
237.0
 20
490.0
 30
0.0
 11
260.0
 21
490.0
 31
0.0
  0
LINE
  5
140
330
1E
100
AcDbEntity
  8
0
100
AcDbLine
 10
260.0
 20
489.6399999999999
 30
0.0
 11
260.0
 21
490.0
 31
0.0
  0
LINE
  5
141
330
1E
100
AcDbEntity
  8
0
100
AcDbLine
 10
260.0
 20
488.68
 30
0.0
 11
260.0
 21
489.6399999999999
 31
0.0
  0
LINE
  5
142
330
1E
100
AcDbEntity
  8
0
100
AcDbLine
 10
231.3059999999999
 20
489.25
 30
0.0
 11
237.0
 21
490.0
 31
0.0
  0
LINE
  5
143
330
1E
100
AcDbEntity
  8
0
100
AcDbLine
 10
260.0
 20
490.711
 30
0.0
 11
260.057
 21
491.0
 31
0.0
  0
LINE
  5
144
330
1E
100
AcDbEntity
  8
0
100
AcDbLine
 10
260.0
 20
490.711
 30
0.0
 11
260.0
 21
490.305
 31
0.0
  0
LINE
  5
145
330
1E
100
AcDbEntity
  8
0
100
AcDbLine
 10
260.0
 20
490.305
 30
0.0
 11
260.0
 21
489.263
 31
0.0
  0
LINE
  5
146
330
1E
100
AcDbEntity
  8
0
100
AcDbLine
 10
260.0
 20
490.305
 30
0.0
 11
260.0
 21
490.711
 31
0.0
  0
LINE
  5
147
330
1E
100
AcDbEntity
  8
0
100
AcDbLine
 10
260.0
 20
487.584
 30
0.0
 11
260.0
 21
489.263
 31
0.0
  0
LINE
  5
149
330
1E
100
AcDbEntity
  8
0
100
AcDbLine
 10
260.0
 20
487.584
 30
0.0
 11
260.0
 21
485.3259999999999
 31
0.0
  0
LINE
  5
14A
330
1E
100
AcDbEntity
  8
0
100
AcDbLine
 10
260.0
 20
489.263
 30
0.0
 11
260.0
 21
490.305
 31
0.0
  0
LINE
  5
14B
330
1E
100
AcDbEntity
  8
0
100
AcDbLine
 10
260.0
 20
489.263
 30
0.0
 11
260.0
 21
487.584
 31
0.0
  0
LINE
  5
14C
330
1E
100
AcDbEntity
  8
0
100
AcDbLine
 10
260.0
 20
482.779
 30
0.0
 11
260.0
 21
480.0
 31
0.0
  0
LINE
  5
14E
330
1E
100
AcDbEntity
  8
0
100
AcDbLine
 10
260.0
 20
482.779
 30
0.0
 11
260.0
 21
485.3259999999999
 31
0.0
  0
LINE
  5
150
330
1E
100
AcDbEntity
  8
0
100
AcDbLine
 10
260.0
 20
480.0
 30
0.0
 11
260.0
 21
477.221
 31
0.0
  0
LINE
  5
151
330
1E
100
AcDbEntity
  8
0
100
AcDbLine
 10
260.0
 20
480.0
 30
0.0
 11
260.0
 21
482.779
 31
0.0
  0
LINE
  5
152
330
1E
100
AcDbEntity
  8
0
100
AcDbLine
 10
260.0
 20
480.0
 30
0.0
 11
260.0
 21
482.56
 31
0.0
  0
LINE
  5
153
330
1E
100
AcDbEntity
  8
0
100
AcDbLine
 10
260.0
 20
474.674
 30
0.0
 11
260.0
 21
477.221
 31
0.0
  0
LINE
  5
154
330
1E
100
AcDbEntity
  8
0
100
AcDbLine
 10
260.0
 20
474.674
 30
0.0
 11
260.0
 21
472.416
 31
0.0
  0
LINE
  5
157
330
1E
100
AcDbEntity
  8
0
100
AcDbLine
 10
260.0
 20
477.221
 30
0.0
 11
260.0
 21
474.674
 31
0.0
  0
LINE
  5
158
330
1E
100
AcDbEntity
  8
0
100
AcDbLine
 10
260.0
 20
477.221
 30
0.0
 11
260.0
 21
480.0
 31
0.0
  0
LINE
  5
159
330
1E
100
AcDbEntity
  8
0
100
AcDbLine
 10
260.0
 20
469.695
 30
0.0
 11
260.0
 21
469.289
 31
0.0
  0
LINE
  5
15A
330
1E
100
AcDbEntity
  8
0
100
AcDbLine
 10
260.0
 20
469.695
 30
0.0
 11
260.0
 21
470.737
 31
0.0
  0
LINE
  5
165
330
1E
100
AcDbEntity
  8
0
100
AcDbLine
 10
260.137
 20
491.0
 30
0.0
 11
260.5709999999999
 21
491.0
 31
0.0
  0
LINE
  5
166
330
1E
100
AcDbEntity
  8
0
100
AcDbLine
 10
260.057
 20
491.0
 30
0.0
 11
260.137
 21
491.0
 31
0.0
  0
LINE
  5
171
330
1E
100
AcDbEntity
  8
0
100
AcDbLine
 10
260.5709999999999
 20
491.0
 30
0.0
 11
261.1429999999999
 21
491.0
 31
0.0
  0
LINE
  5
174
330
1E
100
AcDbEntity
  8
0
100
AcDbLine
 10
261.1429999999999
 20
491.0
 30
0.0
 11
266.857
 21
491.0
 31
0.0
  0
LINE
  5
175
330
1E
100
AcDbEntity
  8
0
100
AcDbLine
 10
266.857
 20
491.0
 30
0.0
 11
267.429
 21
491.0
 31
0.0
  0
LINE
  5
181
330
1E
100
AcDbEntity
  8
0
100
AcDbLine
 10
260.0
 20
469.289
 30
0.0
 11
260.057
 21
469.0
 31
0.0
  0
LINE
  5
182
330
1E
100
AcDbEntity
  8
0
100
AcDbLine
 10
260.0
 20
469.289
 30
0.0
 11
260.0
 21
469.695
 31
0.0
  0
LINE
  5
183
330
1E
100
AcDbEntity
  8
0
100
AcDbLine
 10
260.057
 20
469.0
 30
0.0
 11
260.137
 21
469.0
 31
0.0
  0
LINE
  5
184
330
1E
100
AcDbEntity
  8
0
100
AcDbLine
 10
278.0879999999999
 20
463.0
 30
0.0
 11
283.0879999999999
 21
463.0
 31
0.0
  0
LINE
  5
185
330
1E
100
AcDbEntity
  8
0
100
AcDbLine
 10
301.177
 20
463.0
 30
0.0
 11
306.912
 21
463.0
 31
0.0
  0
LINE
  5
186
330
1E
100
AcDbEntity
  8
0
100
AcDbLine
 10
285.0
 20
463.0
 30
0.0
 11
301.177
 21
463.0
 31
0.0
  0
LINE
  5
187
330
1E
100
AcDbEntity
  8
0
100
AcDbLine
 10
283.0879999999999
 20
463.0
 30
0.0
 11
285.0
 21
463.0
 31
0.0
  0
LINE
  5
188
330
1E
100
AcDbEntity
  8
0
100
AcDbLine
 10
274.3379999999999
 20
463.0
 30
0.0
 11
278.0879999999999
 21
463.0
 31
0.0
  0
LINE
  5
189
330
1E
100
AcDbEntity
  8
0
100
AcDbLine
 10
271.985
 20
463.0
 30
0.0
 11
274.3379999999999
 21
463.0
 31
0.0
  0
LINE
  5
18A
330
1E
100
AcDbEntity
  8
0
100
AcDbLine
 10
271.103
 20
463.0
 30
0.0
 11
271.985
 21
463.0
 31
0.0
  0
LINE
  5
196
330
1E
100
AcDbEntity
  8
0
100
AcDbLine
 10
267.429
 20
469.0
 30
0.0
 11
267.863
 21
469.0
 31
0.0
  0
LINE
  5
198
330
1E
100
AcDbEntity
  8
0
100
AcDbLine
 10
268.0
 20
472.416
 30
0.0
 11
268.0
 21
474.674
 31
0.0
  0
LINE
  5
199
330
1E
100
AcDbEntity
  8
0
100
AcDbLine
 10
268.0
 20
472.416
 30
0.0
 11
268.0
 21
470.737
 31
0.0
  0
LINE
  5
19A
330
1E
100
AcDbEntity
  8
0
100
AcDbLine
 10
268.0
 20
470.737
 30
0.0
 11
268.0
 21
472.416
 31
0.0
  0
LINE
  5
19B
330
1E
100
AcDbEntity
  8
0
100
AcDbLine
 10
268.0
 20
470.737
 30
0.0
 11
268.0
 21
469.695
 31
0.0
  0
LINE
  5
19C
330
1E
100
AcDbEntity
  8
0
100
AcDbLine
 10
268.0
 20
469.695
 30
0.0
 11
268.0
 21
469.289
 31
0.0
  0
LINE
  5
19D
330
1E
100
AcDbEntity
  8
0
100
AcDbLine
 10
268.0
 20
469.695
 30
0.0
 11
268.0
 21
470.737
 31
0.0
  0
LINE
  5
19E
330
1E
100
AcDbEntity
  8
0
100
AcDbLine
 10
268.0
 20
469.289
 30
0.0
 11
268.0
 21
469.695
 31
0.0
  0
LINE
  5
19F
330
1E
100
AcDbEntity
  8
0
100
AcDbLine
 10
267.9429999999999
 20
469.0
 30
0.0
 11
268.0
 21
469.289
 31
0.0
  0
LINE
  5
1A0
330
1E
100
AcDbEntity
  8
0
100
AcDbLine
 10
267.863
 20
469.0
 30
0.0
 11
267.9429999999999
 21
469.0
 31
0.0
  0
LINE
  5
1A5
330
1E
100
AcDbEntity
  8
0
100
AcDbLine
 10
268.0
 20
477.221
 30
0.0
 11
268.0
 21
474.674
 31
0.0
  0
LINE
  5
1A6
330
1E
100
AcDbEntity
  8
0
100
AcDbLine
 10
268.0
 20
477.221
 30
0.0
 11
268.0
 21
480.0
 31
0.0
  0
LINE
  5
1AB
330
1E
100
AcDbEntity
  8
0
100
AcDbLine
 10
268.0
 20
474.674
 30
0.0
 11
268.0
 21
477.221
 31
0.0
  0
LINE
  5
1AC
330
1E
100
AcDbEntity
  8
0
100
AcDbLine
 10
268.0
 20
474.674
 30
0.0
 11
268.0
 21
472.416
 31
0.0
  0
LINE
  5
1B7
330
1E
100
AcDbEntity
  8
0
100
AcDbLine
 10
268.0
 20
477.4399999999999
 30
0.0
 11
268.0
 21
480.0
 31
0.0
  0
LINE
  5
1B8
330
1E
100
AcDbEntity
  8
0
100
AcDbLine
 10
268.0
 20
475.0399999999999
 30
0.0
 11
268.0
 21
477.4399999999999
 31
0.0
  0
LINE
  5
1B9
330
1E
100
AcDbEntity
  8
0
100
AcDbLine
 10
268.0
 20
472.92
 30
0.0
 11
268.0
 21
475.0399999999999
 31
0.0
  0
LINE
  5
1BA
330
1E
100
AcDbEntity
  8
0
100
AcDbLine
 10
268.0
 20
480.0
 30
0.0
 11
268.0
 21
482.56
 31
0.0
  0
LINE
  5
1BB
330
1E
100
AcDbEntity
  8
0
100
AcDbLine
 10
268.0
 20
480.0
 30
0.0
 11
268.0
 21
477.221
 31
0.0
  0
LINE
  5
1BC
330
1E
100
AcDbEntity
  8
0
100
AcDbLine
 10
268.0
 20
480.0
 30
0.0
 11
268.0
 21
482.779
 31
0.0
  0
LINE
  5
1BF
330
1E
100
AcDbEntity
  8
0
100
AcDbLine
 10
268.0
 20
485.3259999999999
 30
0.0
 11
268.0
 21
482.779
 31
0.0
  0
LINE
  5
1C0
330
1E
100
AcDbEntity
  8
0
100
AcDbLine
 10
268.0
 20
485.3259999999999
 30
0.0
 11
268.0
 21
487.584
 31
0.0
  0
LINE
  5
1C1
330
1E
100
AcDbEntity
  8
0
100
AcDbLine
 10
268.0
 20
487.584
 30
0.0
 11
268.0
 21
489.263
 31
0.0
  0
LINE
  5
1C2
330
1E
100
AcDbEntity
  8
0
100
AcDbLine
 10
268.0
 20
487.584
 30
0.0
 11
268.0
 21
485.3259999999999
 31
0.0
  0
LINE
  5
1C7
330
1E
100
AcDbEntity
  8
0
100
AcDbLine
 10
268.0
 20
489.263
 30
0.0
 11
268.0
 21
490.305
 31
0.0
  0
LINE
  5
1C8
330
1E
100
AcDbEntity
  8
0
100
AcDbLine
 10
268.0
 20
489.263
 30
0.0
 11
268.0
 21
487.584
 31
0.0
  0
LINE
  5
1CC
330
1E
100
AcDbEntity
  8
0
100
AcDbLine
 10
268.0
 20
482.779
 30
0.0
 11
268.0
 21
480.0
 31
0.0
  0
LINE
  5
1CD
330
1E
100
AcDbEntity
  8
0
100
AcDbLine
 10
268.0
 20
482.779
 30
0.0
 11
268.0
 21
485.3259999999999
 31
0.0
  0
LINE
  5
1CE
330
1E
100
AcDbEntity
  8
0
100
AcDbLine
 10
268.0
 20
482.56
 30
0.0
 11
268.0
 21
484.9599999999999
 31
0.0
  0
LINE
  5
1CF
330
1E
100
AcDbEntity
  8
0
100
AcDbLine
 10
268.0
 20
484.9599999999999
 30
0.0
 11
268.0
 21
487.08
 31
0.0
  0
LINE
  5
1D4
330
1E
100
AcDbEntity
  8
0
100
AcDbLine
 10
267.429
 20
491.0
 30
0.0
 11
267.863
 21
491.0
 31
0.0
  0
LINE
  5
1D6
330
1E
100
AcDbEntity
  8
0
100
AcDbLine
 10
268.0
 20
490.711
 30
0.0
 11
268.0
 21
490.305
 31
0.0
  0
LINE
  5
1D7
330
1E
100
AcDbEntity
  8
0
100
AcDbLine
 10
267.9429999999999
 20
491.0
 30
0.0
 11
268.0
 21
490.711
 31
0.0
  0
LINE
  5
1D8
330
1E
100
AcDbEntity
  8
0
100
AcDbLine
 10
268.0
 20
490.305
 30
0.0
 11
268.0
 21
489.263
 31
0.0
  0
LINE
  5
1D9
330
1E
100
AcDbEntity
  8
0
100
AcDbLine
 10
268.0
 20
490.305
 30
0.0
 11
268.0
 21
490.711
 31
0.0
  0
LINE
  5
1DC
330
1E
100
AcDbEntity
  8
0
100
AcDbLine
 10
267.863
 20
491.0
 30
0.0
 11
267.9429999999999
 21
491.0
 31
0.0
  0
LINE
  5
1E1
330
1E
100
AcDbEntity
  8
0
100
AcDbLine
 10
268.0
 20
490.0
 30
0.0
 11
270.100020618557
 21
490.0
 31
0.0
  0
LINE
  5
1E2
330
1E
100
AcDbEntity
  8
0
100
AcDbLine
 10
273.6759999999999
 20
463.4999999999999
 30
0.0
 11
277.574
 21
463.4999999999999
 31
0.0
  0
LINE
  5
1E3
330
1E
100
AcDbEntity
  8
0
100
AcDbLine
 10
271.2499999999999
 20
463.4999999999999
 30
0.0
 11
273.6759999999999
 21
463.4999999999999
 31
0.0
  0
LINE
  5
1E4
330
1E
100
AcDbEntity
  8
0
100
AcDbLine
 10
277.574
 20
463.4999999999999
 30
0.0
 11
282.721
 21
463.4999999999999
 31
0.0
  0
LINE
  5
1E5
330
1E
100
AcDbEntity
  8
0
100
AcDbLine
 10
282.721
 20
463.4999999999999
 30
0.0
 11
288.677
 21
463.4999999999999
 31
0.0
  0
LINE
  5
1E6
330
1E
100
AcDbEntity
  8
0
100
AcDbLine
 10
288.677
 20
463.4999999999999
 30
0.0
 11
295.0
 21
463.4999999999999
 31
0.0
  0
LINE
  5
1E7
330
1E
100
AcDbEntity
  8
0
100
AcDbLine
 10
301.323
 20
463.4999999999999
 30
0.0
 11
307.2789999999999
 21
463.4999999999999
 31
0.0
  0
LINE
  5
1E8
330
1E
100
AcDbEntity
  8
0
100
AcDbLine
 10
295.0
 20
463.4999999999999
 30
0.0
 11
301.323
 21
463.4999999999999
 31
0.0
  0
LINE
  5
1E9
330
1E
100
AcDbEntity
  8
0
100
AcDbLine
 10
270.3679999999999
 20
463.4999999999999
 30
0.0
 11
271.103
 21
463.0
 31
0.0
  0
LINE
  5
1EA
330
1E
100
AcDbEntity
  8
0
100
AcDbLine
 10
270.3679999999999
 20
463.4999999999999
 30
0.0
 11
271.2499999999999
 21
463.4999999999999
 31
0.0
  0
LINE
  5
1EB
330
1E
100
AcDbEntity
  8
0
100
AcDbLine
 10
270.0
 20
533.0
 30
0.0
 11
270.0
 21
490.0
 31
0.0
  0
LINE
  5
1EC
330
1E
100
AcDbEntity
  8
0
100
AcDbLine
 10
270.0
 20
533.0
 30
0.0
 11
270.882
 21
533.0
 31
0.0
  0
LINE
  5
1ED
330
1E
100
AcDbEntity
  8
0
100
AcDbLine
 10
270.0
 20
490.0
 30
0.0
 11
270.0
 21
533.0
 31
0.0
  0
LINE
  5
1EE
330
1E
100
AcDbEntity
  8
0
100
AcDbLine
 10
270.0
 20
470.0
 30
0.0
 11
270.0
 21
468.0
 31
0.0
  0
LINE
  5
1FA
330
1E
100
AcDbEntity
  8
0
100
AcDbLine
 10
273.382
 20
533.0
 30
0.0
 11
277.353
 21
533.0
 31
0.0
  0
LINE
  5
1FB
330
1E
100
AcDbEntity
  8
0
100
AcDbLine
 10
270.882
 20
533.0
 30
0.0
 11
273.382
 21
533.0
 31
0.0
  0
LINE
  5
200
330
1E
100
AcDbEntity
  8
0
100
AcDbLine
 10
277.353
 20
533.0
 30
0.0
 11
282.5729999999999
 21
533.0
 31
0.0
  0
LINE
  5
201
330
1E
100
AcDbEntity
  8
0
100
AcDbLine
 10
282.5729999999999
 20
533.0
 30
0.0
 11
288.603
 21
533.0
 31
0.0
  0
LINE
  5
203
330
1E
100
AcDbEntity
  8
0
100
AcDbLine
 10
288.603
 20
533.0
 30
0.0
 11
295.0
 21
533.0
 31
0.0
  0
LINE
  5
20C
330
1E
100
AcDbEntity
  8
0
100
AcDbLine
 10
301.397
 20
533.0
 30
0.0
 11
307.427
 21
533.0
 31
0.0
  0
LINE
  5
20D
330
1E
100
AcDbEntity
  8
0
100
AcDbLine
 10
295.0
 20
533.0
 30
0.0
 11
301.397
 21
533.0
 31
0.0
  0
LINE
  5
211
330
1E
100
AcDbEntity
  8
0
100
AcDbLine
 10
270.0
 20
468.0
 30
0.0
 11
270.0
 21
464.5
 31
0.0
  0
LINE
  5
212
330
1E
100
AcDbEntity
  8
0
100
AcDbLine
 10
270.0
 20
468.0
 30
0.0
 11
270.0
 21
470.0
 31
0.0
  0
LINE
  5
213
330
1E
100
AcDbEntity
  8
0
100
AcDbLine
 10
270.0
 20
464.5
 30
0.0
 11
270.0
 21
468.0
 31
0.0
  0
LINE
  5
214
330
1E
100
AcDbEntity
  8
0
100
AcDbLine
 10
270.0
 20
464.5
 30
0.0
 11
270.3679999999999
 21
463.4999999999999
 31
0.0
  0
LINE
  5
215
330
1E
100
AcDbEntity
  8
0
100
AcDbLine
 10
268.0
 20
470.0
 30
0.0
 11
270.0
 21
470.0
 31
0.0
  0
LINE
  5
216
330
1E
100
AcDbEntity
  8
0
100
AcDbLine
 10
285.0
 20
463.0
 30
0.0
 11
285.0
 21
450.0
 31
0.0
  0
LINE
  5
217
330
1E
100
AcDbEntity
  8
0
100
AcDbLine
 10
306.912
 20
463.0
 30
0.0
 11
311.912
 21
463.0
 31
0.0
  0
LINE
  5
21C
330
1E
100
AcDbEntity
  8
0
100
AcDbLine
 10
307.427
 20
533.0
 30
0.0
 11
312.6469999999999
 21
533.0
 31
0.0
  0
LINE
  5
21E
330
1E
100
AcDbEntity
  8
0
100
AcDbLine
 10
307.2789999999999
 20
463.4999999999999
 30
0.0
 11
312.427
 21
463.4999999999999
 31
0.0
  0
LINE
  5
21F
330
1E
100
AcDbEntity
  8
0
100
AcDbLine
 10
305.0
 20
463.0
 30
0.0
 11
305.0
 21
450.0
 31
0.0
  0
LINE
  5
220
330
1E
100
AcDbEntity
  8
0
100
AcDbLine
 10
270.2059999999999
 20
533.0
 30
0.0
 11
274.7059999999999
 21
533.0
 31
0.0
  0
LINE
  5
221
330
1E
100
AcDbEntity
  8
0
100
AcDbLine
 10
267.382
 20
533.0
 30
0.0
 11
270.2059999999999
 21
533.0
 31
0.0
  0
LINE
  5
222
330
1E
100
AcDbEntity
  8
0
100
AcDbLine
 10
287.5879999999999
 20
533.0
 30
0.0
 11
295.0
 21
533.0
 31
0.0
  0
LINE
  5
230
330
1E
100
AcDbEntity
  8
0
100
AcDbLine
 10
311.912
 20
463.0
 30
0.0
 11
315.662
 21
463.0
 31
0.0
  0
LINE
  5
231
330
1E
100
AcDbEntity
  8
0
100
AcDbLine
 10
315.662
 20
463.0
 30
0.0
 11
318.0149999999999
 21
463.0
 31
0.0
  0
LINE
  5
236
330
1E
100
AcDbEntity
  8
0
100
AcDbLine
 10
315.0
 20
488.0
 30
0.0
 11
352.0
 21
488.0
 31
0.0
  0
LINE
  5
237
330
1E
100
AcDbEntity
  8
0
100
AcDbLine
 10
315.0
 20
468.0
 30
0.0
 11
352.0
 21
468.0
 31
0.0
  0
LINE
  5
238
330
1E
100
AcDbEntity
  8
0
100
AcDbLine
 10
315.0
 20
468.0
 30
0.0
 11
315.0
 21
488.0
 31
0.0
  0
LINE
  5
23A
330
1E
100
AcDbEntity
  8
0
100
AcDbLine
 10
312.6469999999999
 20
533.0
 30
0.0
 11
316.618
 21
533.0
 31
0.0
  0
LINE
  5
23C
330
1E
100
AcDbEntity
  8
0
100
AcDbLine
 10
312.427
 20
463.4999999999999
 30
0.0
 11
316.3229999999999
 21
463.4999999999999
 31
0.0
  0
LINE
  5
23D
330
1E
100
AcDbEntity
  8
0
100
AcDbLine
 10
316.618
 20
533.0
 30
0.0
 11
319.118
 21
533.0
 31
0.0
  0
LINE
  5
23E
330
1E
100
AcDbEntity
  8
0
100
AcDbLine
 10
316.3229999999999
 20
463.4999999999999
 30
0.0
 11
318.75
 21
463.4999999999999
 31
0.0
  0
LINE
  5
241
330
1E
100
AcDbEntity
  8
0
100
AcDbLine
 10
318.8969999999999
 20
463.0
 30
0.0
 11
319.632
 21
463.4999999999999
 31
0.0
  0
LINE
  5
242
330
1E
100
AcDbEntity
  8
0
100
AcDbLine
 10
319.118
 20
533.0
 30
0.0
 11
320.0
 21
533.0
 31
0.0
  0
LINE
  5
243
330
1E
100
AcDbEntity
  8
0
100
AcDbLine
 10
318.75
 20
463.4999999999999
 30
0.0
 11
319.632
 21
463.4999999999999
 31
0.0
  0
LINE
  5
244
330
1E
100
AcDbEntity
  8
0
100
AcDbLine
 10
318.0149999999999
 20
463.0
 30
0.0
 11
318.8969999999999
 21
463.0
 31
0.0
  0
LINE
  5
245
330
1E
100
AcDbEntity
  8
0
100
AcDbLine
 10
319.632
 20
463.4999999999999
 30
0.0
 11
320.0
 21
464.5
 31
0.0
  0
LINE
  5
24B
330
1E
100
AcDbEntity
  8
0
100
AcDbLine
 10
315.294
 20
533.0
 30
0.0
 11
319.794
 21
533.0
 31
0.0
  0
LINE
  5
24C
330
1E
100
AcDbEntity
  8
0
100
AcDbLine
 10
320.0
 20
464.5
 30
0.0
 11
320.0
 21
468.0
 31
0.0
  0
LINE
  5
24D
330
1E
100
AcDbEntity
  8
0
100
AcDbLine
 10
320.0
 20
488.0
 30
0.0
 11
320.0
 21
533.0
 31
0.0
  0
LINE
  5
24E
330
1E
100
AcDbEntity
  8
0
100
AcDbLine
 10
320.0
 20
533.0
 30
0.0
 11
320.0
 21
488.0
 31
0.0
  0
LINE
  5
24F
330
1E
100
AcDbEntity
  8
0
100
AcDbLine
 10
320.0
 20
468.0
 30
0.0
 11
320.0
 21
464.5
 31
0.0
  0
LINE
  5
250
330
1E
100
AcDbEntity
  8
0
100
AcDbLine
 10
320.0
 20
468.0
 30
0.0
 11
352.0
 21
468.0
 31
0.0
  0
LINE
  5
251
330
1E
100
AcDbEntity
  8
0
100
AcDbLine
 10
319.794
 20
533.0
 30
0.0
 11
322.6179999999999
 21
533.0
 31
0.0
  0
LINE
  5
252
330
1E
100
AcDbEntity
  8
0
100
AcDbLine
 10
322.6179999999999
 20
533.0
 30
0.0
 11
323.677
 21
533.0
 31
0.0
  0
LINE
  5
253
330
1E
100
AcDbEntity
  8
0
100
AcDbLine
 10
309.294
 20
533.0
 30
0.0
 11
315.294
 21
533.0
 31
0.0
  0
LINE
  5
254
330
1E
100
AcDbEntity
  8
0
100
AcDbLine
 10
302.412
 20
533.0
 30
0.0
 11
309.294
 21
533.0
 31
0.0
  0
LINE
  5
260
330
1E
100
AcDbEntity
  8
0
100
AcDbLine
 10
323.677
 20
533.0
 30
0.0
 11
324.559
 21
533.4999999999999
 31
0.0
  0
LINE
  5
261
330
1E
100
AcDbEntity
  8
0
100
AcDbLine
 10
266.324
 20
533.0
 30
0.0
 11
267.382
 21
533.0
 31
0.0
  0
LINE
  5
262
330
1E
100
AcDbEntity
  8
0
100
AcDbLine
 10
213.6759999999999
 20
533.0
 30
0.0
 11
214.559
 21
533.4999999999999
 31
0.0
  0
LINE
  5
263
330
1E
100
AcDbEntity
  8
0
100
AcDbLine
 10
159.412
 20
533.4999999999999
 30
0.0
 11
164.0879999999999
 21
533.4999999999999
 31
0.0
  0
LINE
  5
264
330
1E
100
AcDbEntity
  8
0
100
AcDbLine
 10
156.4999999999999
 20
533.4999999999999
 30
0.0
 11
159.412
 21
533.4999999999999
 31
0.0
  0
LINE
  5
265
330
1E
100
AcDbEntity
  8
0
100
AcDbLine
 10
164.0879999999999
 20
533.4999999999999
 30
0.0
 11
170.265
 21
533.4999999999999
 31
0.0
  0
LINE
  5
266
330
1E
100
AcDbEntity
  8
0
100
AcDbLine
 10
170.265
 20
533.4999999999999
 30
0.0
 11
177.412
 21
533.4999999999999
 31
0.0
  0
LINE
  5
267
330
1E
100
AcDbEntity
  8
0
100
AcDbLine
 10
177.412
 20
533.4999999999999
 30
0.0
 11
185.0
 21
533.4999999999999
 31
0.0
  0
LINE
  5
268
330
1E
100
AcDbEntity
  8
0
100
AcDbLine
 10
205.912
 20
533.4999999999999
 30
0.0
 11
210.5879999999999
 21
533.4999999999999
 31
0.0
  0
LINE
  5
269
330
1E
100
AcDbEntity
  8
0
100
AcDbLine
 10
210.5879999999999
 20
533.4999999999999
 30
0.0
 11
213.5
 21
533.4999999999999
 31
0.0
  0
LINE
  5
26A
330
1E
100
AcDbEntity
  8
0
100
AcDbLine
 10
213.5
 20
533.4999999999999
 30
0.0
 11
214.559
 21
533.4999999999999
 31
0.0
  0
LINE
  5
26B
330
1E
100
AcDbEntity
  8
0
100
AcDbLine
 10
199.735
 20
533.4999999999999
 30
0.0
 11
205.912
 21
533.4999999999999
 31
0.0
  0
LINE
  5
26C
330
1E
100
AcDbEntity
  8
0
100
AcDbLine
 10
192.588
 20
533.4999999999999
 30
0.0
 11
199.735
 21
533.4999999999999
 31
0.0
  0
LINE
  5
26D
330
1E
100
AcDbEntity
  8
0
100
AcDbLine
 10
185.0
 20
533.4999999999999
 30
0.0
 11
192.588
 21
533.4999999999999
 31
0.0
  0
LINE
  5
26E
330
1E
100
AcDbEntity
  8
0
100
AcDbLine
 10
269.412
 20
533.4999999999999
 30
0.0
 11
274.0879999999999
 21
533.4999999999999
 31
0.0
  0
LINE
  5
26F
330
1E
100
AcDbEntity
  8
0
100
AcDbLine
 10
266.5
 20
533.4999999999999
 30
0.0
 11
269.412
 21
533.4999999999999
 31
0.0
  0
LINE
  5
270
330
1E
100
AcDbEntity
  8
0
100
AcDbLine
 10
274.0879999999999
 20
533.4999999999999
 30
0.0
 11
280.2649999999999
 21
533.4999999999999
 31
0.0
  0
LINE
  5
271
330
1E
100
AcDbEntity
  8
0
100
AcDbLine
 10
280.2649999999999
 20
533.4999999999999
 30
0.0
 11
287.412
 21
533.4999999999999
 31
0.0
  0
LINE
  5
272
330
1E
100
AcDbEntity
  8
0
100
AcDbLine
 10
287.412
 20
533.4999999999999
 30
0.0
 11
295.0
 21
533.4999999999999
 31
0.0
  0
LINE
  5
273
330
1E
100
AcDbEntity
  8
0
100
AcDbLine
 10
315.912
 20
533.4999999999999
 30
0.0
 11
320.5879999999999
 21
533.4999999999999
 31
0.0
  0
LINE
  5
274
330
1E
100
AcDbEntity
  8
0
100
AcDbLine
 10
320.5879999999999
 20
533.4999999999999
 30
0.0
 11
323.4999999999999
 21
533.4999999999999
 31
0.0
  0
LINE
  5
275
330
1E
100
AcDbEntity
  8
0
100
AcDbLine
 10
323.4999999999999
 20
533.4999999999999
 30
0.0
 11
324.559
 21
533.4999999999999
 31
0.0
  0
LINE
  5
276
330
1E
100
AcDbEntity
  8
0
100
AcDbLine
 10
309.735
 20
533.4999999999999
 30
0.0
 11
315.912
 21
533.4999999999999
 31
0.0
  0
LINE
  5
277
330
1E
100
AcDbEntity
  8
0
100
AcDbLine
 10
302.5879999999999
 20
533.4999999999999
 30
0.0
 11
309.735
 21
533.4999999999999
 31
0.0
  0
LINE
  5
278
330
1E
100
AcDbEntity
  8
0
100
AcDbLine
 10
295.0
 20
533.4999999999999
 30
0.0
 11
302.5879999999999
 21
533.4999999999999
 31
0.0
  0
LINE
  5
279
330
1E
100
AcDbEntity
  8
0
100
AcDbLine
 10
324.559
 20
533.4999999999999
 30
0.0
 11
325.0
 21
534.4999999999999
 31
0.0
  0
LINE
  5
27A
330
1E
100
AcDbEntity
  8
0
100
AcDbLine
 10
325.0
 20
534.4999999999999
 30
0.0
 11
325.0
 21
580.0
 31
0.0
  0
LINE
  5
27B
330
1E
100
AcDbEntity
  8
0
100
AcDbLine
 10
265.4409999999999
 20
533.4999999999999
 30
0.0
 11
266.324
 21
533.0
 31
0.0
  0
LINE
  5
27C
330
1E
100
AcDbEntity
  8
0
100
AcDbLine
 10
265.4409999999999
 20
533.4999999999999
 30
0.0
 11
266.5
 21
533.4999999999999
 31
0.0
  0
LINE
  5
27D
330
1E
100
AcDbEntity
  8
0
100
AcDbLine
 10
265.0
 20
534.4999999999999
 30
0.0
 11
265.0
 21
580.0
 31
0.0
  0
LINE
  5
27E
330
1E
100
AcDbEntity
  8
0
100
AcDbLine
 10
265.0
 20
534.4999999999999
 30
0.0
 11
265.4409999999999
 21
533.4999999999999
 31
0.0
  0
LINE
  5
27F
330
1E
100
AcDbEntity
  8
0
100
AcDbLine
 10
215.0
 20
534.4999999999999
 30
0.0
 11
215.0
 21
580.0
 31
0.0
  0
LINE
  5
280
330
1E
100
AcDbEntity
  8
0
100
AcDbLine
 10
214.559
 20
533.4999999999999
 30
0.0
 11
215.0
 21
534.4999999999999
 31
0.0
  0
LINE
  5
281
330
1E
100
AcDbEntity
  8
0
100
AcDbLine
 10
156.3239999999999
 20
533.0
 30
0.0
 11
157.3819999999999
 21
533.0
 31
0.0
  0
LINE
  5
282
330
1E
100
AcDbEntity
  8
0
100
AcDbLine
 10
155.441
 20
533.4999999999999
 30
0.0
 11
156.3239999999999
 21
533.0
 31
0.0
  0
LINE
  5
283
330
1E
100
AcDbEntity
  8
0
100
AcDbLine
 10
155.441
 20
533.4999999999999
 30
0.0
 11
156.4999999999999
 21
533.4999999999999
 31
0.0
  0
LINE
  5
284
330
1E
100
AcDbEntity
  8
0
100
AcDbLine
 10
155.0
 20
534.4999999999999
 30
0.0
 11
155.0
 21
580.0
 31
0.0
  0
LINE
  5
285
330
1E
100
AcDbEntity
  8
0
100
AcDbLine
 10
155.0
 20
534.4999999999999
 30
0.0
 11
155.441
 21
533.4999999999999
 31
0.0
  0
LINE
  5
286
330
1E
100
AcDbEntity
  8
0
100
AcDbLine
 10
362.0
 20
491.0
 30
0.0
 11
377.0
 21
502.0
 31
0.0
  0
LINE
  5
287
330
1E
100
AcDbEntity
  8
0
100
AcDbLine
 10
352.0
 20
488.0
 30
0.0
 11
362.0
 21
491.0
 31
0.0
  0
LINE
  5
288
330
1E
100
AcDbEntity
  8
0
100
AcDbLine
 10
362.0
 20
471.0
 30
0.0
 11
377.0
 21
482.0
 31
0.0
  0
LINE
  5
289
330
1E
100
AcDbEntity
  8
0
100
AcDbLine
 10
352.0
 20
468.0
 30
0.0
 11
362.0
 21
471.0
 31
0.0
  0
LINE
  5
28A
330
1E
100
AcDbEntity
  8
0
100
AcDbLine
 10
377.0
 20
502.0
 30
0.0
 11
385.718874459758
 21
504.9062914865859
 31
0.0
  0
LINE
  5
28B
330
1E
100
AcDbEntity
  8
0
100
AcDbLine
 10
377.0
 20
482.0
 30
0.0
 11
386.0
 21
485.0
 31
0.0
  0
LINE
  5
28C
330
1E
100
AcDbEntity
  8
0
100
AcDbLine
 10
380.0
 20
483.0
 30
0.0
 11
380.0
 21
464.731
 31
0.0
  0
LINE
  5
28D
330
1E
100
AcDbEntity
  8
0
100
AcDbLine
 10
380.0
 20
533.0
 30
0.0
 11
380.0
 21
503.0
 31
0.0
  0
LINE
  5
28E
330
1E
100
AcDbEntity
  8
0
100
AcDbLine
 10
380.0
 20
533.0
 30
0.0
 11
380.8819999999999
 21
533.0
 31
0.0
  0
LINE
  5
28F
330
1E
100
AcDbEntity
  8
0
100
AcDbLine
 10
380.0
 20
503.0
 30
0.0
 11
380.0
 21
533.0
 31
0.0
  0
LINE
  5
290
330
1E
100
AcDbEntity
  8
0
100
AcDbLine
 10
384.338
 20
463.0
 30
0.0
 11
388.088
 21
463.0
 31
0.0
  0
LINE
  5
291
330
1E
100
AcDbEntity
  8
0
100
AcDbLine
 10
388.088
 20
463.0
 30
0.0
 11
393.088
 21
463.0
 31
0.0
  0
LINE
  5
292
330
1E
100
AcDbEntity
  8
0
100
AcDbLine
 10
416.9119999999999
 20
463.0
 30
0.0
 11
421.912
 21
463.0
 31
0.0
  0
LINE
  5
293
330
1E
100
AcDbEntity
  8
0
100
AcDbLine
 10
411.1769999999999
 20
463.0
 30
0.0
 11
416.9119999999999
 21
463.0
 31
0.0
  0
LINE
  5
294
330
1E
100
AcDbEntity
  8
0
100
AcDbLine
 10
405.0
 20
463.0
 30
0.0
 11
411.1769999999999
 21
463.0
 31
0.0
  0
LINE
  5
295
330
1E
100
AcDbEntity
  8
0
100
AcDbLine
 10
393.088
 20
463.0
 30
0.0
 11
398.823
 21
463.0
 31
0.0
  0
LINE
  5
296
330
1E
100
AcDbEntity
  8
0
100
AcDbLine
 10
388.088
 20
463.0
 30
0.0
 11
393.088
 21
463.0
 31
0.0
  0
LINE
  5
297
330
1E
100
AcDbEntity
  8
0
100
AcDbLine
 10
393.088
 20
463.0
 30
0.0
 11
398.823
 21
463.0
 31
0.0
  0
LINE
  5
298
330
1E
100
AcDbEntity
  8
0
100
AcDbLine
 10
398.823
 20
463.0
 30
0.0
 11
405.0
 21
463.0
 31
0.0
  0
LINE
  5
299
330
1E
100
AcDbEntity
  8
0
100
AcDbLine
 10
416.9119999999999
 20
463.0
 30
0.0
 11
421.912
 21
463.0
 31
0.0
  0
LINE
  5
29A
330
1E
100
AcDbEntity
  8
0
100
AcDbLine
 10
411.1769999999999
 20
463.0
 30
0.0
 11
416.9119999999999
 21
463.0
 31
0.0
  0
LINE
  5
29B
330
1E
100
AcDbEntity
  8
0
100
AcDbLine
 10
405.0
 20
463.0
 30
0.0
 11
411.1769999999999
 21
463.0
 31
0.0
  0
LINE
  5
29C
330
1E
100
AcDbEntity
  8
0
100
AcDbLine
 10
398.823
 20
463.0
 30
0.0
 11
405.0
 21
463.0
 31
0.0
  0
LINE
  5
29D
330
1E
100
AcDbEntity
  8
0
100
AcDbLine
 10
384.338
 20
463.0
 30
0.0
 11
388.088
 21
463.0
 31
0.0
  0
LINE
  5
2A4
330
1E
100
AcDbEntity
  8
0
100
AcDbLine
 10
381.985
 20
463.0
 30
0.0
 11
384.338
 21
463.0
 31
0.0
  0
LINE
  5
2A5
330
1E
100
AcDbEntity
  8
0
100
AcDbLine
 10
381.985
 20
463.0
 30
0.0
 11
384.338
 21
463.0
 31
0.0
  0
LINE
  5
2A6
330
1E
100
AcDbEntity
  8
0
100
AcDbLine
 10
381.103
 20
463.0
 30
0.0
 11
381.985
 21
463.0
 31
0.0
  0
LINE
  5
2A7
330
1E
100
AcDbEntity
  8
0
100
AcDbLine
 10
383.3819999999999
 20
533.0
 30
0.0
 11
387.353
 21
533.0
 31
0.0
  0
LINE
  5
2A8
330
1E
100
AcDbEntity
  8
0
100
AcDbLine
 10
380.8819999999999
 20
533.0
 30
0.0
 11
383.3819999999999
 21
533.0
 31
0.0
  0
LINE
  5
2A9
330
1E
100
AcDbEntity
  8
0
100
AcDbLine
 10
387.353
 20
533.0
 30
0.0
 11
392.573
 21
533.0
 31
0.0
  0
LINE
  5
2AA
330
1E
100
AcDbEntity
  8
0
100
AcDbLine
 10
392.573
 20
533.0
 30
0.0
 11
398.6029999999999
 21
533.0
 31
0.0
  0
LINE
  5
2AB
330
1E
100
AcDbEntity
  8
0
100
AcDbLine
 10
398.6029999999999
 20
533.0
 30
0.0
 11
405.0
 21
533.0
 31
0.0
  0
LINE
  5
2AC
330
1E
100
AcDbEntity
  8
0
100
AcDbLine
 10
417.4269999999999
 20
533.0
 30
0.0
 11
422.6469999999999
 21
533.0
 31
0.0
  0
LINE
  5
2AD
330
1E
100
AcDbEntity
  8
0
100
AcDbLine
 10
411.397
 20
533.0
 30
0.0
 11
417.4269999999999
 21
533.0
 31
0.0
  0
LINE
  5
2AE
330
1E
100
AcDbEntity
  8
0
100
AcDbLine
 10
405.0
 20
533.0
 30
0.0
 11
411.397
 21
533.0
 31
0.0
  0
LINE
  5
2AF
330
1E
100
AcDbEntity
  8
0
100
AcDbLine
 10
380.368
 20
463.5769999999999
 30
0.0
 11
381.103
 21
463.0
 31
0.0
  0
LINE
  5
2B0
330
1E
100
AcDbEntity
  8
0
100
AcDbLine
 10
380.0
 20
464.731
 30
0.0
 11
380.0
 21
483.0
 31
0.0
  0
LINE
  5
2B1
330
1E
100
AcDbEntity
  8
0
100
AcDbLine
 10
380.0
 20
464.731
 30
0.0
 11
380.368
 21
463.5769999999999
 31
0.0
  0
LINE
  5
2B2
330
1E
100
AcDbEntity
  8
0
100
AcDbLine
 10
380.2059999999999
 20
533.0
 30
0.0
 11
384.7059999999999
 21
533.0
 31
0.0
  0
LINE
  5
2B3
330
1E
100
AcDbEntity
  8
0
100
AcDbLine
 10
377.3819999999999
 20
533.0
 30
0.0
 11
380.2059999999999
 21
533.0
 31
0.0
  0
LINE
  5
2B4
330
1E
100
AcDbEntity
  8
0
100
AcDbLine
 10
397.588
 20
533.0
 30
0.0
 11
405.0
 21
533.0
 31
0.0
  0
LINE
  5
2B5
330
1E
100
AcDbEntity
  8
0
100
AcDbLine
 10
421.912
 20
463.0
 30
0.0
 11
425.6619999999999
 21
463.0
 31
0.0
  0
LINE
  5
2B6
330
1E
100
AcDbEntity
  8
0
100
AcDbLine
 10
421.912
 20
463.0
 30
0.0
 11
425.6619999999999
 21
463.0
 31
0.0
  0
LINE
  5
2B7
330
1E
100
AcDbEntity
  8
0
100
AcDbLine
 10
425.6619999999999
 20
463.0
 30
0.0
 11
428.0149999999999
 21
463.0
 31
0.0
  0
LINE
  5
2B8
330
1E
100
AcDbEntity
  8
0
100
AcDbLine
 10
425.6619999999999
 20
463.0
 30
0.0
 11
428.0149999999999
 21
463.0
 31
0.0
  0
LINE
  5
2B9
330
1E
100
AcDbEntity
  8
0
100
AcDbLine
 10
428.8969999999999
 20
463.0
 30
0.0
 11
429.6319999999999
 21
463.5769999999999
 31
0.0
  0
LINE
  5
2BC
330
1E
100
AcDbEntity
  8
0
100
AcDbLine
 10
422.6469999999999
 20
533.0
 30
0.0
 11
426.618
 21
533.0
 31
0.0
  0
LINE
  5
2BD
330
1E
100
AcDbEntity
  8
0
100
AcDbLine
 10
426.618
 20
533.0
 30
0.0
 11
429.118
 21
533.0
 31
0.0
  0
LINE
  5
2BE
330
1E
100
AcDbEntity
  8
0
100
AcDbLine
 10
429.118
 20
533.0
 30
0.0
 11
430.0
 21
533.0
 31
0.0
  0
LINE
  5
2BF
330
1E
100
AcDbEntity
  8
0
100
AcDbLine
 10
428.0149999999999
 20
463.0
 30
0.0
 11
428.8969999999999
 21
463.0
 31
0.0
  0
LINE
  5
2C0
330
1E
100
AcDbEntity
  8
0
100
AcDbLine
 10
429.6319999999999
 20
463.5769999999999
 30
0.0
 11
430.0
 21
464.731
 31
0.0
  0
LINE
  5
2C1
330
1E
100
AcDbEntity
  8
0
100
AcDbLine
 10
425.294
 20
533.0
 30
0.0
 11
429.794
 21
533.0
 31
0.0
  0
LINE
  5
2C2
330
1E
100
AcDbEntity
  8
0
100
AcDbLine
 10
430.0
 20
490.0
 30
0.0
 11
430.0
 21
533.0
 31
0.0
  0
LINE
  5
2C3
330
1E
100
AcDbEntity
  8
0
100
AcDbLine
 10
430.0
 20
490.0
 30
0.0
 11
437.0
 21
490.0
 31
0.0
  0
LINE
  5
2C4
330
1E
100
AcDbEntity
  8
0
100
AcDbLine
 10
430.0
 20
464.731
 30
0.0
 11
430.0
 21
470.0
 31
0.0
  0
LINE
  5
2C5
330
1E
100
AcDbEntity
  8
0
100
AcDbLine
 10
430.0
 20
470.0
 30
0.0
 11
430.0
 21
464.731
 31
0.0
  0
LINE
  5
2C6
330
1E
100
AcDbEntity
  8
0
100
AcDbLine
 10
430.0
 20
470.0
 30
0.0
 11
437.0
 21
470.0
 31
0.0
  0
LINE
  5
2C7
330
1E
100
AcDbEntity
  8
0
100
AcDbLine
 10
430.0
 20
533.0
 30
0.0
 11
430.0
 21
490.0
 31
0.0
  0
LINE
  5
2C8
330
1E
100
AcDbEntity
  8
0
100
AcDbLine
 10
429.794
 20
533.0
 30
0.0
 11
432.618
 21
533.0
 31
0.0
  0
LINE
  5
2C9
330
1E
100
AcDbEntity
  8
0
100
AcDbLine
 10
432.618
 20
533.0
 30
0.0
 11
433.6769999999999
 21
533.0
 31
0.0
  0
LINE
  5
2CA
330
1E
100
AcDbEntity
  8
0
100
AcDbLine
 10
419.294
 20
533.0
 30
0.0
 11
425.294
 21
533.0
 31
0.0
  0
LINE
  5
2CB
330
1E
100
AcDbEntity
  8
0
100
AcDbLine
 10
412.4119999999999
 20
533.0
 30
0.0
 11
419.294
 21
533.0
 31
0.0
  0
LINE
  5
2CD
330
1E
100
AcDbEntity
  8
0
100
AcDbLine
 10
437.0
 20
469.695
 30
0.0
 11
437.0
 21
469.289
 31
0.0
  0
LINE
  5
2CE
330
1E
100
AcDbEntity
  8
0
100
AcDbLine
 10
437.0
 20
469.695
 30
0.0
 11
437.0
 21
470.737
 31
0.0
  0
LINE
  5
2CF
330
1E
100
AcDbEntity
  8
0
100
AcDbLine
 10
437.0
 20
469.695
 30
0.0
 11
437.0
 21
470.0
 31
0.0
  0
LINE
  5
2D0
330
1E
100
AcDbEntity
  8
0
100
AcDbLine
 10
437.0
 20
469.289
 30
0.0
 11
437.0569999999999
 21
469.0
 31
0.0
  0
LINE
  5
2D1
330
1E
100
AcDbEntity
  8
0
100
AcDbLine
 10
437.0
 20
469.289
 30
0.0
 11
437.0
 21
469.695
 31
0.0
  0
LINE
  5
2D4
330
1E
100
AcDbEntity
  8
0
100
AcDbLine
 10
437.0
 20
472.416
 30
0.0
 11
437.0
 21
474.674
 31
0.0
  0
LINE
  5
2D7
330
1E
100
AcDbEntity
  8
0
100
AcDbLine
 10
437.0
 20
470.737
 30
0.0
 11
437.0
 21
469.695
 31
0.0
  0
LINE
  5
2D9
330
1E
100
AcDbEntity
  8
0
100
AcDbLine
 10
437.0
 20
477.221
 30
0.0
 11
437.0
 21
474.674
 31
0.0
  0
LINE
  5
2DA
330
1E
100
AcDbEntity
  8
0
100
AcDbLine
 10
437.0
 20
474.674
 30
0.0
 11
437.0
 21
477.221
 31
0.0
  0
LINE
  5
2DD
330
1E
100
AcDbEntity
  8
0
100
AcDbLine
 10
437.0
 20
474.674
 30
0.0
 11
437.0
 21
472.416
 31
0.0
  0
LINE
  5
2DE
330
1E
100
AcDbEntity
  8
0
100
AcDbLine
 10
437.0
 20
477.4399999999999
 30
0.0
 11
437.0
 21
480.0
 31
0.0
  0
LINE
  5
2DF
330
1E
100
AcDbEntity
  8
0
100
AcDbLine
 10
437.0
 20
475.0399999999999
 30
0.0
 11
437.0
 21
477.4399999999999
 31
0.0
  0
LINE
  5
2E0
330
1E
100
AcDbEntity
  8
0
100
AcDbLine
 10
437.0
 20
472.92
 30
0.0
 11
437.0
 21
475.0399999999999
 31
0.0
  0
LINE
  5
2E1
330
1E
100
AcDbEntity
  8
0
100
AcDbLine
 10
437.0
 20
471.3199999999999
 30
0.0
 11
437.0
 21
472.92
 31
0.0
  0
LINE
  5
2E2
330
1E
100
AcDbEntity
  8
0
100
AcDbLine
 10
437.0
 20
470.36
 30
0.0
 11
437.0
 21
471.3199999999999
 31
0.0
  0
LINE
  5
2E3
330
1E
100
AcDbEntity
  8
0
100
AcDbLine
 10
437.0
 20
470.0
 30
0.0
 11
437.0
 21
470.36
 31
0.0
  0
LINE
  5
2E4
330
1E
100
AcDbEntity
  8
0
100
AcDbLine
 10
437.0
 20
470.0
 30
0.0
 11
437.0
 21
469.695
 31
0.0
  0
LINE
  5
2E6
330
1E
100
AcDbEntity
  8
0
100
AcDbLine
 10
437.0
 20
482.779
 30
0.0
 11
437.0
 21
485.3259999999999
 31
0.0
  0
LINE
  5
2E7
330
1E
100
AcDbEntity
  8
0
100
AcDbLine
 10
437.0
 20
480.0
 30
0.0
 11
437.0
 21
482.56
 31
0.0
  0
LINE
  5
2E9
330
1E
100
AcDbEntity
  8
0
100
AcDbLine
 10
437.0
 20
482.56
 30
0.0
 11
437.0
 21
484.9599999999999
 31
0.0
  0
LINE
  5
2EA
330
1E
100
AcDbEntity
  8
0
100
AcDbLine
 10
437.0
 20
485.3259999999999
 30
0.0
 11
437.0
 21
482.779
 31
0.0
  0
LINE
  5
2EB
330
1E
100
AcDbEntity
  8
0
100
AcDbLine
 10
437.0
 20
485.3259999999999
 30
0.0
 11
437.0
 21
487.584
 31
0.0
  0
LINE
  5
2EE
330
1E
100
AcDbEntity
  8
0
100
AcDbLine
 10
437.0
 20
487.584
 30
0.0
 11
437.0
 21
489.263
 31
0.0
  0
LINE
  5
2F0
330
1E
100
AcDbEntity
  8
0
100
AcDbLine
 10
437.0
 20
487.584
 30
0.0
 11
437.0
 21
485.3259999999999
 31
0.0
  0
LINE
  5
2F2
330
1E
100
AcDbEntity
  8
0
100
AcDbLine
 10
437.0
 20
484.9599999999999
 30
0.0
 11
437.0
 21
487.08
 31
0.0
  0
LINE
  5
2F3
330
1E
100
AcDbEntity
  8
0
100
AcDbLine
 10
437.0
 20
487.08
 30
0.0
 11
437.0
 21
488.68
 31
0.0
  0
LINE
  5
2F4
330
1E
100
AcDbEntity
  8
0
100
AcDbLine
 10
437.0
 20
490.0
 30
0.0
 11
437.0
 21
490.305
 31
0.0
  0
LINE
  5
2F5
330
1E
100
AcDbEntity
  8
0
100
AcDbLine
 10
437.0
 20
490.711
 30
0.0
 11
437.0569999999999
 21
491.0
 31
0.0
  0
LINE
  5
2F6
330
1E
100
AcDbEntity
  8
0
100
AcDbLine
 10
437.0
 20
490.711
 30
0.0
 11
437.0
 21
490.305
 31
0.0
  0
LINE
  5
2F8
330
1E
100
AcDbEntity
  8
0
100
AcDbLine
 10
437.0
 20
490.305
 30
0.0
 11
437.0
 21
489.263
 31
0.0
  0
LINE
  5
2F9
330
1E
100
AcDbEntity
  8
0
100
AcDbLine
 10
437.0
 20
490.305
 30
0.0
 11
437.0
 21
490.711
 31
0.0
  0
LINE
  5
2FA
330
1E
100
AcDbEntity
  8
0
100
AcDbLine
 10
437.0
 20
490.305
 30
0.0
 11
437.0
 21
490.0
 31
0.0
  0
LINE
  5
2FB
330
1E
100
AcDbEntity
  8
0
100
AcDbLine
 10
437.0
 20
489.263
 30
0.0
 11
437.0
 21
490.305
 31
0.0
  0
LINE
  5
2FE
330
1E
100
AcDbEntity
  8
0
100
AcDbLine
 10
437.0
 20
489.263
 30
0.0
 11
437.0
 21
487.584
 31
0.0
  0
LINE
  5
2FF
330
1E
100
AcDbEntity
  8
0
100
AcDbLine
 10
437.0
 20
488.68
 30
0.0
 11
437.0
 21
489.6399999999999
 31
0.0
  0
LINE
  5
300
330
1E
100
AcDbEntity
  8
0
100
AcDbLine
 10
437.5709999999999
 20
469.0
 30
0.0
 11
438.143
 21
469.0
 31
0.0
  0
LINE
  5
302
330
1E
100
AcDbEntity
  8
0
100
AcDbLine
 10
486.143
 20
469.0
 30
0.0
 11
491.8569999999999
 21
469.0
 31
0.0
  0
LINE
  5
303
330
1E
100
AcDbEntity
  8
0
100
AcDbLine
 10
485.571
 20
469.0
 30
0.0
 11
486.143
 21
469.0
 31
0.0
  0
LINE
  5
305
330
1E
100
AcDbEntity
  8
0
100
AcDbLine
 10
485.1369999999999
 20
469.0
 30
0.0
 11
485.571
 21
469.0
 31
0.0
  0
LINE
  5
306
330
1E
100
AcDbEntity
  8
0
100
AcDbLine
 10
485.0569999999999
 20
469.0
 30
0.0
 11
485.1369999999999
 21
469.0
 31
0.0
  0
LINE
  5
307
330
1E
100
AcDbEntity
  8
0
100
AcDbLine
 10
444.943
 20
469.0
 30
0.0
 11
445.0
 21
469.289
 31
0.0
  0
LINE
  5
308
330
1E
100
AcDbEntity
  8
0
100
AcDbLine
 10
438.143
 20
469.0
 30
0.0
 11
443.8569999999999
 21
469.0
 31
0.0
  0
LINE
  5
30A
330
1E
100
AcDbEntity
  8
0
100
AcDbLine
 10
443.8569999999999
 20
469.0
 30
0.0
 11
444.429
 21
469.0
 31
0.0
  0
LINE
  5
30B
330
1E
100
AcDbEntity
  8
0
100
AcDbLine
 10
437.1369999999999
 20
469.0
 30
0.0
 11
437.5709999999999
 21
469.0
 31
0.0
  0
LINE
  5
30D
330
1E
100
AcDbEntity
  8
0
100
AcDbLine
 10
444.429
 20
469.0
 30
0.0
 11
444.863
 21
469.0
 31
0.0
  0
LINE
  5
30F
330
1E
100
AcDbEntity
  8
0
100
AcDbLine
 10
437.0569999999999
 20
469.0
 30
0.0
 11
437.1369999999999
 21
469.0
 31
0.0
  0
LINE
  5
310
330
1E
100
AcDbEntity
  8
0
100
AcDbLine
 10
437.0569999999999
 20
491.0
 30
0.0
 11
437.1369999999999
 21
491.0
 31
0.0
  0
LINE
  5
329
330
1E
100
AcDbEntity
  8
0
100
AcDbLine
 10
485.0
 20
471.0
 30
0.0
 11
485.0
 21
471.3239999999999
 31
0.0
  0
LINE
  5
32A
330
1E
100
AcDbEntity
  8
0
100
AcDbLine
 10
485.0
 20
471.3239999999999
 30
0.0
 11
485.0
 21
472.188
 31
0.0
  0
LINE
  5
32B
330
1E
100
AcDbEntity
  8
0
100
AcDbLine
 10
445.0
 20
471.0
 30
0.0
 11
485.0
 21
471.0
 31
0.0
  0
LINE
  5
32C
330
1E
100
AcDbEntity
  8
0
100
AcDbLine
 10
485.0
 20
470.737
 30
0.0
 11
485.0
 21
469.695
 31
0.0
  0
LINE
  5
32D
330
1E
100
AcDbEntity
  8
0
100
AcDbLine
 10
485.0
 20
470.737
 30
0.0
 11
485.0
 21
472.416
 31
0.0
  0
LINE
  5
32E
330
1E
100
AcDbEntity
  8
0
100
AcDbLine
 10
485.0
 20
472.188
 30
0.0
 11
485.0
 21
473.628
 31
0.0
  0
LINE
  5
32F
330
1E
100
AcDbEntity
  8
0
100
AcDbLine
 10
485.0
 20
471.5759999999999
 30
0.0
 11
485.0
 21
472.2609999999999
 31
0.0
  0
LINE
  5
330
330
1E
100
AcDbEntity
  8
0
100
AcDbLine
 10
485.0
 20
472.2609999999999
 30
0.0
 11
485.0
 21
473.604
 31
0.0
  0
LINE
  5
331
330
1E
100
AcDbEntity
  8
0
100
AcDbLine
 10
485.0
 20
472.2609999999999
 30
0.0
 11
485.0
 21
471.5759999999999
 31
0.0
  0
LINE
  5
332
330
1E
100
AcDbEntity
  8
0
100
AcDbLine
 10
485.0
 20
473.628
 30
0.0
 11
485.0
 21
475.536
 31
0.0
  0
LINE
  5
333
330
1E
100
AcDbEntity
  8
0
100
AcDbLine
 10
485.0
 20
472.416
 30
0.0
 11
485.0
 21
474.674
 31
0.0
  0
LINE
  5
334
330
1E
100
AcDbEntity
  8
0
100
AcDbLine
 10
485.0
 20
472.416
 30
0.0
 11
485.0
 21
470.737
 31
0.0
  0
LINE
  5
335
330
1E
100
AcDbEntity
  8
0
100
AcDbLine
 10
485.0
 20
473.604
 30
0.0
 11
485.0
 21
475.47
 31
0.0
  0
LINE
  5
336
330
1E
100
AcDbEntity
  8
0
100
AcDbLine
 10
485.0
 20
473.604
 30
0.0
 11
485.0
 21
472.2609999999999
 31
0.0
  0
LINE
  5
337
330
1E
100
AcDbEntity
  8
0
100
AcDbLine
 10
485.0
 20
475.536
 30
0.0
 11
485.0
 21
477.6959999999999
 31
0.0
  0
LINE
  5
338
330
1E
100
AcDbEntity
  8
0
100
AcDbLine
 10
485.0
 20
475.47
 30
0.0
 11
485.0
 21
473.604
 31
0.0
  0
LINE
  5
339
330
1E
100
AcDbEntity
  8
0
100
AcDbLine
 10
485.0
 20
475.47
 30
0.0
 11
485.0
 21
477.493
 31
0.0
  0
LINE
  5
33A
330
1E
100
AcDbEntity
  8
0
100
AcDbLine
 10
485.0
 20
474.674
 30
0.0
 11
485.0
 21
477.221
 31
0.0
  0
LINE
  5
33B
330
1E
100
AcDbEntity
  8
0
100
AcDbLine
 10
485.0
 20
474.674
 30
0.0
 11
485.0
 21
472.416
 31
0.0
  0
LINE
  5
343
330
1E
100
AcDbEntity
  8
0
100
AcDbLine
 10
485.0
 20
469.695
 30
0.0
 11
485.0
 21
469.289
 31
0.0
  0
LINE
  5
344
330
1E
100
AcDbEntity
  8
0
100
AcDbLine
 10
485.0
 20
469.695
 30
0.0
 11
485.0
 21
470.737
 31
0.0
  0
LINE
  5
345
330
1E
100
AcDbEntity
  8
0
100
AcDbLine
 10
485.0
 20
469.289
 30
0.0
 11
485.0569999999999
 21
469.0
 31
0.0
  0
LINE
  5
346
330
1E
100
AcDbEntity
  8
0
100
AcDbLine
 10
485.0
 20
469.289
 30
0.0
 11
485.0
 21
469.695
 31
0.0
  0
LINE
  5
356
330
1E
100
AcDbEntity
  8
0
100
AcDbLine
 10
437.5709999999999
 20
491.0
 30
0.0
 11
438.143
 21
491.0
 31
0.0
  0
LINE
  5
358
330
1E
100
AcDbEntity
  8
0
100
AcDbLine
 10
437.1369999999999
 20
491.0
 30
0.0
 11
437.5709999999999
 21
491.0
 31
0.0
  0
LINE
  5
363
330
1E
100
AcDbEntity
  8
0
100
AcDbLine
 10
443.8569999999999
 20
491.0
 30
0.0
 11
444.429
 21
491.0
 31
0.0
  0
LINE
  5
364
330
1E
100
AcDbEntity
  8
0
100
AcDbLine
 10
438.143
 20
491.0
 30
0.0
 11
443.8569999999999
 21
491.0
 31
0.0
  0
LINE
  5
366
330
1E
100
AcDbEntity
  8
0
100
AcDbLine
 10
444.429
 20
491.0
 30
0.0
 11
444.863
 21
491.0
 31
0.0
  0
LINE
  5
371
330
1E
100
AcDbEntity
  8
0
100
AcDbLine
 10
485.0
 20
477.6959999999999
 30
0.0
 11
485.0
 21
480.0
 31
0.0
  0
LINE
  5
372
330
1E
100
AcDbEntity
  8
0
100
AcDbLine
 10
485.0
 20
480.0
 30
0.0
 11
485.0
 21
477.221
 31
0.0
  0
LINE
  5
373
330
1E
100
AcDbEntity
  8
0
100
AcDbLine
 10
485.0
 20
480.0
 30
0.0
 11
485.0
 21
482.779
 31
0.0
  0
LINE
  5
374
330
1E
100
AcDbEntity
  8
0
100
AcDbLine
 10
485.0
 20
480.0
 30
0.0
 11
485.0
 21
482.304
 31
0.0
  0
LINE
  5
375
330
1E
100
AcDbEntity
  8
0
100
AcDbLine
 10
485.0
 20
479.9269999999999
 30
0.0
 11
485.0
 21
477.493
 31
0.0
  0
LINE
  5
376
330
1E
100
AcDbEntity
  8
0
100
AcDbLine
 10
485.0
 20
479.9269999999999
 30
0.0
 11
485.0
 21
482.2259999999999
 31
0.0
  0
LINE
  5
377
330
1E
100
AcDbEntity
  8
0
100
AcDbLine
 10
485.0
 20
477.493
 30
0.0
 11
485.0
 21
475.47
 31
0.0
  0
LINE
  5
378
330
1E
100
AcDbEntity
  8
0
100
AcDbLine
 10
485.0
 20
477.493
 30
0.0
 11
485.0
 21
479.9269999999999
 31
0.0
  0
LINE
  5
381
330
1E
100
AcDbEntity
  8
0
100
AcDbLine
 10
485.0
 20
477.221
 30
0.0
 11
485.0
 21
474.674
 31
0.0
  0
LINE
  5
382
330
1E
100
AcDbEntity
  8
0
100
AcDbLine
 10
485.0
 20
477.221
 30
0.0
 11
485.0
 21
480.0
 31
0.0
  0
LINE
  5
385
330
1E
100
AcDbEntity
  8
0
100
AcDbLine
 10
485.0
 20
482.304
 30
0.0
 11
485.0
 21
484.464
 31
0.0
  0
LINE
  5
386
330
1E
100
AcDbEntity
  8
0
100
AcDbLine
 10
485.0
 20
482.779
 30
0.0
 11
485.0
 21
480.0
 31
0.0
  0
LINE
  5
388
330
1E
100
AcDbEntity
  8
0
100
AcDbLine
 10
485.0
 20
482.779
 30
0.0
 11
485.0
 21
485.3259999999999
 31
0.0
  0
LINE
  5
38B
330
1E
100
AcDbEntity
  8
0
100
AcDbLine
 10
485.0
 20
482.2259999999999
 30
0.0
 11
485.0
 21
479.9269999999999
 31
0.0
  0
LINE
  5
38C
330
1E
100
AcDbEntity
  8
0
100
AcDbLine
 10
485.0
 20
482.2259999999999
 30
0.0
 11
485.0
 21
484.388
 31
0.0
  0
LINE
  5
38D
330
1E
100
AcDbEntity
  8
0
100
AcDbLine
 10
485.0
 20
484.464
 30
0.0
 11
485.0
 21
486.3719999999999
 31
0.0
  0
LINE
  5
38E
330
1E
100
AcDbEntity
  8
0
100
AcDbLine
 10
485.0
 20
485.3259999999999
 30
0.0
 11
485.0
 21
487.584
 31
0.0
  0
LINE
  5
390
330
1E
100
AcDbEntity
  8
0
100
AcDbLine
 10
485.0
 20
485.3259999999999
 30
0.0
 11
485.0
 21
482.779
 31
0.0
  0
LINE
  5
391
330
1E
100
AcDbEntity
  8
0
100
AcDbLine
 10
485.0
 20
484.388
 30
0.0
 11
485.0
 21
482.2259999999999
 31
0.0
  0
LINE
  5
392
330
1E
100
AcDbEntity
  8
0
100
AcDbLine
 10
485.0
 20
484.388
 30
0.0
 11
485.0
 21
486.397
 31
0.0
  0
LINE
  5
396
330
1E
100
AcDbEntity
  8
0
100
AcDbLine
 10
445.0
 20
485.3259999999999
 30
0.0
 11
445.0
 21
482.779
 31
0.0
  0
LINE
  5
397
330
1E
100
AcDbEntity
  8
0
100
AcDbLine
 10
485.0
 20
486.3719999999999
 30
0.0
 11
485.0
 21
487.812
 31
0.0
  0
LINE
  5
398
330
1E
100
AcDbEntity
  8
0
100
AcDbLine
 10
485.0
 20
486.397
 30
0.0
 11
485.0
 21
484.388
 31
0.0
  0
LINE
  5
399
330
1E
100
AcDbEntity
  8
0
100
AcDbLine
 10
485.0
 20
486.397
 30
0.0
 11
485.0
 21
487.739
 31
0.0
  0
LINE
  5
39A
330
1E
100
AcDbEntity
  8
0
100
AcDbLine
 10
485.0
 20
487.812
 30
0.0
 11
485.0
 21
488.6759999999999
 31
0.0
  0
LINE
  5
39B
330
1E
100
AcDbEntity
  8
0
100
AcDbLine
 10
485.0
 20
487.584
 30
0.0
 11
485.0
 21
489.263
 31
0.0
  0
LINE
  5
39D
330
1E
100
AcDbEntity
  8
0
100
AcDbLine
 10
485.0
 20
487.584
 30
0.0
 11
485.0
 21
485.3259999999999
 31
0.0
  0
LINE
  5
39E
330
1E
100
AcDbEntity
  8
0
100
AcDbLine
 10
485.0
 20
487.739
 30
0.0
 11
485.0
 21
486.397
 31
0.0
  0
LINE
  5
39F
330
1E
100
AcDbEntity
  8
0
100
AcDbLine
 10
485.0
 20
487.739
 30
0.0
 11
485.0
 21
488.3759999999999
 31
0.0
  0
LINE
  5
3A0
330
1E
100
AcDbEntity
  8
0
100
AcDbLine
 10
485.0
 20
488.6759999999999
 30
0.0
 11
485.0
 21
489.0
 31
0.0
  0
LINE
  5
3A1
330
1E
100
AcDbEntity
  8
0
100
AcDbLine
 10
445.0
 20
489.0
 30
0.0
 11
485.0
 21
489.0
 31
0.0
  0
LINE
  5
3A2
330
1E
100
AcDbEntity
  8
0
100
AcDbLine
 10
485.0
 20
490.711
 30
0.0
 11
485.0569999999999
 21
491.0
 31
0.0
  0
LINE
  5
3A3
330
1E
100
AcDbEntity
  8
0
100
AcDbLine
 10
485.0
 20
490.711
 30
0.0
 11
485.0
 21
490.305
 31
0.0
  0
LINE
  5
3A4
330
1E
100
AcDbEntity
  8
0
100
AcDbLine
 10
485.0
 20
490.305
 30
0.0
 11
485.0
 21
489.263
 31
0.0
  0
LINE
  5
3A5
330
1E
100
AcDbEntity
  8
0
100
AcDbLine
 10
485.0
 20
490.305
 30
0.0
 11
485.0
 21
490.711
 31
0.0
  0
LINE
  5
3A6
330
1E
100
AcDbEntity
  8
0
100
AcDbLine
 10
485.0
 20
489.263
 30
0.0
 11
485.0
 21
490.305
 31
0.0
  0
LINE
  5
3A7
330
1E
100
AcDbEntity
  8
0
100
AcDbLine
 10
485.0
 20
489.263
 30
0.0
 11
485.0
 21
487.584
 31
0.0
  0
LINE
  5
3AD
330
1E
100
AcDbEntity
  8
0
100
AcDbLine
 10
485.571
 20
491.0
 30
0.0
 11
486.143
 21
491.0
 31
0.0
  0
LINE
  5
3AF
330
1E
100
AcDbEntity
  8
0
100
AcDbLine
 10
486.143
 20
491.0
 30
0.0
 11
491.8569999999999
 21
491.0
 31
0.0
  0
LINE
  5
3B0
330
1E
100
AcDbEntity
  8
0
100
AcDbLine
 10
485.1369999999999
 20
491.0
 30
0.0
 11
485.571
 21
491.0
 31
0.0
  0
LINE
  5
3B1
330
1E
100
AcDbEntity
  8
0
100
AcDbLine
 10
485.0569999999999
 20
491.0
 30
0.0
 11
485.1369999999999
 21
491.0
 31
0.0
  0
LINE
  5
3B2
330
1E
100
AcDbEntity
  8
0
100
AcDbLine
 10
485.0
 20
488.3759999999999
 30
0.0
 11
485.0
 21
487.739
 31
0.0
  0
LINE
  5
3B4
330
1E
100
AcDbEntity
  8
0
100
AcDbLine
 10
444.943
 20
491.0
 30
0.0
 11
445.0
 21
490.711
 31
0.0
  0
LINE
  5
3B8
330
1E
100
AcDbEntity
  8
0
100
AcDbLine
 10
444.863
 20
491.0
 30
0.0
 11
444.943
 21
491.0
 31
0.0
  0
LINE
  5
3B9
330
1E
100
AcDbEntity
  8
0
100
AcDbLine
 10
445.0
 20
482.779
 30
0.0
 11
445.0
 21
480.0
 31
0.0
  0
LINE
  5
3BA
330
1E
100
AcDbEntity
  8
0
100
AcDbLine
 10
445.0
 20
482.779
 30
0.0
 11
445.0
 21
485.3259999999999
 31
0.0
  0
LINE
  5
3BC
330
1E
100
AcDbEntity
  8
0
100
AcDbLine
 10
445.0
 20
480.0
 30
0.0
 11
445.0
 21
482.779
 31
0.0
  0
LINE
  5
3C4
330
1E
100
AcDbEntity
  8
0
100
AcDbLine
 10
444.863
 20
469.0
 30
0.0
 11
444.943
 21
469.0
 31
0.0
  0
LINE
  5
3C5
330
1E
100
AcDbEntity
  8
0
100
AcDbLine
 10
437.0
 20
489.6399999999999
 30
0.0
 11
437.0
 21
490.0
 31
0.0
  0
LINE
  5
3C6
330
1E
100
AcDbEntity
  8
0
100
AcDbLine
 10
487.3819999999999
 20
533.0
 30
0.0
 11
490.2059999999999
 21
533.0
 31
0.0
  0
LINE
  5
3C7
330
1E
100
AcDbEntity
  8
0
100
AcDbLine
 10
491.8569999999999
 20
469.0
 30
0.0
 11
492.429
 21
469.0
 31
0.0
  0
LINE
  5
3D8
330
1E
100
AcDbEntity
  8
0
100
AcDbLine
 10
492.429
 20
469.0
 30
0.0
 11
492.863
 21
469.0
 31
0.0
  0
LINE
  5
3DA
330
1E
100
AcDbEntity
  8
0
100
AcDbLine
 10
493.0
 20
472.416
 30
0.0
 11
493.0
 21
474.674
 31
0.0
  0
LINE
  5
3DB
330
1E
100
AcDbEntity
  8
0
100
AcDbLine
 10
493.0
 20
472.416
 30
0.0
 11
493.0
 21
470.737
 31
0.0
  0
LINE
  5
3DC
330
1E
100
AcDbEntity
  8
0
100
AcDbLine
 10
493.0
 20
470.737
 30
0.0
 11
493.0
 21
472.416
 31
0.0
  0
LINE
  5
3DD
330
1E
100
AcDbEntity
  8
0
100
AcDbLine
 10
493.0
 20
470.737
 30
0.0
 11
493.0
 21
469.695
 31
0.0
  0
LINE
  5
3DE
330
1E
100
AcDbEntity
  8
0
100
AcDbLine
 10
493.0
 20
469.695
 30
0.0
 11
493.0
 21
469.289
 31
0.0
  0
LINE
  5
3DF
330
1E
100
AcDbEntity
  8
0
100
AcDbLine
 10
493.0
 20
469.695
 30
0.0
 11
493.0
 21
470.737
 31
0.0
  0
LINE
  5
3E0
330
1E
100
AcDbEntity
  8
0
100
AcDbLine
 10
493.0
 20
469.289
 30
0.0
 11
493.0
 21
469.695
 31
0.0
  0
LINE
  5
3E1
330
1E
100
AcDbEntity
  8
0
100
AcDbLine
 10
492.943
 20
469.0
 30
0.0
 11
493.0
 21
469.289
 31
0.0
  0
LINE
  5
3E2
330
1E
100
AcDbEntity
  8
0
100
AcDbLine
 10
492.863
 20
469.0
 30
0.0
 11
492.943
 21
469.0
 31
0.0
  0
LINE
  5
3E7
330
1E
100
AcDbEntity
  8
0
100
AcDbLine
 10
493.0
 20
477.221
 30
0.0
 11
493.0
 21
474.674
 31
0.0
  0
LINE
  5
3E8
330
1E
100
AcDbEntity
  8
0
100
AcDbLine
 10
493.0
 20
477.221
 30
0.0
 11
493.0
 21
480.0
 31
0.0
  0
LINE
  5
3ED
330
1E
100
AcDbEntity
  8
0
100
AcDbLine
 10
493.0
 20
474.674
 30
0.0
 11
493.0
 21
477.221
 31
0.0
  0
LINE
  5
3EE
330
1E
100
AcDbEntity
  8
0
100
AcDbLine
 10
493.0
 20
474.674
 30
0.0
 11
493.0
 21
472.416
 31
0.0
  0
LINE
  5
3F9
330
1E
100
AcDbEntity
  8
0
100
AcDbLine
 10
493.0
 20
477.4399999999999
 30
0.0
 11
493.0
 21
480.0
 31
0.0
  0
LINE
  5
3FA
330
1E
100
AcDbEntity
  8
0
100
AcDbLine
 10
493.0
 20
475.0399999999999
 30
0.0
 11
493.0
 21
477.4399999999999
 31
0.0
  0
LINE
  5
3FB
330
1E
100
AcDbEntity
  8
0
100
AcDbLine
 10
493.0
 20
472.92
 30
0.0
 11
493.0
 21
475.0399999999999
 31
0.0
  0
LINE
  5
3FC
330
1E
100
AcDbEntity
  8
0
100
AcDbLine
 10
493.0
 20
480.0
 30
0.0
 11
493.0
 21
482.56
 31
0.0
  0
LINE
  5
3FD
330
1E
100
AcDbEntity
  8
0
100
AcDbLine
 10
493.0
 20
480.0
 30
0.0
 11
493.0
 21
477.221
 31
0.0
  0
LINE
  5
3FE
330
1E
100
AcDbEntity
  8
0
100
AcDbLine
 10
493.0
 20
480.0
 30
0.0
 11
493.0
 21
482.779
 31
0.0
  0
LINE
  5
401
330
1E
100
AcDbEntity
  8
0
100
AcDbLine
 10
493.0
 20
485.3259999999999
 30
0.0
 11
493.0
 21
482.779
 31
0.0
  0
LINE
  5
402
330
1E
100
AcDbEntity
  8
0
100
AcDbLine
 10
493.0
 20
485.3259999999999
 30
0.0
 11
493.0
 21
487.584
 31
0.0
  0
LINE
  5
403
330
1E
100
AcDbEntity
  8
0
100
AcDbLine
 10
493.0
 20
487.584
 30
0.0
 11
493.0
 21
489.263
 31
0.0
  0
LINE
  5
404
330
1E
100
AcDbEntity
  8
0
100
AcDbLine
 10
493.0
 20
487.584
 30
0.0
 11
493.0
 21
485.3259999999999
 31
0.0
  0
LINE
  5
409
330
1E
100
AcDbEntity
  8
0
100
AcDbLine
 10
493.0
 20
489.263
 30
0.0
 11
493.0
 21
490.305
 31
0.0
  0
LINE
  5
40A
330
1E
100
AcDbEntity
  8
0
100
AcDbLine
 10
493.0
 20
489.263
 30
0.0
 11
493.0
 21
487.584
 31
0.0
  0
LINE
  5
40E
330
1E
100
AcDbEntity
  8
0
100
AcDbLine
 10
493.0
 20
482.779
 30
0.0
 11
493.0
 21
480.0
 31
0.0
  0
LINE
  5
40F
330
1E
100
AcDbEntity
  8
0
100
AcDbLine
 10
493.0
 20
482.779
 30
0.0
 11
493.0
 21
485.3259999999999
 31
0.0
  0
LINE
  5
410
330
1E
100
AcDbEntity
  8
0
100
AcDbLine
 10
493.0
 20
482.56
 30
0.0
 11
493.0
 21
484.9599999999999
 31
0.0
  0
LINE
  5
411
330
1E
100
AcDbEntity
  8
0
100
AcDbLine
 10
493.0
 20
484.9599999999999
 30
0.0
 11
493.0
 21
487.08
 31
0.0
  0
LINE
  5
412
330
1E
100
AcDbEntity
  8
0
100
AcDbLine
 10
491.8569999999999
 20
491.0
 30
0.0
 11
492.429
 21
491.0
 31
0.0
  0
LINE
  5
41C
330
1E
100
AcDbEntity
  8
0
100
AcDbLine
 10
492.429
 20
491.0
 30
0.0
 11
492.863
 21
491.0
 31
0.0
  0
LINE
  5
41E
330
1E
100
AcDbEntity
  8
0
100
AcDbLine
 10
493.0
 20
490.711
 30
0.0
 11
493.0
 21
490.305
 31
0.0
  0
LINE
  5
41F
330
1E
100
AcDbEntity
  8
0
100
AcDbLine
 10
492.943
 20
491.0
 30
0.0
 11
493.0
 21
490.711
 31
0.0
  0
LINE
  5
420
330
1E
100
AcDbEntity
  8
0
100
AcDbLine
 10
493.0
 20
490.305
 30
0.0
 11
493.0
 21
489.263
 31
0.0
  0
LINE
  5
421
330
1E
100
AcDbEntity
  8
0
100
AcDbLine
 10
493.0
 20
490.305
 30
0.0
 11
493.0
 21
490.711
 31
0.0
  0
LINE
  5
422
330
1E
100
AcDbEntity
  8
0
100
AcDbLine
 10
492.863
 20
491.0
 30
0.0
 11
492.943
 21
491.0
 31
0.0
  0
LINE
  5
429
330
1E
100
AcDbEntity
  8
0
100
AcDbLine
 10
493.0
 20
490.0
 30
0.0
 11
500.0
 21
490.0
 31
0.0
  0
LINE
  5
42A
330
1E
100
AcDbEntity
  8
0
100
AcDbLine
 10
505.0
 20
465.0
 30
0.0
 11
505.0
 21
450.0
 31
0.0
  0
LINE
  5
42B
330
1E
100
AcDbEntity
  8
0
100
AcDbLine
 10
511.16
 20
465.0
 30
0.0
 11
515.0
 21
465.0
 31
0.0
  0
LINE
  5
42C
330
1E
100
AcDbEntity
  8
0
100
AcDbLine
 10
507.56
 20
465.0
 30
0.0
 11
511.16
 21
465.0
 31
0.0
  0
LINE
  5
42D
330
1E
100
AcDbEntity
  8
0
100
AcDbLine
 10
515.0
 20
465.0
 30
0.0
 11
518.84
 21
465.0
 31
0.0
  0
LINE
  5
42E
330
1E
100
AcDbEntity
  8
0
100
AcDbLine
 10
518.84
 20
465.0
 30
0.0
 11
522.4400000000001
 21
465.0
 31
0.0
  0
LINE
  5
42F
330
1E
100
AcDbEntity
  8
0
100
AcDbLine
 10
504.38
 20
465.0
 30
0.0
 11
505.0
 21
465.0
 31
0.0
  0
LINE
  5
430
330
1E
100
AcDbEntity
  8
0
100
AcDbLine
 10
504.38
 20
465.0
 30
0.0
 11
507.56
 21
465.0
 31
0.0
  0
LINE
  5
431
330
1E
100
AcDbEntity
  8
0
100
AcDbLine
 10
501.98
 20
465.0
 30
0.0
 11
504.38
 21
465.0
 31
0.0
  0
LINE
  5
432
330
1E
100
AcDbEntity
  8
0
100
AcDbLine
 10
500.54
 20
465.0
 30
0.0
 11
501.98
 21
465.0
 31
0.0
  0
LINE
  5
433
330
1E
100
AcDbEntity
  8
0
100
AcDbLine
 10
500.0
 20
470.0
 30
0.0
 11
500.0
 21
465.0
 31
0.0
  0
LINE
  5
434
330
1E
100
AcDbEntity
  8
0
100
AcDbLine
 10
500.0
 20
495.0
 30
0.0
 11
500.54
 21
495.0
 31
0.0
  0
LINE
  5
435
330
1E
100
AcDbEntity
  8
0
100
AcDbLine
 10
500.0
 20
495.0
 30
0.0
 11
500.0
 21
490.0
 31
0.0
  0
LINE
  5
436
330
1E
100
AcDbEntity
  8
0
100
AcDbLine
 10
505.0
 20
495.0
 30
0.0
 11
505.0
 21
533.0
 31
0.0
  0
LINE
  5
437
330
1E
100
AcDbEntity
  8
0
100
AcDbLine
 10
511.16
 20
495.0
 30
0.0
 11
515.0
 21
495.0
 31
0.0
  0
LINE
  5
438
330
1E
100
AcDbEntity
  8
0
100
AcDbLine
 10
507.56
 20
495.0
 30
0.0
 11
511.16
 21
495.0
 31
0.0
  0
LINE
  5
439
330
1E
100
AcDbEntity
  8
0
100
AcDbLine
 10
504.38
 20
495.0
 30
0.0
 11
507.56
 21
495.0
 31
0.0
  0
LINE
  5
43A
330
1E
100
AcDbEntity
  8
0
100
AcDbLine
 10
501.98
 20
495.0
 30
0.0
 11
504.38
 21
495.0
 31
0.0
  0
LINE
  5
43B
330
1E
100
AcDbEntity
  8
0
100
AcDbLine
 10
500.54
 20
495.0
 30
0.0
 11
501.98
 21
495.0
 31
0.0
  0
LINE
  5
43C
330
1E
100
AcDbEntity
  8
0
100
AcDbLine
 10
515.0
 20
495.0
 30
0.0
 11
518.84
 21
495.0
 31
0.0
  0
LINE
  5
43D
330
1E
100
AcDbEntity
  8
0
100
AcDbLine
 10
512.44
 20
533.0
 30
0.0
 11
515.0
 21
533.0
 31
0.0
  0
LINE
  5
43E
330
1E
100
AcDbEntity
  8
0
100
AcDbLine
 10
510.04
 20
533.0
 30
0.0
 11
512.44
 21
533.0
 31
0.0
  0
LINE
  5
43F
330
1E
100
AcDbEntity
  8
0
100
AcDbLine
 10
507.92
 20
533.0
 30
0.0
 11
510.04
 21
533.0
 31
0.0
  0
LINE
  5
440
330
1E
100
AcDbEntity
  8
0
100
AcDbLine
 10
506.32
 20
533.0
 30
0.0
 11
507.92
 21
533.0
 31
0.0
  0
LINE
  5
441
330
1E
100
AcDbEntity
  8
0
100
AcDbLine
 10
505.36
 20
533.0
 30
0.0
 11
506.32
 21
533.0
 31
0.0
  0
LINE
  5
442
330
1E
100
AcDbEntity
  8
0
100
AcDbLine
 10
505.0
 20
533.0
 30
0.0
 11
505.0
 21
495.0
 31
0.0
  0
LINE
  5
443
330
1E
100
AcDbEntity
  8
0
100
AcDbLine
 10
505.0
 20
533.0
 30
0.0
 11
505.36
 21
533.0
 31
0.0
  0
LINE
  5
444
330
1E
100
AcDbEntity
  8
0
100
AcDbLine
 10
517.5599999999999
 20
533.0
 30
0.0
 11
519.96
 21
533.0
 31
0.0
  0
LINE
  5
445
330
1E
100
AcDbEntity
  8
0
100
AcDbLine
 10
519.96
 20
533.0
 30
0.0
 11
522.08
 21
533.0
 31
0.0
  0
LINE
  5
446
330
1E
100
AcDbEntity
  8
0
100
AcDbLine
 10
522.08
 20
533.0
 30
0.0
 11
523.6799999999999
 21
533.0
 31
0.0
  0
LINE
  5
447
330
1E
100
AcDbEntity
  8
0
100
AcDbLine
 10
518.84
 20
495.0
 30
0.0
 11
522.4400000000001
 21
495.0
 31
0.0
  0
LINE
  5
448
330
1E
100
AcDbEntity
  8
0
100
AcDbLine
 10
500.0
 20
490.0
 30
0.0
 11
500.0
 21
495.0
 31
0.0
  0
LINE
  5
449
330
1E
100
AcDbEntity
  8
0
100
AcDbLine
 10
500.0
 20
465.0
 30
0.0
 11
500.0
 21
470.0
 31
0.0
  0
LINE
  5
44A
330
1E
100
AcDbEntity
  8
0
100
AcDbLine
 10
500.0
 20
465.0
 30
0.0
 11
500.54
 21
465.0
 31
0.0
  0
LINE
  5
44B
330
1E
100
AcDbEntity
  8
0
100
AcDbLine
 10
493.0
 20
470.0
 30
0.0
 11
500.0899999999999
 21
470.0
 31
0.0
  0
LINE
  5
44C
330
1E
100
AcDbEntity
  8
0
100
AcDbLine
 10
507.588
 20
533.0
 30
0.0
 11
515.0
 21
533.0
 31
0.0
  0
LINE
  5
44D
330
1E
100
AcDbEntity
  8
0
100
AcDbLine
 10
522.4400000000001
 20
465.0
 30
0.0
 11
525.6199999999999
 21
465.0
 31
0.0
  0
LINE
  5
44E
330
1E
100
AcDbEntity
  8
0
100
AcDbLine
 10
525.0
 20
465.0
 30
0.0
 11
525.6199999999999
 21
465.0
 31
0.0
  0
LINE
  5
44F
330
1E
100
AcDbEntity
  8
0
100
AcDbLine
 10
525.0
 20
465.0
 30
0.0
 11
525.0
 21
450.0
 31
0.0
  0
LINE
  5
450
330
1E
100
AcDbEntity
  8
0
100
AcDbLine
 10
525.6199999999999
 20
465.0
 30
0.0
 11
528.0199999999999
 21
465.0
 31
0.0
  0
LINE
  5
451
330
1E
100
AcDbEntity
  8
0
100
AcDbLine
 10
530.0
 20
465.0
 30
0.0
 11
530.0
 21
470.0
 31
0.0
  0
LINE
  5
452
330
1E
100
AcDbEntity
  8
0
100
AcDbLine
 10
528.0199999999999
 20
465.0
 30
0.0
 11
529.46
 21
465.0
 31
0.0
  0
LINE
  5
453
330
1E
100
AcDbEntity
  8
0
100
AcDbLine
 10
525.0
 20
495.0
 30
0.0
 11
525.0
 21
533.0
 31
0.0
  0
LINE
  5
454
330
1E
100
AcDbEntity
  8
0
100
AcDbLine
 10
522.4400000000001
 20
495.0
 30
0.0
 11
525.6199999999999
 21
495.0
 31
0.0
  0
LINE
  5
455
330
1E
100
AcDbEntity
  8
0
100
AcDbLine
 10
525.6199999999999
 20
495.0
 30
0.0
 11
528.0199999999999
 21
495.0
 31
0.0
  0
LINE
  5
456
330
1E
100
AcDbEntity
  8
0
100
AcDbLine
 10
523.6799999999999
 20
533.0
 30
0.0
 11
524.64
 21
533.0
 31
0.0
  0
LINE
  5
457
330
1E
100
AcDbEntity
  8
0
100
AcDbLine
 10
524.64
 20
533.0
 30
0.0
 11
525.0
 21
533.0
 31
0.0
  0
LINE
  5
458
330
1E
100
AcDbEntity
  8
0
100
AcDbLine
 10
525.0
 20
533.0
 30
0.0
 11
525.0
 21
495.0
 31
0.0
  0
LINE
  5
459
330
1E
100
AcDbEntity
  8
0
100
AcDbLine
 10
528.0199999999999
 20
495.0
 30
0.0
 11
529.46
 21
495.0
 31
0.0
  0
LINE
  5
45A
330
1E
100
AcDbEntity
  8
0
100
AcDbLine
 10
529.91
 20
490.0
 30
0.0
 11
537.0
 21
490.0
 31
0.0
  0
LINE
  5
45B
330
1E
100
AcDbEntity
  8
0
100
AcDbLine
 10
530.0
 20
490.0
 30
0.0
 11
530.0
 21
495.0
 31
0.0
  0
LINE
  5
45C
330
1E
100
AcDbEntity
  8
0
100
AcDbLine
 10
529.46
 20
495.0
 30
0.0
 11
530.0
 21
495.0
 31
0.0
  0
LINE
  5
45D
330
1E
100
AcDbEntity
  8
0
100
AcDbLine
 10
530.0
 20
470.0
 30
0.0
 11
530.0
 21
465.0
 31
0.0
  0
LINE
  5
45E
330
1E
100
AcDbEntity
  8
0
100
AcDbLine
 10
530.0
 20
470.0
 30
0.0
 11
537.0
 21
470.0
 31
0.0
  0
LINE
  5
45F
330
1E
100
AcDbEntity
  8
0
100
AcDbLine
 10
530.0
 20
495.0
 30
0.0
 11
530.0
 21
490.0
 31
0.0
  0
LINE
  5
460
330
1E
100
AcDbEntity
  8
0
100
AcDbLine
 10
529.46
 20
465.0
 30
0.0
 11
530.0
 21
465.0
 31
0.0
  0
LINE
  5
461
330
1E
100
AcDbEntity
  8
0
100
AcDbLine
 10
522.4119999999999
 20
533.0
 30
0.0
 11
529.2939999999999
 21
533.0
 31
0.0
  0
LINE
  5
462
330
1E
100
AcDbEntity
  8
0
100
AcDbLine
 10
515.0
 20
533.0
 30
0.0
 11
522.4119999999999
 21
533.0
 31
0.0
  0
LINE
  5
463
330
1E
100
AcDbEntity
  8
0
100
AcDbLine
 10
515.0
 20
533.0
 30
0.0
 11
517.5599999999999
 21
533.0
 31
0.0
  0
LINE
  5
464
330
1E
100
AcDbEntity
  8
0
100
AcDbLine
 10
537.0
 20
470.0
 30
0.0
 11
537.0
 21
469.695
 31
0.0
  0
LINE
  5
467
330
1E
100
AcDbEntity
  8
0
100
AcDbLine
 10
537.0
 20
470.737
 30
0.0
 11
537.0
 21
469.695
 31
0.0
  0
LINE
  5
469
330
1E
100
AcDbEntity
  8
0
100
AcDbLine
 10
537.0
 20
469.695
 30
0.0
 11
537.0
 21
469.289
 31
0.0
  0
LINE
  5
46A
330
1E
100
AcDbEntity
  8
0
100
AcDbLine
 10
537.0
 20
469.695
 30
0.0
 11
537.0
 21
470.737
 31
0.0
  0
LINE
  5
46B
330
1E
100
AcDbEntity
  8
0
100
AcDbLine
 10
537.0
 20
469.695
 30
0.0
 11
537.0
 21
470.0
 31
0.0
  0
LINE
  5
46C
330
1E
100
AcDbEntity
  8
0
100
AcDbLine
 10
537.0
 20
469.289
 30
0.0
 11
537.0569999999999
 21
469.0
 31
0.0
  0
LINE
  5
46D
330
1E
100
AcDbEntity
  8
0
100
AcDbLine
 10
537.0
 20
469.289
 30
0.0
 11
537.0
 21
469.695
 31
0.0
  0
LINE
  5
470
330
1E
100
AcDbEntity
  8
0
100
AcDbLine
 10
537.0
 20
472.416
 30
0.0
 11
537.0
 21
474.674
 31
0.0
  0
LINE
  5
471
330
1E
100
AcDbEntity
  8
0
100
AcDbLine
 10
537.0
 20
474.674
 30
0.0
 11
537.0
 21
477.221
 31
0.0
  0
LINE
  5
474
330
1E
100
AcDbEntity
  8
0
100
AcDbLine
 10
537.0
 20
474.674
 30
0.0
 11
537.0
 21
472.416
 31
0.0
  0
LINE
  5
476
330
1E
100
AcDbEntity
  8
0
100
AcDbLine
 10
537.0
 20
477.221
 30
0.0
 11
537.0
 21
474.674
 31
0.0
  0
LINE
  5
477
330
1E
100
AcDbEntity
  8
0
100
AcDbLine
 10
537.0
 20
480.0
 30
0.0
 11
537.0
 21
477.4399999999999
 31
0.0
  0
LINE
  5
479
330
1E
100
AcDbEntity
  8
0
100
AcDbLine
 10
537.0
 20
477.4399999999999
 30
0.0
 11
537.0
 21
475.0399999999999
 31
0.0
  0
LINE
  5
47A
330
1E
100
AcDbEntity
  8
0
100
AcDbLine
 10
537.0
 20
475.0399999999999
 30
0.0
 11
537.0
 21
472.92
 31
0.0
  0
LINE
  5
47B
330
1E
100
AcDbEntity
  8
0
100
AcDbLine
 10
537.0
 20
472.92
 30
0.0
 11
537.0
 21
471.3199999999999
 31
0.0
  0
LINE
  5
47C
330
1E
100
AcDbEntity
  8
0
100
AcDbLine
 10
537.0
 20
471.3199999999999
 30
0.0
 11
537.0
 21
470.36
 31
0.0
  0
LINE
  5
47D
330
1E
100
AcDbEntity
  8
0
100
AcDbLine
 10
537.0
 20
470.36
 30
0.0
 11
537.0
 21
470.0
 31
0.0
  0
LINE
  5
47E
330
1E
100
AcDbEntity
  8
0
100
AcDbLine
 10
537.0
 20
485.3259999999999
 30
0.0
 11
537.0
 21
482.779
 31
0.0
  0
LINE
  5
47F
330
1E
100
AcDbEntity
  8
0
100
AcDbLine
 10
537.0
 20
485.3259999999999
 30
0.0
 11
537.0
 21
487.584
 31
0.0
  0
LINE
  5
483
330
1E
100
AcDbEntity
  8
0
100
AcDbLine
 10
537.0
 20
482.779
 30
0.0
 11
537.0
 21
485.3259999999999
 31
0.0
  0
LINE
  5
484
330
1E
100
AcDbEntity
  8
0
100
AcDbLine
 10
537.0
 20
482.56
 30
0.0
 11
537.0
 21
480.0
 31
0.0
  0
LINE
  5
485
330
1E
100
AcDbEntity
  8
0
100
AcDbLine
 10
537.0
 20
484.9599999999999
 30
0.0
 11
537.0
 21
482.56
 31
0.0
  0
LINE
  5
486
330
1E
100
AcDbEntity
  8
0
100
AcDbLine
 10
537.0
 20
487.584
 30
0.0
 11
537.0
 21
489.263
 31
0.0
  0
LINE
  5
488
330
1E
100
AcDbEntity
  8
0
100
AcDbLine
 10
537.0
 20
487.584
 30
0.0
 11
537.0
 21
485.3259999999999
 31
0.0
  0
LINE
  5
48A
330
1E
100
AcDbEntity
  8
0
100
AcDbLine
 10
537.0
 20
489.263
 30
0.0
 11
537.0
 21
490.305
 31
0.0
  0
LINE
  5
48D
330
1E
100
AcDbEntity
  8
0
100
AcDbLine
 10
537.0
 20
489.263
 30
0.0
 11
537.0
 21
487.584
 31
0.0
  0
LINE
  5
48E
330
1E
100
AcDbEntity
  8
0
100
AcDbLine
 10
537.0
 20
487.08
 30
0.0
 11
537.0
 21
484.9599999999999
 31
0.0
  0
LINE
  5
48F
330
1E
100
AcDbEntity
  8
0
100
AcDbLine
 10
537.0
 20
488.68
 30
0.0
 11
537.0
 21
487.08
 31
0.0
  0
LINE
  5
490
330
1E
100
AcDbEntity
  8
0
100
AcDbLine
 10
537.0
 20
490.711
 30
0.0
 11
537.0569999999999
 21
491.0
 31
0.0
  0
LINE
  5
491
330
1E
100
AcDbEntity
  8
0
100
AcDbLine
 10
537.0
 20
490.711
 30
0.0
 11
537.0
 21
490.305
 31
0.0
  0
LINE
  5
493
330
1E
100
AcDbEntity
  8
0
100
AcDbLine
 10
537.0
 20
490.305
 30
0.0
 11
537.0
 21
489.263
 31
0.0
  0
LINE
  5
494
330
1E
100
AcDbEntity
  8
0
100
AcDbLine
 10
537.0
 20
490.305
 30
0.0
 11
537.0
 21
490.711
 31
0.0
  0
LINE
  5
495
330
1E
100
AcDbEntity
  8
0
100
AcDbLine
 10
537.0
 20
490.305
 30
0.0
 11
537.0
 21
490.0
 31
0.0
  0
LINE
  5
496
330
1E
100
AcDbEntity
  8
0
100
AcDbLine
 10
537.0
 20
489.6399999999999
 30
0.0
 11
537.0
 21
488.68
 31
0.0
  0
LINE
  5
497
330
1E
100
AcDbEntity
  8
0
100
AcDbLine
 10
537.571
 20
469.0
 30
0.0
 11
538.143
 21
469.0
 31
0.0
  0
LINE
  5
499
330
1E
100
AcDbEntity
  8
0
100
AcDbLine
 10
538.143
 20
469.0
 30
0.0
 11
543.8569999999999
 21
469.0
 31
0.0
  0
LINE
  5
49B
330
1E
100
AcDbEntity
  8
0
100
AcDbLine
 10
537.1369999999999
 20
469.0
 30
0.0
 11
537.571
 21
469.0
 31
0.0
  0
LINE
  5
49D
330
1E
100
AcDbEntity
  8
0
100
AcDbLine
 10
537.0569999999999
 20
491.0
 30
0.0
 11
537.1369999999999
 21
491.0
 31
0.0
  0
LINE
  5
4A6
330
1E
100
AcDbEntity
  8
0
100
AcDbLine
 10
537.1369999999999
 20
491.0
 30
0.0
 11
537.571
 21
491.0
 31
0.0
  0
LINE
  5
4B3
330
1E
100
AcDbEntity
  8
0
100
AcDbLine
 10
537.571
 20
491.0
 30
0.0
 11
538.143
 21
491.0
 31
0.0
  0
LINE
  5
4BC
330
1E
100
AcDbEntity
  8
0
100
AcDbLine
 10
538.143
 20
491.0
 30
0.0
 11
543.8569999999999
 21
491.0
 31
0.0
  0
LINE
  5
4C9
330
1E
100
AcDbEntity
  8
0
100
AcDbLine
 10
537.0569999999999
 20
469.0
 30
0.0
 11
537.1369999999999
 21
469.0
 31
0.0
  0
LINE
  5
4CA
330
1E
100
AcDbEntity
  8
0
100
AcDbLine
 10
537.0
 20
490.0
 30
0.0
 11
537.0
 21
489.6399999999999
 31
0.0
  0
LINE
  5
4CB
330
1E
100
AcDbEntity
  8
0
100
AcDbLine
 10
537.0
 20
490.0
 30
0.0
 11
537.0
 21
490.305
 31
0.0
  0
LINE
  5
4CC
330
1E
100
AcDbEntity
  8
0
100
AcDbLine
 10
542.618
 20
533.0
 30
0.0
 11
543.677
 21
533.0
 31
0.0
  0
LINE
  5
4CD
330
1E
100
AcDbEntity
  8
0
100
AcDbLine
 10
535.294
 20
533.0
 30
0.0
 11
539.794
 21
533.0
 31
0.0
  0
LINE
  5
4CE
330
1E
100
AcDbEntity
  8
0
100
AcDbLine
 10
539.794
 20
533.0
 30
0.0
 11
542.618
 21
533.0
 31
0.0
  0
LINE
  5
4CF
330
1E
100
AcDbEntity
  8
0
100
AcDbLine
 10
543.8569999999999
 20
469.0
 30
0.0
 11
544.4289999999999
 21
469.0
 31
0.0
  0
LINE
  5
4D0
330
1E
100
AcDbEntity
  8
0
100
AcDbLine
 10
544.9429999999999
 20
469.0
 30
0.0
 11
545.0
 21
469.289
 31
0.0
  0
LINE
  5
4D1
330
1E
100
AcDbEntity
  8
0
100
AcDbLine
 10
544.4289999999999
 20
469.0
 30
0.0
 11
544.863
 21
469.0
 31
0.0
  0
LINE
  5
4D9
330
1E
100
AcDbEntity
  8
0
100
AcDbLine
 10
543.8569999999999
 20
491.0
 30
0.0
 11
544.4289999999999
 21
491.0
 31
0.0
  0
LINE
  5
4DA
330
1E
100
AcDbEntity
  8
0
100
AcDbLine
 10
544.4289999999999
 20
491.0
 30
0.0
 11
544.863
 21
491.0
 31
0.0
  0
LINE
  5
4F4
330
1E
100
AcDbEntity
  8
0
100
AcDbLine
 10
544.9429999999999
 20
491.0
 30
0.0
 11
545.0
 21
490.711
 31
0.0
  0
LINE
  5
4F5
330
1E
100
AcDbEntity
  8
0
100
AcDbLine
 10
544.863
 20
491.0
 30
0.0
 11
544.9429999999999
 21
491.0
 31
0.0
  0
LINE
  5
4FB
330
1E
100
AcDbEntity
  8
0
100
AcDbLine
 10
544.863
 20
469.0
 30
0.0
 11
544.9429999999999
 21
469.0
 31
0.0
  0
LINE
  5
4FC
330
1E
100
AcDbEntity
  8
0
100
AcDbLine
 10
543.677
 20
533.0
 30
0.0
 11
544.559
 21
533.4999999999999
 31
0.0
  0
LINE
  5
4FD
330
1E
100
AcDbEntity
  8
0
100
AcDbLine
 10
529.2939999999999
 20
533.0
 30
0.0
 11
535.294
 21
533.0
 31
0.0
  0
LINE
  5
4FE
330
1E
100
AcDbEntity
  8
0
100
AcDbLine
 10
490.2059999999999
 20
533.0
 30
0.0
 11
494.7059999999999
 21
533.0
 31
0.0
  0
LINE
  5
4FF
330
1E
100
AcDbEntity
  8
0
100
AcDbLine
 10
486.324
 20
533.0
 30
0.0
 11
487.3819999999999
 21
533.0
 31
0.0
  0
LINE
  5
500
330
1E
100
AcDbEntity
  8
0
100
AcDbLine
 10
433.6769999999999
 20
533.0
 30
0.0
 11
434.559
 21
533.4999999999999
 31
0.0
  0
LINE
  5
501
330
1E
100
AcDbEntity
  8
0
100
AcDbLine
 10
379.4119999999999
 20
533.4999999999999
 30
0.0
 11
384.088
 21
533.4999999999999
 31
0.0
  0
LINE
  5
502
330
1E
100
AcDbEntity
  8
0
100
AcDbLine
 10
376.5
 20
533.4999999999999
 30
0.0
 11
379.4119999999999
 21
533.4999999999999
 31
0.0
  0
LINE
  5
503
330
1E
100
AcDbEntity
  8
0
100
AcDbLine
 10
384.088
 20
533.4999999999999
 30
0.0
 11
390.2649999999999
 21
533.4999999999999
 31
0.0
  0
LINE
  5
504
330
1E
100
AcDbEntity
  8
0
100
AcDbLine
 10
390.2649999999999
 20
533.4999999999999
 30
0.0
 11
397.4119999999999
 21
533.4999999999999
 31
0.0
  0
LINE
  5
505
330
1E
100
AcDbEntity
  8
0
100
AcDbLine
 10
397.4119999999999
 20
533.4999999999999
 30
0.0
 11
405.0
 21
533.4999999999999
 31
0.0
  0
LINE
  5
506
330
1E
100
AcDbEntity
  8
0
100
AcDbLine
 10
425.912
 20
533.4999999999999
 30
0.0
 11
430.588
 21
533.4999999999999
 31
0.0
  0
LINE
  5
507
330
1E
100
AcDbEntity
  8
0
100
AcDbLine
 10
430.588
 20
533.4999999999999
 30
0.0
 11
433.4999999999999
 21
533.4999999999999
 31
0.0
  0
LINE
  5
508
330
1E
100
AcDbEntity
  8
0
100
AcDbLine
 10
433.4999999999999
 20
533.4999999999999
 30
0.0
 11
434.559
 21
533.4999999999999
 31
0.0
  0
LINE
  5
509
330
1E
100
AcDbEntity
  8
0
100
AcDbLine
 10
419.735
 20
533.4999999999999
 30
0.0
 11
425.912
 21
533.4999999999999
 31
0.0
  0
LINE
  5
50A
330
1E
100
AcDbEntity
  8
0
100
AcDbLine
 10
412.588
 20
533.4999999999999
 30
0.0
 11
419.735
 21
533.4999999999999
 31
0.0
  0
LINE
  5
50B
330
1E
100
AcDbEntity
  8
0
100
AcDbLine
 10
405.0
 20
533.4999999999999
 30
0.0
 11
412.588
 21
533.4999999999999
 31
0.0
  0
LINE
  5
50C
330
1E
100
AcDbEntity
  8
0
100
AcDbLine
 10
489.412
 20
533.4999999999999
 30
0.0
 11
494.0879999999999
 21
533.4999999999999
 31
0.0
  0
LINE
  5
50D
330
1E
100
AcDbEntity
  8
0
100
AcDbLine
 10
486.5
 20
533.4999999999999
 30
0.0
 11
489.412
 21
533.4999999999999
 31
0.0
  0
LINE
  5
50E
330
1E
100
AcDbEntity
  8
0
100
AcDbLine
 10
494.0879999999999
 20
533.4999999999999
 30
0.0
 11
500.265
 21
533.4999999999999
 31
0.0
  0
LINE
  5
50F
330
1E
100
AcDbEntity
  8
0
100
AcDbLine
 10
500.265
 20
533.4999999999999
 30
0.0
 11
507.4119999999999
 21
533.4999999999999
 31
0.0
  0
LINE
  5
510
330
1E
100
AcDbEntity
  8
0
100
AcDbLine
 10
507.4119999999999
 20
533.4999999999999
 30
0.0
 11
515.0
 21
533.4999999999999
 31
0.0
  0
LINE
  5
511
330
1E
100
AcDbEntity
  8
0
100
AcDbLine
 10
535.9119999999998
 20
533.4999999999999
 30
0.0
 11
540.588
 21
533.4999999999999
 31
0.0
  0
LINE
  5
512
330
1E
100
AcDbEntity
  8
0
100
AcDbLine
 10
540.588
 20
533.4999999999999
 30
0.0
 11
543.5
 21
533.4999999999999
 31
0.0
  0
LINE
  5
513
330
1E
100
AcDbEntity
  8
0
100
AcDbLine
 10
543.5
 20
533.4999999999999
 30
0.0
 11
544.559
 21
533.4999999999999
 31
0.0
  0
LINE
  5
514
330
1E
100
AcDbEntity
  8
0
100
AcDbLine
 10
529.735
 20
533.4999999999999
 30
0.0
 11
535.9119999999998
 21
533.4999999999999
 31
0.0
  0
LINE
  5
515
330
1E
100
AcDbEntity
  8
0
100
AcDbLine
 10
522.588
 20
533.4999999999999
 30
0.0
 11
529.735
 21
533.4999999999999
 31
0.0
  0
LINE
  5
516
330
1E
100
AcDbEntity
  8
0
100
AcDbLine
 10
515.0
 20
533.4999999999999
 30
0.0
 11
522.588
 21
533.4999999999999
 31
0.0
  0
LINE
  5
517
330
1E
100
AcDbEntity
  8
0
100
AcDbLine
 10
544.559
 20
533.4999999999999
 30
0.0
 11
545.0
 21
534.4999999999999
 31
0.0
  0
LINE
  5
518
330
1E
100
AcDbEntity
  8
0
100
AcDbLine
 10
545.0
 20
534.4999999999999
 30
0.0
 11
545.0
 21
580.0
 31
0.0
  0
LINE
  5
519
330
1E
100
AcDbEntity
  8
0
100
AcDbLine
 10
485.4409999999999
 20
533.4999999999999
 30
0.0
 11
486.324
 21
533.0
 31
0.0
  0
LINE
  5
51A
330
1E
100
AcDbEntity
  8
0
100
AcDbLine
 10
485.4409999999999
 20
533.4999999999999
 30
0.0
 11
486.5
 21
533.4999999999999
 31
0.0
  0
LINE
  5
51B
330
1E
100
AcDbEntity
  8
0
100
AcDbLine
 10
485.0
 20
534.4999999999999
 30
0.0
 11
485.0
 21
580.0
 31
0.0
  0
LINE
  5
51C
330
1E
100
AcDbEntity
  8
0
100
AcDbLine
 10
485.0
 20
534.4999999999999
 30
0.0
 11
485.4409999999999
 21
533.4999999999999
 31
0.0
  0
LINE
  5
51D
330
1E
100
AcDbEntity
  8
0
100
AcDbLine
 10
435.0
 20
534.4999999999999
 30
0.0
 11
435.0
 21
580.0
 31
0.0
  0
LINE
  5
51E
330
1E
100
AcDbEntity
  8
0
100
AcDbLine
 10
434.559
 20
533.4999999999999
 30
0.0
 11
435.0
 21
534.4999999999999
 31
0.0
  0
LINE
  5
51F
330
1E
100
AcDbEntity
  8
0
100
AcDbLine
 10
376.324
 20
533.0
 30
0.0
 11
377.3819999999999
 21
533.0
 31
0.0
  0
LINE
  5
520
330
1E
100
AcDbEntity
  8
0
100
AcDbLine
 10
375.441
 20
533.4999999999999
 30
0.0
 11
376.324
 21
533.0
 31
0.0
  0
LINE
  5
521
330
1E
100
AcDbEntity
  8
0
100
AcDbLine
 10
375.441
 20
533.4999999999999
 30
0.0
 11
376.5
 21
533.4999999999999
 31
0.0
  0
LINE
  5
522
330
1E
100
AcDbEntity
  8
0
100
AcDbLine
 10
375.0
 20
534.4999999999999
 30
0.0
 11
375.0
 21
580.0
 31
0.0
  0
LINE
  5
523
330
1E
100
AcDbEntity
  8
0
100
AcDbLine
 10
375.0
 20
534.4999999999999
 30
0.0
 11
375.441
 21
533.4999999999999
 31
0.0
  0
LINE
  5
524
330
1E
100
AcDbEntity
  8
0
100
AcDbLine
 10
551.0
 20
550.0
 30
0.0
 11
551.0
 21
450.0
 31
0.0
  0
LINE
  5
525
330
1E
100
AcDbEntity
  8
0
100
AcDbLine
 10
551.0
 20
550.0
 30
0.0
 11
551.0
 21
250.0
 31
0.0
  0
LINE
  5
526
330
1E
100
AcDbEntity
  8
0
100
AcDbLine
 10
545.0
 20
550.0
 30
0.0
 11
551.0
 21
550.0
 31
0.0
  0
LINE
  5
527
330
1E
100
AcDbEntity
  8
0
100
AcDbLine
 10
435.0
 20
550.0
 30
0.0
 11
485.0
 21
550.0
 31
0.0
  0
LINE
  5
528
330
1E
100
AcDbEntity
  8
0
100
AcDbLine
 10
325.0
 20
550.0
 30
0.0
 11
375.0
 21
550.0
 31
0.0
  0
LINE
  5
529
330
1E
100
AcDbEntity
  8
0
100
AcDbLine
 10
150.097
 20
578.853
 30
0.0
 11
150.867
 21
578.853
 31
0.0
  0
LINE
  5
52A
330
1E
100
AcDbEntity
  8
0
100
AcDbLine
 10
149.358
 20
578.853
 30
0.0
 11
150.097
 21
578.853
 31
0.0
  0
LINE
  5
52B
330
1E
100
AcDbEntity
  8
0
100
AcDbLine
 10
150.084
 20
578.853
 30
0.0
 11
150.8539999999999
 21
578.853
 31
0.0
  0
LINE
  5
52C
330
1E
100
AcDbEntity
  8
0
100
AcDbLine
 10
150.867
 20
578.853
 30
0.0
 11
151.637
 21
578.853
 31
0.0
  0
LINE
  5
52D
330
1E
100
AcDbEntity
  8
0
100
AcDbLine
 10
151.637
 20
578.853
 30
0.0
 11
152.3509999999999
 21
578.853
 31
0.0
  0
LINE
  5
52E
330
1E
100
AcDbEntity
  8
0
100
AcDbLine
 10
152.3509999999999
 20
578.853
 30
0.0
 11
152.972
 21
578.853
 31
0.0
  0
LINE
  5
52F
330
1E
100
AcDbEntity
  8
0
100
AcDbLine
 10
150.8539999999999
 20
578.853
 30
0.0
 11
151.6239999999999
 21
578.853
 31
0.0
  0
LINE
  5
530
330
1E
100
AcDbEntity
  8
0
100
AcDbLine
 10
151.6239999999999
 20
578.853
 30
0.0
 11
152.362
 21
578.853
 31
0.0
  0
LINE
  5
531
330
1E
100
AcDbEntity
  8
0
100
AcDbLine
 10
152.972
 20
578.853
 30
0.0
 11
153.462
 21
578.853
 31
0.0
  0
LINE
  5
532
330
1E
100
AcDbEntity
  8
0
100
AcDbLine
 10
152.362
 20
578.853
 30
0.0
 11
152.99
 21
578.853
 31
0.0
  0
LINE
  5
533
330
1E
100
AcDbEntity
  8
0
100
AcDbLine
 10
152.99
 20
578.853
 30
0.0
 11
153.455
 21
578.853
 31
0.0
  0
LINE
  5
534
330
1E
100
AcDbEntity
  8
0
100
AcDbLine
 10
153.462
 20
578.853
 30
0.0
 11
153.7609999999999
 21
578.853
 31
0.0
  0
LINE
  5
535
330
1E
100
AcDbEntity
  8
0
100
AcDbLine
 10
153.7609999999999
 20
578.853
 30
0.0
 11
153.8529999999999
 21
578.853
 31
0.0
  0
LINE
  5
536
330
1E
100
AcDbEntity
  8
0
100
AcDbLine
 10
153.7579999999999
 20
578.853
 30
0.0
 11
153.8529999999999
 21
578.853
 31
0.0
  0
LINE
  5
537
330
1E
100
AcDbEntity
  8
0
100
AcDbLine
 10
153.455
 20
578.853
 30
0.0
 11
153.7579999999999
 21
578.853
 31
0.0
  0
LINE
  5
538
330
1E
100
AcDbEntity
  8
0
100
AcDbLine
 10
149.37
 20
578.853
 30
0.0
 11
150.084
 21
578.853
 31
0.0
  0
LINE
  5
539
330
1E
100
AcDbEntity
  8
0
100
AcDbLine
 10
153.8529999999999
 20
580.0
 30
0.0
 11
155.0
 21
580.0
 31
0.0
  0
LINE
  5
53A
330
1E
100
AcDbEntity
  8
0
100
AcDbLine
 10
153.8529999999999
 20
580.0
 30
0.0
 11
153.8529999999999
 21
578.853
 31
0.0
  0
LINE
  5
53B
330
1E
100
AcDbEntity
  8
0
100
AcDbLine
 10
153.8529999999999
 20
580.0
 30
0.0
 11
155.0
 21
580.0
 31
0.0
  0
LINE
  5
53C
330
1E
100
AcDbEntity
  8
0
100
AcDbLine
 10
153.8529999999999
 20
580.0
 30
0.0
 11
155.0
 21
580.0
 31
0.0
  0
LINE
  5
53D
330
1E
100
AcDbEntity
  8
0
100
AcDbLine
 10
153.8529999999999
 20
578.853
 30
0.0
 11
153.8529999999999
 21
580.0
 31
0.0
  0
LINE
  5
53E
330
1E
100
AcDbEntity
  8
0
100
AcDbLine
 10
155.0
 20
580.0
 30
0.0
 11
155.0
 21
534.4999999999999
 31
0.0
  0
LINE
  5
53F
330
1E
100
AcDbEntity
  8
0
100
AcDbLine
 10
153.7679999999999
 20
600.0
 30
0.0
 11
154.9199999999999
 21
600.0
 31
0.0
  0
LINE
  5
540
330
1E
100
AcDbEntity
  8
0
100
AcDbLine
 10
154.152
 20
600.1739999999999
 30
0.0
 11
157.2239999999999
 21
600.1739999999999
 31
0.0
  0
LINE
  5
541
330
1E
100
AcDbEntity
  8
0
100
AcDbLine
 10
157.2239999999999
 20
600.1739999999999
 30
0.0
 11
162.3439999999999
 21
600.1739999999999
 31
0.0
  0
LINE
  5
542
330
1E
100
AcDbEntity
  8
0
100
AcDbLine
 10
154.9199999999999
 20
600.0
 30
0.0
 11
157.992
 21
600.0
 31
0.0
  0
LINE
  5
543
330
1E
100
AcDbEntity
  8
0
100
AcDbLine
 10
159.0
 20
600.0
 30
0.0
 11
159.936
 21
600.0
 31
0.0
  0
LINE
  5
544
330
1E
100
AcDbEntity
  8
0
100
AcDbLine
 10
159.0
 20
600.0
 30
0.0
 11
159.0
 21
595.0
 31
0.0
  0
LINE
  5
545
330
1E
100
AcDbEntity
  8
0
100
AcDbLine
 10
172.104
 20
600.0
 30
0.0
 11
178.344
 21
600.0
 31
0.0
  0
LINE
  5
546
330
1E
100
AcDbEntity
  8
0
100
AcDbLine
 10
166.592
 20
600.0
 30
0.0
 11
172.104
 21
600.0
 31
0.0
  0
LINE
  5
547
330
1E
100
AcDbEntity
  8
0
100
AcDbLine
 10
162.432
 20
600.0
 30
0.0
 11
166.592
 21
600.0
 31
0.0
  0
LINE
  5
548
330
1E
100
AcDbEntity
  8
0
100
AcDbLine
 10
159.936
 20
600.0
 30
0.0
 11
162.432
 21
600.0
 31
0.0
  0
LINE
  5
549
330
1E
100
AcDbEntity
  8
0
100
AcDbLine
 10
159.0
 20
595.0
 30
0.0
 11
159.0
 21
600.0
 31
0.0
  0
LINE
  5
54A
330
1E
100
AcDbEntity
  8
0
100
AcDbLine
 10
162.984
 20
600.0
 30
0.0
 11
169.512
 21
600.0
 31
0.0
  0
LINE
  5
54B
330
1E
100
AcDbEntity
  8
0
100
AcDbLine
 10
178.344
 20
600.0
 30
0.0
 11
185.0
 21
600.0
 31
0.0
  0
LINE
  5
54C
330
1E
100
AcDbEntity
  8
0
100
AcDbLine
 10
191.6559999999999
 20
600.0
 30
0.0
 11
197.8959999999999
 21
600.0
 31
0.0
  0
LINE
  5
54D
330
1E
100
AcDbEntity
  8
0
100
AcDbLine
 10
176.9359999999999
 20
600.0
 30
0.0
 11
185.0
 21
600.0
 31
0.0
  0
LINE
  5
54E
330
1E
100
AcDbEntity
  8
0
100
AcDbLine
 10
162.3439999999999
 20
600.1739999999999
 30
0.0
 11
169.1279999999999
 21
600.1739999999999
 31
0.0
  0
LINE
  5
54F
330
1E
100
AcDbEntity
  8
0
100
AcDbLine
 10
169.1279999999999
 20
600.1739999999999
 30
0.0
 11
176.8079999999999
 21
600.1739999999999
 31
0.0
  0
LINE
  5
550
330
1E
100
AcDbEntity
  8
0
100
AcDbLine
 10
176.8079999999999
 20
600.1739999999999
 30
0.0
 11
185.0
 21
600.1739999999999
 31
0.0
  0
LINE
  5
551
330
1E
100
AcDbEntity
  8
0
100
AcDbLine
 10
185.0
 20
600.0
 30
0.0
 11
193.064
 21
600.0
 31
0.0
  0
LINE
  5
552
330
1E
100
AcDbEntity
  8
0
100
AcDbLine
 10
185.0
 20
600.0
 30
0.0
 11
191.6559999999999
 21
600.0
 31
0.0
  0
LINE
  5
553
330
1E
100
AcDbEntity
  8
0
100
AcDbLine
 10
197.8959999999999
 20
600.0
 30
0.0
 11
203.4079999999999
 21
600.0
 31
0.0
  0
LINE
  5
554
330
1E
100
AcDbEntity
  8
0
100
AcDbLine
 10
203.4079999999999
 20
600.0
 30
0.0
 11
207.5679999999999
 21
600.0
 31
0.0
  0
LINE
  5
555
330
1E
100
AcDbEntity
  8
0
100
AcDbLine
 10
207.5679999999999
 20
600.0
 30
0.0
 11
210.064
 21
600.0
 31
0.0
  0
LINE
  5
556
330
1E
100
AcDbEntity
  8
0
100
AcDbLine
 10
211.0
 20
595.0
 30
0.0
 11
211.0
 21
600.0
 31
0.0
  0
LINE
  5
557
330
1E
100
AcDbEntity
  8
0
100
AcDbLine
 10
210.064
 20
600.0
 30
0.0
 11
211.0
 21
600.0
 31
0.0
  0
LINE
  5
558
330
1E
100
AcDbEntity
  8
0
100
AcDbLine
 10
207.6559999999999
 20
600.1739999999999
 30
0.0
 11
212.7759999999999
 21
600.1739999999999
 31
0.0
  0
LINE
  5
559
330
1E
100
AcDbEntity
  8
0
100
AcDbLine
 10
200.872
 20
600.1739999999999
 30
0.0
 11
207.6559999999999
 21
600.1739999999999
 31
0.0
  0
LINE
  5
55A
330
1E
100
AcDbEntity
  8
0
100
AcDbLine
 10
193.192
 20
600.1739999999999
 30
0.0
 11
200.872
 21
600.1739999999999
 31
0.0
  0
LINE
  5
55B
330
1E
100
AcDbEntity
  8
0
100
AcDbLine
 10
185.0
 20
600.1739999999999
 30
0.0
 11
193.192
 21
600.1739999999999
 31
0.0
  0
LINE
  5
55C
330
1E
100
AcDbEntity
  8
0
100
AcDbLine
 10
157.992
 20
600.0
 30
0.0
 11
159.0
 21
600.0
 31
0.0
  0
LINE
  5
55D
330
1E
100
AcDbEntity
  8
0
100
AcDbLine
 10
154.152
 20
602.826
 30
0.0
 11
157.2239999999999
 21
602.826
 31
0.0
  0
LINE
  5
55E
330
1E
100
AcDbEntity
  8
0
100
AcDbLine
 10
157.2239999999999
 20
602.826
 30
0.0
 11
162.3439999999999
 21
602.826
 31
0.0
  0
LINE
  5
55F
330
1E
100
AcDbEntity
  8
0
100
AcDbLine
 10
162.3439999999999
 20
602.826
 30
0.0
 11
169.1279999999999
 21
602.826
 31
0.0
  0
LINE
  5
560
330
1E
100
AcDbEntity
  8
0
100
AcDbLine
 10
169.1279999999999
 20
602.826
 30
0.0
 11
176.8079999999999
 21
602.826
 31
0.0
  0
LINE
  5
561
330
1E
100
AcDbEntity
  8
0
100
AcDbLine
 10
176.8079999999999
 20
602.826
 30
0.0
 11
185.0
 21
602.826
 31
0.0
  0
LINE
  5
562
330
1E
100
AcDbEntity
  8
0
100
AcDbLine
 10
207.6559999999999
 20
602.826
 30
0.0
 11
212.7759999999999
 21
602.826
 31
0.0
  0
LINE
  5
563
330
1E
100
AcDbEntity
  8
0
100
AcDbLine
 10
200.872
 20
602.826
 30
0.0
 11
207.6559999999999
 21
602.826
 31
0.0
  0
LINE
  5
564
330
1E
100
AcDbEntity
  8
0
100
AcDbLine
 10
193.192
 20
602.826
 30
0.0
 11
200.872
 21
602.826
 31
0.0
  0
LINE
  5
565
330
1E
100
AcDbEntity
  8
0
100
AcDbLine
 10
185.0
 20
602.826
 30
0.0
 11
193.192
 21
602.826
 31
0.0
  0
LINE
  5
566
330
1E
100
AcDbEntity
  8
0
100
AcDbLine
 10
153.0
 20
600.1739999999999
 30
0.0
 11
153.0
 21
602.826
 31
0.0
  0
LINE
  5
567
330
1E
100
AcDbEntity
  8
0
100
AcDbLine
 10
153.0
 20
600.1739999999999
 30
0.0
 11
153.7679999999999
 21
600.0
 31
0.0
  0
LINE
  5
568
330
1E
100
AcDbEntity
  8
0
100
AcDbLine
 10
153.0
 20
600.1739999999999
 30
0.0
 11
154.152
 21
600.1739999999999
 31
0.0
  0
LINE
  5
569
330
1E
100
AcDbEntity
  8
0
100
AcDbLine
 10
215.0
 20
580.0
 30
0.0
 11
216.147
 21
580.0
 31
0.0
  0
LINE
  5
56A
330
1E
100
AcDbEntity
  8
0
100
AcDbLine
 10
215.0
 20
580.0
 30
0.0
 11
216.147
 21
580.0
 31
0.0
  0
LINE
  5
56B
330
1E
100
AcDbEntity
  8
0
100
AcDbLine
 10
216.147
 20
580.0
 30
0.0
 11
216.147
 21
578.853
 31
0.0
  0
LINE
  5
56C
330
1E
100
AcDbEntity
  8
0
100
AcDbLine
 10
216.147
 20
578.853
 30
0.0
 11
216.242
 21
578.853
 31
0.0
  0
LINE
  5
56D
330
1E
100
AcDbEntity
  8
0
100
AcDbLine
 10
216.147
 20
578.853
 30
0.0
 11
216.239
 21
578.853
 31
0.0
  0
LINE
  5
56E
330
1E
100
AcDbEntity
  8
0
100
AcDbLine
 10
216.147
 20
578.853
 30
0.0
 11
216.147
 21
580.0
 31
0.0
  0
LINE
  5
56F
330
1E
100
AcDbEntity
  8
0
100
AcDbLine
 10
215.0
 20
580.0
 30
0.0
 11
215.0
 21
534.4999999999999
 31
0.0
  0
LINE
  5
570
330
1E
100
AcDbEntity
  8
0
100
AcDbLine
 10
215.0
 20
580.0
 30
0.0
 11
216.147
 21
580.0
 31
0.0
  0
LINE
  5
571
330
1E
100
AcDbEntity
  8
0
100
AcDbLine
 10
215.08
 20
600.0
 30
0.0
 11
216.232
 21
600.0
 31
0.0
  0
LINE
  5
572
330
1E
100
AcDbEntity
  8
0
100
AcDbLine
 10
212.0079999999999
 20
600.0
 30
0.0
 11
215.08
 21
600.0
 31
0.0
  0
LINE
  5
573
330
1E
100
AcDbEntity
  8
0
100
AcDbLine
 10
212.7759999999999
 20
602.826
 30
0.0
 11
215.8479999999999
 21
602.826
 31
0.0
  0
LINE
  5
574
330
1E
100
AcDbEntity
  8
0
100
AcDbLine
 10
215.8479999999999
 20
602.826
 30
0.0
 11
217.0
 21
602.826
 31
0.0
  0
LINE
  5
575
330
1E
100
AcDbEntity
  8
0
100
AcDbLine
 10
215.8479999999999
 20
600.1739999999999
 30
0.0
 11
217.0
 21
600.1739999999999
 31
0.0
  0
LINE
  5
576
330
1E
100
AcDbEntity
  8
0
100
AcDbLine
 10
212.7759999999999
 20
600.1739999999999
 30
0.0
 11
215.8479999999999
 21
600.1739999999999
 31
0.0
  0
LINE
  5
577
330
1E
100
AcDbEntity
  8
0
100
AcDbLine
 10
216.232
 20
600.0
 30
0.0
 11
217.0
 21
600.1739999999999
 31
0.0
  0
LINE
  5
578
330
1E
100
AcDbEntity
  8
0
100
AcDbLine
 10
211.0
 20
600.0
 30
0.0
 11
212.0079999999999
 21
600.0
 31
0.0
  0
LINE
  5
579
330
1E
100
AcDbEntity
  8
0
100
AcDbLine
 10
211.0
 20
600.0
 30
0.0
 11
211.0
 21
595.0
 31
0.0
  0
LINE
  5
57A
330
1E
100
AcDbEntity
  8
0
100
AcDbLine
 10
153.7679999999999
 20
603.0
 30
0.0
 11
154.9199999999999
 21
603.0
 31
0.0
  0
LINE
  5
57B
330
1E
100
AcDbEntity
  8
0
100
AcDbLine
 10
154.9199999999999
 20
603.0
 30
0.0
 11
157.992
 21
603.0
 31
0.0
  0
LINE
  5
57C
330
1E
100
AcDbEntity
  8
0
100
AcDbLine
 10
157.992
 20
603.0
 30
0.0
 11
176.9359999999999
 21
603.0
 31
0.0
  0
LINE
  5
57D
330
1E
100
AcDbEntity
  8
0
100
AcDbLine
 10
176.9359999999999
 20
603.0
 30
0.0
 11
185.0
 21
603.0
 31
0.0
  0
LINE
  5
57E
330
1E
100
AcDbEntity
  8
0
100
AcDbLine
 10
200.4879999999999
 20
603.0
 30
0.0
 11
216.232
 21
603.0
 31
0.0
  0
LINE
  5
57F
330
1E
100
AcDbEntity
  8
0
100
AcDbLine
 10
193.064
 20
603.0
 30
0.0
 11
200.4879999999999
 21
603.0
 31
0.0
  0
LINE
  5
580
330
1E
100
AcDbEntity
  8
0
100
AcDbLine
 10
185.0
 20
603.0
 30
0.0
 11
193.064
 21
603.0
 31
0.0
  0
LINE
  5
581
330
1E
100
AcDbEntity
  8
0
100
AcDbLine
 10
153.0
 20
602.826
 30
0.0
 11
153.7679999999999
 21
603.0
 31
0.0
  0
LINE
  5
582
330
1E
100
AcDbEntity
  8
0
100
AcDbLine
 10
153.0
 20
602.826
 30
0.0
 11
153.0
 21
600.1739999999999
 31
0.0
  0
LINE
  5
583
330
1E
100
AcDbEntity
  8
0
100
AcDbLine
 10
153.0
 20
602.826
 30
0.0
 11
154.152
 21
602.826
 31
0.0
  0
LINE
  5
584
330
1E
100
AcDbEntity
  8
0
100
AcDbLine
 10
216.5379999999999
 20
578.853
 30
0.0
 11
217.0279999999999
 21
578.853
 31
0.0
  0
LINE
  5
585
330
1E
100
AcDbEntity
  8
0
100
AcDbLine
 10
216.239
 20
578.853
 30
0.0
 11
216.5379999999999
 21
578.853
 31
0.0
  0
LINE
  5
586
330
1E
100
AcDbEntity
  8
0
100
AcDbLine
 10
216.5449999999999
 20
578.853
 30
0.0
 11
217.01
 21
578.853
 31
0.0
  0
LINE
  5
587
330
1E
100
AcDbEntity
  8
0
100
AcDbLine
 10
216.242
 20
578.853
 30
0.0
 11
216.5449999999999
 21
578.853
 31
0.0
  0
LINE
  5
588
330
1E
100
AcDbEntity
  8
0
100
AcDbLine
 10
217.0279999999999
 20
578.853
 30
0.0
 11
217.649
 21
578.853
 31
0.0
  0
LINE
  5
589
330
1E
100
AcDbEntity
  8
0
100
AcDbLine
 10
218.3629999999999
 20
578.853
 30
0.0
 11
219.1329999999999
 21
578.853
 31
0.0
  0
LINE
  5
58A
330
1E
100
AcDbEntity
  8
0
100
AcDbLine
 10
219.1329999999999
 20
578.853
 30
0.0
 11
219.903
 21
578.853
 31
0.0
  0
LINE
  5
58B
330
1E
100
AcDbEntity
  8
0
100
AcDbLine
 10
217.649
 20
578.853
 30
0.0
 11
218.3629999999999
 21
578.853
 31
0.0
  0
LINE
  5
58C
330
1E
100
AcDbEntity
  8
0
100
AcDbLine
 10
219.903
 20
578.853
 30
0.0
 11
220.642
 21
578.853
 31
0.0
  0
LINE
  5
58D
330
1E
100
AcDbEntity
  8
0
100
AcDbLine
 10
219.1459999999999
 20
578.853
 30
0.0
 11
219.916
 21
578.853
 31
0.0
  0
LINE
  5
58E
330
1E
100
AcDbEntity
  8
0
100
AcDbLine
 10
218.3759999999999
 20
578.853
 30
0.0
 11
219.1459999999999
 21
578.853
 31
0.0
  0
LINE
  5
58F
330
1E
100
AcDbEntity
  8
0
100
AcDbLine
 10
217.6379999999999
 20
578.853
 30
0.0
 11
218.3759999999999
 21
578.853
 31
0.0
  0
LINE
  5
590
330
1E
100
AcDbEntity
  8
0
100
AcDbLine
 10
217.01
 20
578.853
 30
0.0
 11
217.6379999999999
 21
578.853
 31
0.0
  0
LINE
  5
591
330
1E
100
AcDbEntity
  8
0
100
AcDbLine
 10
220.642
 20
578.853
 30
0.0
 11
221.27
 21
578.853
 31
0.0
  0
LINE
  5
592
330
1E
100
AcDbEntity
  8
0
100
AcDbLine
 10
219.916
 20
578.853
 30
0.0
 11
220.63
 21
578.853
 31
0.0
  0
LINE
  5
593
330
1E
100
AcDbEntity
  8
0
100
AcDbLine
 10
220.63
 20
578.853
 30
0.0
 11
221.2509999999999
 21
578.853
 31
0.0
  0
LINE
  5
594
330
1E
100
AcDbEntity
  8
0
100
AcDbLine
 10
221.27
 20
578.853
 30
0.0
 11
221.734
 21
578.853
 31
0.0
  0
LINE
  5
595
330
1E
100
AcDbEntity
  8
0
100
AcDbLine
 10
221.734
 20
578.853
 30
0.0
 11
222.0369999999999
 21
578.853
 31
0.0
  0
LINE
  5
596
330
1E
100
AcDbEntity
  8
0
100
AcDbLine
 10
221.2509999999999
 20
578.853
 30
0.0
 11
221.741
 21
578.853
 31
0.0
  0
LINE
  5
597
330
1E
100
AcDbEntity
  8
0
100
AcDbLine
 10
221.741
 20
578.853
 30
0.0
 11
222.04
 21
578.853
 31
0.0
  0
LINE
  5
598
330
1E
100
AcDbEntity
  8
0
100
AcDbLine
 10
257.9629999999999
 20
578.853
 30
0.0
 11
258.2659999999999
 21
578.853
 31
0.0
  0
LINE
  5
599
330
1E
100
AcDbEntity
  8
0
100
AcDbLine
 10
259.358
 20
578.853
 30
0.0
 11
260.0969999999999
 21
578.853
 31
0.0
  0
LINE
  5
59A
330
1E
100
AcDbEntity
  8
0
100
AcDbLine
 10
258.73
 20
578.853
 30
0.0
 11
259.358
 21
578.853
 31
0.0
  0
LINE
  5
59B
330
1E
100
AcDbEntity
  8
0
100
AcDbLine
 10
258.2659999999999
 20
578.853
 30
0.0
 11
258.73
 21
578.853
 31
0.0
  0
LINE
  5
59C
330
1E
100
AcDbEntity
  8
0
100
AcDbLine
 10
260.867
 20
578.853
 30
0.0
 11
261.6369999999999
 21
578.853
 31
0.0
  0
LINE
  5
59D
330
1E
100
AcDbEntity
  8
0
100
AcDbLine
 10
260.0969999999999
 20
578.853
 30
0.0
 11
260.867
 21
578.853
 31
0.0
  0
LINE
  5
59E
330
1E
100
AcDbEntity
  8
0
100
AcDbLine
 10
260.084
 20
578.853
 30
0.0
 11
260.854
 21
578.853
 31
0.0
  0
LINE
  5
59F
330
1E
100
AcDbEntity
  8
0
100
AcDbLine
 10
260.854
 20
578.853
 30
0.0
 11
261.624
 21
578.853
 31
0.0
  0
LINE
  5
5A0
330
1E
100
AcDbEntity
  8
0
100
AcDbLine
 10
261.6369999999999
 20
578.853
 30
0.0
 11
262.351
 21
578.853
 31
0.0
  0
LINE
  5
5A1
330
1E
100
AcDbEntity
  8
0
100
AcDbLine
 10
262.351
 20
578.853
 30
0.0
 11
262.9719999999999
 21
578.853
 31
0.0
  0
LINE
  5
5A2
330
1E
100
AcDbEntity
  8
0
100
AcDbLine
 10
262.9719999999999
 20
578.853
 30
0.0
 11
263.4619999999999
 21
578.853
 31
0.0
  0
LINE
  5
5A3
330
1E
100
AcDbEntity
  8
0
100
AcDbLine
 10
261.624
 20
578.853
 30
0.0
 11
262.362
 21
578.853
 31
0.0
  0
LINE
  5
5A4
330
1E
100
AcDbEntity
  8
0
100
AcDbLine
 10
262.362
 20
578.853
 30
0.0
 11
262.99
 21
578.853
 31
0.0
  0
LINE
  5
5A5
330
1E
100
AcDbEntity
  8
0
100
AcDbLine
 10
263.4619999999999
 20
578.853
 30
0.0
 11
263.7609999999999
 21
578.853
 31
0.0
  0
LINE
  5
5A6
330
1E
100
AcDbEntity
  8
0
100
AcDbLine
 10
263.7609999999999
 20
578.853
 30
0.0
 11
263.853
 21
578.853
 31
0.0
  0
LINE
  5
5A7
330
1E
100
AcDbEntity
  8
0
100
AcDbLine
 10
263.7579999999999
 20
578.853
 30
0.0
 11
263.853
 21
578.853
 31
0.0
  0
LINE
  5
5A8
330
1E
100
AcDbEntity
  8
0
100
AcDbLine
 10
262.99
 20
578.853
 30
0.0
 11
263.4549999999999
 21
578.853
 31
0.0
  0
LINE
  5
5A9
330
1E
100
AcDbEntity
  8
0
100
AcDbLine
 10
263.4549999999999
 20
578.853
 30
0.0
 11
263.7579999999999
 21
578.853
 31
0.0
  0
LINE
  5
5AA
330
1E
100
AcDbEntity
  8
0
100
AcDbLine
 10
259.37
 20
578.853
 30
0.0
 11
260.084
 21
578.853
 31
0.0
  0
LINE
  5
5AB
330
1E
100
AcDbEntity
  8
0
100
AcDbLine
 10
258.749
 20
578.853
 30
0.0
 11
259.37
 21
578.853
 31
0.0
  0
LINE
  5
5AC
330
1E
100
AcDbEntity
  8
0
100
AcDbLine
 10
258.259
 20
578.853
 30
0.0
 11
258.749
 21
578.853
 31
0.0
  0
LINE
  5
5AD
330
1E
100
AcDbEntity
  8
0
100
AcDbLine
 10
257.9599999999999
 20
578.853
 30
0.0
 11
258.259
 21
578.853
 31
0.0
  0
LINE
  5
5AE
330
1E
100
AcDbEntity
  8
0
100
AcDbLine
 10
257.8679999999999
 20
578.853
 30
0.0
 11
257.9629999999999
 21
578.853
 31
0.0
  0
LINE
  5
5AF
330
1E
100
AcDbEntity
  8
0
100
AcDbLine
 10
257.8679999999999
 20
578.853
 30
0.0
 11
257.9599999999999
 21
578.853
 31
0.0
  0
LINE
  5
5B0
330
1E
100
AcDbEntity
  8
0
100
AcDbLine
 10
257.8679999999999
 20
578.853
 30
0.0
 11
257.8679999999999
 21
580.0
 31
0.0
  0
LINE
  5
5B1
330
1E
100
AcDbEntity
  8
0
100
AcDbLine
 10
222.1319999999999
 20
578.853
 30
0.0
 11
222.1319999999999
 21
580.0
 31
0.0
  0
LINE
  5
5B2
330
1E
100
AcDbEntity
  8
0
100
AcDbLine
 10
222.04
 20
578.853
 30
0.0
 11
222.1319999999999
 21
578.853
 31
0.0
  0
LINE
  5
5B3
330
1E
100
AcDbEntity
  8
0
100
AcDbLine
 10
222.1319999999999
 20
580.0
 30
0.0
 11
257.8679999999999
 21
580.0
 31
0.0
  0
LINE
  5
5B4
330
1E
100
AcDbEntity
  8
0
100
AcDbLine
 10
222.1319999999999
 20
580.0
 30
0.0
 11
257.8679999999999
 21
580.0
 31
0.0
  0
LINE
  5
5B5
330
1E
100
AcDbEntity
  8
0
100
AcDbLine
 10
257.8679999999999
 20
580.0
 30
0.0
 11
257.8679999999999
 21
578.853
 31
0.0
  0
LINE
  5
5B6
330
1E
100
AcDbEntity
  8
0
100
AcDbLine
 10
222.1319999999999
 20
580.0
 30
0.0
 11
222.1319999999999
 21
578.853
 31
0.0
  0
LINE
  5
5B7
330
1E
100
AcDbEntity
  8
0
100
AcDbLine
 10
222.1319999999999
 20
580.0
 30
0.0
 11
257.8679999999999
 21
580.0
 31
0.0
  0
LINE
  5
5B8
330
1E
100
AcDbEntity
  8
0
100
AcDbLine
 10
222.0369999999999
 20
578.853
 30
0.0
 11
222.1319999999999
 21
578.853
 31
0.0
  0
LINE
  5
5B9
330
1E
100
AcDbEntity
  8
0
100
AcDbLine
 10
263.853
 20
580.0
 30
0.0
 11
263.853
 21
578.853
 31
0.0
  0
LINE
  5
5BA
330
1E
100
AcDbEntity
  8
0
100
AcDbLine
 10
263.853
 20
580.0
 30
0.0
 11
265.0
 21
580.0
 31
0.0
  0
LINE
  5
5BB
330
1E
100
AcDbEntity
  8
0
100
AcDbLine
 10
263.853
 20
580.0
 30
0.0
 11
265.0
 21
580.0
 31
0.0
  0
LINE
  5
5BC
330
1E
100
AcDbEntity
  8
0
100
AcDbLine
 10
263.853
 20
578.853
 30
0.0
 11
263.853
 21
580.0
 31
0.0
  0
LINE
  5
5BD
330
1E
100
AcDbEntity
  8
0
100
AcDbLine
 10
265.0
 20
580.0
 30
0.0
 11
265.0
 21
534.4999999999999
 31
0.0
  0
LINE
  5
5BE
330
1E
100
AcDbEntity
  8
0
100
AcDbLine
 10
263.7679999999999
 20
600.0
 30
0.0
 11
264.9199999999999
 21
600.0
 31
0.0
  0
LINE
  5
5BF
330
1E
100
AcDbEntity
  8
0
100
AcDbLine
 10
264.9199999999999
 20
600.0
 30
0.0
 11
267.992
 21
600.0
 31
0.0
  0
LINE
  5
5C0
330
1E
100
AcDbEntity
  8
0
100
AcDbLine
 10
288.3439999999999
 20
600.0
 30
0.0
 11
295.0
 21
600.0
 31
0.0
  0
LINE
  5
5C1
330
1E
100
AcDbEntity
  8
0
100
AcDbLine
 10
282.104
 20
600.0
 30
0.0
 11
288.3439999999999
 21
600.0
 31
0.0
  0
LINE
  5
5C2
330
1E
100
AcDbEntity
  8
0
100
AcDbLine
 10
276.5919999999999
 20
600.0
 30
0.0
 11
282.104
 21
600.0
 31
0.0
  0
LINE
  5
5C3
330
1E
100
AcDbEntity
  8
0
100
AcDbLine
 10
272.432
 20
600.0
 30
0.0
 11
276.5919999999999
 21
600.0
 31
0.0
  0
LINE
  5
5C4
330
1E
100
AcDbEntity
  8
0
100
AcDbLine
 10
269.9359999999999
 20
600.0
 30
0.0
 11
272.432
 21
600.0
 31
0.0
  0
LINE
  5
5C5
330
1E
100
AcDbEntity
  8
0
100
AcDbLine
 10
269.0
 20
600.0
 30
0.0
 11
269.9359999999999
 21
600.0
 31
0.0
  0
LINE
  5
5C6
330
1E
100
AcDbEntity
  8
0
100
AcDbLine
 10
269.0
 20
600.0
 30
0.0
 11
269.0
 21
595.0
 31
0.0
  0
LINE
  5
5C7
330
1E
100
AcDbEntity
  8
0
100
AcDbLine
 10
295.0
 20
600.0
 30
0.0
 11
301.656
 21
600.0
 31
0.0
  0
LINE
  5
5C8
330
1E
100
AcDbEntity
  8
0
100
AcDbLine
 10
301.656
 20
600.0
 30
0.0
 11
307.8959999999999
 21
600.0
 31
0.0
  0
LINE
  5
5C9
330
1E
100
AcDbEntity
  8
0
100
AcDbLine
 10
307.8959999999999
 20
600.0
 30
0.0
 11
313.408
 21
600.0
 31
0.0
  0
LINE
  5
5CA
330
1E
100
AcDbEntity
  8
0
100
AcDbLine
 10
269.0
 20
595.0
 30
0.0
 11
269.0
 21
600.0
 31
0.0
  0
LINE
  5
5CB
330
1E
100
AcDbEntity
  8
0
100
AcDbLine
 10
313.408
 20
600.0
 30
0.0
 11
317.5679999999999
 21
600.0
 31
0.0
  0
LINE
  5
5CC
330
1E
100
AcDbEntity
  8
0
100
AcDbLine
 10
317.5679999999999
 20
600.0
 30
0.0
 11
320.064
 21
600.0
 31
0.0
  0
LINE
  5
5CD
330
1E
100
AcDbEntity
  8
0
100
AcDbLine
 10
321.0
 20
595.0
 30
0.0
 11
321.0
 21
600.0
 31
0.0
  0
LINE
  5
5CE
330
1E
100
AcDbEntity
  8
0
100
AcDbLine
 10
320.064
 20
600.0
 30
0.0
 11
321.0
 21
600.0
 31
0.0
  0
LINE
  5
5CF
330
1E
100
AcDbEntity
  8
0
100
AcDbLine
 10
321.0
 20
600.0
 30
0.0
 11
321.0
 21
595.0
 31
0.0
  0
LINE
  5
5D0
330
1E
100
AcDbEntity
  8
0
100
AcDbLine
 10
326.239
 20
578.853
 30
0.0
 11
326.538
 21
578.853
 31
0.0
  0
LINE
  5
5D1
330
1E
100
AcDbEntity
  8
0
100
AcDbLine
 10
325.0
 20
580.0
 30
0.0
 11
326.147
 21
580.0
 31
0.0
  0
LINE
  5
5D2
330
1E
100
AcDbEntity
  8
0
100
AcDbLine
 10
325.0
 20
580.0
 30
0.0
 11
325.0
 21
534.4999999999999
 31
0.0
  0
LINE
  5
5D3
330
1E
100
AcDbEntity
  8
0
100
AcDbLine
 10
325.0
 20
580.0
 30
0.0
 11
326.147
 21
580.0
 31
0.0
  0
LINE
  5
5D4
330
1E
100
AcDbEntity
  8
0
100
AcDbLine
 10
326.147
 20
580.0
 30
0.0
 11
326.147
 21
578.853
 31
0.0
  0
LINE
  5
5D5
330
1E
100
AcDbEntity
  8
0
100
AcDbLine
 10
326.147
 20
578.853
 30
0.0
 11
326.242
 21
578.853
 31
0.0
  0
LINE
  5
5D6
330
1E
100
AcDbEntity
  8
0
100
AcDbLine
 10
326.147
 20
578.853
 30
0.0
 11
326.239
 21
578.853
 31
0.0
  0
LINE
  5
5D7
330
1E
100
AcDbEntity
  8
0
100
AcDbLine
 10
326.147
 20
578.853
 30
0.0
 11
326.147
 21
580.0
 31
0.0
  0
LINE
  5
5D8
330
1E
100
AcDbEntity
  8
0
100
AcDbLine
 10
326.538
 20
578.853
 30
0.0
 11
327.028
 21
578.853
 31
0.0
  0
LINE
  5
5D9
330
1E
100
AcDbEntity
  8
0
100
AcDbLine
 10
326.545
 20
578.853
 30
0.0
 11
327.0099999999999
 21
578.853
 31
0.0
  0
LINE
  5
5DA
330
1E
100
AcDbEntity
  8
0
100
AcDbLine
 10
326.242
 20
578.853
 30
0.0
 11
326.545
 21
578.853
 31
0.0
  0
LINE
  5
5DB
330
1E
100
AcDbEntity
  8
0
100
AcDbLine
 10
325.0799999999999
 20
600.0
 30
0.0
 11
326.232
 21
600.0
 31
0.0
  0
LINE
  5
5DC
330
1E
100
AcDbEntity
  8
0
100
AcDbLine
 10
322.0079999999999
 20
600.0
 30
0.0
 11
325.0799999999999
 21
600.0
 31
0.0
  0
LINE
  5
5DD
330
1E
100
AcDbEntity
  8
0
100
AcDbLine
 10
317.0159999999999
 20
600.0
 30
0.0
 11
322.0079999999999
 21
600.0
 31
0.0
  0
LINE
  5
5DE
330
1E
100
AcDbEntity
  8
0
100
AcDbLine
 10
310.488
 20
600.0
 30
0.0
 11
317.0159999999999
 21
600.0
 31
0.0
  0
LINE
  5
5DF
330
1E
100
AcDbEntity
  8
0
100
AcDbLine
 10
303.064
 20
600.0
 30
0.0
 11
310.488
 21
600.0
 31
0.0
  0
LINE
  5
5E0
330
1E
100
AcDbEntity
  8
0
100
AcDbLine
 10
267.992
 20
600.0
 30
0.0
 11
269.0
 21
600.0
 31
0.0
  0
LINE
  5
5E1
330
1E
100
AcDbEntity
  8
0
100
AcDbLine
 10
264.1519999999999
 20
600.1739999999999
 30
0.0
 11
267.2239999999999
 21
600.1739999999999
 31
0.0
  0
LINE
  5
5E2
330
1E
100
AcDbEntity
  8
0
100
AcDbLine
 10
267.2239999999999
 20
600.1739999999999
 30
0.0
 11
272.344
 21
600.1739999999999
 31
0.0
  0
LINE
  5
5E3
330
1E
100
AcDbEntity
  8
0
100
AcDbLine
 10
272.344
 20
600.1739999999999
 30
0.0
 11
279.1279999999999
 21
600.1739999999999
 31
0.0
  0
LINE
  5
5E4
330
1E
100
AcDbEntity
  8
0
100
AcDbLine
 10
279.1279999999999
 20
600.1739999999999
 30
0.0
 11
286.8079999999999
 21
600.1739999999999
 31
0.0
  0
LINE
  5
5E5
330
1E
100
AcDbEntity
  8
0
100
AcDbLine
 10
286.8079999999999
 20
600.1739999999999
 30
0.0
 11
295.0
 21
600.1739999999999
 31
0.0
  0
LINE
  5
5E6
330
1E
100
AcDbEntity
  8
0
100
AcDbLine
 10
325.848
 20
600.1739999999999
 30
0.0
 11
327.0
 21
600.1739999999999
 31
0.0
  0
LINE
  5
5E7
330
1E
100
AcDbEntity
  8
0
100
AcDbLine
 10
327.0
 20
600.1739999999999
 30
0.0
 11
327.0
 21
602.826
 31
0.0
  0
LINE
  5
5E8
330
1E
100
AcDbEntity
  8
0
100
AcDbLine
 10
322.7759999999999
 20
600.1739999999999
 30
0.0
 11
325.848
 21
600.1739999999999
 31
0.0
  0
LINE
  5
5E9
330
1E
100
AcDbEntity
  8
0
100
AcDbLine
 10
317.656
 20
600.1739999999999
 30
0.0
 11
322.7759999999999
 21
600.1739999999999
 31
0.0
  0
LINE
  5
5EA
330
1E
100
AcDbEntity
  8
0
100
AcDbLine
 10
310.872
 20
600.1739999999999
 30
0.0
 11
317.656
 21
600.1739999999999
 31
0.0
  0
LINE
  5
5EB
330
1E
100
AcDbEntity
  8
0
100
AcDbLine
 10
303.1919999999999
 20
600.1739999999999
 30
0.0
 11
310.872
 21
600.1739999999999
 31
0.0
  0
LINE
  5
5EC
330
1E
100
AcDbEntity
  8
0
100
AcDbLine
 10
264.1519999999999
 20
602.826
 30
0.0
 11
267.2239999999999
 21
602.826
 31
0.0
  0
LINE
  5
5ED
330
1E
100
AcDbEntity
  8
0
100
AcDbLine
 10
267.2239999999999
 20
602.826
 30
0.0
 11
272.344
 21
602.826
 31
0.0
  0
LINE
  5
5EE
330
1E
100
AcDbEntity
  8
0
100
AcDbLine
 10
272.344
 20
602.826
 30
0.0
 11
279.1279999999999
 21
602.826
 31
0.0
  0
LINE
  5
5EF
330
1E
100
AcDbEntity
  8
0
100
AcDbLine
 10
279.1279999999999
 20
602.826
 30
0.0
 11
286.8079999999999
 21
602.826
 31
0.0
  0
LINE
  5
5F0
330
1E
100
AcDbEntity
  8
0
100
AcDbLine
 10
286.8079999999999
 20
602.826
 30
0.0
 11
295.0
 21
602.826
 31
0.0
  0
LINE
  5
5F1
330
1E
100
AcDbEntity
  8
0
100
AcDbLine
 10
325.848
 20
602.826
 30
0.0
 11
327.0
 21
602.826
 31
0.0
  0
LINE
  5
5F2
330
1E
100
AcDbEntity
  8
0
100
AcDbLine
 10
322.7759999999999
 20
602.826
 30
0.0
 11
325.848
 21
602.826
 31
0.0
  0
LINE
  5
5F3
330
1E
100
AcDbEntity
  8
0
100
AcDbLine
 10
317.656
 20
602.826
 30
0.0
 11
322.7759999999999
 21
602.826
 31
0.0
  0
LINE
  5
5F4
330
1E
100
AcDbEntity
  8
0
100
AcDbLine
 10
310.872
 20
602.826
 30
0.0
 11
317.656
 21
602.826
 31
0.0
  0
LINE
  5
5F5
330
1E
100
AcDbEntity
  8
0
100
AcDbLine
 10
303.1919999999999
 20
602.826
 30
0.0
 11
310.872
 21
602.826
 31
0.0
  0
LINE
  5
5F6
330
1E
100
AcDbEntity
  8
0
100
AcDbLine
 10
295.0
 20
602.826
 30
0.0
 11
303.1919999999999
 21
602.826
 31
0.0
  0
LINE
  5
5F7
330
1E
100
AcDbEntity
  8
0
100
AcDbLine
 10
295.0
 20
600.1739999999999
 30
0.0
 11
303.1919999999999
 21
600.1739999999999
 31
0.0
  0
LINE
  5
5F8
330
1E
100
AcDbEntity
  8
0
100
AcDbLine
 10
263.0
 20
600.1739999999999
 30
0.0
 11
263.0
 21
602.826
 31
0.0
  0
LINE
  5
5F9
330
1E
100
AcDbEntity
  8
0
100
AcDbLine
 10
263.0
 20
600.1739999999999
 30
0.0
 11
263.7679999999999
 21
600.0
 31
0.0
  0
LINE
  5
5FA
330
1E
100
AcDbEntity
  8
0
100
AcDbLine
 10
263.0
 20
600.1739999999999
 30
0.0
 11
264.1519999999999
 21
600.1739999999999
 31
0.0
  0
LINE
  5
5FB
330
1E
100
AcDbEntity
  8
0
100
AcDbLine
 10
326.232
 20
600.0
 30
0.0
 11
327.0
 21
600.1739999999999
 31
0.0
  0
LINE
  5
5FC
330
1E
100
AcDbEntity
  8
0
100
AcDbLine
 10
327.028
 20
578.853
 30
0.0
 11
327.6489999999999
 21
578.853
 31
0.0
  0
LINE
  5
5FD
330
1E
100
AcDbEntity
  8
0
100
AcDbLine
 10
328.363
 20
578.853
 30
0.0
 11
329.133
 21
578.853
 31
0.0
  0
LINE
  5
5FE
330
1E
100
AcDbEntity
  8
0
100
AcDbLine
 10
329.133
 20
578.853
 30
0.0
 11
329.903
 21
578.853
 31
0.0
  0
LINE
  5
5FF
330
1E
100
AcDbEntity
  8
0
100
AcDbLine
 10
327.6489999999999
 20
578.853
 30
0.0
 11
328.363
 21
578.853
 31
0.0
  0
LINE
  5
600
330
1E
100
AcDbEntity
  8
0
100
AcDbLine
 10
329.903
 20
578.853
 30
0.0
 11
330.642
 21
578.853
 31
0.0
  0
LINE
  5
601
330
1E
100
AcDbEntity
  8
0
100
AcDbLine
 10
329.1459999999999
 20
578.853
 30
0.0
 11
329.916
 21
578.853
 31
0.0
  0
LINE
  5
602
330
1E
100
AcDbEntity
  8
0
100
AcDbLine
 10
328.376
 20
578.853
 30
0.0
 11
329.1459999999999
 21
578.853
 31
0.0
  0
LINE
  5
603
330
1E
100
AcDbEntity
  8
0
100
AcDbLine
 10
327.6379999999999
 20
578.853
 30
0.0
 11
328.376
 21
578.853
 31
0.0
  0
LINE
  5
604
330
1E
100
AcDbEntity
  8
0
100
AcDbLine
 10
327.0099999999999
 20
578.853
 30
0.0
 11
327.6379999999999
 21
578.853
 31
0.0
  0
LINE
  5
605
330
1E
100
AcDbEntity
  8
0
100
AcDbLine
 10
330.642
 20
578.853
 30
0.0
 11
331.2699999999999
 21
578.853
 31
0.0
  0
LINE
  5
606
330
1E
100
AcDbEntity
  8
0
100
AcDbLine
 10
329.916
 20
578.853
 30
0.0
 11
330.63
 21
578.853
 31
0.0
  0
LINE
  5
607
330
1E
100
AcDbEntity
  8
0
100
AcDbLine
 10
330.63
 20
578.853
 30
0.0
 11
331.2509999999999
 21
578.853
 31
0.0
  0
LINE
  5
608
330
1E
100
AcDbEntity
  8
0
100
AcDbLine
 10
331.2699999999999
 20
578.853
 30
0.0
 11
331.734
 21
578.853
 31
0.0
  0
LINE
  5
609
330
1E
100
AcDbEntity
  8
0
100
AcDbLine
 10
331.734
 20
578.853
 30
0.0
 11
332.037
 21
578.853
 31
0.0
  0
LINE
  5
60A
330
1E
100
AcDbEntity
  8
0
100
AcDbLine
 10
331.2509999999999
 20
578.853
 30
0.0
 11
331.7409999999999
 21
578.853
 31
0.0
  0
LINE
  5
60B
330
1E
100
AcDbEntity
  8
0
100
AcDbLine
 10
331.7409999999999
 20
578.853
 30
0.0
 11
332.04
 21
578.853
 31
0.0
  0
LINE
  5
60C
330
1E
100
AcDbEntity
  8
0
100
AcDbLine
 10
367.963
 20
578.853
 30
0.0
 11
368.2659999999999
 21
578.853
 31
0.0
  0
LINE
  5
60D
330
1E
100
AcDbEntity
  8
0
100
AcDbLine
 10
369.358
 20
578.853
 30
0.0
 11
370.0969999999999
 21
578.853
 31
0.0
  0
LINE
  5
60E
330
1E
100
AcDbEntity
  8
0
100
AcDbLine
 10
368.73
 20
578.853
 30
0.0
 11
369.358
 21
578.853
 31
0.0
  0
LINE
  5
60F
330
1E
100
AcDbEntity
  8
0
100
AcDbLine
 10
368.2659999999999
 20
578.853
 30
0.0
 11
368.73
 21
578.853
 31
0.0
  0
LINE
  5
610
330
1E
100
AcDbEntity
  8
0
100
AcDbLine
 10
370.8669999999999
 20
578.853
 30
0.0
 11
371.6369999999999
 21
578.853
 31
0.0
  0
LINE
  5
611
330
1E
100
AcDbEntity
  8
0
100
AcDbLine
 10
370.0969999999999
 20
578.853
 30
0.0
 11
370.8669999999999
 21
578.853
 31
0.0
  0
LINE
  5
612
330
1E
100
AcDbEntity
  8
0
100
AcDbLine
 10
370.0839999999999
 20
578.853
 30
0.0
 11
370.854
 21
578.853
 31
0.0
  0
LINE
  5
613
330
1E
100
AcDbEntity
  8
0
100
AcDbLine
 10
370.854
 20
578.853
 30
0.0
 11
371.624
 21
578.853
 31
0.0
  0
LINE
  5
614
330
1E
100
AcDbEntity
  8
0
100
AcDbLine
 10
371.6369999999999
 20
578.853
 30
0.0
 11
372.351
 21
578.853
 31
0.0
  0
LINE
  5
615
330
1E
100
AcDbEntity
  8
0
100
AcDbLine
 10
372.351
 20
578.853
 30
0.0
 11
372.9719999999999
 21
578.853
 31
0.0
  0
LINE
  5
616
330
1E
100
AcDbEntity
  8
0
100
AcDbLine
 10
372.9719999999999
 20
578.853
 30
0.0
 11
373.462
 21
578.853
 31
0.0
  0
LINE
  5
617
330
1E
100
AcDbEntity
  8
0
100
AcDbLine
 10
371.624
 20
578.853
 30
0.0
 11
372.3619999999999
 21
578.853
 31
0.0
  0
LINE
  5
618
330
1E
100
AcDbEntity
  8
0
100
AcDbLine
 10
372.3619999999999
 20
578.853
 30
0.0
 11
372.99
 21
578.853
 31
0.0
  0
LINE
  5
619
330
1E
100
AcDbEntity
  8
0
100
AcDbLine
 10
373.462
 20
578.853
 30
0.0
 11
373.7609999999999
 21
578.853
 31
0.0
  0
LINE
  5
61A
330
1E
100
AcDbEntity
  8
0
100
AcDbLine
 10
373.7609999999999
 20
578.853
 30
0.0
 11
373.853
 21
578.853
 31
0.0
  0
LINE
  5
61B
330
1E
100
AcDbEntity
  8
0
100
AcDbLine
 10
373.758
 20
578.853
 30
0.0
 11
373.853
 21
578.853
 31
0.0
  0
LINE
  5
61C
330
1E
100
AcDbEntity
  8
0
100
AcDbLine
 10
372.99
 20
578.853
 30
0.0
 11
373.455
 21
578.853
 31
0.0
  0
LINE
  5
61D
330
1E
100
AcDbEntity
  8
0
100
AcDbLine
 10
373.455
 20
578.853
 30
0.0
 11
373.758
 21
578.853
 31
0.0
  0
LINE
  5
61E
330
1E
100
AcDbEntity
  8
0
100
AcDbLine
 10
369.37
 20
578.853
 30
0.0
 11
370.0839999999999
 21
578.853
 31
0.0
  0
LINE
  5
61F
330
1E
100
AcDbEntity
  8
0
100
AcDbLine
 10
368.749
 20
578.853
 30
0.0
 11
369.37
 21
578.853
 31
0.0
  0
LINE
  5
620
330
1E
100
AcDbEntity
  8
0
100
AcDbLine
 10
368.259
 20
578.853
 30
0.0
 11
368.749
 21
578.853
 31
0.0
  0
LINE
  5
621
330
1E
100
AcDbEntity
  8
0
100
AcDbLine
 10
367.9599999999999
 20
578.853
 30
0.0
 11
368.259
 21
578.853
 31
0.0
  0
LINE
  5
622
330
1E
100
AcDbEntity
  8
0
100
AcDbLine
 10
367.868
 20
578.853
 30
0.0
 11
367.963
 21
578.853
 31
0.0
  0
LINE
  5
623
330
1E
100
AcDbEntity
  8
0
100
AcDbLine
 10
367.868
 20
578.853
 30
0.0
 11
367.9599999999999
 21
578.853
 31
0.0
  0
LINE
  5
624
330
1E
100
AcDbEntity
  8
0
100
AcDbLine
 10
367.868
 20
578.853
 30
0.0
 11
367.868
 21
580.0
 31
0.0
  0
LINE
  5
625
330
1E
100
AcDbEntity
  8
0
100
AcDbLine
 10
332.1319999999999
 20
578.853
 30
0.0
 11
332.1319999999999
 21
580.0
 31
0.0
  0
LINE
  5
626
330
1E
100
AcDbEntity
  8
0
100
AcDbLine
 10
332.04
 20
578.853
 30
0.0
 11
332.1319999999999
 21
578.853
 31
0.0
  0
LINE
  5
627
330
1E
100
AcDbEntity
  8
0
100
AcDbLine
 10
332.1319999999999
 20
580.0
 30
0.0
 11
367.868
 21
580.0
 31
0.0
  0
LINE
  5
628
330
1E
100
AcDbEntity
  8
0
100
AcDbLine
 10
367.868
 20
580.0
 30
0.0
 11
367.868
 21
578.853
 31
0.0
  0
LINE
  5
629
330
1E
100
AcDbEntity
  8
0
100
AcDbLine
 10
332.1319999999999
 20
580.0
 30
0.0
 11
332.1319999999999
 21
578.853
 31
0.0
  0
LINE
  5
62A
330
1E
100
AcDbEntity
  8
0
100
AcDbLine
 10
332.1319999999999
 20
580.0
 30
0.0
 11
367.868
 21
580.0
 31
0.0
  0
LINE
  5
62B
330
1E
100
AcDbEntity
  8
0
100
AcDbLine
 10
332.037
 20
578.853
 30
0.0
 11
332.1319999999999
 21
578.853
 31
0.0
  0
LINE
  5
62C
330
1E
100
AcDbEntity
  8
0
100
AcDbLine
 10
373.853
 20
580.0
 30
0.0
 11
373.853
 21
578.853
 31
0.0
  0
LINE
  5
62D
330
1E
100
AcDbEntity
  8
0
100
AcDbLine
 10
373.853
 20
580.0
 30
0.0
 11
375.0
 21
580.0
 31
0.0
  0
LINE
  5
62E
330
1E
100
AcDbEntity
  8
0
100
AcDbLine
 10
373.853
 20
578.853
 30
0.0
 11
373.853
 21
580.0
 31
0.0
  0
LINE
  5
62F
330
1E
100
AcDbEntity
  8
0
100
AcDbLine
 10
375.0
 20
580.0
 30
0.0
 11
375.0
 21
534.4999999999999
 31
0.0
  0
LINE
  5
630
330
1E
100
AcDbEntity
  8
0
100
AcDbLine
 10
373.768
 20
600.0
 30
0.0
 11
374.92
 21
600.0
 31
0.0
  0
LINE
  5
631
330
1E
100
AcDbEntity
  8
0
100
AcDbLine
 10
374.92
 20
600.0
 30
0.0
 11
377.9919999999999
 21
600.0
 31
0.0
  0
LINE
  5
632
330
1E
100
AcDbEntity
  8
0
100
AcDbLine
 10
398.3439999999999
 20
600.0
 30
0.0
 11
405.0
 21
600.0
 31
0.0
  0
LINE
  5
633
330
1E
100
AcDbEntity
  8
0
100
AcDbLine
 10
392.104
 20
600.0
 30
0.0
 11
398.3439999999999
 21
600.0
 31
0.0
  0
LINE
  5
634
330
1E
100
AcDbEntity
  8
0
100
AcDbLine
 10
386.592
 20
600.0
 30
0.0
 11
392.104
 21
600.0
 31
0.0
  0
LINE
  5
635
330
1E
100
AcDbEntity
  8
0
100
AcDbLine
 10
382.4319999999999
 20
600.0
 30
0.0
 11
386.592
 21
600.0
 31
0.0
  0
LINE
  5
636
330
1E
100
AcDbEntity
  8
0
100
AcDbLine
 10
379.936
 20
600.0
 30
0.0
 11
382.4319999999999
 21
600.0
 31
0.0
  0
LINE
  5
637
330
1E
100
AcDbEntity
  8
0
100
AcDbLine
 10
379.0
 20
600.0
 30
0.0
 11
379.936
 21
600.0
 31
0.0
  0
LINE
  5
638
330
1E
100
AcDbEntity
  8
0
100
AcDbLine
 10
379.0
 20
600.0
 30
0.0
 11
379.0
 21
595.0
 31
0.0
  0
LINE
  5
639
330
1E
100
AcDbEntity
  8
0
100
AcDbLine
 10
405.0
 20
600.0
 30
0.0
 11
411.6559999999999
 21
600.0
 31
0.0
  0
LINE
  5
63A
330
1E
100
AcDbEntity
  8
0
100
AcDbLine
 10
411.6559999999999
 20
600.0
 30
0.0
 11
417.896
 21
600.0
 31
0.0
  0
LINE
  5
63B
330
1E
100
AcDbEntity
  8
0
100
AcDbLine
 10
417.896
 20
600.0
 30
0.0
 11
423.408
 21
600.0
 31
0.0
  0
LINE
  5
63C
330
1E
100
AcDbEntity
  8
0
100
AcDbLine
 10
379.0
 20
595.0
 30
0.0
 11
379.0
 21
600.0
 31
0.0
  0
LINE
  5
63D
330
1E
100
AcDbEntity
  8
0
100
AcDbLine
 10
423.408
 20
600.0
 30
0.0
 11
427.568
 21
600.0
 31
0.0
  0
LINE
  5
63E
330
1E
100
AcDbEntity
  8
0
100
AcDbLine
 10
427.568
 20
600.0
 30
0.0
 11
430.064
 21
600.0
 31
0.0
  0
LINE
  5
63F
330
1E
100
AcDbEntity
  8
0
100
AcDbLine
 10
431.0
 20
595.0
 30
0.0
 11
431.0
 21
600.0
 31
0.0
  0
LINE
  5
640
330
1E
100
AcDbEntity
  8
0
100
AcDbLine
 10
430.064
 20
600.0
 30
0.0
 11
431.0
 21
600.0
 31
0.0
  0
LINE
  5
641
330
1E
100
AcDbEntity
  8
0
100
AcDbLine
 10
431.0
 20
600.0
 30
0.0
 11
431.0
 21
595.0
 31
0.0
  0
LINE
  5
642
330
1E
100
AcDbEntity
  8
0
100
AcDbLine
 10
436.538
 20
578.853
 30
0.0
 11
437.028
 21
578.853
 31
0.0
  0
LINE
  5
643
330
1E
100
AcDbEntity
  8
0
100
AcDbLine
 10
436.239
 20
578.853
 30
0.0
 11
436.538
 21
578.853
 31
0.0
  0
LINE
  5
644
330
1E
100
AcDbEntity
  8
0
100
AcDbLine
 10
436.1469999999999
 20
578.853
 30
0.0
 11
436.2419999999999
 21
578.853
 31
0.0
  0
LINE
  5
645
330
1E
100
AcDbEntity
  8
0
100
AcDbLine
 10
436.1469999999999
 20
578.853
 30
0.0
 11
436.239
 21
578.853
 31
0.0
  0
LINE
  5
646
330
1E
100
AcDbEntity
  8
0
100
AcDbLine
 10
436.1469999999999
 20
578.853
 30
0.0
 11
436.1469999999999
 21
580.0
 31
0.0
  0
LINE
  5
647
330
1E
100
AcDbEntity
  8
0
100
AcDbLine
 10
437.028
 20
578.853
 30
0.0
 11
437.649
 21
578.853
 31
0.0
  0
LINE
  5
648
330
1E
100
AcDbEntity
  8
0
100
AcDbLine
 10
438.3630000000001
 20
578.853
 30
0.0
 11
439.133
 21
578.853
 31
0.0
  0
LINE
  5
649
330
1E
100
AcDbEntity
  8
0
100
AcDbLine
 10
439.133
 20
578.853
 30
0.0
 11
439.903
 21
578.853
 31
0.0
  0
LINE
  5
64A
330
1E
100
AcDbEntity
  8
0
100
AcDbLine
 10
437.649
 20
578.853
 30
0.0
 11
438.3630000000001
 21
578.853
 31
0.0
  0
LINE
  5
64B
330
1E
100
AcDbEntity
  8
0
100
AcDbLine
 10
439.903
 20
578.853
 30
0.0
 11
440.6419999999999
 21
578.853
 31
0.0
  0
LINE
  5
64C
330
1E
100
AcDbEntity
  8
0
100
AcDbLine
 10
439.1459999999999
 20
578.853
 30
0.0
 11
439.916
 21
578.853
 31
0.0
  0
LINE
  5
64D
330
1E
100
AcDbEntity
  8
0
100
AcDbLine
 10
438.3759999999999
 20
578.853
 30
0.0
 11
439.1459999999999
 21
578.853
 31
0.0
  0
LINE
  5
64E
330
1E
100
AcDbEntity
  8
0
100
AcDbLine
 10
437.638
 20
578.853
 30
0.0
 11
438.3759999999999
 21
578.853
 31
0.0
  0
LINE
  5
64F
330
1E
100
AcDbEntity
  8
0
100
AcDbLine
 10
437.0099999999999
 20
578.853
 30
0.0
 11
437.638
 21
578.853
 31
0.0
  0
LINE
  5
650
330
1E
100
AcDbEntity
  8
0
100
AcDbLine
 10
436.545
 20
578.853
 30
0.0
 11
437.0099999999999
 21
578.853
 31
0.0
  0
LINE
  5
651
330
1E
100
AcDbEntity
  8
0
100
AcDbLine
 10
436.2419999999999
 20
578.853
 30
0.0
 11
436.545
 21
578.853
 31
0.0
  0
LINE
  5
652
330
1E
100
AcDbEntity
  8
0
100
AcDbLine
 10
440.6419999999999
 20
578.853
 30
0.0
 11
441.27
 21
578.853
 31
0.0
  0
LINE
  5
653
330
1E
100
AcDbEntity
  8
0
100
AcDbLine
 10
439.916
 20
578.853
 30
0.0
 11
440.6299999999999
 21
578.853
 31
0.0
  0
LINE
  5
654
330
1E
100
AcDbEntity
  8
0
100
AcDbLine
 10
440.6299999999999
 20
578.853
 30
0.0
 11
441.251
 21
578.853
 31
0.0
  0
LINE
  5
655
330
1E
100
AcDbEntity
  8
0
100
AcDbLine
 10
441.27
 20
578.853
 30
0.0
 11
441.734
 21
578.853
 31
0.0
  0
LINE
  5
656
330
1E
100
AcDbEntity
  8
0
100
AcDbLine
 10
441.734
 20
578.853
 30
0.0
 11
442.037
 21
578.853
 31
0.0
  0
LINE
  5
657
330
1E
100
AcDbEntity
  8
0
100
AcDbLine
 10
441.251
 20
578.853
 30
0.0
 11
441.741
 21
578.853
 31
0.0
  0
LINE
  5
658
330
1E
100
AcDbEntity
  8
0
100
AcDbLine
 10
435.0
 20
580.0
 30
0.0
 11
435.0
 21
534.4999999999999
 31
0.0
  0
LINE
  5
659
330
1E
100
AcDbEntity
  8
0
100
AcDbLine
 10
435.0
 20
580.0
 30
0.0
 11
436.1469999999999
 21
580.0
 31
0.0
  0
LINE
  5
65A
330
1E
100
AcDbEntity
  8
0
100
AcDbLine
 10
436.1469999999999
 20
580.0
 30
0.0
 11
436.1469999999999
 21
578.853
 31
0.0
  0
LINE
  5
65B
330
1E
100
AcDbEntity
  8
0
100
AcDbLine
 10
441.741
 20
578.853
 30
0.0
 11
442.0399999999999
 21
578.853
 31
0.0
  0
LINE
  5
65C
330
1E
100
AcDbEntity
  8
0
100
AcDbLine
 10
478.73
 20
578.853
 30
0.0
 11
479.358
 21
578.853
 31
0.0
  0
LINE
  5
65D
330
1E
100
AcDbEntity
  8
0
100
AcDbLine
 10
478.2659999999999
 20
578.853
 30
0.0
 11
478.73
 21
578.853
 31
0.0
  0
LINE
  5
65E
330
1E
100
AcDbEntity
  8
0
100
AcDbLine
 10
477.963
 20
578.853
 30
0.0
 11
478.2659999999999
 21
578.853
 31
0.0
  0
LINE
  5
65F
330
1E
100
AcDbEntity
  8
0
100
AcDbLine
 10
480.0969999999999
 20
578.853
 30
0.0
 11
480.8669999999999
 21
578.853
 31
0.0
  0
LINE
  5
660
330
1E
100
AcDbEntity
  8
0
100
AcDbLine
 10
479.358
 20
578.853
 30
0.0
 11
480.0969999999999
 21
578.853
 31
0.0
  0
LINE
  5
661
330
1E
100
AcDbEntity
  8
0
100
AcDbLine
 10
480.0839999999999
 20
578.853
 30
0.0
 11
480.854
 21
578.853
 31
0.0
  0
LINE
  5
662
330
1E
100
AcDbEntity
  8
0
100
AcDbLine
 10
480.8669999999999
 20
578.853
 30
0.0
 11
481.6369999999999
 21
578.853
 31
0.0
  0
LINE
  5
663
330
1E
100
AcDbEntity
  8
0
100
AcDbLine
 10
481.6369999999999
 20
578.853
 30
0.0
 11
482.3509999999999
 21
578.853
 31
0.0
  0
LINE
  5
664
330
1E
100
AcDbEntity
  8
0
100
AcDbLine
 10
482.3509999999999
 20
578.853
 30
0.0
 11
482.972
 21
578.853
 31
0.0
  0
LINE
  5
665
330
1E
100
AcDbEntity
  8
0
100
AcDbLine
 10
480.854
 20
578.853
 30
0.0
 11
481.624
 21
578.853
 31
0.0
  0
LINE
  5
666
330
1E
100
AcDbEntity
  8
0
100
AcDbLine
 10
481.624
 20
578.853
 30
0.0
 11
482.362
 21
578.853
 31
0.0
  0
LINE
  5
667
330
1E
100
AcDbEntity
  8
0
100
AcDbLine
 10
482.972
 20
578.853
 30
0.0
 11
483.462
 21
578.853
 31
0.0
  0
LINE
  5
668
330
1E
100
AcDbEntity
  8
0
100
AcDbLine
 10
482.362
 20
578.853
 30
0.0
 11
482.99
 21
578.853
 31
0.0
  0
LINE
  5
669
330
1E
100
AcDbEntity
  8
0
100
AcDbLine
 10
482.99
 20
578.853
 30
0.0
 11
483.455
 21
578.853
 31
0.0
  0
LINE
  5
66A
330
1E
100
AcDbEntity
  8
0
100
AcDbLine
 10
483.462
 20
578.853
 30
0.0
 11
483.7609999999999
 21
578.853
 31
0.0
  0
LINE
  5
66B
330
1E
100
AcDbEntity
  8
0
100
AcDbLine
 10
483.7609999999999
 20
578.853
 30
0.0
 11
483.853
 21
578.853
 31
0.0
  0
LINE
  5
66C
330
1E
100
AcDbEntity
  8
0
100
AcDbLine
 10
483.758
 20
578.853
 30
0.0
 11
483.853
 21
578.853
 31
0.0
  0
LINE
  5
66D
330
1E
100
AcDbEntity
  8
0
100
AcDbLine
 10
483.455
 20
578.853
 30
0.0
 11
483.758
 21
578.853
 31
0.0
  0
LINE
  5
66E
330
1E
100
AcDbEntity
  8
0
100
AcDbLine
 10
479.37
 20
578.853
 30
0.0
 11
480.0839999999999
 21
578.853
 31
0.0
  0
LINE
  5
66F
330
1E
100
AcDbEntity
  8
0
100
AcDbLine
 10
478.749
 20
578.853
 30
0.0
 11
479.37
 21
578.853
 31
0.0
  0
LINE
  5
670
330
1E
100
AcDbEntity
  8
0
100
AcDbLine
 10
478.2589999999999
 20
578.853
 30
0.0
 11
478.749
 21
578.853
 31
0.0
  0
LINE
  5
671
330
1E
100
AcDbEntity
  8
0
100
AcDbLine
 10
477.96
 20
578.853
 30
0.0
 11
478.2589999999999
 21
578.853
 31
0.0
  0
LINE
  5
672
330
1E
100
AcDbEntity
  8
0
100
AcDbLine
 10
477.868
 20
578.853
 30
0.0
 11
477.963
 21
578.853
 31
0.0
  0
LINE
  5
673
330
1E
100
AcDbEntity
  8
0
100
AcDbLine
 10
477.868
 20
578.853
 30
0.0
 11
477.96
 21
578.853
 31
0.0
  0
LINE
  5
674
330
1E
100
AcDbEntity
  8
0
100
AcDbLine
 10
477.868
 20
578.853
 30
0.0
 11
477.868
 21
580.0
 31
0.0
  0
LINE
  5
675
330
1E
100
AcDbEntity
  8
0
100
AcDbLine
 10
442.1319999999999
 20
578.853
 30
0.0
 11
442.1319999999999
 21
580.0
 31
0.0
  0
LINE
  5
676
330
1E
100
AcDbEntity
  8
0
100
AcDbLine
 10
477.868
 20
580.0
 30
0.0
 11
477.868
 21
578.853
 31
0.0
  0
LINE
  5
677
330
1E
100
AcDbEntity
  8
0
100
AcDbLine
 10
442.1319999999999
 20
580.0
 30
0.0
 11
442.1319999999999
 21
578.853
 31
0.0
  0
LINE
  5
678
330
1E
100
AcDbEntity
  8
0
100
AcDbLine
 10
442.1319999999999
 20
580.0
 30
0.0
 11
477.868
 21
580.0
 31
0.0
  0
LINE
  5
679
330
1E
100
AcDbEntity
  8
0
100
AcDbLine
 10
442.0399999999999
 20
578.853
 30
0.0
 11
442.1319999999999
 21
578.853
 31
0.0
  0
LINE
  5
67A
330
1E
100
AcDbEntity
  8
0
100
AcDbLine
 10
442.037
 20
578.853
 30
0.0
 11
442.1319999999999
 21
578.853
 31
0.0
  0
LINE
  5
67B
330
1E
100
AcDbEntity
  8
0
100
AcDbLine
 10
435.0799999999999
 20
600.0
 30
0.0
 11
436.2319999999999
 21
600.0
 31
0.0
  0
LINE
  5
67C
330
1E
100
AcDbEntity
  8
0
100
AcDbLine
 10
432.008
 20
600.0
 30
0.0
 11
435.0799999999999
 21
600.0
 31
0.0
  0
LINE
  5
67D
330
1E
100
AcDbEntity
  8
0
100
AcDbLine
 10
427.0159999999999
 20
600.0
 30
0.0
 11
432.008
 21
600.0
 31
0.0
  0
LINE
  5
67E
330
1E
100
AcDbEntity
  8
0
100
AcDbLine
 10
420.4880000000001
 20
600.0
 30
0.0
 11
427.0159999999999
 21
600.0
 31
0.0
  0
LINE
  5
67F
330
1E
100
AcDbEntity
  8
0
100
AcDbLine
 10
413.064
 20
600.0
 30
0.0
 11
420.4880000000001
 21
600.0
 31
0.0
  0
LINE
  5
680
330
1E
100
AcDbEntity
  8
0
100
AcDbLine
 10
377.9919999999999
 20
600.0
 30
0.0
 11
379.0
 21
600.0
 31
0.0
  0
LINE
  5
681
330
1E
100
AcDbEntity
  8
0
100
AcDbLine
 10
436.2319999999999
 20
600.0
 30
0.0
 11
437.0
 21
600.1739999999999
 31
0.0
  0
LINE
  5
682
330
1E
100
AcDbEntity
  8
0
100
AcDbLine
 10
483.853
 20
580.0
 30
0.0
 11
483.853
 21
578.853
 31
0.0
  0
LINE
  5
683
330
1E
100
AcDbEntity
  8
0
100
AcDbLine
 10
483.853
 20
580.0
 30
0.0
 11
485.0
 21
580.0
 31
0.0
  0
LINE
  5
684
330
1E
100
AcDbEntity
  8
0
100
AcDbLine
 10
483.853
 20
578.853
 30
0.0
 11
483.853
 21
580.0
 31
0.0
  0
LINE
  5
685
330
1E
100
AcDbEntity
  8
0
100
AcDbLine
 10
489.0
 20
600.0
 30
0.0
 11
489.9359999999999
 21
600.0
 31
0.0
  0
LINE
  5
686
330
1E
100
AcDbEntity
  8
0
100
AcDbLine
 10
489.0
 20
600.0
 30
0.0
 11
489.0
 21
595.0
 31
0.0
  0
LINE
  5
687
330
1E
100
AcDbEntity
  8
0
100
AcDbLine
 10
508.344
 20
600.0
 30
0.0
 11
515.0
 21
600.0
 31
0.0
  0
LINE
  5
688
330
1E
100
AcDbEntity
  8
0
100
AcDbLine
 10
502.104
 20
600.0
 30
0.0
 11
508.344
 21
600.0
 31
0.0
  0
LINE
  5
689
330
1E
100
AcDbEntity
  8
0
100
AcDbLine
 10
496.5919999999999
 20
600.0
 30
0.0
 11
502.104
 21
600.0
 31
0.0
  0
LINE
  5
68A
330
1E
100
AcDbEntity
  8
0
100
AcDbLine
 10
492.4319999999999
 20
600.0
 30
0.0
 11
496.5919999999999
 21
600.0
 31
0.0
  0
LINE
  5
68B
330
1E
100
AcDbEntity
  8
0
100
AcDbLine
 10
489.9359999999999
 20
600.0
 30
0.0
 11
492.4319999999999
 21
600.0
 31
0.0
  0
LINE
  5
68C
330
1E
100
AcDbEntity
  8
0
100
AcDbLine
 10
515.0
 20
600.0
 30
0.0
 11
521.6559999999999
 21
600.0
 31
0.0
  0
LINE
  5
68D
330
1E
100
AcDbEntity
  8
0
100
AcDbLine
 10
521.6559999999999
 20
600.0
 30
0.0
 11
527.8959999999999
 21
600.0
 31
0.0
  0
LINE
  5
68E
330
1E
100
AcDbEntity
  8
0
100
AcDbLine
 10
527.8959999999999
 20
600.0
 30
0.0
 11
533.408
 21
600.0
 31
0.0
  0
LINE
  5
68F
330
1E
100
AcDbEntity
  8
0
100
AcDbLine
 10
489.0
 20
595.0
 30
0.0
 11
489.0
 21
600.0
 31
0.0
  0
LINE
  5
690
330
1E
100
AcDbEntity
  8
0
100
AcDbLine
 10
485.0
 20
580.0
 30
0.0
 11
485.0
 21
534.4999999999999
 31
0.0
  0
LINE
  5
691
330
1E
100
AcDbEntity
  8
0
100
AcDbLine
 10
483.768
 20
600.0
 30
0.0
 11
484.92
 21
600.0
 31
0.0
  0
LINE
  5
692
330
1E
100
AcDbEntity
  8
0
100
AcDbLine
 10
484.92
 20
600.0
 30
0.0
 11
487.9919999999999
 21
600.0
 31
0.0
  0
LINE
  5
693
330
1E
100
AcDbEntity
  8
0
100
AcDbLine
 10
533.408
 20
600.0
 30
0.0
 11
537.568
 21
600.0
 31
0.0
  0
LINE
  5
694
330
1E
100
AcDbEntity
  8
0
100
AcDbLine
 10
541.0
 20
595.0
 30
0.0
 11
541.0
 21
600.0
 31
0.0
  0
LINE
  5
695
330
1E
100
AcDbEntity
  8
0
100
AcDbLine
 10
537.568
 20
600.0
 30
0.0
 11
540.064
 21
600.0
 31
0.0
  0
LINE
  5
696
330
1E
100
AcDbEntity
  8
0
100
AcDbLine
 10
540.064
 20
600.0
 30
0.0
 11
541.0
 21
600.0
 31
0.0
  0
LINE
  5
697
330
1E
100
AcDbEntity
  8
0
100
AcDbLine
 10
530.488
 20
600.0
 30
0.0
 11
537.0159999999999
 21
600.0
 31
0.0
  0
LINE
  5
698
330
1E
100
AcDbEntity
  8
0
100
AcDbLine
 10
487.9919999999999
 20
600.0
 30
0.0
 11
489.0
 21
600.0
 31
0.0
  0
LINE
  5
699
330
1E
100
AcDbEntity
  8
0
100
AcDbLine
 10
546.1469999999999
 20
580.0
 30
0.0
 11
546.1469999999999
 21
578.853
 31
0.0
  0
LINE
  5
69A
330
1E
100
AcDbEntity
  8
0
100
AcDbLine
 10
546.1469999999999
 20
578.853
 30
0.0
 11
546.2419999999999
 21
578.853
 31
0.0
  0
LINE
  5
69B
330
1E
100
AcDbEntity
  8
0
100
AcDbLine
 10
546.1469999999999
 20
578.853
 30
0.0
 11
546.239
 21
578.853
 31
0.0
  0
LINE
  5
69C
330
1E
100
AcDbEntity
  8
0
100
AcDbLine
 10
546.1469999999999
 20
578.853
 30
0.0
 11
546.1469999999999
 21
580.0
 31
0.0
  0
LINE
  5
69D
330
1E
100
AcDbEntity
  8
0
100
AcDbLine
 10
545.0
 20
580.0
 30
0.0
 11
545.0
 21
534.4999999999999
 31
0.0
  0
LINE
  5
69E
330
1E
100
AcDbEntity
  8
0
100
AcDbLine
 10
545.0
 20
580.0
 30
0.0
 11
546.1469999999999
 21
580.0
 31
0.0
  0
LINE
  5
69F
330
1E
100
AcDbEntity
  8
0
100
AcDbLine
 10
546.538
 20
578.853
 30
0.0
 11
547.028
 21
578.853
 31
0.0
  0
LINE
  5
6A0
330
1E
100
AcDbEntity
  8
0
100
AcDbLine
 10
546.239
 20
578.853
 30
0.0
 11
546.538
 21
578.853
 31
0.0
  0
LINE
  5
6A1
330
1E
100
AcDbEntity
  8
0
100
AcDbLine
 10
546.5449999999999
 20
578.853
 30
0.0
 11
547.01
 21
578.853
 31
0.0
  0
LINE
  5
6A2
330
1E
100
AcDbEntity
  8
0
100
AcDbLine
 10
546.2419999999999
 20
578.853
 30
0.0
 11
546.5449999999999
 21
578.853
 31
0.0
  0
LINE
  5
6A3
330
1E
100
AcDbEntity
  8
0
100
AcDbLine
 10
546.232
 20
600.0
 30
0.0
 11
547.0
 21
600.1739999999999
 31
0.0
  0
LINE
  5
6A4
330
1E
100
AcDbEntity
  8
0
100
AcDbLine
 10
545.08
 20
600.0
 30
0.0
 11
546.232
 21
600.0
 31
0.0
  0
LINE
  5
6A5
330
1E
100
AcDbEntity
  8
0
100
AcDbLine
 10
542.008
 20
600.0
 30
0.0
 11
545.08
 21
600.0
 31
0.0
  0
LINE
  5
6A6
330
1E
100
AcDbEntity
  8
0
100
AcDbLine
 10
374.1519999999999
 20
600.1739999999999
 30
0.0
 11
377.224
 21
600.1739999999999
 31
0.0
  0
LINE
  5
6A7
330
1E
100
AcDbEntity
  8
0
100
AcDbLine
 10
377.224
 20
600.1739999999999
 30
0.0
 11
382.344
 21
600.1739999999999
 31
0.0
  0
LINE
  5
6A8
330
1E
100
AcDbEntity
  8
0
100
AcDbLine
 10
382.344
 20
600.1739999999999
 30
0.0
 11
389.128
 21
600.1739999999999
 31
0.0
  0
LINE
  5
6A9
330
1E
100
AcDbEntity
  8
0
100
AcDbLine
 10
389.128
 20
600.1739999999999
 30
0.0
 11
396.808
 21
600.1739999999999
 31
0.0
  0
LINE
  5
6AA
330
1E
100
AcDbEntity
  8
0
100
AcDbLine
 10
396.808
 20
600.1739999999999
 30
0.0
 11
405.0
 21
600.1739999999999
 31
0.0
  0
LINE
  5
6AB
330
1E
100
AcDbEntity
  8
0
100
AcDbLine
 10
435.848
 20
600.1739999999999
 30
0.0
 11
437.0
 21
600.1739999999999
 31
0.0
  0
LINE
  5
6AC
330
1E
100
AcDbEntity
  8
0
100
AcDbLine
 10
437.0
 20
600.1739999999999
 30
0.0
 11
437.0
 21
602.826
 31
0.0
  0
LINE
  5
6AD
330
1E
100
AcDbEntity
  8
0
100
AcDbLine
 10
432.776
 20
600.1739999999999
 30
0.0
 11
435.848
 21
600.1739999999999
 31
0.0
  0
LINE
  5
6AE
330
1E
100
AcDbEntity
  8
0
100
AcDbLine
 10
427.6559999999999
 20
600.1739999999999
 30
0.0
 11
432.776
 21
600.1739999999999
 31
0.0
  0
LINE
  5
6AF
330
1E
100
AcDbEntity
  8
0
100
AcDbLine
 10
420.8719999999999
 20
600.1739999999999
 30
0.0
 11
427.6559999999999
 21
600.1739999999999
 31
0.0
  0
LINE
  5
6B0
330
1E
100
AcDbEntity
  8
0
100
AcDbLine
 10
413.1919999999999
 20
600.1739999999999
 30
0.0
 11
420.8719999999999
 21
600.1739999999999
 31
0.0
  0
LINE
  5
6B1
330
1E
100
AcDbEntity
  8
0
100
AcDbLine
 10
405.0
 20
600.1739999999999
 30
0.0
 11
413.1919999999999
 21
600.1739999999999
 31
0.0
  0
LINE
  5
6B2
330
1E
100
AcDbEntity
  8
0
100
AcDbLine
 10
374.1519999999999
 20
602.826
 30
0.0
 11
377.224
 21
602.826
 31
0.0
  0
LINE
  5
6B3
330
1E
100
AcDbEntity
  8
0
100
AcDbLine
 10
377.224
 20
602.826
 30
0.0
 11
382.344
 21
602.826
 31
0.0
  0
LINE
  5
6B4
330
1E
100
AcDbEntity
  8
0
100
AcDbLine
 10
382.344
 20
602.826
 30
0.0
 11
389.128
 21
602.826
 31
0.0
  0
LINE
  5
6B5
330
1E
100
AcDbEntity
  8
0
100
AcDbLine
 10
389.128
 20
602.826
 30
0.0
 11
396.808
 21
602.826
 31
0.0
  0
LINE
  5
6B6
330
1E
100
AcDbEntity
  8
0
100
AcDbLine
 10
396.808
 20
602.826
 30
0.0
 11
405.0
 21
602.826
 31
0.0
  0
LINE
  5
6B7
330
1E
100
AcDbEntity
  8
0
100
AcDbLine
 10
435.848
 20
602.826
 30
0.0
 11
437.0
 21
602.826
 31
0.0
  0
LINE
  5
6B8
330
1E
100
AcDbEntity
  8
0
100
AcDbLine
 10
432.776
 20
602.826
 30
0.0
 11
435.848
 21
602.826
 31
0.0
  0
LINE
  5
6B9
330
1E
100
AcDbEntity
  8
0
100
AcDbLine
 10
427.6559999999999
 20
602.826
 30
0.0
 11
432.776
 21
602.826
 31
0.0
  0
LINE
  5
6BA
330
1E
100
AcDbEntity
  8
0
100
AcDbLine
 10
420.8719999999999
 20
602.826
 30
0.0
 11
427.6559999999999
 21
602.826
 31
0.0
  0
LINE
  5
6BB
330
1E
100
AcDbEntity
  8
0
100
AcDbLine
 10
413.1919999999999
 20
602.826
 30
0.0
 11
420.8719999999999
 21
602.826
 31
0.0
  0
LINE
  5
6BC
330
1E
100
AcDbEntity
  8
0
100
AcDbLine
 10
405.0
 20
602.826
 30
0.0
 11
413.1919999999999
 21
602.826
 31
0.0
  0
LINE
  5
6BD
330
1E
100
AcDbEntity
  8
0
100
AcDbLine
 10
373.0
 20
600.1739999999999
 30
0.0
 11
373.0
 21
602.826
 31
0.0
  0
LINE
  5
6BE
330
1E
100
AcDbEntity
  8
0
100
AcDbLine
 10
373.0
 20
600.1739999999999
 30
0.0
 11
373.768
 21
600.0
 31
0.0
  0
LINE
  5
6BF
330
1E
100
AcDbEntity
  8
0
100
AcDbLine
 10
373.0
 20
600.1739999999999
 30
0.0
 11
374.1519999999999
 21
600.1739999999999
 31
0.0
  0
LINE
  5
6C0
330
1E
100
AcDbEntity
  8
0
100
AcDbLine
 10
437.0
 20
602.826
 30
0.0
 11
437.0
 21
600.1739999999999
 31
0.0
  0
LINE
  5
6C1
330
1E
100
AcDbEntity
  8
0
100
AcDbLine
 10
373.0
 20
602.826
 30
0.0
 11
373.768
 21
603.0
 31
0.0
  0
LINE
  5
6C2
330
1E
100
AcDbEntity
  8
0
100
AcDbLine
 10
373.0
 20
602.826
 30
0.0
 11
373.0
 21
600.1739999999999
 31
0.0
  0
LINE
  5
6C3
330
1E
100
AcDbEntity
  8
0
100
AcDbLine
 10
373.0
 20
602.826
 30
0.0
 11
374.1519999999999
 21
602.826
 31
0.0
  0
LINE
  5
6C4
330
1E
100
AcDbEntity
  8
0
100
AcDbLine
 10
484.152
 20
600.1739999999999
 30
0.0
 11
487.2239999999999
 21
600.1739999999999
 31
0.0
  0
LINE
  5
6C5
330
1E
100
AcDbEntity
  8
0
100
AcDbLine
 10
487.2239999999999
 20
600.1739999999999
 30
0.0
 11
492.344
 21
600.1739999999999
 31
0.0
  0
LINE
  5
6C6
330
1E
100
AcDbEntity
  8
0
100
AcDbLine
 10
492.344
 20
600.1739999999999
 30
0.0
 11
499.128
 21
600.1739999999999
 31
0.0
  0
LINE
  5
6C7
330
1E
100
AcDbEntity
  8
0
100
AcDbLine
 10
499.128
 20
600.1739999999999
 30
0.0
 11
506.8080000000001
 21
600.1739999999999
 31
0.0
  0
LINE
  5
6C8
330
1E
100
AcDbEntity
  8
0
100
AcDbLine
 10
506.8080000000001
 20
600.1739999999999
 30
0.0
 11
515.0
 21
600.1739999999999
 31
0.0
  0
LINE
  5
6C9
330
1E
100
AcDbEntity
  8
0
100
AcDbLine
 10
545.848
 20
600.1739999999999
 30
0.0
 11
547.0
 21
600.1739999999999
 31
0.0
  0
LINE
  5
6CA
330
1E
100
AcDbEntity
  8
0
100
AcDbLine
 10
547.0
 20
600.1739999999999
 30
0.0
 11
547.0
 21
602.826
 31
0.0
  0
LINE
  5
6CB
330
1E
100
AcDbEntity
  8
0
100
AcDbLine
 10
542.7759999999999
 20
600.1739999999999
 30
0.0
 11
545.848
 21
600.1739999999999
 31
0.0
  0
LINE
  5
6CC
330
1E
100
AcDbEntity
  8
0
100
AcDbLine
 10
537.6559999999999
 20
600.1739999999999
 30
0.0
 11
542.7759999999999
 21
600.1739999999999
 31
0.0
  0
LINE
  5
6CD
330
1E
100
AcDbEntity
  8
0
100
AcDbLine
 10
530.872
 20
600.1739999999999
 30
0.0
 11
537.6559999999999
 21
600.1739999999999
 31
0.0
  0
LINE
  5
6CE
330
1E
100
AcDbEntity
  8
0
100
AcDbLine
 10
523.192
 20
600.1739999999999
 30
0.0
 11
530.872
 21
600.1739999999999
 31
0.0
  0
LINE
  5
6CF
330
1E
100
AcDbEntity
  8
0
100
AcDbLine
 10
484.152
 20
602.826
 30
0.0
 11
487.2239999999999
 21
602.826
 31
0.0
  0
LINE
  5
6D0
330
1E
100
AcDbEntity
  8
0
100
AcDbLine
 10
487.2239999999999
 20
602.826
 30
0.0
 11
492.344
 21
602.826
 31
0.0
  0
LINE
  5
6D1
330
1E
100
AcDbEntity
  8
0
100
AcDbLine
 10
492.344
 20
602.826
 30
0.0
 11
499.128
 21
602.826
 31
0.0
  0
LINE
  5
6D2
330
1E
100
AcDbEntity
  8
0
100
AcDbLine
 10
499.128
 20
602.826
 30
0.0
 11
506.8080000000001
 21
602.826
 31
0.0
  0
LINE
  5
6D3
330
1E
100
AcDbEntity
  8
0
100
AcDbLine
 10
506.8080000000001
 20
602.826
 30
0.0
 11
515.0
 21
602.826
 31
0.0
  0
LINE
  5
6D4
330
1E
100
AcDbEntity
  8
0
100
AcDbLine
 10
545.848
 20
602.826
 30
0.0
 11
547.0
 21
602.826
 31
0.0
  0
LINE
  5
6D5
330
1E
100
AcDbEntity
  8
0
100
AcDbLine
 10
542.7759999999999
 20
602.826
 30
0.0
 11
545.848
 21
602.826
 31
0.0
  0
LINE
  5
6D6
330
1E
100
AcDbEntity
  8
0
100
AcDbLine
 10
537.6559999999999
 20
602.826
 30
0.0
 11
542.7759999999999
 21
602.826
 31
0.0
  0
LINE
  5
6D7
330
1E
100
AcDbEntity
  8
0
100
AcDbLine
 10
530.872
 20
602.826
 30
0.0
 11
537.6559999999999
 21
602.826
 31
0.0
  0
LINE
  5
6D8
330
1E
100
AcDbEntity
  8
0
100
AcDbLine
 10
523.192
 20
602.826
 30
0.0
 11
530.872
 21
602.826
 31
0.0
  0
LINE
  5
6D9
330
1E
100
AcDbEntity
  8
0
100
AcDbLine
 10
515.0
 20
602.826
 30
0.0
 11
523.192
 21
602.826
 31
0.0
  0
LINE
  5
6DA
330
1E
100
AcDbEntity
  8
0
100
AcDbLine
 10
515.0
 20
600.1739999999999
 30
0.0
 11
523.192
 21
600.1739999999999
 31
0.0
  0
LINE
  5
6DB
330
1E
100
AcDbEntity
  8
0
100
AcDbLine
 10
483.0
 20
600.1739999999999
 30
0.0
 11
483.0
 21
602.826
 31
0.0
  0
LINE
  5
6DC
330
1E
100
AcDbEntity
  8
0
100
AcDbLine
 10
483.0
 20
600.1739999999999
 30
0.0
 11
483.768
 21
600.0
 31
0.0
  0
LINE
  5
6DD
330
1E
100
AcDbEntity
  8
0
100
AcDbLine
 10
483.0
 20
600.1739999999999
 30
0.0
 11
484.152
 21
600.1739999999999
 31
0.0
  0
LINE
  5
6DE
330
1E
100
AcDbEntity
  8
0
100
AcDbLine
 10
541.0
 20
600.0
 30
0.0
 11
542.008
 21
600.0
 31
0.0
  0
LINE
  5
6DF
330
1E
100
AcDbEntity
  8
0
100
AcDbLine
 10
541.0
 20
600.0
 30
0.0
 11
541.0
 21
595.0
 31
0.0
  0
LINE
  5
6E0
330
1E
100
AcDbEntity
  8
0
100
AcDbLine
 10
547.028
 20
578.853
 30
0.0
 11
547.649
 21
578.853
 31
0.0
  0
LINE
  5
6E1
330
1E
100
AcDbEntity
  8
0
100
AcDbLine
 10
548.363
 20
578.853
 30
0.0
 11
549.133
 21
578.853
 31
0.0
  0
LINE
  5
6E2
330
1E
100
AcDbEntity
  8
0
100
AcDbLine
 10
549.133
 20
578.853
 30
0.0
 11
549.903
 21
578.853
 31
0.0
  0
LINE
  5
6E3
330
1E
100
AcDbEntity
  8
0
100
AcDbLine
 10
547.649
 20
578.853
 30
0.0
 11
548.363
 21
578.853
 31
0.0
  0
LINE
  5
6E4
330
1E
100
AcDbEntity
  8
0
100
AcDbLine
 10
549.903
 20
578.853
 30
0.0
 11
550.6419999999999
 21
578.853
 31
0.0
  0
LINE
  5
6E5
330
1E
100
AcDbEntity
  8
0
100
AcDbLine
 10
549.146
 20
578.853
 30
0.0
 11
549.9159999999999
 21
578.853
 31
0.0
  0
LINE
  5
6E6
330
1E
100
AcDbEntity
  8
0
100
AcDbLine
 10
548.376
 20
578.853
 30
0.0
 11
549.146
 21
578.853
 31
0.0
  0
LINE
  5
6E7
330
1E
100
AcDbEntity
  8
0
100
AcDbLine
 10
547.638
 20
578.853
 30
0.0
 11
548.376
 21
578.853
 31
0.0
  0
LINE
  5
6E8
330
1E
100
AcDbEntity
  8
0
100
AcDbLine
 10
547.01
 20
578.853
 30
0.0
 11
547.638
 21
578.853
 31
0.0
  0
LINE
  5
6E9
330
1E
100
AcDbEntity
  8
0
100
AcDbLine
 10
550.6419999999999
 20
578.853
 30
0.0
 11
551.2699999999999
 21
578.853
 31
0.0
  0
LINE
  5
6EA
330
1E
100
AcDbEntity
  8
0
100
AcDbLine
 10
549.9159999999999
 20
578.853
 30
0.0
 11
550.63
 21
578.853
 31
0.0
  0
LINE
  5
6EB
330
1E
100
AcDbEntity
  8
0
100
AcDbLine
 10
550.63
 20
578.853
 30
0.0
 11
551.2509999999999
 21
578.853
 31
0.0
  0
LINE
  5
6EC
330
1E
100
AcDbEntity
  8
0
100
AcDbLine
 10
551.2699999999999
 20
578.853
 30
0.0
 11
551.734
 21
578.853
 31
0.0
  0
LINE
  5
6ED
330
1E
100
AcDbEntity
  8
0
100
AcDbLine
 10
551.734
 20
578.853
 30
0.0
 11
552.0369999999998
 21
578.853
 31
0.0
  0
LINE
  5
6EE
330
1E
100
AcDbEntity
  8
0
100
AcDbLine
 10
551.2509999999999
 20
578.853
 30
0.0
 11
551.7409999999999
 21
578.853
 31
0.0
  0
LINE
  5
6EF
330
1E
100
AcDbEntity
  8
0
100
AcDbLine
 10
551.7409999999999
 20
578.853
 30
0.0
 11
552.0399999999999
 21
578.853
 31
0.0
  0
LINE
  5
6F0
330
1E
100
AcDbEntity
  8
0
100
AcDbLine
 10
552.1319999999999
 20
578.853
 30
0.0
 11
552.1319999999999
 21
580.0
 31
0.0
  0
LINE
  5
6F1
330
1E
100
AcDbEntity
  8
0
100
AcDbLine
 10
552.0399999999999
 20
578.853
 30
0.0
 11
552.1319999999999
 21
578.853
 31
0.0
  0
LINE
  5
6F2
330
1E
100
AcDbEntity
  8
0
100
AcDbLine
 10
582.0
 20
580.0
 30
0.0
 11
582.0
 21
325.0
 31
0.0
  0
LINE
  5
6F3
330
1E
100
AcDbEntity
  8
0
100
AcDbLine
 10
582.0
 20
580.0
 30
0.0
 11
582.0
 21
400.0
 31
0.0
  0
LINE
  5
6F4
330
1E
100
AcDbEntity
  8
0
100
AcDbLine
 10
582.0
 20
580.0
 30
0.0
 11
608.0
 21
580.0
 31
0.0
  0
LINE
  5
6F5
330
1E
100
AcDbEntity
  8
0
100
AcDbLine
 10
608.0
 20
580.0
 30
0.0
 11
608.0
 21
325.0
 31
0.0
  0
LINE
  5
6F6
330
1E
100
AcDbEntity
  8
0
100
AcDbLine
 10
608.0
 20
580.0
 30
0.0
 11
610.0
 21
580.0
 31
0.0
  0
LINE
  5
6F7
330
1E
100
AcDbEntity
  8
0
100
AcDbLine
 10
608.0
 20
580.0
 30
0.0
 11
608.0
 21
400.0
 31
0.0
  0
LINE
  5
6F8
330
1E
100
AcDbEntity
  8
0
100
AcDbLine
 10
580.0
 20
580.0
 30
0.0
 11
580.0
 21
325.0
 31
0.0
  0
LINE
  5
6F9
330
1E
100
AcDbEntity
  8
0
100
AcDbLine
 10
580.0
 20
580.0
 30
0.0
 11
582.0
 21
580.0
 31
0.0
  0
LINE
  5
6FA
330
1E
100
AcDbEntity
  8
0
100
AcDbLine
 10
628.0
 20
580.0
 30
0.0
 11
630.0
 21
580.0
 31
0.0
  0
LINE
  5
6FB
330
1E
100
AcDbEntity
  8
0
100
AcDbLine
 10
630.0
 20
595.0
 30
0.0
 11
630.0
 21
580.0
 31
0.0
  0
LINE
  5
6FC
330
1E
100
AcDbEntity
  8
0
100
AcDbLine
 10
630.0
 20
580.0
 30
0.0
 11
630.0
 21
595.0
 31
0.0
  0
LINE
  5
6FD
330
1E
100
AcDbEntity
  8
0
100
AcDbLine
 10
552.1319999999999
 20
580.0
 30
0.0
 11
552.1319999999999
 21
578.853
 31
0.0
  0
LINE
  5
6FE
330
1E
100
AcDbEntity
  8
0
100
AcDbLine
 10
552.1319999999999
 20
580.0
 30
0.0
 11
630.0
 21
580.0
 31
0.0
  0
LINE
  5
6FF
330
1E
100
AcDbEntity
  8
0
100
AcDbLine
 10
552.1319999999999
 20
580.0
 30
0.0
 11
628.0
 21
580.0
 31
0.0
  0
LINE
  5
700
330
1E
100
AcDbEntity
  8
0
100
AcDbLine
 10
552.0369999999998
 20
578.853
 30
0.0
 11
552.1319999999999
 21
578.853
 31
0.0
  0
LINE
  5
701
330
1E
100
AcDbEntity
  8
0
100
AcDbLine
 10
547.0
 20
602.826
 30
0.0
 11
547.0
 21
600.1739999999999
 31
0.0
  0
LINE
  5
702
330
1E
100
AcDbEntity
  8
0
100
AcDbLine
 10
483.0
 20
602.826
 30
0.0
 11
483.768
 21
603.0
 31
0.0
  0
LINE
  5
703
330
1E
100
AcDbEntity
  8
0
100
AcDbLine
 10
483.0
 20
602.826
 30
0.0
 11
483.0
 21
600.1739999999999
 31
0.0
  0
LINE
  5
704
330
1E
100
AcDbEntity
  8
0
100
AcDbLine
 10
483.0
 20
602.826
 30
0.0
 11
484.152
 21
602.826
 31
0.0
  0
LINE
  5
705
330
1E
100
AcDbEntity
  8
0
100
AcDbLine
 10
327.0
 20
602.826
 30
0.0
 11
327.0
 21
600.1739999999999
 31
0.0
  0
LINE
  5
706
330
1E
100
AcDbEntity
  8
0
100
AcDbLine
 10
263.0
 20
602.826
 30
0.0
 11
263.7679999999999
 21
603.0
 31
0.0
  0
LINE
  5
707
330
1E
100
AcDbEntity
  8
0
100
AcDbLine
 10
263.0
 20
602.826
 30
0.0
 11
263.0
 21
600.1739999999999
 31
0.0
  0
LINE
  5
708
330
1E
100
AcDbEntity
  8
0
100
AcDbLine
 10
263.0
 20
602.826
 30
0.0
 11
264.1519999999999
 21
602.826
 31
0.0
  0
LINE
  5
709
330
1E
100
AcDbEntity
  8
0
100
AcDbLine
 10
217.0
 20
600.1739999999999
 30
0.0
 11
217.0
 21
602.826
 31
0.0
  0
LINE
  5
70A
330
1E
100
AcDbEntity
  8
0
100
AcDbLine
 10
268.0
 20
603.0
 30
0.0
 11
268.0
 21
607.0
 31
0.0
  0
LINE
  5
70B
330
1E
100
AcDbEntity
  8
0
100
AcDbLine
 10
272.984
 20
603.0
 30
0.0
 11
279.512
 21
603.0
 31
0.0
  0
LINE
  5
70C
330
1E
100
AcDbEntity
  8
0
100
AcDbLine
 10
322.0
 20
603.0
 30
0.0
 11
322.0
 21
607.0
 31
0.0
  0
LINE
  5
70D
330
1E
100
AcDbEntity
  8
0
100
AcDbLine
 10
310.488
 20
603.0
 30
0.0
 11
317.0159999999999
 21
603.0
 31
0.0
  0
LINE
  5
70E
330
1E
100
AcDbEntity
  8
0
100
AcDbLine
 10
271.0
 20
607.0
 30
0.0
 11
271.0
 21
611.0
 31
0.0
  0
LINE
  5
70F
330
1E
100
AcDbEntity
  8
0
100
AcDbLine
 10
275.884
 20
607.0
 30
0.0
 11
281.6079999999999
 21
607.0
 31
0.0
  0
LINE
  5
710
330
1E
100
AcDbEntity
  8
0
100
AcDbLine
 10
271.564
 20
607.0
 30
0.0
 11
275.884
 21
607.0
 31
0.0
  0
LINE
  5
711
330
1E
100
AcDbEntity
  8
0
100
AcDbLine
 10
278.0079999999999
 20
611.0
 30
0.0
 11
283.096
 21
611.0
 31
0.0
  0
LINE
  5
712
330
1E
100
AcDbEntity
  8
0
100
AcDbLine
 10
274.168
 20
611.0
 30
0.0
 11
278.0079999999999
 21
611.0
 31
0.0
  0
LINE
  5
713
330
1E
100
AcDbEntity
  8
0
100
AcDbLine
 10
271.864
 20
611.0
 30
0.0
 11
274.168
 21
611.0
 31
0.0
  0
LINE
  5
714
330
1E
100
AcDbEntity
  8
0
100
AcDbLine
 10
271.0
 20
611.0
 30
0.0
 11
271.864
 21
611.0
 31
0.0
  0
LINE
  5
715
330
1E
100
AcDbEntity
  8
0
100
AcDbLine
 10
271.0
 20
611.0
 30
0.0
 11
271.0
 21
607.0
 31
0.0
  0
LINE
  5
716
330
1E
100
AcDbEntity
  8
0
100
AcDbLine
 10
268.9719999999999
 20
607.0
 30
0.0
 11
271.564
 21
607.0
 31
0.0
  0
LINE
  5
717
330
1E
100
AcDbEntity
  8
0
100
AcDbLine
 10
268.0
 20
607.0
 30
0.0
 11
268.9719999999999
 21
607.0
 31
0.0
  0
LINE
  5
718
330
1E
100
AcDbEntity
  8
0
100
AcDbLine
 10
268.0
 20
607.0
 30
0.0
 11
268.0
 21
603.0
 31
0.0
  0
LINE
  5
719
330
1E
100
AcDbEntity
  8
0
100
AcDbLine
 10
281.0
 20
617.0
 30
0.0
 11
281.504
 21
617.0
 31
0.0
  0
LINE
  5
71A
330
1E
100
AcDbEntity
  8
0
100
AcDbLine
 10
281.0
 20
617.0
 30
0.0
 11
281.0
 21
611.0
 31
0.0
  0
LINE
  5
71B
330
1E
100
AcDbEntity
  8
0
100
AcDbLine
 10
281.6079999999999
 20
607.0
 30
0.0
 11
288.0879999999999
 21
607.0
 31
0.0
  0
LINE
  5
71C
330
1E
100
AcDbEntity
  8
0
100
AcDbLine
 10
283.096
 20
611.0
 30
0.0
 11
288.856
 21
611.0
 31
0.0
  0
LINE
  5
71D
330
1E
100
AcDbEntity
  8
0
100
AcDbLine
 10
288.856
 20
611.0
 30
0.0
 11
295.0
 21
611.0
 31
0.0
  0
LINE
  5
71E
330
1E
100
AcDbEntity
  8
0
100
AcDbLine
 10
288.0879999999999
 20
607.0
 30
0.0
 11
295.0
 21
607.0
 31
0.0
  0
LINE
  5
71F
330
1E
100
AcDbEntity
  8
0
100
AcDbLine
 10
291.4159999999999
 20
617.0
 30
0.0
 11
295.0
 21
617.0
 31
0.0
  0
LINE
  5
720
330
1E
100
AcDbEntity
  8
0
100
AcDbLine
 10
288.056
 20
617.0
 30
0.0
 11
291.4159999999999
 21
617.0
 31
0.0
  0
LINE
  5
721
330
1E
100
AcDbEntity
  8
0
100
AcDbLine
 10
285.0879999999999
 20
617.0
 30
0.0
 11
288.056
 21
617.0
 31
0.0
  0
LINE
  5
722
330
1E
100
AcDbEntity
  8
0
100
AcDbLine
 10
282.848
 20
617.0
 30
0.0
 11
285.0879999999999
 21
617.0
 31
0.0
  0
LINE
  5
723
330
1E
100
AcDbEntity
  8
0
100
AcDbLine
 10
287.192
 20
627.0
 30
0.0
 11
287.48
 21
627.0
 31
0.0
  0
LINE
  5
724
330
1E
100
AcDbEntity
  8
0
100
AcDbLine
 10
287.48
 20
627.0
 30
0.0
 11
288.248
 21
627.0
 31
0.0
  0
LINE
  5
725
330
1E
100
AcDbEntity
  8
0
100
AcDbLine
 10
288.248
 20
627.0
 30
0.0
 11
289.4959999999999
 21
627.0
 31
0.0
  0
LINE
  5
726
330
1E
100
AcDbEntity
  8
0
100
AcDbLine
 10
289.4959999999999
 20
627.0
 30
0.0
 11
291.128
 21
627.0
 31
0.0
  0
LINE
  5
727
330
1E
100
AcDbEntity
  8
0
100
AcDbLine
 10
291.128
 20
627.0
 30
0.0
 11
292.0
 21
627.0
 31
0.0
  0
LINE
  5
728
330
1E
100
AcDbEntity
  8
0
100
AcDbLine
 10
291.128
 20
627.0
 30
0.0
 11
292.984
 21
627.0
 31
0.0
  0
LINE
  5
729
330
1E
100
AcDbEntity
  8
0
100
AcDbLine
 10
281.504
 20
617.0
 30
0.0
 11
282.848
 21
617.0
 31
0.0
  0
LINE
  5
72A
330
1E
100
AcDbEntity
  8
0
100
AcDbLine
 10
281.0
 20
611.0
 30
0.0
 11
281.0
 21
617.0
 31
0.0
  0
LINE
  5
72B
330
1E
100
AcDbEntity
  8
0
100
AcDbLine
 10
287.0
 20
627.208
 30
0.0
 11
287.0
 21
628.7919999999999
 31
0.0
  0
LINE
  5
72C
330
1E
100
AcDbEntity
  8
0
100
AcDbLine
 10
287.0
 20
627.208
 30
0.0
 11
287.192
 21
627.0
 31
0.0
  0
LINE
  5
72D
330
1E
100
AcDbEntity
  8
0
100
AcDbLine
 10
287.0
 20
627.208
 30
0.0
 11
287.288
 21
627.208
 31
0.0
  0
LINE
  5
72E
330
1E
100
AcDbEntity
  8
0
100
AcDbLine
 10
287.288
 20
627.208
 30
0.0
 11
288.056
 21
627.208
 31
0.0
  0
LINE
  5
72F
330
1E
100
AcDbEntity
  8
0
100
AcDbLine
 10
288.056
 20
627.208
 30
0.0
 11
289.336
 21
627.208
 31
0.0
  0
LINE
  5
730
330
1E
100
AcDbEntity
  8
0
100
AcDbLine
 10
287.288
 20
628.7919999999999
 30
0.0
 11
288.056
 21
628.7919999999999
 31
0.0
  0
LINE
  5
731
330
1E
100
AcDbEntity
  8
0
100
AcDbLine
 10
287.192
 20
629.0
 30
0.0
 11
287.48
 21
629.0
 31
0.0
  0
LINE
  5
732
330
1E
100
AcDbEntity
  8
0
100
AcDbLine
 10
287.48
 20
629.0
 30
0.0
 11
288.248
 21
629.0
 31
0.0
  0
LINE
  5
733
330
1E
100
AcDbEntity
  8
0
100
AcDbLine
 10
288.248
 20
629.0
 30
0.0
 11
289.4959999999999
 21
629.0
 31
0.0
  0
LINE
  5
734
330
1E
100
AcDbEntity
  8
0
100
AcDbLine
 10
288.056
 20
628.7919999999999
 30
0.0
 11
289.336
 21
628.7919999999999
 31
0.0
  0
LINE
  5
735
330
1E
100
AcDbEntity
  8
0
100
AcDbLine
 10
289.4959999999999
 20
629.0
 30
0.0
 11
291.128
 21
629.0
 31
0.0
  0
LINE
  5
736
330
1E
100
AcDbEntity
  8
0
100
AcDbLine
 10
289.336
 20
628.7919999999999
 30
0.0
 11
291.032
 21
628.7919999999999
 31
0.0
  0
LINE
  5
737
330
1E
100
AcDbEntity
  8
0
100
AcDbLine
 10
289.336
 20
627.208
 30
0.0
 11
291.032
 21
627.208
 31
0.0
  0
LINE
  5
738
330
1E
100
AcDbEntity
  8
0
100
AcDbLine
 10
287.0
 20
628.7919999999999
 30
0.0
 11
287.192
 21
629.0
 31
0.0
  0
LINE
  5
739
330
1E
100
AcDbEntity
  8
0
100
AcDbLine
 10
287.0
 20
628.7919999999999
 30
0.0
 11
287.0
 21
627.208
 31
0.0
  0
LINE
  5
73A
330
1E
100
AcDbEntity
  8
0
100
AcDbLine
 10
287.0
 20
628.7919999999999
 30
0.0
 11
287.288
 21
628.7919999999999
 31
0.0
  0
LINE
  5
73B
330
1E
100
AcDbEntity
  8
0
100
AcDbLine
 10
290.0
 20
629.0
 30
0.0
 11
290.0
 21
637.3769999999999
 31
0.0
  0
LINE
  5
73C
330
1E
100
AcDbEntity
  8
0
100
AcDbLine
 10
290.12
 20
638.0
 30
0.0
 11
290.3
 21
638.0
 31
0.0
  0
LINE
  5
73D
330
1E
100
AcDbEntity
  8
0
100
AcDbLine
 10
290.3
 20
638.0
 30
0.0
 11
290.7799999999999
 21
638.0
 31
0.0
  0
LINE
  5
73E
330
1E
100
AcDbEntity
  8
0
100
AcDbLine
 10
291.128
 20
629.0
 30
0.0
 11
292.984
 21
629.0
 31
0.0
  0
LINE
  5
73F
330
1E
100
AcDbEntity
  8
0
100
AcDbLine
 10
291.032
 20
628.7919999999999
 30
0.0
 11
292.952
 21
628.7919999999999
 31
0.0
  0
LINE
  5
740
330
1E
100
AcDbEntity
  8
0
100
AcDbLine
 10
291.032
 20
627.208
 30
0.0
 11
292.952
 21
627.208
 31
0.0
  0
LINE
  5
741
330
1E
100
AcDbEntity
  8
0
100
AcDbLine
 10
290.7799999999999
 20
638.0
 30
0.0
 11
291.5599999999999
 21
638.0
 31
0.0
  0
LINE
  5
742
330
1E
100
AcDbEntity
  8
0
100
AcDbLine
 10
291.5599999999999
 20
638.0
 30
0.0
 11
292.5799999999999
 21
638.0
 31
0.0
  0
LINE
  5
743
330
1E
100
AcDbEntity
  8
0
100
AcDbLine
 10
290.0
 20
637.3769999999999
 30
0.0
 11
290.12
 21
638.0
 31
0.0
  0
LINE
  5
744
330
1E
100
AcDbEntity
  8
0
100
AcDbLine
 10
290.0
 20
637.3769999999999
 30
0.0
 11
290.0
 21
629.0
 31
0.0
  0
LINE
  5
745
330
1E
100
AcDbEntity
  8
0
100
AcDbLine
 10
292.0
 20
627.0
 30
0.0
 11
292.0
 21
617.0
 31
0.0
  0
LINE
  5
746
330
1E
100
AcDbEntity
  8
0
100
AcDbLine
 10
295.0
 20
611.0
 30
0.0
 11
301.144
 21
611.0
 31
0.0
  0
LINE
  5
747
330
1E
100
AcDbEntity
  8
0
100
AcDbLine
 10
295.0
 20
607.0
 30
0.0
 11
301.912
 21
607.0
 31
0.0
  0
LINE
  5
748
330
1E
100
AcDbEntity
  8
0
100
AcDbLine
 10
292.984
 20
627.0
 30
0.0
 11
295.0
 21
627.0
 31
0.0
  0
LINE
  5
749
330
1E
100
AcDbEntity
  8
0
100
AcDbLine
 10
297.0159999999999
 20
627.0
 30
0.0
 11
298.872
 21
627.0
 31
0.0
  0
LINE
  5
74A
330
1E
100
AcDbEntity
  8
0
100
AcDbLine
 10
295.0
 20
627.0
 30
0.0
 11
297.0159999999999
 21
627.0
 31
0.0
  0
LINE
  5
74B
330
1E
100
AcDbEntity
  8
0
100
AcDbLine
 10
295.0
 20
617.0
 30
0.0
 11
298.5839999999999
 21
617.0
 31
0.0
  0
LINE
  5
74C
330
1E
100
AcDbEntity
  8
0
100
AcDbLine
 10
301.144
 20
611.0
 30
0.0
 11
306.904
 21
611.0
 31
0.0
  0
LINE
  5
74D
330
1E
100
AcDbEntity
  8
0
100
AcDbLine
 10
301.912
 20
607.0
 30
0.0
 11
308.3919999999999
 21
607.0
 31
0.0
  0
LINE
  5
74E
330
1E
100
AcDbEntity
  8
0
100
AcDbLine
 10
298.5839999999999
 20
617.0
 30
0.0
 11
301.944
 21
617.0
 31
0.0
  0
LINE
  5
74F
330
1E
100
AcDbEntity
  8
0
100
AcDbLine
 10
301.944
 20
617.0
 30
0.0
 11
304.912
 21
617.0
 31
0.0
  0
LINE
  5
750
330
1E
100
AcDbEntity
  8
0
100
AcDbLine
 10
306.904
 20
611.0
 30
0.0
 11
311.992
 21
611.0
 31
0.0
  0
LINE
  5
751
330
1E
100
AcDbEntity
  8
0
100
AcDbLine
 10
308.3919999999999
 20
607.0
 30
0.0
 11
314.1159999999999
 21
607.0
 31
0.0
  0
LINE
  5
752
330
1E
100
AcDbEntity
  8
0
100
AcDbLine
 10
304.912
 20
617.0
 30
0.0
 11
307.152
 21
617.0
 31
0.0
  0
LINE
  5
753
330
1E
100
AcDbEntity
  8
0
100
AcDbLine
 10
307.152
 20
617.0
 30
0.0
 11
308.4959999999999
 21
617.0
 31
0.0
  0
LINE
  5
754
330
1E
100
AcDbEntity
  8
0
100
AcDbLine
 10
314.1159999999999
 20
607.0
 30
0.0
 11
318.4359999999999
 21
607.0
 31
0.0
  0
LINE
  5
755
330
1E
100
AcDbEntity
  8
0
100
AcDbLine
 10
319.0
 20
607.0
 30
0.0
 11
319.0
 21
611.0
 31
0.0
  0
LINE
  5
756
330
1E
100
AcDbEntity
  8
0
100
AcDbLine
 10
318.4359999999999
 20
607.0
 30
0.0
 11
321.028
 21
607.0
 31
0.0
  0
LINE
  5
757
330
1E
100
AcDbEntity
  8
0
100
AcDbLine
 10
311.992
 20
611.0
 30
0.0
 11
315.8319999999999
 21
611.0
 31
0.0
  0
LINE
  5
758
330
1E
100
AcDbEntity
  8
0
100
AcDbLine
 10
315.8319999999999
 20
611.0
 30
0.0
 11
318.1359999999999
 21
611.0
 31
0.0
  0
LINE
  5
759
330
1E
100
AcDbEntity
  8
0
100
AcDbLine
 10
318.1359999999999
 20
611.0
 30
0.0
 11
319.0
 21
611.0
 31
0.0
  0
LINE
  5
75A
330
1E
100
AcDbEntity
  8
0
100
AcDbLine
 10
319.0
 20
611.0
 30
0.0
 11
319.0
 21
607.0
 31
0.0
  0
LINE
  5
75B
330
1E
100
AcDbEntity
  8
0
100
AcDbLine
 10
321.028
 20
607.0
 30
0.0
 11
322.0
 21
607.0
 31
0.0
  0
LINE
  5
75C
330
1E
100
AcDbEntity
  8
0
100
AcDbLine
 10
322.0
 20
607.0
 30
0.0
 11
322.0
 21
603.0
 31
0.0
  0
LINE
  5
75D
330
1E
100
AcDbEntity
  8
0
100
AcDbLine
 10
309.0
 20
611.0
 30
0.0
 11
309.0
 21
617.0
 31
0.0
  0
LINE
  5
75E
330
1E
100
AcDbEntity
  8
0
100
AcDbLine
 10
308.4959999999999
 20
617.0
 30
0.0
 11
309.0
 21
617.0
 31
0.0
  0
LINE
  5
75F
330
1E
100
AcDbEntity
  8
0
100
AcDbLine
 10
302.808
 20
627.0
 30
0.0
 11
303.0
 21
627.208
 31
0.0
  0
LINE
  5
760
330
1E
100
AcDbEntity
  8
0
100
AcDbLine
 10
302.5199999999999
 20
627.0
 30
0.0
 11
302.808
 21
627.0
 31
0.0
  0
LINE
  5
761
330
1E
100
AcDbEntity
  8
0
100
AcDbLine
 10
301.752
 20
627.0
 30
0.0
 11
302.5199999999999
 21
627.0
 31
0.0
  0
LINE
  5
762
330
1E
100
AcDbEntity
  8
0
100
AcDbLine
 10
300.504
 20
627.0
 30
0.0
 11
301.752
 21
627.0
 31
0.0
  0
LINE
  5
763
330
1E
100
AcDbEntity
  8
0
100
AcDbLine
 10
298.872
 20
627.0
 30
0.0
 11
300.504
 21
627.0
 31
0.0
  0
LINE
  5
764
330
1E
100
AcDbEntity
  8
0
100
AcDbLine
 10
309.0
 20
617.0
 30
0.0
 11
309.0
 21
611.0
 31
0.0
  0
LINE
  5
765
330
1E
100
AcDbEntity
  8
0
100
AcDbLine
 10
298.0
 20
617.0
 30
0.0
 11
298.0
 21
627.0
 31
0.0
  0
LINE
  5
766
330
1E
100
AcDbEntity
  8
0
100
AcDbLine
 10
292.952
 20
627.208
 30
0.0
 11
295.0
 21
627.208
 31
0.0
  0
LINE
  5
767
330
1E
100
AcDbEntity
  8
0
100
AcDbLine
 10
292.984
 20
629.0
 30
0.0
 11
295.0
 21
629.0
 31
0.0
  0
LINE
  5
768
330
1E
100
AcDbEntity
  8
0
100
AcDbLine
 10
295.0
 20
629.0
 30
0.0
 11
297.0159999999999
 21
629.0
 31
0.0
  0
LINE
  5
769
330
1E
100
AcDbEntity
  8
0
100
AcDbLine
 10
292.952
 20
628.7919999999999
 30
0.0
 11
295.0
 21
628.7919999999999
 31
0.0
  0
LINE
  5
76A
330
1E
100
AcDbEntity
  8
0
100
AcDbLine
 10
295.0
 20
628.7919999999999
 30
0.0
 11
297.048
 21
628.7919999999999
 31
0.0
  0
LINE
  5
76B
330
1E
100
AcDbEntity
  8
0
100
AcDbLine
 10
295.0
 20
627.208
 30
0.0
 11
297.048
 21
627.208
 31
0.0
  0
LINE
  5
76C
330
1E
100
AcDbEntity
  8
0
100
AcDbLine
 10
292.5799999999999
 20
638.0
 30
0.0
 11
293.74
 21
638.0
 31
0.0
  0
LINE
  5
76D
330
1E
100
AcDbEntity
  8
0
100
AcDbLine
 10
293.74
 20
638.0
 30
0.0
 11
295.0
 21
638.0
 31
0.0
  0
LINE
  5
76E
330
1E
100
AcDbEntity
  8
0
100
AcDbLine
 10
297.0159999999999
 20
629.0
 30
0.0
 11
298.872
 21
629.0
 31
0.0
  0
LINE
  5
76F
330
1E
100
AcDbEntity
  8
0
100
AcDbLine
 10
297.048
 20
628.7919999999999
 30
0.0
 11
298.968
 21
628.7919999999999
 31
0.0
  0
LINE
  5
770
330
1E
100
AcDbEntity
  8
0
100
AcDbLine
 10
297.048
 20
627.208
 30
0.0
 11
298.968
 21
627.208
 31
0.0
  0
LINE
  5
771
330
1E
100
AcDbEntity
  8
0
100
AcDbLine
 10
298.872
 20
629.0
 30
0.0
 11
300.504
 21
629.0
 31
0.0
  0
LINE
  5
772
330
1E
100
AcDbEntity
  8
0
100
AcDbLine
 10
298.968
 20
628.7919999999999
 30
0.0
 11
300.6639999999999
 21
628.7919999999999
 31
0.0
  0
LINE
  5
773
330
1E
100
AcDbEntity
  8
0
100
AcDbLine
 10
298.968
 20
627.208
 30
0.0
 11
300.6639999999999
 21
627.208
 31
0.0
  0
LINE
  5
774
330
1E
100
AcDbEntity
  8
0
100
AcDbLine
 10
299.6999999999999
 20
638.0
 30
0.0
 11
299.88
 21
638.0
 31
0.0
  0
LINE
  5
775
330
1E
100
AcDbEntity
  8
0
100
AcDbLine
 10
299.22
 20
638.0
 30
0.0
 11
299.6999999999999
 21
638.0
 31
0.0
  0
LINE
  5
776
330
1E
100
AcDbEntity
  8
0
100
AcDbLine
 10
298.4399999999999
 20
638.0
 30
0.0
 11
299.22
 21
638.0
 31
0.0
  0
LINE
  5
777
330
1E
100
AcDbEntity
  8
0
100
AcDbLine
 10
297.42
 20
638.0
 30
0.0
 11
298.4399999999999
 21
638.0
 31
0.0
  0
LINE
  5
778
330
1E
100
AcDbEntity
  8
0
100
AcDbLine
 10
296.26
 20
638.0
 30
0.0
 11
297.42
 21
638.0
 31
0.0
  0
LINE
  5
779
330
1E
100
AcDbEntity
  8
0
100
AcDbLine
 10
295.0
 20
638.0
 30
0.0
 11
296.26
 21
638.0
 31
0.0
  0
LINE
  5
77A
330
1E
100
AcDbEntity
  8
0
100
AcDbLine
 10
302.712
 20
627.208
 30
0.0
 11
303.0
 21
627.208
 31
0.0
  0
LINE
  5
77B
330
1E
100
AcDbEntity
  8
0
100
AcDbLine
 10
303.0
 20
627.208
 30
0.0
 11
303.0
 21
628.7919999999999
 31
0.0
  0
LINE
  5
77C
330
1E
100
AcDbEntity
  8
0
100
AcDbLine
 10
301.944
 20
627.208
 30
0.0
 11
302.712
 21
627.208
 31
0.0
  0
LINE
  5
77D
330
1E
100
AcDbEntity
  8
0
100
AcDbLine
 10
300.504
 20
629.0
 30
0.0
 11
301.752
 21
629.0
 31
0.0
  0
LINE
  5
77E
330
1E
100
AcDbEntity
  8
0
100
AcDbLine
 10
302.712
 20
628.7919999999999
 30
0.0
 11
303.0
 21
628.7919999999999
 31
0.0
  0
LINE
  5
77F
330
1E
100
AcDbEntity
  8
0
100
AcDbLine
 10
302.5199999999999
 20
629.0
 30
0.0
 11
302.808
 21
629.0
 31
0.0
  0
LINE
  5
780
330
1E
100
AcDbEntity
  8
0
100
AcDbLine
 10
301.752
 20
629.0
 30
0.0
 11
302.5199999999999
 21
629.0
 31
0.0
  0
LINE
  5
781
330
1E
100
AcDbEntity
  8
0
100
AcDbLine
 10
301.944
 20
628.7919999999999
 30
0.0
 11
302.712
 21
628.7919999999999
 31
0.0
  0
LINE
  5
782
330
1E
100
AcDbEntity
  8
0
100
AcDbLine
 10
300.6639999999999
 20
628.7919999999999
 30
0.0
 11
301.944
 21
628.7919999999999
 31
0.0
  0
LINE
  5
783
330
1E
100
AcDbEntity
  8
0
100
AcDbLine
 10
300.6639999999999
 20
627.208
 30
0.0
 11
301.944
 21
627.208
 31
0.0
  0
LINE
  5
784
330
1E
100
AcDbEntity
  8
0
100
AcDbLine
 10
303.0
 20
628.7919999999999
 30
0.0
 11
303.0
 21
627.208
 31
0.0
  0
LINE
  5
785
330
1E
100
AcDbEntity
  8
0
100
AcDbLine
 10
302.808
 20
629.0
 30
0.0
 11
303.0
 21
628.7919999999999
 31
0.0
  0
LINE
  5
786
330
1E
100
AcDbEntity
  8
0
100
AcDbLine
 10
300.0
 20
629.0
 30
0.0
 11
300.0
 21
637.3769999999999
 31
0.0
  0
LINE
  5
787
330
1E
100
AcDbEntity
  8
0
100
AcDbLine
 10
300.0
 20
637.3769999999999
 30
0.0
 11
300.0
 21
629.0
 31
0.0
  0
LINE
  5
788
330
1E
100
AcDbEntity
  8
0
100
AcDbLine
 10
299.88
 20
638.0
 30
0.0
 11
300.0
 21
637.3769999999999
 31
0.0
  0
LINE
  5
789
330
1E
100
AcDbEntity
  8
0
100
AcDbLine
 10
298.0
 20
627.0
 30
0.0
 11
298.0
 21
617.0
 31
0.0
  0
LINE
  5
78A
330
1E
100
AcDbEntity
  8
0
100
AcDbLine
 10
298.0
 20
627.0
 30
0.0
 11
298.872
 21
627.0
 31
0.0
  0
LINE
  5
78B
330
1E
100
AcDbEntity
  8
0
100
AcDbLine
 10
292.0
 20
617.0
 30
0.0
 11
292.0
 21
627.0
 31
0.0
  0
LINE
  5
78C
330
1E
100
AcDbEntity
  8
0
100
AcDbLine
 10
295.0
 20
603.0
 30
0.0
 11
303.064
 21
603.0
 31
0.0
  0
LINE
  5
78D
330
1E
100
AcDbEntity
  8
0
100
AcDbLine
 10
385.0
 20
603.0
 30
0.0
 11
385.0
 21
607.76
 31
0.0
  0
LINE
  5
78E
330
1E
100
AcDbEntity
  8
0
100
AcDbLine
 10
382.984
 20
603.0
 30
0.0
 11
389.5119999999999
 21
603.0
 31
0.0
  0
LINE
  5
78F
330
1E
100
AcDbEntity
  8
0
100
AcDbLine
 10
425.0
 20
603.0
 30
0.0
 11
425.0
 21
607.76
 31
0.0
  0
LINE
  5
790
330
1E
100
AcDbEntity
  8
0
100
AcDbLine
 10
420.4880000000001
 20
603.0
 30
0.0
 11
427.0159999999999
 21
603.0
 31
0.0
  0
LINE
  5
791
330
1E
100
AcDbEntity
  8
0
100
AcDbLine
 10
405.0
 20
603.0
 30
0.0
 11
413.064
 21
603.0
 31
0.0
  0
LINE
  5
792
330
1E
100
AcDbEntity
  8
0
100
AcDbLine
 10
436.2319999999999
 20
603.0
 30
0.0
 11
437.0
 21
602.826
 31
0.0
  0
LINE
  5
793
330
1E
100
AcDbEntity
  8
0
100
AcDbLine
 10
492.984
 20
603.0
 30
0.0
 11
499.5119999999999
 21
603.0
 31
0.0
  0
LINE
  5
794
330
1E
100
AcDbEntity
  8
0
100
AcDbLine
 10
545.08
 20
603.0
 30
0.0
 11
546.232
 21
603.0
 31
0.0
  0
LINE
  5
795
330
1E
100
AcDbEntity
  8
0
100
AcDbLine
 10
542.008
 20
603.0
 30
0.0
 11
545.08
 21
603.0
 31
0.0
  0
LINE
  5
796
330
1E
100
AcDbEntity
  8
0
100
AcDbLine
 10
537.0159999999999
 20
603.0
 30
0.0
 11
542.008
 21
603.0
 31
0.0
  0
LINE
  5
797
330
1E
100
AcDbEntity
  8
0
100
AcDbLine
 10
515.0
 20
603.0
 30
0.0
 11
523.064
 21
603.0
 31
0.0
  0
LINE
  5
798
330
1E
100
AcDbEntity
  8
0
100
AcDbLine
 10
391.215
 20
608.0
 30
0.0
 11
395.283
 21
608.0
 31
0.0
  0
LINE
  5
799
330
1E
100
AcDbEntity
  8
0
100
AcDbLine
 10
390.876
 20
607.76
 30
0.0
 11
395.0
 21
607.76
 31
0.0
  0
LINE
  5
79A
330
1E
100
AcDbEntity
  8
0
100
AcDbLine
 10
395.283
 20
608.0
 30
0.0
 11
399.915
 21
608.0
 31
0.0
  0
LINE
  5
79B
330
1E
100
AcDbEntity
  8
0
100
AcDbLine
 10
395.0
 20
607.76
 30
0.0
 11
399.7459999999999
 21
607.76
 31
0.0
  0
LINE
  5
79C
330
1E
100
AcDbEntity
  8
0
100
AcDbLine
 10
388.1639999999999
 20
608.0
 30
0.0
 11
391.215
 21
608.0
 31
0.0
  0
LINE
  5
79D
330
1E
100
AcDbEntity
  8
0
100
AcDbLine
 10
387.768
 20
607.76
 30
0.0
 11
390.876
 21
607.76
 31
0.0
  0
LINE
  5
79E
330
1E
100
AcDbEntity
  8
0
100
AcDbLine
 10
386.243
 20
608.0
 30
0.0
 11
388.1639999999999
 21
608.0
 31
0.0
  0
LINE
  5
79F
330
1E
100
AcDbEntity
  8
0
100
AcDbLine
 10
385.734
 20
607.76
 30
0.0
 11
387.768
 21
607.76
 31
0.0
  0
LINE
  5
7A0
330
1E
100
AcDbEntity
  8
0
100
AcDbLine
 10
385.565
 20
608.0
 30
0.0
 11
386.243
 21
608.0
 31
0.0
  0
LINE
  5
7A1
330
1E
100
AcDbEntity
  8
0
100
AcDbLine
 10
385.0
 20
607.76
 30
0.0
 11
385.565
 21
608.0
 31
0.0
  0
LINE
  5
7A2
330
1E
100
AcDbEntity
  8
0
100
AcDbLine
 10
385.0
 20
607.76
 30
0.0
 11
385.734
 21
607.76
 31
0.0
  0
LINE
  5
7A3
330
1E
100
AcDbEntity
  8
0
100
AcDbLine
 10
385.0
 20
607.76
 30
0.0
 11
385.0
 21
603.0
 31
0.0
  0
LINE
  5
7A4
330
1E
100
AcDbEntity
  8
0
100
AcDbLine
 10
399.0
 20
608.0
 30
0.0
 11
399.0
 21
621.327
 31
0.0
  0
LINE
  5
7A5
330
1E
100
AcDbEntity
  8
0
100
AcDbLine
 10
399.373
 20
622.0
 30
0.0
 11
399.949
 21
622.0
 31
0.0
  0
LINE
  5
7A6
330
1E
100
AcDbEntity
  8
0
100
AcDbLine
 10
399.169
 20
622.0
 30
0.0
 11
399.373
 21
622.0
 31
0.0
  0
LINE
  5
7A7
330
1E
100
AcDbEntity
  8
0
100
AcDbLine
 10
399.0
 20
621.327
 30
0.0
 11
399.169
 21
622.0
 31
0.0
  0
LINE
  5
7A8
330
1E
100
AcDbEntity
  8
0
100
AcDbLine
 10
399.0
 20
621.327
 30
0.0
 11
399.0
 21
608.0
 31
0.0
  0
LINE
  5
7A9
330
1E
100
AcDbEntity
  8
0
100
AcDbLine
 10
399.169
 20
635.0
 30
0.0
 11
399.373
 21
635.0
 31
0.0
  0
LINE
  5
7AA
330
1E
100
AcDbEntity
  8
0
100
AcDbLine
 10
399.915
 20
608.0
 30
0.0
 11
405.0
 21
608.0
 31
0.0
  0
LINE
  5
7AB
330
1E
100
AcDbEntity
  8
0
100
AcDbLine
 10
399.7459999999999
 20
607.76
 30
0.0
 11
405.0
 21
607.76
 31
0.0
  0
LINE
  5
7AC
330
1E
100
AcDbEntity
  8
0
100
AcDbLine
 10
400.864
 20
622.0
 30
0.0
 11
402.085
 21
622.0
 31
0.0
  0
LINE
  5
7AD
330
1E
100
AcDbEntity
  8
0
100
AcDbLine
 10
399.949
 20
622.0
 30
0.0
 11
400.864
 21
622.0
 31
0.0
  0
LINE
  5
7AE
330
1E
100
AcDbEntity
  8
0
100
AcDbLine
 10
399.373
 20
635.0
 30
0.0
 11
399.949
 21
635.0
 31
0.0
  0
LINE
  5
7AF
330
1E
100
AcDbEntity
  8
0
100
AcDbLine
 10
399.949
 20
635.0
 30
0.0
 11
400.864
 21
635.0
 31
0.0
  0
LINE
  5
7B0
330
1E
100
AcDbEntity
  8
0
100
AcDbLine
 10
400.864
 20
635.0
 30
0.0
 11
401.0
 21
635.0
 31
0.0
  0
LINE
  5
7B1
330
1E
100
AcDbEntity
  8
0
100
AcDbLine
 10
400.864
 20
635.0
 30
0.0
 11
402.085
 21
635.0
 31
0.0
  0
LINE
  5
7B2
330
1E
100
AcDbEntity
  8
0
100
AcDbLine
 10
399.0
 20
635.58
 30
0.0
 11
399.0
 21
644.4199999999999
 31
0.0
  0
LINE
  5
7B3
330
1E
100
AcDbEntity
  8
0
100
AcDbLine
 10
399.0
 20
635.58
 30
0.0
 11
399.169
 21
635.0
 31
0.0
  0
LINE
  5
7B4
330
1E
100
AcDbEntity
  8
0
100
AcDbLine
 10
400.864
 20
645.0
 30
0.0
 11
402.085
 21
645.0
 31
0.0
  0
LINE
  5
7B5
330
1E
100
AcDbEntity
  8
0
100
AcDbLine
 10
399.949
 20
645.0
 30
0.0
 11
400.864
 21
645.0
 31
0.0
  0
LINE
  5
7B6
330
1E
100
AcDbEntity
  8
0
100
AcDbLine
 10
399.373
 20
645.0
 30
0.0
 11
399.949
 21
645.0
 31
0.0
  0
LINE
  5
7B7
330
1E
100
AcDbEntity
  8
0
100
AcDbLine
 10
399.169
 20
645.0
 30
0.0
 11
399.373
 21
645.0
 31
0.0
  0
LINE
  5
7B8
330
1E
100
AcDbEntity
  8
0
100
AcDbLine
 10
399.0
 20
644.4199999999999
 30
0.0
 11
399.169
 21
645.0
 31
0.0
  0
LINE
  5
7B9
330
1E
100
AcDbEntity
  8
0
100
AcDbLine
 10
399.0
 20
644.4199999999999
 30
0.0
 11
399.0
 21
635.58
 31
0.0
  0
LINE
  5
7BA
330
1E
100
AcDbEntity
  8
0
100
AcDbLine
 10
401.0
 20
635.0
 30
0.0
 11
401.0
 21
622.0
 31
0.0
  0
LINE
  5
7BB
330
1E
100
AcDbEntity
  8
0
100
AcDbLine
 10
401.0
 20
635.0
 30
0.0
 11
401.147
 21
635.0
 31
0.0
  0
LINE
  5
7BC
330
1E
100
AcDbEntity
  8
0
100
AcDbLine
 10
402.085
 20
622.0
 30
0.0
 11
403.475
 21
622.0
 31
0.0
  0
LINE
  5
7BD
330
1E
100
AcDbEntity
  8
0
100
AcDbLine
 10
402.085
 20
635.0
 30
0.0
 11
403.475
 21
635.0
 31
0.0
  0
LINE
  5
7BE
330
1E
100
AcDbEntity
  8
0
100
AcDbLine
 10
403.475
 20
622.0
 30
0.0
 11
405.0
 21
622.0
 31
0.0
  0
LINE
  5
7BF
330
1E
100
AcDbEntity
  8
0
100
AcDbLine
 10
403.475
 20
635.0
 30
0.0
 11
405.0
 21
635.0
 31
0.0
  0
LINE
  5
7C0
330
1E
100
AcDbEntity
  8
0
100
AcDbLine
 10
402.1749999999999
 20
635.0
 30
0.0
 11
403.0
 21
635.0
 31
0.0
  0
LINE
  5
7C1
330
1E
100
AcDbEntity
  8
0
100
AcDbLine
 10
403.0
 20
635.0
 30
0.0
 11
403.9489999999999
 21
635.0
 31
0.0
  0
LINE
  5
7C2
330
1E
100
AcDbEntity
  8
0
100
AcDbLine
 10
405.0
 20
608.0
 30
0.0
 11
410.0849999999999
 21
608.0
 31
0.0
  0
LINE
  5
7C3
330
1E
100
AcDbEntity
  8
0
100
AcDbLine
 10
405.0
 20
607.76
 30
0.0
 11
410.254
 21
607.76
 31
0.0
  0
LINE
  5
7C4
330
1E
100
AcDbEntity
  8
0
100
AcDbLine
 10
405.0
 20
622.0
 30
0.0
 11
406.5249999999999
 21
622.0
 31
0.0
  0
LINE
  5
7C5
330
1E
100
AcDbEntity
  8
0
100
AcDbLine
 10
403.9489999999999
 20
635.0
 30
0.0
 11
405.0
 21
635.0
 31
0.0
  0
LINE
  5
7C6
330
1E
100
AcDbEntity
  8
0
100
AcDbLine
 10
405.0
 20
635.0
 30
0.0
 11
406.0509999999999
 21
635.0
 31
0.0
  0
LINE
  5
7C7
330
1E
100
AcDbEntity
  8
0
100
AcDbLine
 10
405.0
 20
635.0
 30
0.0
 11
406.5249999999999
 21
635.0
 31
0.0
  0
LINE
  5
7C8
330
1E
100
AcDbEntity
  8
0
100
AcDbLine
 10
406.5249999999999
 20
622.0
 30
0.0
 11
407.915
 21
622.0
 31
0.0
  0
LINE
  5
7C9
330
1E
100
AcDbEntity
  8
0
100
AcDbLine
 10
407.915
 20
622.0
 30
0.0
 11
409.1359999999999
 21
622.0
 31
0.0
  0
LINE
  5
7CA
330
1E
100
AcDbEntity
  8
0
100
AcDbLine
 10
406.5249999999999
 20
635.0
 30
0.0
 11
407.915
 21
635.0
 31
0.0
  0
LINE
  5
7CB
330
1E
100
AcDbEntity
  8
0
100
AcDbLine
 10
407.915
 20
635.0
 30
0.0
 11
409.1359999999999
 21
635.0
 31
0.0
  0
LINE
  5
7CC
330
1E
100
AcDbEntity
  8
0
100
AcDbLine
 10
406.0509999999999
 20
635.0
 30
0.0
 11
407.0
 21
635.0
 31
0.0
  0
LINE
  5
7CD
330
1E
100
AcDbEntity
  8
0
100
AcDbLine
 10
407.0
 20
635.0
 30
0.0
 11
407.8249999999999
 21
635.0
 31
0.0
  0
LINE
  5
7CE
330
1E
100
AcDbEntity
  8
0
100
AcDbLine
 10
410.0849999999999
 20
608.0
 30
0.0
 11
414.717
 21
608.0
 31
0.0
  0
LINE
  5
7CF
330
1E
100
AcDbEntity
  8
0
100
AcDbLine
 10
410.254
 20
607.76
 30
0.0
 11
415.0
 21
607.76
 31
0.0
  0
LINE
  5
7D0
330
1E
100
AcDbEntity
  8
0
100
AcDbLine
 10
410.6269999999999
 20
622.0
 30
0.0
 11
410.8309999999999
 21
622.0
 31
0.0
  0
LINE
  5
7D1
330
1E
100
AcDbEntity
  8
0
100
AcDbLine
 10
410.8309999999999
 20
622.0
 30
0.0
 11
411.0
 21
621.327
 31
0.0
  0
LINE
  5
7D2
330
1E
100
AcDbEntity
  8
0
100
AcDbLine
 10
410.0509999999999
 20
622.0
 30
0.0
 11
410.6269999999999
 21
622.0
 31
0.0
  0
LINE
  5
7D3
330
1E
100
AcDbEntity
  8
0
100
AcDbLine
 10
409.1359999999999
 20
622.0
 30
0.0
 11
410.0509999999999
 21
622.0
 31
0.0
  0
LINE
  5
7D4
330
1E
100
AcDbEntity
  8
0
100
AcDbLine
 10
411.0
 20
608.0
 30
0.0
 11
411.0
 21
621.327
 31
0.0
  0
LINE
  5
7D5
330
1E
100
AcDbEntity
  8
0
100
AcDbLine
 10
415.0
 20
607.76
 30
0.0
 11
419.124
 21
607.76
 31
0.0
  0
LINE
  5
7D6
330
1E
100
AcDbEntity
  8
0
100
AcDbLine
 10
424.2659999999999
 20
607.76
 30
0.0
 11
425.0
 21
607.76
 31
0.0
  0
LINE
  5
7D7
330
1E
100
AcDbEntity
  8
0
100
AcDbLine
 10
425.0
 20
607.76
 30
0.0
 11
425.0
 21
603.0
 31
0.0
  0
LINE
  5
7D8
330
1E
100
AcDbEntity
  8
0
100
AcDbLine
 10
422.2319999999999
 20
607.76
 30
0.0
 11
424.2659999999999
 21
607.76
 31
0.0
  0
LINE
  5
7D9
330
1E
100
AcDbEntity
  8
0
100
AcDbLine
 10
414.717
 20
608.0
 30
0.0
 11
418.785
 21
608.0
 31
0.0
  0
LINE
  5
7DA
330
1E
100
AcDbEntity
  8
0
100
AcDbLine
 10
423.7569999999999
 20
608.0
 30
0.0
 11
424.4349999999999
 21
608.0
 31
0.0
  0
LINE
  5
7DB
330
1E
100
AcDbEntity
  8
0
100
AcDbLine
 10
424.4349999999999
 20
608.0
 30
0.0
 11
425.0
 21
607.76
 31
0.0
  0
LINE
  5
7DC
330
1E
100
AcDbEntity
  8
0
100
AcDbLine
 10
421.836
 20
608.0
 30
0.0
 11
423.7569999999999
 21
608.0
 31
0.0
  0
LINE
  5
7DD
330
1E
100
AcDbEntity
  8
0
100
AcDbLine
 10
418.785
 20
608.0
 30
0.0
 11
421.836
 21
608.0
 31
0.0
  0
LINE
  5
7DE
330
1E
100
AcDbEntity
  8
0
100
AcDbLine
 10
419.124
 20
607.76
 30
0.0
 11
422.2319999999999
 21
607.76
 31
0.0
  0
LINE
  5
7DF
330
1E
100
AcDbEntity
  8
0
100
AcDbLine
 10
411.0
 20
621.327
 30
0.0
 11
411.0
 21
608.0
 31
0.0
  0
LINE
  5
7E0
330
1E
100
AcDbEntity
  8
0
100
AcDbLine
 10
410.8309999999999
 20
635.0
 30
0.0
 11
411.0
 21
635.58
 31
0.0
  0
LINE
  5
7E1
330
1E
100
AcDbEntity
  8
0
100
AcDbLine
 10
410.6269999999999
 20
635.0
 30
0.0
 11
410.8309999999999
 21
635.0
 31
0.0
  0
LINE
  5
7E2
330
1E
100
AcDbEntity
  8
0
100
AcDbLine
 10
410.0509999999999
 20
635.0
 30
0.0
 11
410.6269999999999
 21
635.0
 31
0.0
  0
LINE
  5
7E3
330
1E
100
AcDbEntity
  8
0
100
AcDbLine
 10
409.1359999999999
 20
635.0
 30
0.0
 11
410.0509999999999
 21
635.0
 31
0.0
  0
LINE
  5
7E4
330
1E
100
AcDbEntity
  8
0
100
AcDbLine
 10
409.0
 20
635.0
 30
0.0
 11
409.0
 21
622.0
 31
0.0
  0
LINE
  5
7E5
330
1E
100
AcDbEntity
  8
0
100
AcDbLine
 10
409.0
 20
635.0
 30
0.0
 11
409.1359999999999
 21
635.0
 31
0.0
  0
LINE
  5
7E6
330
1E
100
AcDbEntity
  8
0
100
AcDbLine
 10
408.853
 20
635.0
 30
0.0
 11
409.0
 21
635.0
 31
0.0
  0
LINE
  5
7E7
330
1E
100
AcDbEntity
  8
0
100
AcDbLine
 10
409.0
 20
622.0
 30
0.0
 11
409.0
 21
635.0
 31
0.0
  0
LINE
  5
7E8
330
1E
100
AcDbEntity
  8
0
100
AcDbLine
 10
408.4459999999999
 20
635.0
 30
0.0
 11
408.853
 21
635.0
 31
0.0
  0
LINE
  5
7E9
330
1E
100
AcDbEntity
  8
0
100
AcDbLine
 10
407.8249999999999
 20
635.0
 30
0.0
 11
408.4459999999999
 21
635.0
 31
0.0
  0
LINE
  5
7EA
330
1E
100
AcDbEntity
  8
0
100
AcDbLine
 10
401.554
 20
635.0
 30
0.0
 11
402.1749999999999
 21
635.0
 31
0.0
  0
LINE
  5
7EB
330
1E
100
AcDbEntity
  8
0
100
AcDbLine
 10
402.085
 20
645.0
 30
0.0
 11
403.475
 21
645.0
 31
0.0
  0
LINE
  5
7EC
330
1E
100
AcDbEntity
  8
0
100
AcDbLine
 10
403.475
 20
645.0
 30
0.0
 11
405.0
 21
645.0
 31
0.0
  0
LINE
  5
7ED
330
1E
100
AcDbEntity
  8
0
100
AcDbLine
 10
405.0
 20
645.0
 30
0.0
 11
406.5249999999999
 21
645.0
 31
0.0
  0
LINE
  5
7EE
330
1E
100
AcDbEntity
  8
0
100
AcDbLine
 10
406.5249999999999
 20
645.0
 30
0.0
 11
407.915
 21
645.0
 31
0.0
  0
LINE
  5
7EF
330
1E
100
AcDbEntity
  8
0
100
AcDbLine
 10
407.915
 20
645.0
 30
0.0
 11
409.1359999999999
 21
645.0
 31
0.0
  0
LINE
  5
7F0
330
1E
100
AcDbEntity
  8
0
100
AcDbLine
 10
410.6269999999999
 20
645.0
 30
0.0
 11
410.8309999999999
 21
645.0
 31
0.0
  0
LINE
  5
7F1
330
1E
100
AcDbEntity
  8
0
100
AcDbLine
 10
410.8309999999999
 20
645.0
 30
0.0
 11
411.0
 21
644.4199999999999
 31
0.0
  0
LINE
  5
7F2
330
1E
100
AcDbEntity
  8
0
100
AcDbLine
 10
410.0509999999999
 20
645.0
 30
0.0
 11
410.6269999999999
 21
645.0
 31
0.0
  0
LINE
  5
7F3
330
1E
100
AcDbEntity
  8
0
100
AcDbLine
 10
409.1359999999999
 20
645.0
 30
0.0
 11
410.0509999999999
 21
645.0
 31
0.0
  0
LINE
  5
7F4
330
1E
100
AcDbEntity
  8
0
100
AcDbLine
 10
411.0
 20
635.58
 30
0.0
 11
411.0
 21
644.4199999999999
 31
0.0
  0
LINE
  5
7F5
330
1E
100
AcDbEntity
  8
0
100
AcDbLine
 10
411.0
 20
644.4199999999999
 30
0.0
 11
411.0
 21
635.58
 31
0.0
  0
LINE
  5
7F6
330
1E
100
AcDbEntity
  8
0
100
AcDbLine
 10
401.147
 20
635.0
 30
0.0
 11
401.554
 21
635.0
 31
0.0
  0
LINE
  5
7F7
330
1E
100
AcDbEntity
  8
0
100
AcDbLine
 10
401.0
 20
622.0
 30
0.0
 11
401.0
 21
635.0
 31
0.0
  0
LINE
  5
7F8
330
1E
100
AcDbEntity
  8
0
100
AcDbLine
 10
546.232
 20
603.0
 30
0.0
 11
547.0
 21
602.826
 31
0.0
  0
LINE
  5
7F9
330
1E
100
AcDbEntity
  8
0
100
AcDbLine
 10
326.232
 20
603.0
 30
0.0
 11
327.0
 21
602.826
 31
0.0
  0
LINE
  5
7FA
330
1E
100
AcDbEntity
  8
0
100
AcDbLine
 10
217.0
 20
602.826
 30
0.0
 11
217.0
 21
600.1739999999999
 31
0.0
  0
LINE
  5
7FB
330
1E
100
AcDbEntity
  8
0
100
AcDbLine
 10
216.232
 20
603.0
 30
0.0
 11
217.0
 21
602.826
 31
0.0
  0
LINE
  5
7FC
330
1E
100
AcDbEntity
  8
0
100
AcDbLine
 10
215.0
 20
550.0
 30
0.0
 11
265.0
 21
550.0
 31
0.0
  0
LINE
  5
7FD
330
1E
100
AcDbEntity
  8
0
100
AcDbLine
 10
149.0
 20
550.0
 30
0.0
 11
155.0
 21
550.0
 31
0.0
  0
LINE
  5
7FE
330
1E
100
AcDbEntity
  8
0
100
AcDbLine
 10
149.0
 20
550.0
 30
0.0
 11
149.0
 21
250.0
 31
0.0
  0
LINE
  5
7FF
330
1E
100
AcDbEntity
  8
0
100
AcDbLine
 10
149.0
 20
450.0
 30
0.0
 11
149.0
 21
250.0
 31
0.0
  0
LINE
  5
800
330
1E
100
AcDbEntity
  8
0
100
AcDbLine
 10
149.0
 20
450.0
 30
0.0
 11
551.0
 21
450.0
 31
0.0
  0
LINE
  5
801
330
1E
100
AcDbEntity
  8
0
100
AcDbLine
 10
700.0
 20
50.0
 30
0.0
 11
700.0
 21
0.000000000000009
 31
0.0
  0
LINE
  5
802
330
1E
100
AcDbEntity
  8
0
100
AcDbLine
 10
700.0
 20
0.0000000000000054
 30
0.0
 11
700.0
 21
50.0
 31
0.0
  0
LINE
  5
803
330
1E
100
AcDbEntity
  8
0
100
AcDbLine
 10
0.0000000000000003
 20
0.0000000000000054
 30
0.0
 11
700.0
 21
0.0000000000000054
 31
0.0
  0
LINE
  5
804
330
1E
100
AcDbEntity
  8
0
100
AcDbLine
 10
0.0000000000000003
 20
0.0000000000000054
 30
0.0
 11
0.0000000000000003
 21
50.0
 31
0.0
  0
LINE
  5
809
330
1E
100
AcDbEntity
  8
0
100
AcDbLine
 10
263.7679999999999
 20
603.0
 30
0.0
 11
326.232
 21
603.0
 31
0.0
  0
LINE
  5
80A
330
1E
100
AcDbEntity
  8
0
100
AcDbLine
 10
373.768
 20
603.0
 30
0.0
 11
436.2319999999999
 21
603.0
 31
0.0
  0
LINE
  5
80B
330
1E
100
AcDbEntity
  8
0
100
AcDbLine
 10
537.0159999999999
 20
603.0
 30
0.0
 11
483.768
 21
603.0
 31
0.0
  0
LINE
  5
80C
330
1E
100
AcDbEntity
  8
0
100
AcDbLine
 10
445.0
 20
490.711
 30
0.0
 11
445.0
 21
469.289
 31
0.0
  0
LINE
  5
80D
330
1E
100
AcDbEntity
  8
0
100
AcDbLine
 10
545.0
 20
490.711
 30
0.0
 11
545.0
 21
469.289
 31
0.0
  0
ENDSEC
  0
SECTION
  2
OBJECTS
  0
DICTIONARY
  5
C
330
0
100
AcDbDictionary
281
     1
  3
ACAD_GROUP
350
D
  3
ACAD_LAYOUT
350
19
  3
ACAD_MLINESTYLE
350
16
  3
ACAD_PLOTSETTINGS
350
18
  3
ACAD_PLOTSTYLENAME
350
E
  3
AcDbVariableDictionary
350
80E
  0
DICTIONARY
  5
D
102
{ACAD_REACTORS
330
C
102
}
330
C
100
AcDbDictionary
281
     1
  0
DICTIONARY
  5
19
102
{ACAD_REACTORS
330
C
102
}
330
C
100
AcDbDictionary
281
     1
  3
Layout1
350
1D
  3
Model
350
21
  0
DICTIONARY
  5
16
102
{ACAD_REACTORS
330
C
102
}
330
C
100
AcDbDictionary
281
     1
  3
Standard
350
17
  0
DICTIONARY
  5
18
102
{ACAD_REACTORS
330
C
102
}
330
C
100
AcDbDictionary
281
     1
  0
ACDBDICTIONARYWDFLT
  5
E
102
{ACAD_REACTORS
330
C
102
}
330
C
100
AcDbDictionary
281
     1
  3
Normal
350
F
100
AcDbDictionaryWithDefault
340
F
  0
DICTIONARY
  5
80E
102
{ACAD_REACTORS
330
C
102
}
330
C
100
AcDbDictionary
281
     1
  3
DIMASSOC
350
80F
  0
LAYOUT
  5
1D
102
{ACAD_REACTORS
330
19
102
}
330
19
100
AcDbPlotSettings
  1

  2
hp deskjet 980c series
  4

  6

 40
0.0
 41
0.0
 42
0.0
 43
0.0
 44
0.0
 45
0.0
 46
0.0
 47
0.0
 48
0.0
 49
0.0
140
0.0
141
0.0
142
1.0
143
1.0
 70
   688
 72
     0
 73
     0
 74
     5
  7

 75
    16
147
1.0
148
0.0
149
0.0
100
AcDbLayout
  1
Layout1
 70
     1
 71
     1
 10
0.0
 20
0.0
 11
12.0
 21
9.0
 12
0.0
 22
0.0
 32
0.0
 14
1.000000000000000E+20
 24
1.000000000000000E+20
 34
1.000000000000000E+20
 15
-1.000000000000000E+20
 25
-1.000000000000000E+20
 35
-1.000000000000000E+20
146
0.0
 13
0.0
 23
0.0
 33
0.0
 16
1.0
 26
0.0
 36
0.0
 17
0.0
 27
1.0
 37
0.0
 76
     0
330
1A
  0
LAYOUT
  5
21
102
{ACAD_REACTORS
330
19
102
}
330
19
100
AcDbPlotSettings
  1

  2
hp deskjet 980c series
  4

  6

 40
0.0
 41
0.0
 42
0.0
 43
0.0
 44
0.0
 45
0.0
 46
0.0
 47
0.0
 48
0.0
 49
0.0
140
0.0
141
0.0
142
1.0
143
1.0
 70
  1712
 72
     0
 73
     0
 74
     0
  7

 75
     0
147
1.0
148
0.0
149
0.0
100
AcDbLayout
  1
Model
 70
     1
 71
     0
 10
0.0
 20
0.0
 11
12.0
 21
9.0
 12
0.0
 22
0.0
 32
0.0
 14
0.0
 24
0.0
 34
0.0
 15
0.0
 25
0.0
 35
0.0
146
0.0
 13
0.0
 23
0.0
 33
0.0
 16
1.0
 26
0.0
 36
0.0
 17
0.0
 27
1.0
 37
0.0
 76
     0
330
1E
  0
MLINESTYLE
  5
17
102
{ACAD_REACTORS
330
16
102
}
330
16
100
AcDbMlineStyle
  2
STANDARD
 70
     0
  3

 62
   256
 51
90.0
 52
90.0
 71
     2
 49
0.5
 62
   256
  6
BYLAYER
 49
-0.5
 62
   256
  6
BYLAYER
  0
ACDBPLACEHOLDER
  5
F
102
{ACAD_REACTORS
330
E
102
}
330
E
  0
DICTIONARYVAR
  5
80F
102
{ACAD_REACTORS
330
80E
102
}
330
80E
100
DictionaryVariables
280
     0
  1
1
  0
ENDSEC
  0
EOF
