  0
SECTION
  2
HEADER
  9
$ACADVER
  1
AC1015
  9
$ACADMAINTVER
 70
    13
  9
$DWGCODEPAGE
  3
ANSI_1252
  9
$INSBASE
 10
0.0
 20
0.0
 30
0.0
  9
$EXTMIN
 10
0.0
 20
-0.0000000000000088
 30
0.0
  9
$EXTMAX
 10
700.0
 20
632.0
 30
0.0
  9
$LIMMIN
 10
0.0
 20
0.0
  9
$LIMMAX
 10
12.0
 20
9.0
  9
$ORTHOMODE
 70
     0
  9
$REGENMODE
 70
     1
  9
$FILLMODE
 70
     1
  9
$QTEXTMODE
 70
     0
  9
$MIRRTEXT
 70
     1
  9
$LTSCALE
 40
1.0
  9
$ATTMODE
 70
     1
  9
$TEXTSIZE
 40
0.2
  9
$TRACEWID
 40
0.05
  9
$TEXTSTYLE
  7
Standard
  9
$CLAYER
  8
0
  9
$CELTYPE
  6
Continuous
  9
$CECOLOR
 62
   256
  9
$CELTSCALE
 40
1.0
  9
$DISPSILH
 70
     0
  9
$DIMSCALE
 40
1.0
  9
$DIMASZ
 40
0.18
  9
$DIMEXO
 40
0.0625
  9
$DIMDLI
 40
0.38
  9
$DIMRND
 40
0.0
  9
$DIMDLE
 40
0.0
  9
$DIMEXE
 40
0.18
  9
$DIMTP
 40
0.0
  9
$DIMTM
 40
0.0
  9
$DIMTXT
 40
0.18
  9
$DIMCEN
 40
0.09
  9
$DIMTSZ
 40
0.0
  9
$DIMTOL
 70
     0
  9
$DIMLIM
 70
     0
  9
$DIMTIH
 70
     1
  9
$DIMTOH
 70
     1
  9
$DIMSE1
 70
     0
  9
$DIMSE2
 70
     0
  9
$DIMTAD
 70
     0
  9
$DIMZIN
 70
     0
  9
$DIMBLK
  1

  9
$DIMASO
 70
     1
  9
$DIMSHO
 70
     1
  9
$DIMPOST
  1

  9
$DIMAPOST
  1

  9
$DIMALT
 70
     0
  9
$DIMALTD
 70
     2
  9
$DIMALTF
 40
25.4
  9
$DIMLFAC
 40
1.0
  9
$DIMTOFL
 70
     0
  9
$DIMTVP
 40
0.0
  9
$DIMTIX
 70
     0
  9
$DIMSOXD
 70
     0
  9
$DIMSAH
 70
     0
  9
$DIMBLK1
  1

  9
$DIMBLK2
  1

  9
$DIMSTYLE
  2
Standard
  9
$DIMCLRD
 70
     0
  9
$DIMCLRE
 70
     0
  9
$DIMCLRT
 70
     0
  9
$DIMTFAC
 40
1.0
  9
$DIMGAP
 40
0.09
  9
$DIMJUST
 70
     0
  9
$DIMSD1
 70
     0
  9
$DIMSD2
 70
     0
  9
$DIMTOLJ
 70
     1
  9
$DIMTZIN
 70
     0
  9
$DIMALTZ
 70
     0
  9
$DIMALTTZ
 70
     0
  9
$DIMUPT
 70
     0
  9
$DIMDEC
 70
     4
  9
$DIMTDEC
 70
     4
  9
$DIMALTU
 70
     2
  9
$DIMALTTD
 70
     2
  9
$DIMTXSTY
  7
Standard
  9
$DIMAUNIT
 70
     0
  9
$DIMADEC
 70
     0
  9
$DIMALTRND
 40
0.0
  9
$DIMAZIN
 70
     0
  9
$DIMDSEP
 70
    46
  9
$DIMATFIT
 70
     3
  9
$DIMFRAC
 70
     0
  9
$DIMLDRBLK
  1

  9
$DIMLUNIT
 70
     2
  9
$DIMLWD
 70
    -2
  9
$DIMLWE
 70
    -2
  9
$DIMTMOVE
 70
     0
  9
$LUNITS
 70
     2
  9
$LUPREC
 70
     4
  9
$SKETCHINC
 40
0.1
  9
$FILLETRAD
 40
0.0
  9
$AUNITS
 70
     0
  9
$AUPREC
 70
     0
  9
$MENU
  1
.
  9
$ELEVATION
 40
0.0
  9
$PELEVATION
 40
0.0
  9
$THICKNESS
 40
0.0
  9
$LIMCHECK
 70
     0
  9
$CHAMFERA
 40
0.0
  9
$CHAMFERB
 40
0.0
  9
$CHAMFERC
 40
0.0
  9
$CHAMFERD
 40
0.0
  9
$SKPOLY
 70
     0
  9
$TDCREATE
 40
2454780.715896990
  9
$TDUCREATE
 40
2454780.674230324
  9
$TDUPDATE
 40
2454780.718453588
  9
$TDUUPDATE
 40
2454780.676786921
  9
$TDINDWG
 40
0.0025567824
  9
$TDUSRTIMER
 40
0.0025567824
  9
$USRTIMER
 70
     1
  9
$ANGBASE
 50
0.0
  9
$ANGDIR
 70
     0
  9
$PDMODE
 70
     0
  9
$PDSIZE
 40
0.0
  9
$PLINEWID
 40
0.0
  9
$SPLFRAME
 70
     0
  9
$SPLINETYPE
 70
     6
  9
$SPLINESEGS
 70
     8
  9
$HANDSEED
  5
816
  9
$SURFTAB1
 70
     6
  9
$SURFTAB2
 70
     6
  9
$SURFTYPE
 70
     6
  9
$SURFU
 70
     6
  9
$SURFV
 70
     6
  9
$UCSBASE
  2

  9
$UCSNAME
  2

  9
$UCSORG
 10
0.0
 20
0.0
 30
0.0
  9
$UCSXDIR
 10
1.0
 20
0.0
 30
0.0
  9
$UCSYDIR
 10
0.0
 20
1.0
 30
0.0
  9
$UCSORTHOREF
  2

  9
$UCSORTHOVIEW
 70
     1
  9
$UCSORGTOP
 10
0.0
 20
0.0
 30
0.0
  9
$UCSORGBOTTOM
 10
0.0
 20
0.0
 30
0.0
  9
$UCSORGLEFT
 10
0.0
 20
0.0
 30
0.0
  9
$UCSORGRIGHT
 10
0.0
 20
0.0
 30
0.0
  9
$UCSORGFRONT
 10
0.0
 20
0.0
 30
0.0
  9
$UCSORGBACK
 10
0.0
 20
0.0
 30
0.0
  9
$PUCSBASE
  2

  9
$PUCSNAME
  2

  9
$PUCSORG
 10
0.0
 20
0.0
 30
0.0
  9
$PUCSXDIR
 10
1.0
 20
0.0
 30
0.0
  9
$PUCSYDIR
 10
0.0
 20
1.0
 30
0.0
  9
$PUCSORTHOREF
  2

  9
$PUCSORTHOVIEW
 70
     0
  9
$PUCSORGTOP
 10
0.0
 20
0.0
 30
0.0
  9
$PUCSORGBOTTOM
 10
0.0
 20
0.0
 30
0.0
  9
$PUCSORGLEFT
 10
0.0
 20
0.0
 30
0.0
  9
$PUCSORGRIGHT
 10
0.0
 20
0.0
 30
0.0
  9
$PUCSORGFRONT
 10
0.0
 20
0.0
 30
0.0
  9
$PUCSORGBACK
 10
0.0
 20
0.0
 30
0.0
  9
$USERI1
 70
     0
  9
$USERI2
 70
     0
  9
$USERI3
 70
     0
  9
$USERI4
 70
     0
  9
$USERI5
 70
     0
  9
$USERR1
 40
0.0
  9
$USERR2
 40
0.0
  9
$USERR3
 40
0.0
  9
$USERR4
 40
0.0
  9
$USERR5
 40
0.0
  9
$WORLDVIEW
 70
     1
  9
$SHADEDGE
 70
     3
  9
$SHADEDIF
 70
    70
  9
$TILEMODE
 70
     1
  9
$MAXACTVP
 70
    64
  9
$PINSBASE
 10
0.0
 20
0.0
 30
0.0
  9
$PLIMCHECK
 70
     0
  9
$PEXTMIN
 10
1.000000000000000E+20
 20
1.000000000000000E+20
 30
1.000000000000000E+20
  9
$PEXTMAX
 10
-1.000000000000000E+20
 20
-1.000000000000000E+20
 30
-1.000000000000000E+20
  9
$PLIMMIN
 10
0.0
 20
0.0
  9
$PLIMMAX
 10
12.0
 20
9.0
  9
$UNITMODE
 70
     0
  9
$VISRETAIN
 70
     1
  9
$PLINEGEN
 70
     0
  9
$PSLTSCALE
 70
     1
  9
$TREEDEPTH
 70
  3020
  9
$CMLSTYLE
  2
Standard
  9
$CMLJUST
 70
     0
  9
$CMLSCALE
 40
1.0
  9
$PROXYGRAPHICS
 70
     1
  9
$MEASUREMENT
 70
     0
  9
$CELWEIGHT
370
    -1
  9
$ENDCAPS
280
     0
  9
$JOINSTYLE
280
     0
  9
$LWDISPLAY
290
     0
  9
$INSUNITS
 70
     0
  9
$HYPERLINKBASE
  1

  9
$STYLESHEET
  1

  9
$XEDIT
290
     1
  9
$CEPSNTYPE
380
     0
  9
$PSTYLEMODE
290
     1
  9
$FINGERPRINTGUID
  2
{71EF797F-5621-417C-859A-1D8F13985D32}
  9
$VERSIONGUID
  2
{E35E7829-5695-4A92-8B7A-BEC4B23F8EFD}
  9
$EXTNAMES
290
     1
  9
$PSVPSCALE
 40
0.0
  9
$OLESTARTUP
290
     0
  0
ENDSEC
  0
SECTION
  2
CLASSES
  0
CLASS
  1
ACDBDICTIONARYWDFLT
  2
AcDbDictionaryWithDefault
  3
AutoCAD 2000
 90
        0
280
     0
281
     0
  0
CLASS
  1
ACDBPLACEHOLDER
  2
AcDbPlaceHolder
  3
AutoCAD 2000
 90
        0
280
     0
281
     0
  0
CLASS
  1
LAYOUT
  2
AcDbLayout
  3
AutoCAD 2000
 90
        0
280
     0
281
     0
  0
CLASS
  1
DICTIONARYVAR
  2
AcDbDictionaryVar
  3
AutoCAD 2000
 90
        0
280
     0
281
     0
  0
ENDSEC
  0
SECTION
  2
TABLES
  0
TABLE
  2
VPORT
  5
8
330
0
100
AcDbSymbolTable
 70
     2
  0
VPORT
  5
815
330
8
100
AcDbSymbolTableRecord
100
AcDbViewportTableRecord
  2
*Active
 70
     0
 10
0.0
 20
0.0
 11
1.0
 21
1.0
 12
350.0
 22
316.0
 13
0.0
 23
0.0
 14
1.0
 24
1.0
 15
0.0
 25
0.0
 16
0.0
 26
0.0
 36
1.0
 17
0.0
 27
0.0
 37
0.0
 40
636.849104859335
 41
2.078104993597951
 42
50.0
 43
0.0
 44
0.0
 50
0.0
 51
0.0
 71
     0
 72
   100
 73
     1
 74
     3
 75
     0
 76
     0
 77
     0
 78
     0
281
     0
 65
     1
110
0.0
120
0.0
130
0.0
111
1.0
121
0.0
131
0.0
112
0.0
122
1.0
132
0.0
 79
     1
146
0.0
  0
ENDTAB
  0
TABLE
  2
LTYPE
  5
5
330
0
100
AcDbSymbolTable
 70
     1
  0
LTYPE
  5
13
330
5
100
AcDbSymbolTableRecord
100
AcDbLinetypeTableRecord
  2
ByBlock
 70
     0
  3

 72
    65
 73
     0
 40
0.0
  0
LTYPE
  5
14
330
5
100
AcDbSymbolTableRecord
100
AcDbLinetypeTableRecord
  2
ByLayer
 70
     0
  3

 72
    65
 73
     0
 40
0.0
  0
LTYPE
  5
15
330
5
100
AcDbSymbolTableRecord
100
AcDbLinetypeTableRecord
  2
Continuous
 70
     0
  3
Solid line
 72
    65
 73
     0
 40
0.0
  0
ENDTAB
  0
TABLE
  2
LAYER
  5
2
330
0
100
AcDbSymbolTable
 70
     1
  0
LAYER
  5
10
330
2
100
AcDbSymbolTableRecord
100
AcDbLayerTableRecord
  2
0
 70
     0
 62
     7
  6
Continuous
370
    -3
390
F
  0
ENDTAB
  0
TABLE
  2
STYLE
  5
3
330
0
100
AcDbSymbolTable
 70
     1
  0
STYLE
  5
11
330
3
100
AcDbSymbolTableRecord
100
AcDbTextStyleTableRecord
  2
Standard
 70
     0
 40
0.0
 41
1.0
 50
0.0
 71
     0
 42
0.2
  3
txt
  4

  0
ENDTAB
  0
TABLE
  2
VIEW
  5
6
330
0
100
AcDbSymbolTable
 70
     0
  0
ENDTAB
  0
TABLE
  2
UCS
  5
7
330
0
100
AcDbSymbolTable
 70
     0
  0
ENDTAB
  0
TABLE
  2
APPID
  5
9
330
0
100
AcDbSymbolTable
 70
     1
  0
APPID
  5
12
330
9
100
AcDbSymbolTableRecord
100
AcDbRegAppTableRecord
  2
ACAD
 70
     0
  0
ENDTAB
  0
TABLE
  2
DIMSTYLE
  5
A
330
0
100
AcDbSymbolTable
 70
     1
100
AcDbDimStyleTable
 71
     0
  0
DIMSTYLE
105
80D
330
A
100
AcDbSymbolTableRecord
100
AcDbDimStyleTableRecord
  2
Standard
 70
     0
340
11
  0
ENDTAB
  0
TABLE
  2
BLOCK_RECORD
  5
1
330
0
100
AcDbSymbolTable
 70
     0
  0
BLOCK_RECORD
  5
1E
330
1
100
AcDbSymbolTableRecord
100
AcDbBlockTableRecord
  2
*Model_Space
340
21
  0
BLOCK_RECORD
  5
1A
330
1
100
AcDbSymbolTableRecord
100
AcDbBlockTableRecord
  2
*Paper_Space
340
1D
  0
ENDTAB
  0
ENDSEC
  0
SECTION
  2
BLOCKS
  0
BLOCK
  5
1F
330
1E
100
AcDbEntity
  8
0
100
AcDbBlockBegin
  2
*Model_Space
 70
     0
 10
0.0
 20
0.0
 30
0.0
  3
*Model_Space
  1

  0
ENDBLK
  5
20
330
1E
100
AcDbEntity
  8
0
100
AcDbBlockEnd
  0
BLOCK
  5
1B
330
1A
100
AcDbEntity
 67
     1
  8
0
100
AcDbBlockBegin
  2
*Paper_Space
 70
     0
 10
0.0
 20
0.0
 30
0.0
  3
*Paper_Space
  1

  0
ENDBLK
  5
1C
330
1A
100
AcDbEntity
 67
     1
  8
0
100
AcDbBlockEnd
  0
ENDSEC
  0
SECTION
  2
ENTITIES
  0
LINE
  5
22
330
1E
100
AcDbEntity
  8
0
100
AcDbLine
 10
0.0
 20
-0.0000000000000064
 30
0.0
 11
700.0
 21
-0.0000000000000064
 31
0.0
  0
LINE
  5
23
330
1E
100
AcDbEntity
  8
0
100
AcDbLine
 10
0.0000000000000003
 20
-0.0000000000000064
 30
0.0
 11
700.0
 21
-0.0000000000000064
 31
0.0
  0
LINE
  5
24
330
1E
100
AcDbEntity
  8
0
100
AcDbLine
 10
0.0000000000000003
 20
-0.0000000000000064
 30
0.0
 11
0.0000000000000003
 21
50.0
 31
0.0
  0
LINE
  5
25
330
1E
100
AcDbEntity
  8
0
100
AcDbLine
 10
0.0
 20
50.0
 30
0.0
 11
149.0
 21
250.0
 31
0.0
  0
LINE
  5
26
330
1E
100
AcDbEntity
  8
0
100
AcDbLine
 10
0.0000000000000003
 20
50.0
 30
0.0
 11
0.0000000000000003
 21
-0.0000000000000088
 31
0.0
  0
LINE
  5
27
330
1E
100
AcDbEntity
  8
0
100
AcDbLine
 10
0.0000000000000003
 20
50.0
 30
0.0
 11
0.0000000000000003
 21
0.0000000000000088
 31
0.0
  0
LINE
  5
28
330
1E
100
AcDbEntity
  8
0
100
AcDbLine
 10
0.0000000000000003
 20
50.0
 30
0.0
 11
149.0
 21
250.0
 31
0.0
  0
LINE
  5
29
330
1E
100
AcDbEntity
  8
0
100
AcDbLine
 10
0.0
 20
0.0000000000000059
 30
0.0
 11
700.0
 21
0.0000000000000059
 31
0.0
  0
LINE
  5
2A
330
1E
100
AcDbEntity
  8
0
100
AcDbLine
 10
90.0
 20
-0.0000000000000062
 30
0.0
 11
92.0
 21
-0.0000000000000061
 31
0.0
  0
LINE
  5
2B
330
1E
100
AcDbEntity
  8
0
100
AcDbLine
 10
90.0
 20
-0.0000000000000062
 30
0.0
 11
120.0
 21
-0.0000000000000062
 31
0.0
  0
LINE
  5
2C
330
1E
100
AcDbEntity
  8
0
100
AcDbLine
 10
118.0
 20
-0.0000000000000061
 30
0.0
 11
120.0
 21
-0.0000000000000062
 31
0.0
  0
LINE
  5
2D
330
1E
100
AcDbEntity
  8
0
100
AcDbLine
 10
92.0
 20
-0.0000000000000061
 30
0.0
 11
118.0
 21
-0.0000000000000061
 31
0.0
  0
LINE
  5
2E
330
1E
100
AcDbEntity
  8
0
100
AcDbLine
 10
580.0
 20
-0.0000000000000062
 30
0.0
 11
610.0
 21
-0.0000000000000062
 31
0.0
  0
LINE
  5
2F
330
1E
100
AcDbEntity
  8
0
100
AcDbLine
 10
580.0
 20
-0.0000000000000062
 30
0.0
 11
582.0
 21
-0.0000000000000061
 31
0.0
  0
LINE
  5
30
330
1E
100
AcDbEntity
  8
0
100
AcDbLine
 10
582.0
 20
-0.0000000000000061
 30
0.0
 11
608.0
 21
-0.0000000000000061
 31
0.0
  0
LINE
  5
31
330
1E
100
AcDbEntity
  8
0
100
AcDbLine
 10
118.0
 20
-0.0000000000000056
 30
0.0
 11
120.0
 21
-0.0000000000000056
 31
0.0
  0
LINE
  5
32
330
1E
100
AcDbEntity
  8
0
100
AcDbLine
 10
90.0
 20
-0.0000000000000056
 30
0.0
 11
92.0
 21
-0.0000000000000056
 31
0.0
  0
LINE
  5
33
330
1E
100
AcDbEntity
  8
0
100
AcDbLine
 10
580.0
 20
-0.0000000000000056
 30
0.0
 11
582.0
 21
-0.0000000000000056
 31
0.0
  0
LINE
  5
34
330
1E
100
AcDbEntity
  8
0
100
AcDbLine
 10
608.0
 20
-0.0000000000000061
 30
0.0
 11
610.0
 21
-0.0000000000000062
 31
0.0
  0
LINE
  5
35
330
1E
100
AcDbEntity
  8
0
100
AcDbLine
 10
608.0
 20
-0.0000000000000056
 30
0.0
 11
610.0
 21
-0.0000000000000056
 31
0.0
  0
LINE
  5
36
330
1E
100
AcDbEntity
  8
0
100
AcDbLine
 10
92.0
 20
173.4899328859059
 30
0.0
 11
92.0
 21
580.0
 31
0.0
  0
LINE
  5
37
330
1E
100
AcDbEntity
  8
0
100
AcDbLine
 10
90.0
 20
170.805369127517
 30
0.0
 11
90.0
 21
580.0
 31
0.0
  0
LINE
  5
38
330
1E
100
AcDbEntity
  8
0
100
AcDbLine
 10
120.0
 20
211.073825503356
 30
0.0
 11
120.0
 21
300.0
 31
0.0
  0
LINE
  5
39
330
1E
100
AcDbEntity
  8
0
100
AcDbLine
 10
118.0
 20
208.3892617449659
 30
0.0
 11
118.0
 21
300.0
 31
0.0
  0
LINE
  5
3A
330
1E
100
AcDbEntity
  8
0
100
AcDbLine
 10
92.0
 20
325.0
 30
0.0
 11
149.0
 21
325.0
 31
0.0
  0
LINE
  5
3B
330
1E
100
AcDbEntity
  8
0
100
AcDbLine
 10
92.0
 20
300.0
 30
0.0
 11
149.0
 21
300.0
 31
0.0
  0
LINE
  5
3C
330
1E
100
AcDbEntity
  8
0
100
AcDbLine
 10
92.0
 20
300.0
 30
0.0
 11
118.0
 21
300.0
 31
0.0
  0
LINE
  5
3D
330
1E
100
AcDbEntity
  8
0
100
AcDbLine
 10
92.0
 20
300.0
 30
0.0
 11
92.0
 21
325.0
 31
0.0
  0
LINE
  5
3E
330
1E
100
AcDbEntity
  8
0
100
AcDbLine
 10
92.0
 20
300.0
 30
0.0
 11
118.0
 21
300.0
 31
0.0
  0
LINE
  5
3F
330
1E
100
AcDbEntity
  8
0
100
AcDbLine
 10
92.0
 20
300.0
 30
0.0
 11
149.0
 21
300.0
 31
0.0
  0
LINE
  5
40
330
1E
100
AcDbEntity
  8
0
100
AcDbLine
 10
92.0
 20
325.0
 30
0.0
 11
149.0
 21
325.0
 31
0.0
  0
LINE
  5
41
330
1E
100
AcDbEntity
  8
0
100
AcDbLine
 10
92.0
 20
325.0
 30
0.0
 11
92.0
 21
300.0
 31
0.0
  0
LINE
  5
42
330
1E
100
AcDbEntity
  8
0
100
AcDbLine
 10
120.0
 20
300.0
 30
0.0
 11
149.0
 21
300.0
 31
0.0
  0
LINE
  5
43
330
1E
100
AcDbEntity
  8
0
100
AcDbLine
 10
120.0
 20
325.0
 30
0.0
 11
120.0
 21
580.0
 31
0.0
  0
LINE
  5
44
330
1E
100
AcDbEntity
  8
0
100
AcDbLine
 10
118.0
 20
300.0
 30
0.0
 11
118.0
 21
208.3892617449659
 31
0.0
  0
LINE
  5
45
330
1E
100
AcDbEntity
  8
0
100
AcDbLine
 10
92.0
 20
400.0
 30
0.0
 11
118.0
 21
400.0
 31
0.0
  0
LINE
  5
46
330
1E
100
AcDbEntity
  8
0
100
AcDbLine
 10
92.0
 20
400.0
 30
0.0
 11
92.0
 21
580.0
 31
0.0
  0
LINE
  5
47
330
1E
100
AcDbEntity
  8
0
100
AcDbLine
 10
118.0
 20
400.0
 30
0.0
 11
118.0
 21
325.0
 31
0.0
  0
LINE
  5
48
330
1E
100
AcDbEntity
  8
0
100
AcDbLine
 10
118.0
 20
400.0
 30
0.0
 11
118.0
 21
580.0
 31
0.0
  0
LINE
  5
49
330
1E
100
AcDbEntity
  8
0
100
AcDbLine
 10
118.0
 20
325.0
 30
0.0
 11
118.0
 21
400.0
 31
0.0
  0
LINE
  5
4A
330
1E
100
AcDbEntity
  8
0
100
AcDbLine
 10
118.0
 20
325.0
 30
0.0
 11
118.0
 21
580.0
 31
0.0
  0
LINE
  5
50
330
1E
100
AcDbEntity
  8
0
100
AcDbLine
 10
175.0
 20
450.0
 30
0.0
 11
175.0
 21
463.0
 31
0.0
  0
LINE
  5
51
330
1E
100
AcDbEntity
  8
0
100
AcDbLine
 10
195.0
 20
450.0
 30
0.0
 11
195.0
 21
463.0
 31
0.0
  0
LINE
  5
55
330
1E
100
AcDbEntity
  8
0
100
AcDbLine
 10
551.0
 20
300.0
 30
0.0
 11
608.0
 21
300.0
 31
0.0
  0
LINE
  5
56
330
1E
100
AcDbEntity
  8
0
100
AcDbLine
 10
551.0
 20
300.0
 30
0.0
 11
580.0
 21
300.0
 31
0.0
  0
LINE
  5
57
330
1E
100
AcDbEntity
  8
0
100
AcDbLine
 10
497.0
 20
450.0
 30
0.0
 11
497.0
 21
483.0
 31
0.0
  0
LINE
  5
5D
330
1E
100
AcDbEntity
  8
0
100
AcDbLine
 10
533.0
 20
450.0
 30
0.0
 11
533.0
 21
483.0
 31
0.0
  0
LINE
  5
5E
330
1E
100
AcDbEntity
  8
0
100
AcDbLine
 10
551.0
 20
325.0
 30
0.0
 11
608.0
 21
325.0
 31
0.0
  0
LINE
  5
5F
330
1E
100
AcDbEntity
  8
0
100
AcDbLine
 10
415.0
 20
450.0
 30
0.0
 11
415.0
 21
463.0
 31
0.0
  0
LINE
  5
60
330
1E
100
AcDbEntity
  8
0
100
AcDbLine
 10
395.0
 20
450.0
 30
0.0
 11
395.0
 21
463.0
 31
0.0
  0
LINE
  5
61
330
1E
100
AcDbEntity
  8
0
100
AcDbLine
 10
305.0
 20
450.0
 30
0.0
 11
305.0
 21
465.0
 31
0.0
  0
LINE
  5
62
330
1E
100
AcDbEntity
  8
0
100
AcDbLine
 10
285.0
 20
450.0
 30
0.0
 11
285.0
 21
465.0
 31
0.0
  0
LINE
  5
63
330
1E
100
AcDbEntity
  8
0
100
AcDbLine
 10
551.0
 20
450.0
 30
0.0
 11
551.0
 21
550.0
 31
0.0
  0
LINE
  5
64
330
1E
100
AcDbEntity
  8
0
100
AcDbLine
 10
149.0
 20
250.0
 30
0.0
 11
149.0
 21
550.0
 31
0.0
  0
LINE
  5
65
330
1E
100
AcDbEntity
  8
0
100
AcDbLine
 10
610.0
 20
170.805369127517
 30
0.0
 11
610.0
 21
580.0
 31
0.0
  0
LINE
  5
66
330
1E
100
AcDbEntity
  8
0
100
AcDbLine
 10
582.0
 20
208.3892617449659
 30
0.0
 11
582.0
 21
300.0
 31
0.0
  0
LINE
  5
67
330
1E
100
AcDbEntity
  8
0
100
AcDbLine
 10
582.0
 20
300.0
 30
0.0
 11
582.0
 21
208.3892617449659
 31
0.0
  0
LINE
  5
68
330
1E
100
AcDbEntity
  8
0
100
AcDbLine
 10
582.0
 20
300.0
 30
0.0
 11
608.0
 21
300.0
 31
0.0
  0
LINE
  5
69
330
1E
100
AcDbEntity
  8
0
100
AcDbLine
 10
580.0
 20
211.073825503356
 30
0.0
 11
580.0
 21
300.0
 31
0.0
  0
LINE
  5
6A
330
1E
100
AcDbEntity
  8
0
100
AcDbLine
 10
582.0
 20
400.0
 30
0.0
 11
582.0
 21
580.0
 31
0.0
  0
LINE
  5
6B
330
1E
100
AcDbEntity
  8
0
100
AcDbLine
 10
582.0
 20
400.0
 30
0.0
 11
608.0
 21
400.0
 31
0.0
  0
LINE
  5
6C
330
1E
100
AcDbEntity
  8
0
100
AcDbLine
 10
582.0
 20
325.0
 30
0.0
 11
582.0
 21
580.0
 31
0.0
  0
LINE
  5
6D
330
1E
100
AcDbEntity
  8
0
100
AcDbLine
 10
580.0
 20
325.0
 30
0.0
 11
580.0
 21
580.0
 31
0.0
  0
LINE
  5
6E
330
1E
100
AcDbEntity
  8
0
100
AcDbLine
 10
580.0
 20
300.0
 30
0.0
 11
580.0
 21
211.073825503356
 31
0.0
  0
LINE
  5
6F
330
1E
100
AcDbEntity
  8
0
100
AcDbLine
 10
608.0
 20
300.0
 30
0.0
 11
608.0
 21
173.4899328859059
 31
0.0
  0
LINE
  5
70
330
1E
100
AcDbEntity
  8
0
100
AcDbLine
 10
608.0
 20
300.0
 30
0.0
 11
608.0
 21
325.0
 31
0.0
  0
LINE
  5
71
330
1E
100
AcDbEntity
  8
0
100
AcDbLine
 10
608.0
 20
400.0
 30
0.0
 11
608.0
 21
325.0
 31
0.0
  0
LINE
  5
72
330
1E
100
AcDbEntity
  8
0
100
AcDbLine
 10
608.0
 20
400.0
 30
0.0
 11
608.0
 21
580.0
 31
0.0
  0
LINE
  5
73
330
1E
100
AcDbEntity
  8
0
100
AcDbLine
 10
608.0
 20
325.0
 30
0.0
 11
608.0
 21
580.0
 31
0.0
  0
LINE
  5
74
330
1E
100
AcDbEntity
  8
0
100
AcDbLine
 10
608.0
 20
325.0
 30
0.0
 11
608.0
 21
400.0
 31
0.0
  0
LINE
  5
75
330
1E
100
AcDbEntity
  8
0
100
AcDbLine
 10
608.0
 20
325.0
 30
0.0
 11
608.0
 21
300.0
 31
0.0
  0
LINE
  5
76
330
1E
100
AcDbEntity
  8
0
100
AcDbLine
 10
608.0
 20
173.4899328859059
 30
0.0
 11
608.0
 21
300.0
 31
0.0
  0
LINE
  5
77
330
1E
100
AcDbEntity
  8
0
100
AcDbLine
 10
551.0
 20
250.0
 30
0.0
 11
551.0
 21
450.0
 31
0.0
  0
LINE
  5
78
330
1E
100
AcDbEntity
  8
0
100
AcDbLine
 10
551.0
 20
250.0
 30
0.0
 11
700.0
 21
50.0
 31
0.0
  0
LINE
  5
79
330
1E
100
AcDbEntity
  8
0
100
AcDbLine
 10
551.0
 20
250.0
 30
0.0
 11
700.0
 21
50.0
 31
0.0
  0
LINE
  5
7A
330
1E
100
AcDbEntity
  8
0
100
AcDbLine
 10
148.7299999999999
 20
578.853
 30
0.0
 11
149.358
 21
578.853
 31
0.0
  0
LINE
  5
7B
330
1E
100
AcDbEntity
  8
0
100
AcDbLine
 10
148.2659999999999
 20
578.853
 30
0.0
 11
148.7299999999999
 21
578.853
 31
0.0
  0
LINE
  5
7C
330
1E
100
AcDbEntity
  8
0
100
AcDbLine
 10
147.963
 20
578.853
 30
0.0
 11
148.2659999999999
 21
578.853
 31
0.0
  0
LINE
  5
7D
330
1E
100
AcDbEntity
  8
0
100
AcDbLine
 10
148.749
 20
578.853
 30
0.0
 11
149.37
 21
578.853
 31
0.0
  0
LINE
  5
7E
330
1E
100
AcDbEntity
  8
0
100
AcDbLine
 10
148.2589999999999
 20
578.853
 30
0.0
 11
148.749
 21
578.853
 31
0.0
  0
LINE
  5
7F
330
1E
100
AcDbEntity
  8
0
100
AcDbLine
 10
147.96
 20
578.853
 30
0.0
 11
148.2589999999999
 21
578.853
 31
0.0
  0
LINE
  5
80
330
1E
100
AcDbEntity
  8
0
100
AcDbLine
 10
70.0
 20
580.0
 30
0.0
 11
630.0
 21
580.0
 31
0.0
  0
LINE
  5
81
330
1E
100
AcDbEntity
  8
0
100
AcDbLine
 10
70.0
 20
580.0
 30
0.0
 11
147.8679999999999
 21
580.0
 31
0.0
  0
LINE
  5
82
330
1E
100
AcDbEntity
  8
0
100
AcDbLine
 10
72.0
 20
580.0
 30
0.0
 11
628.0
 21
580.0
 31
0.0
  0
LINE
  5
83
330
1E
100
AcDbEntity
  8
0
100
AcDbLine
 10
72.0
 20
580.0
 30
0.0
 11
147.8679999999999
 21
580.0
 31
0.0
  0
LINE
  5
84
330
1E
100
AcDbEntity
  8
0
100
AcDbLine
 10
118.0
 20
580.0
 30
0.0
 11
118.0
 21
325.0
 31
0.0
  0
LINE
  5
85
330
1E
100
AcDbEntity
  8
0
100
AcDbLine
 10
118.0
 20
580.0
 30
0.0
 11
120.0
 21
580.0
 31
0.0
  0
LINE
  5
86
330
1E
100
AcDbEntity
  8
0
100
AcDbLine
 10
118.0
 20
580.0
 30
0.0
 11
118.0
 21
400.0
 31
0.0
  0
LINE
  5
87
330
1E
100
AcDbEntity
  8
0
100
AcDbLine
 10
92.0
 20
580.0
 30
0.0
 11
92.0
 21
173.4899328859059
 31
0.0
  0
LINE
  5
88
330
1E
100
AcDbEntity
  8
0
100
AcDbLine
 10
92.0
 20
580.0
 30
0.0
 11
92.0
 21
400.0
 31
0.0
  0
LINE
  5
89
330
1E
100
AcDbEntity
  8
0
100
AcDbLine
 10
92.0
 20
580.0
 30
0.0
 11
118.0
 21
580.0
 31
0.0
  0
LINE
  5
8A
330
1E
100
AcDbEntity
  8
0
100
AcDbLine
 10
90.0
 20
580.0
 30
0.0
 11
90.0
 21
170.805369127517
 31
0.0
  0
LINE
  5
8B
330
1E
100
AcDbEntity
  8
0
100
AcDbLine
 10
90.0
 20
580.0
 30
0.0
 11
92.0
 21
580.0
 31
0.0
  0
LINE
  5
8C
330
1E
100
AcDbEntity
  8
0
100
AcDbLine
 10
72.0
 20
580.0
 30
0.0
 11
628.0
 21
580.0
 31
0.0
  0
LINE
  5
8D
330
1E
100
AcDbEntity
  8
0
100
AcDbLine
 10
72.0
 20
580.0
 30
0.0
 11
147.8679999999999
 21
580.0
 31
0.0
  0
LINE
  5
8E
330
1E
100
AcDbEntity
  8
0
100
AcDbLine
 10
70.0
 20
580.0
 30
0.0
 11
630.0
 21
580.0
 31
0.0
  0
LINE
  5
8F
330
1E
100
AcDbEntity
  8
0
100
AcDbLine
 10
70.0
 20
580.0
 30
0.0
 11
72.0
 21
580.0
 31
0.0
  0
LINE
  5
90
330
1E
100
AcDbEntity
  8
0
100
AcDbLine
 10
70.0
 20
580.0
 30
0.0
 11
70.0
 21
595.0
 31
0.0
  0
LINE
  5
91
330
1E
100
AcDbEntity
  8
0
100
AcDbLine
 10
70.0
 20
580.0
 30
0.0
 11
147.8679999999999
 21
580.0
 31
0.0
  0
LINE
  5
92
330
1E
100
AcDbEntity
  8
0
100
AcDbLine
 10
70.0
 20
595.0
 30
0.0
 11
630.0
 21
595.0
 31
0.0
  0
LINE
  5
93
330
1E
100
AcDbEntity
  8
0
100
AcDbLine
 10
70.0
 20
595.0
 30
0.0
 11
630.0
 21
595.0
 31
0.0
  0
LINE
  5
94
330
1E
100
AcDbEntity
  8
0
100
AcDbLine
 10
70.0
 20
595.0
 30
0.0
 11
70.0
 21
580.0
 31
0.0
  0
LINE
  5
95
330
1E
100
AcDbEntity
  8
0
100
AcDbLine
 10
147.8679999999999
 20
580.0
 30
0.0
 11
147.8679999999999
 21
578.853
 31
0.0
  0
LINE
  5
96
330
1E
100
AcDbEntity
  8
0
100
AcDbLine
 10
147.8679999999999
 20
578.853
 30
0.0
 11
147.963
 21
578.853
 31
0.0
  0
LINE
  5
97
330
1E
100
AcDbEntity
  8
0
100
AcDbLine
 10
147.8679999999999
 20
578.853
 30
0.0
 11
147.96
 21
578.853
 31
0.0
  0
LINE
  5
98
330
1E
100
AcDbEntity
  8
0
100
AcDbLine
 10
147.8679999999999
 20
578.853
 30
0.0
 11
147.8679999999999
 21
580.0
 31
0.0
  0
LINE
  5
99
330
1E
100
AcDbEntity
  8
0
100
AcDbLine
 10
157.3819999999999
 20
533.0
 30
0.0
 11
160.206
 21
533.0
 31
0.0
  0
LINE
  5
9A
330
1E
100
AcDbEntity
  8
0
100
AcDbLine
 10
160.206
 20
533.0
 30
0.0
 11
164.7059999999999
 21
533.0
 31
0.0
  0
LINE
  5
9B
330
1E
100
AcDbEntity
  8
0
100
AcDbLine
 10
159.412
 20
533.4999999999999
 30
0.0
 11
164.0879999999999
 21
533.4999999999999
 31
0.0
  0
LINE
  5
9C
330
1E
100
AcDbEntity
  8
0
100
AcDbLine
 10
156.4999999999999
 20
533.4999999999999
 30
0.0
 11
159.412
 21
533.4999999999999
 31
0.0
  0
LINE
  5
9D
330
1E
100
AcDbEntity
  8
0
100
AcDbLine
 10
168.4709999999999
 20
463.0
 30
0.0
 11
171.4709999999999
 21
463.0
 31
0.0
  0
LINE
  5
9E
330
1E
100
AcDbEntity
  8
0
100
AcDbLine
 10
166.588
 20
463.0
 30
0.0
 11
168.4709999999999
 21
463.0
 31
0.0
  0
LINE
  5
A1
330
1E
100
AcDbEntity
  8
0
100
AcDbLine
 10
165.882
 20
463.0
 30
0.0
 11
166.588
 21
463.0
 31
0.0
  0
LINE
  5
A2
330
1E
100
AcDbEntity
  8
0
100
AcDbLine
 10
165.294
 20
463.4999999999999
 30
0.0
 11
165.882
 21
463.0
 31
0.0
  0
LINE
  5
A3
330
1E
100
AcDbEntity
  8
0
100
AcDbLine
 10
167.7059999999999
 20
533.0
 30
0.0
 11
170.882
 21
533.0
 31
0.0
  0
LINE
  5
A4
330
1E
100
AcDbEntity
  8
0
100
AcDbLine
 10
165.7059999999999
 20
533.0
 30
0.0
 11
167.7059999999999
 21
533.0
 31
0.0
  0
LINE
  5
A5
330
1E
100
AcDbEntity
  8
0
100
AcDbLine
 10
165.0
 20
533.0
 30
0.0
 11
165.0
 21
464.5
 31
0.0
  0
LINE
  5
A6
330
1E
100
AcDbEntity
  8
0
100
AcDbLine
 10
165.0
 20
533.0
 30
0.0
 11
165.7059999999999
 21
533.0
 31
0.0
  0
LINE
  5
A7
330
1E
100
AcDbEntity
  8
0
100
AcDbLine
 10
165.0
 20
464.5
 30
0.0
 11
165.0
 21
533.0
 31
0.0
  0
LINE
  5
A8
330
1E
100
AcDbEntity
  8
0
100
AcDbLine
 10
165.0
 20
464.5
 30
0.0
 11
165.294
 21
463.4999999999999
 31
0.0
  0
LINE
  5
A9
330
1E
100
AcDbEntity
  8
0
100
AcDbLine
 10
164.7059999999999
 20
533.0
 30
0.0
 11
170.706
 21
533.0
 31
0.0
  0
LINE
  5
AA
330
1E
100
AcDbEntity
  8
0
100
AcDbLine
 10
164.0879999999999
 20
533.4999999999999
 30
0.0
 11
170.265
 21
533.4999999999999
 31
0.0
  0
LINE
  5
AB
330
1E
100
AcDbEntity
  8
0
100
AcDbLine
 10
175.0
 20
463.0
 30
0.0
 11
175.0
 21
450.0
 31
0.0
  0
LINE
  5
AC
330
1E
100
AcDbEntity
  8
0
100
AcDbLine
 10
175.4709999999999
 20
463.0
 30
0.0
 11
180.059
 21
463.0
 31
0.0
  0
LINE
  5
AD
330
1E
100
AcDbEntity
  8
0
100
AcDbLine
 10
185.0
 20
463.0
 30
0.0
 11
189.9409999999999
 21
463.0
 31
0.0
  0
LINE
  5
AE
330
1E
100
AcDbEntity
  8
0
100
AcDbLine
 10
180.059
 20
463.0
 30
0.0
 11
185.0
 21
463.0
 31
0.0
  0
LINE
  5
B1
330
1E
100
AcDbEntity
  8
0
100
AcDbLine
 10
170.882
 20
533.0
 30
0.0
 11
175.059
 21
533.0
 31
0.0
  0
LINE
  5
B2
330
1E
100
AcDbEntity
  8
0
100
AcDbLine
 10
175.059
 20
533.0
 30
0.0
 11
179.882
 21
533.0
 31
0.0
  0
LINE
  5
B3
330
1E
100
AcDbEntity
  8
0
100
AcDbLine
 10
179.882
 20
533.0
 30
0.0
 11
185.0
 21
533.0
 31
0.0
  0
LINE
  5
B4
330
1E
100
AcDbEntity
  8
0
100
AcDbLine
 10
171.4709999999999
 20
463.0
 30
0.0
 11
175.0
 21
463.0
 31
0.0
  0
LINE
  5
B5
330
1E
100
AcDbEntity
  8
0
100
AcDbLine
 10
171.4709999999999
 20
463.0
 30
0.0
 11
175.4709999999999
 21
463.0
 31
0.0
  0
LINE
  5
B6
330
1E
100
AcDbEntity
  8
0
100
AcDbLine
 10
194.529
 20
463.0
 30
0.0
 11
198.529
 21
463.0
 31
0.0
  0
LINE
  5
B7
330
1E
100
AcDbEntity
  8
0
100
AcDbLine
 10
189.9409999999999
 20
463.0
 30
0.0
 11
194.529
 21
463.0
 31
0.0
  0
LINE
  5
B8
330
1E
100
AcDbEntity
  8
0
100
AcDbLine
 10
195.0
 20
463.0
 30
0.0
 11
198.529
 21
463.0
 31
0.0
  0
LINE
  5
B9
330
1E
100
AcDbEntity
  8
0
100
AcDbLine
 10
195.0
 20
463.0
 30
0.0
 11
195.0
 21
450.0
 31
0.0
  0
LINE
  5
BA
330
1E
100
AcDbEntity
  8
0
100
AcDbLine
 10
198.529
 20
463.0
 30
0.0
 11
201.529
 21
463.0
 31
0.0
  0
LINE
  5
BF
330
1E
100
AcDbEntity
  8
0
100
AcDbLine
 10
201.529
 20
463.0
 30
0.0
 11
203.412
 21
463.0
 31
0.0
  0
LINE
  5
C0
330
1E
100
AcDbEntity
  8
0
100
AcDbLine
 10
204.1179999999999
 20
463.0
 30
0.0
 11
204.706
 21
463.4999999999999
 31
0.0
  0
LINE
  5
C1
330
1E
100
AcDbEntity
  8
0
100
AcDbLine
 10
203.412
 20
463.0
 30
0.0
 11
204.1179999999999
 21
463.0
 31
0.0
  0
LINE
  5
C2
330
1E
100
AcDbEntity
  8
0
100
AcDbLine
 10
199.1179999999999
 20
533.0
 30
0.0
 11
202.294
 21
533.0
 31
0.0
  0
LINE
  5
C3
330
1E
100
AcDbEntity
  8
0
100
AcDbLine
 10
202.294
 20
533.0
 30
0.0
 11
204.294
 21
533.0
 31
0.0
  0
LINE
  5
C4
330
1E
100
AcDbEntity
  8
0
100
AcDbLine
 10
204.294
 20
533.0
 30
0.0
 11
205.0
 21
533.0
 31
0.0
  0
LINE
  5
C5
330
1E
100
AcDbEntity
  8
0
100
AcDbLine
 10
205.0
 20
490.0
 30
0.0
 11
205.0
 21
533.0
 31
0.0
  0
LINE
  5
C6
330
1E
100
AcDbEntity
  8
0
100
AcDbLine
 10
205.0
 20
490.0
 30
0.0
 11
217.0
 21
490.0
 31
0.0
  0
LINE
  5
C7
330
1E
100
AcDbEntity
  8
0
100
AcDbLine
 10
205.0
 20
464.5
 30
0.0
 11
205.0
 21
470.0
 31
0.0
  0
LINE
  5
C8
330
1E
100
AcDbEntity
  8
0
100
AcDbLine
 10
194.9409999999999
 20
533.0
 30
0.0
 11
199.1179999999999
 21
533.0
 31
0.0
  0
LINE
  5
C9
330
1E
100
AcDbEntity
  8
0
100
AcDbLine
 10
190.118
 20
533.0
 30
0.0
 11
194.9409999999999
 21
533.0
 31
0.0
  0
LINE
  5
CA
330
1E
100
AcDbEntity
  8
0
100
AcDbLine
 10
204.706
 20
463.4999999999999
 30
0.0
 11
205.0
 21
464.5
 31
0.0
  0
LINE
  5
CB
330
1E
100
AcDbEntity
  8
0
100
AcDbLine
 10
205.0
 20
470.0
 30
0.0
 11
205.0
 21
464.5
 31
0.0
  0
LINE
  5
CC
330
1E
100
AcDbEntity
  8
0
100
AcDbLine
 10
205.0
 20
470.0
 30
0.0
 11
217.0
 21
470.0
 31
0.0
  0
LINE
  5
CD
330
1E
100
AcDbEntity
  8
0
100
AcDbLine
 10
205.0
 20
533.0
 30
0.0
 11
205.0
 21
490.0
 31
0.0
  0
LINE
  5
E1
330
1E
100
AcDbEntity
  8
0
100
AcDbLine
 10
205.2939999999999
 20
533.0
 30
0.0
 11
209.794
 21
533.0
 31
0.0
  0
LINE
  5
E2
330
1E
100
AcDbEntity
  8
0
100
AcDbLine
 10
209.794
 20
533.0
 30
0.0
 11
212.618
 21
533.0
 31
0.0
  0
LINE
  5
E3
330
1E
100
AcDbEntity
  8
0
100
AcDbLine
 10
212.618
 20
533.0
 30
0.0
 11
213.6759999999999
 21
533.0
 31
0.0
  0
LINE
  5
E4
330
1E
100
AcDbEntity
  8
0
100
AcDbLine
 10
199.294
 20
533.0
 30
0.0
 11
205.2939999999999
 21
533.0
 31
0.0
  0
LINE
  5
E5
330
1E
100
AcDbEntity
  8
0
100
AcDbLine
 10
185.0
 20
533.0
 30
0.0
 11
192.412
 21
533.0
 31
0.0
  0
LINE
  5
E6
330
1E
100
AcDbEntity
  8
0
100
AcDbLine
 10
185.0
 20
533.0
 30
0.0
 11
190.118
 21
533.0
 31
0.0
  0
LINE
  5
E7
330
1E
100
AcDbEntity
  8
0
100
AcDbLine
 10
205.912
 20
533.4999999999999
 30
0.0
 11
210.5879999999999
 21
533.4999999999999
 31
0.0
  0
LINE
  5
E8
330
1E
100
AcDbEntity
  8
0
100
AcDbLine
 10
210.5879999999999
 20
533.4999999999999
 30
0.0
 11
213.5
 21
533.4999999999999
 31
0.0
  0
LINE
  5
E9
330
1E
100
AcDbEntity
  8
0
100
AcDbLine
 10
213.5
 20
533.4999999999999
 30
0.0
 11
214.559
 21
533.4999999999999
 31
0.0
  0
LINE
  5
EA
330
1E
100
AcDbEntity
  8
0
100
AcDbLine
 10
199.735
 20
533.4999999999999
 30
0.0
 11
205.912
 21
533.4999999999999
 31
0.0
  0
LINE
  5
EB
330
1E
100
AcDbEntity
  8
0
100
AcDbLine
 10
192.588
 20
533.4999999999999
 30
0.0
 11
199.735
 21
533.4999999999999
 31
0.0
  0
LINE
  5
EC
330
1E
100
AcDbEntity
  8
0
100
AcDbLine
 10
185.0
 20
533.4999999999999
 30
0.0
 11
192.588
 21
533.4999999999999
 31
0.0
  0
LINE
  5
ED
330
1E
100
AcDbEntity
  8
0
100
AcDbLine
 10
177.5879999999999
 20
533.0
 30
0.0
 11
185.0
 21
533.0
 31
0.0
  0
LINE
  5
EE
330
1E
100
AcDbEntity
  8
0
100
AcDbLine
 10
170.265
 20
533.4999999999999
 30
0.0
 11
177.412
 21
533.4999999999999
 31
0.0
  0
LINE
  5
EF
330
1E
100
AcDbEntity
  8
0
100
AcDbLine
 10
177.412
 20
533.4999999999999
 30
0.0
 11
185.0
 21
533.4999999999999
 31
0.0
  0
LINE
  5
F0
330
1E
100
AcDbEntity
  8
0
100
AcDbLine
 10
156.3239999999999
 20
533.0
 30
0.0
 11
157.3819999999999
 21
533.0
 31
0.0
  0
LINE
  5
F1
330
1E
100
AcDbEntity
  8
0
100
AcDbLine
 10
155.441
 20
533.4999999999999
 30
0.0
 11
156.3239999999999
 21
533.0
 31
0.0
  0
LINE
  5
F2
330
1E
100
AcDbEntity
  8
0
100
AcDbLine
 10
155.441
 20
533.4999999999999
 30
0.0
 11
156.4999999999999
 21
533.4999999999999
 31
0.0
  0
LINE
  5
101
330
1E
100
AcDbEntity
  8
0
100
AcDbLine
 10
213.6759999999999
 20
533.0
 30
0.0
 11
214.559
 21
533.4999999999999
 31
0.0
  0
LINE
  5
102
330
1E
100
AcDbEntity
  8
0
100
AcDbLine
 10
215.0
 20
534.4999999999999
 30
0.0
 11
215.0
 21
580.0
 31
0.0
  0
LINE
  5
103
330
1E
100
AcDbEntity
  8
0
100
AcDbLine
 10
155.0
 20
534.4999999999999
 30
0.0
 11
155.0
 21
580.0
 31
0.0
  0
LINE
  5
104
330
1E
100
AcDbEntity
  8
0
100
AcDbLine
 10
155.0
 20
534.4999999999999
 30
0.0
 11
155.441
 21
533.4999999999999
 31
0.0
  0
LINE
  5
105
330
1E
100
AcDbEntity
  8
0
100
AcDbLine
 10
214.559
 20
533.4999999999999
 30
0.0
 11
215.0
 21
534.4999999999999
 31
0.0
  0
LINE
  5
106
330
1E
100
AcDbEntity
  8
0
100
AcDbLine
 10
223.857
 20
469.0
 30
0.0
 11
224.4289999999999
 21
469.0
 31
0.0
  0
LINE
  5
107
330
1E
100
AcDbEntity
  8
0
100
AcDbLine
 10
218.143
 20
469.0
 30
0.0
 11
223.857
 21
469.0
 31
0.0
  0
LINE
  5
109
330
1E
100
AcDbEntity
  8
0
100
AcDbLine
 10
217.571
 20
469.0
 30
0.0
 11
218.143
 21
469.0
 31
0.0
  0
LINE
  5
10B
330
1E
100
AcDbEntity
  8
0
100
AcDbLine
 10
224.4289999999999
 20
469.0
 30
0.0
 11
224.8629999999999
 21
469.0
 31
0.0
  0
LINE
  5
10D
330
1E
100
AcDbEntity
  8
0
100
AcDbLine
 10
217.137
 20
469.0
 30
0.0
 11
217.571
 21
469.0
 31
0.0
  0
LINE
  5
10F
330
1E
100
AcDbEntity
  8
0
100
AcDbLine
 10
224.9429999999999
 20
469.0
 30
0.0
 11
225.0
 21
469.289
 31
0.0
  0
LINE
  5
110
330
1E
100
AcDbEntity
  8
0
100
AcDbLine
 10
224.8629999999999
 20
469.0
 30
0.0
 11
224.9429999999999
 21
469.0
 31
0.0
  0
LINE
  5
111
330
1E
100
AcDbEntity
  8
0
100
AcDbLine
 10
217.057
 20
469.0
 30
0.0
 11
217.137
 21
469.0
 31
0.0
  0
LINE
  5
112
330
1E
100
AcDbEntity
  8
0
100
AcDbLine
 10
265.5709999999999
 20
469.0
 30
0.0
 11
266.1429999999999
 21
469.0
 31
0.0
  0
LINE
  5
114
330
1E
100
AcDbEntity
  8
0
100
AcDbLine
 10
266.1429999999999
 20
469.0
 30
0.0
 11
271.857
 21
469.0
 31
0.0
  0
LINE
  5
115
330
1E
100
AcDbEntity
  8
0
100
AcDbLine
 10
265.137
 20
469.0
 30
0.0
 11
265.5709999999999
 21
469.0
 31
0.0
  0
LINE
  5
116
330
1E
100
AcDbEntity
  8
0
100
AcDbLine
 10
217.0
 20
469.289
 30
0.0
 11
217.057
 21
469.0
 31
0.0
  0
LINE
  5
117
330
1E
100
AcDbEntity
  8
0
100
AcDbLine
 10
217.0
 20
469.289
 30
0.0
 11
217.0
 21
469.695
 31
0.0
  0
LINE
  5
118
330
1E
100
AcDbEntity
  8
0
100
AcDbLine
 10
217.0
 20
470.0
 30
0.0
 11
217.0
 21
469.695
 31
0.0
  0
LINE
  5
11B
330
1E
100
AcDbEntity
  8
0
100
AcDbLine
 10
217.0
 20
470.737
 30
0.0
 11
217.0
 21
469.695
 31
0.0
  0
LINE
  5
11C
330
1E
100
AcDbEntity
  8
0
100
AcDbLine
 10
217.0
 20
470.737
 30
0.0
 11
217.0
 21
472.416
 31
0.0
  0
LINE
  5
11E
330
1E
100
AcDbEntity
  8
0
100
AcDbLine
 10
217.0
 20
469.695
 30
0.0
 11
217.0
 21
469.289
 31
0.0
  0
LINE
  5
11F
330
1E
100
AcDbEntity
  8
0
100
AcDbLine
 10
217.0
 20
469.695
 30
0.0
 11
217.0
 21
470.737
 31
0.0
  0
LINE
  5
120
330
1E
100
AcDbEntity
  8
0
100
AcDbLine
 10
217.0
 20
469.695
 30
0.0
 11
217.0
 21
470.0
 31
0.0
  0
LINE
  5
12D
330
1E
100
AcDbEntity
  8
0
100
AcDbLine
 10
225.0
 20
470.737
 30
0.0
 11
225.0
 21
472.416
 31
0.0
  0
LINE
  5
12E
330
1E
100
AcDbEntity
  8
0
100
AcDbLine
 10
225.0
 20
470.737
 30
0.0
 11
225.0
 21
469.695
 31
0.0
  0
LINE
  5
132
330
1E
100
AcDbEntity
  8
0
100
AcDbLine
 10
225.0
 20
469.695
 30
0.0
 11
225.0
 21
469.289
 31
0.0
  0
LINE
  5
133
330
1E
100
AcDbEntity
  8
0
100
AcDbLine
 10
225.0
 20
469.695
 30
0.0
 11
225.0
 21
470.737
 31
0.0
  0
LINE
  5
134
330
1E
100
AcDbEntity
  8
0
100
AcDbLine
 10
225.0
 20
469.289
 30
0.0
 11
225.0
 21
469.695
 31
0.0
  0
LINE
  5
135
330
1E
100
AcDbEntity
  8
0
100
AcDbLine
 10
217.0
 20
470.36
 30
0.0
 11
217.0
 21
470.0
 31
0.0
  0
LINE
  5
136
330
1E
100
AcDbEntity
  8
0
100
AcDbLine
 10
225.0
 20
471.0
 30
0.0
 11
265.0
 21
471.0
 31
0.0
  0
LINE
  5
137
330
1E
100
AcDbEntity
  8
0
100
AcDbLine
 10
265.0
 20
471.3239999999999
 30
0.0
 11
265.0
 21
471.0
 31
0.0
  0
LINE
  5
138
330
1E
100
AcDbEntity
  8
0
100
AcDbLine
 10
217.0
 20
471.3199999999999
 30
0.0
 11
217.0
 21
470.36
 31
0.0
  0
LINE
  5
139
330
1E
100
AcDbEntity
  8
0
100
AcDbLine
 10
265.0
 20
471.0
 30
0.0
 11
265.0
 21
470.737
 31
0.0
  0
LINE
  5
13A
330
1E
100
AcDbEntity
  8
0
100
AcDbLine
 10
265.0
 20
470.737
 30
0.0
 11
265.0
 21
471.0
 31
0.0
  0
LINE
  5
13B
330
1E
100
AcDbEntity
  8
0
100
AcDbLine
 10
265.0
 20
470.737
 30
0.0
 11
265.0
 21
469.695
 31
0.0
  0
LINE
  5
13C
330
1E
100
AcDbEntity
  8
0
100
AcDbLine
 10
265.0
 20
469.695
 30
0.0
 11
265.0
 21
470.737
 31
0.0
  0
LINE
  5
13D
330
1E
100
AcDbEntity
  8
0
100
AcDbLine
 10
265.0
 20
469.695
 30
0.0
 11
265.0
 21
469.289
 31
0.0
  0
LINE
  5
13E
330
1E
100
AcDbEntity
  8
0
100
AcDbLine
 10
217.0
 20
472.416
 30
0.0
 11
217.0
 21
474.674
 31
0.0
  0
LINE
  5
13F
330
1E
100
AcDbEntity
  8
0
100
AcDbLine
 10
217.0
 20
472.416
 30
0.0
 11
217.0
 21
470.737
 31
0.0
  0
LINE
  5
143
330
1E
100
AcDbEntity
  8
0
100
AcDbLine
 10
265.0
 20
472.188
 30
0.0
 11
265.0
 21
471.3239999999999
 31
0.0
  0
LINE
  5
144
330
1E
100
AcDbEntity
  8
0
100
AcDbLine
 10
225.0
 20
472.416
 30
0.0
 11
225.0
 21
474.674
 31
0.0
  0
LINE
  5
145
330
1E
100
AcDbEntity
  8
0
100
AcDbLine
 10
225.0
 20
472.416
 30
0.0
 11
225.0
 21
470.737
 31
0.0
  0
LINE
  5
148
330
1E
100
AcDbEntity
  8
0
100
AcDbLine
 10
217.0
 20
472.92
 30
0.0
 11
217.0
 21
471.3199999999999
 31
0.0
  0
LINE
  5
149
330
1E
100
AcDbEntity
  8
0
100
AcDbLine
 10
265.0
 20
471.5759999999999
 30
0.0
 11
265.0
 21
472.2609999999999
 31
0.0
  0
LINE
  5
14A
330
1E
100
AcDbEntity
  8
0
100
AcDbLine
 10
265.0
 20
472.2609999999999
 30
0.0
 11
265.0
 21
471.5759999999999
 31
0.0
  0
LINE
  5
14B
330
1E
100
AcDbEntity
  8
0
100
AcDbLine
 10
265.0
 20
472.2609999999999
 30
0.0
 11
265.0
 21
473.604
 31
0.0
  0
LINE
  5
14E
330
1E
100
AcDbEntity
  8
0
100
AcDbLine
 10
217.0
 20
474.674
 30
0.0
 11
217.0
 21
477.221
 31
0.0
  0
LINE
  5
14F
330
1E
100
AcDbEntity
  8
0
100
AcDbLine
 10
217.0
 20
474.674
 30
0.0
 11
217.0
 21
472.416
 31
0.0
  0
LINE
  5
151
330
1E
100
AcDbEntity
  8
0
100
AcDbLine
 10
217.0
 20
477.221
 30
0.0
 11
217.0
 21
474.674
 31
0.0
  0
LINE
  5
152
330
1E
100
AcDbEntity
  8
0
100
AcDbLine
 10
217.0
 20
477.221
 30
0.0
 11
217.0
 21
480.0
 31
0.0
  0
LINE
  5
153
330
1E
100
AcDbEntity
  8
0
100
AcDbLine
 10
265.0
 20
473.628
 30
0.0
 11
265.0
 21
472.188
 31
0.0
  0
LINE
  5
157
330
1E
100
AcDbEntity
  8
0
100
AcDbLine
 10
265.0
 20
475.536
 30
0.0
 11
265.0
 21
473.628
 31
0.0
  0
LINE
  5
158
330
1E
100
AcDbEntity
  8
0
100
AcDbLine
 10
225.0
 20
477.221
 30
0.0
 11
225.0
 21
474.674
 31
0.0
  0
LINE
  5
159
330
1E
100
AcDbEntity
  8
0
100
AcDbLine
 10
225.0
 20
477.221
 30
0.0
 11
225.0
 21
480.0
 31
0.0
  0
LINE
  5
15A
330
1E
100
AcDbEntity
  8
0
100
AcDbLine
 10
225.0
 20
474.674
 30
0.0
 11
225.0
 21
477.221
 31
0.0
  0
LINE
  5
15B
330
1E
100
AcDbEntity
  8
0
100
AcDbLine
 10
225.0
 20
474.674
 30
0.0
 11
225.0
 21
472.416
 31
0.0
  0
LINE
  5
160
330
1E
100
AcDbEntity
  8
0
100
AcDbLine
 10
217.0
 20
475.0399999999999
 30
0.0
 11
217.0
 21
472.92
 31
0.0
  0
LINE
  5
161
330
1E
100
AcDbEntity
  8
0
100
AcDbLine
 10
265.0
 20
473.604
 30
0.0
 11
265.0
 21
475.47
 31
0.0
  0
LINE
  5
162
330
1E
100
AcDbEntity
  8
0
100
AcDbLine
 10
265.0
 20
473.604
 30
0.0
 11
265.0
 21
472.2609999999999
 31
0.0
  0
LINE
  5
163
330
1E
100
AcDbEntity
  8
0
100
AcDbLine
 10
265.0
 20
475.47
 30
0.0
 11
265.0
 21
477.493
 31
0.0
  0
LINE
  5
164
330
1E
100
AcDbEntity
  8
0
100
AcDbLine
 10
265.0
 20
475.47
 30
0.0
 11
265.0
 21
473.604
 31
0.0
  0
LINE
  5
165
330
1E
100
AcDbEntity
  8
0
100
AcDbLine
 10
265.0
 20
477.6959999999999
 30
0.0
 11
265.0
 21
475.536
 31
0.0
  0
LINE
  5
16A
330
1E
100
AcDbEntity
  8
0
100
AcDbLine
 10
217.0
 20
477.4399999999999
 30
0.0
 11
217.0
 21
475.0399999999999
 31
0.0
  0
LINE
  5
173
330
1E
100
AcDbEntity
  8
0
100
AcDbLine
 10
225.0
 20
480.0
 30
0.0
 11
225.0
 21
477.221
 31
0.0
  0
LINE
  5
174
330
1E
100
AcDbEntity
  8
0
100
AcDbLine
 10
225.0
 20
480.0
 30
0.0
 11
225.0
 21
482.779
 31
0.0
  0
LINE
  5
175
330
1E
100
AcDbEntity
  8
0
100
AcDbLine
 10
217.0
 20
480.0
 30
0.0
 11
217.0
 21
477.4399999999999
 31
0.0
  0
LINE
  5
176
330
1E
100
AcDbEntity
  8
0
100
AcDbLine
 10
217.0
 20
480.0
 30
0.0
 11
217.0
 21
477.221
 31
0.0
  0
LINE
  5
178
330
1E
100
AcDbEntity
  8
0
100
AcDbLine
 10
217.0
 20
480.0
 30
0.0
 11
217.0
 21
482.779
 31
0.0
  0
LINE
  5
179
330
1E
100
AcDbEntity
  8
0
100
AcDbLine
 10
217.0
 20
482.779
 30
0.0
 11
217.0
 21
480.0
 31
0.0
  0
LINE
  5
17B
330
1E
100
AcDbEntity
  8
0
100
AcDbLine
 10
217.0
 20
482.779
 30
0.0
 11
217.0
 21
485.3259999999999
 31
0.0
  0
LINE
  5
17D
330
1E
100
AcDbEntity
  8
0
100
AcDbLine
 10
265.0
 20
482.304
 30
0.0
 11
265.0
 21
480.0
 31
0.0
  0
LINE
  5
183
330
1E
100
AcDbEntity
  8
0
100
AcDbLine
 10
265.0
 20
484.464
 30
0.0
 11
265.0
 21
482.304
 31
0.0
  0
LINE
  5
186
330
1E
100
AcDbEntity
  8
0
100
AcDbLine
 10
225.0
 20
482.779
 30
0.0
 11
225.0
 21
480.0
 31
0.0
  0
LINE
  5
187
330
1E
100
AcDbEntity
  8
0
100
AcDbLine
 10
225.0
 20
482.779
 30
0.0
 11
225.0
 21
485.3259999999999
 31
0.0
  0
LINE
  5
188
330
1E
100
AcDbEntity
  8
0
100
AcDbLine
 10
217.0
 20
482.56
 30
0.0
 11
217.0
 21
480.0
 31
0.0
  0
LINE
  5
189
330
1E
100
AcDbEntity
  8
0
100
AcDbLine
 10
225.0
 20
485.3259999999999
 30
0.0
 11
225.0
 21
482.779
 31
0.0
  0
LINE
  5
18A
330
1E
100
AcDbEntity
  8
0
100
AcDbLine
 10
225.0
 20
485.3259999999999
 30
0.0
 11
225.0
 21
487.584
 31
0.0
  0
LINE
  5
18B
330
1E
100
AcDbEntity
  8
0
100
AcDbLine
 10
217.0
 20
485.3259999999999
 30
0.0
 11
217.0
 21
482.779
 31
0.0
  0
LINE
  5
18C
330
1E
100
AcDbEntity
  8
0
100
AcDbLine
 10
217.0
 20
485.3259999999999
 30
0.0
 11
217.0
 21
487.584
 31
0.0
  0
LINE
  5
18F
330
1E
100
AcDbEntity
  8
0
100
AcDbLine
 10
217.0
 20
484.9599999999999
 30
0.0
 11
217.0
 21
482.56
 31
0.0
  0
LINE
  5
190
330
1E
100
AcDbEntity
  8
0
100
AcDbLine
 10
265.0
 20
484.388
 30
0.0
 11
265.0
 21
486.397
 31
0.0
  0
LINE
  5
191
330
1E
100
AcDbEntity
  8
0
100
AcDbLine
 10
265.0
 20
484.388
 30
0.0
 11
265.0
 21
482.2259999999999
 31
0.0
  0
LINE
  5
192
330
1E
100
AcDbEntity
  8
0
100
AcDbLine
 10
265.0
 20
486.3719999999999
 30
0.0
 11
265.0
 21
484.464
 31
0.0
  0
LINE
  5
198
330
1E
100
AcDbEntity
  8
0
100
AcDbLine
 10
265.0
 20
485.3259999999999
 30
0.0
 11
265.0
 21
482.779
 31
0.0
  0
LINE
  5
19A
330
1E
100
AcDbEntity
  8
0
100
AcDbLine
 10
265.0
 20
482.2259999999999
 30
0.0
 11
265.0
 21
484.388
 31
0.0
  0
LINE
  5
19B
330
1E
100
AcDbEntity
  8
0
100
AcDbLine
 10
265.0
 20
482.2259999999999
 30
0.0
 11
265.0
 21
479.9269999999999
 31
0.0
  0
LINE
  5
19C
330
1E
100
AcDbEntity
  8
0
100
AcDbLine
 10
217.0
 20
487.584
 30
0.0
 11
217.0
 21
485.3259999999999
 31
0.0
  0
LINE
  5
19F
330
1E
100
AcDbEntity
  8
0
100
AcDbLine
 10
217.0
 20
487.584
 30
0.0
 11
217.0
 21
489.263
 31
0.0
  0
LINE
  5
1A0
330
1E
100
AcDbEntity
  8
0
100
AcDbLine
 10
265.0
 20
487.812
 30
0.0
 11
265.0
 21
486.3719999999999
 31
0.0
  0
LINE
  5
1A1
330
1E
100
AcDbEntity
  8
0
100
AcDbLine
 10
225.0
 20
487.584
 30
0.0
 11
225.0
 21
485.3259999999999
 31
0.0
  0
LINE
  5
1A2
330
1E
100
AcDbEntity
  8
0
100
AcDbLine
 10
225.0
 20
487.584
 30
0.0
 11
225.0
 21
489.263
 31
0.0
  0
LINE
  5
1A6
330
1E
100
AcDbEntity
  8
0
100
AcDbLine
 10
217.0
 20
487.08
 30
0.0
 11
217.0
 21
484.9599999999999
 31
0.0
  0
LINE
  5
1A7
330
1E
100
AcDbEntity
  8
0
100
AcDbLine
 10
265.0
 20
488.6759999999999
 30
0.0
 11
265.0
 21
487.812
 31
0.0
  0
LINE
  5
1A8
330
1E
100
AcDbEntity
  8
0
100
AcDbLine
 10
225.0
 20
489.0
 30
0.0
 11
265.0
 21
489.0
 31
0.0
  0
LINE
  5
1A9
330
1E
100
AcDbEntity
  8
0
100
AcDbLine
 10
217.0
 20
488.68
 30
0.0
 11
217.0
 21
487.08
 31
0.0
  0
LINE
  5
1AA
330
1E
100
AcDbEntity
  8
0
100
AcDbLine
 10
265.0
 20
488.3759999999999
 30
0.0
 11
265.0
 21
487.739
 31
0.0
  0
LINE
  5
1AC
330
1E
100
AcDbEntity
  8
0
100
AcDbLine
 10
265.0
 20
486.397
 30
0.0
 11
265.0
 21
487.739
 31
0.0
  0
LINE
  5
1AD
330
1E
100
AcDbEntity
  8
0
100
AcDbLine
 10
265.0
 20
486.397
 30
0.0
 11
265.0
 21
484.388
 31
0.0
  0
LINE
  5
1AE
330
1E
100
AcDbEntity
  8
0
100
AcDbLine
 10
265.0
 20
487.739
 30
0.0
 11
265.0
 21
488.3759999999999
 31
0.0
  0
LINE
  5
1AF
330
1E
100
AcDbEntity
  8
0
100
AcDbLine
 10
265.0
 20
487.739
 30
0.0
 11
265.0
 21
486.397
 31
0.0
  0
LINE
  5
1B0
330
1E
100
AcDbEntity
  8
0
100
AcDbLine
 10
217.0
 20
489.263
 30
0.0
 11
217.0
 21
487.584
 31
0.0
  0
LINE
  5
1B3
330
1E
100
AcDbEntity
  8
0
100
AcDbLine
 10
217.0
 20
489.263
 30
0.0
 11
217.0
 21
490.305
 31
0.0
  0
LINE
  5
1B4
330
1E
100
AcDbEntity
  8
0
100
AcDbLine
 10
217.0
 20
490.305
 30
0.0
 11
217.0
 21
489.263
 31
0.0
  0
LINE
  5
1B6
330
1E
100
AcDbEntity
  8
0
100
AcDbLine
 10
217.0
 20
490.305
 30
0.0
 11
217.0
 21
490.711
 31
0.0
  0
LINE
  5
1B7
330
1E
100
AcDbEntity
  8
0
100
AcDbLine
 10
217.0
 20
490.305
 30
0.0
 11
217.0
 21
490.0
 31
0.0
  0
LINE
  5
1B8
330
1E
100
AcDbEntity
  8
0
100
AcDbLine
 10
217.0
 20
489.6399999999999
 30
0.0
 11
217.0
 21
488.68
 31
0.0
  0
LINE
  5
1BB
330
1E
100
AcDbEntity
  8
0
100
AcDbLine
 10
225.0
 20
489.263
 30
0.0
 11
225.0
 21
487.584
 31
0.0
  0
LINE
  5
1BC
330
1E
100
AcDbEntity
  8
0
100
AcDbLine
 10
225.0
 20
489.263
 30
0.0
 11
225.0
 21
490.305
 31
0.0
  0
LINE
  5
1C0
330
1E
100
AcDbEntity
  8
0
100
AcDbLine
 10
225.0
 20
490.305
 30
0.0
 11
225.0
 21
489.263
 31
0.0
  0
LINE
  5
1C1
330
1E
100
AcDbEntity
  8
0
100
AcDbLine
 10
225.0
 20
490.305
 30
0.0
 11
225.0
 21
490.711
 31
0.0
  0
LINE
  5
1C4
330
1E
100
AcDbEntity
  8
0
100
AcDbLine
 10
217.0
 20
490.0
 30
0.0
 11
217.0
 21
489.6399999999999
 31
0.0
  0
LINE
  5
1C5
330
1E
100
AcDbEntity
  8
0
100
AcDbLine
 10
217.0
 20
490.0
 30
0.0
 11
217.0
 21
490.305
 31
0.0
  0
LINE
  5
1C6
330
1E
100
AcDbEntity
  8
0
100
AcDbLine
 10
217.0
 20
490.711
 30
0.0
 11
217.0
 21
490.305
 31
0.0
  0
LINE
  5
1C7
330
1E
100
AcDbEntity
  8
0
100
AcDbLine
 10
217.0
 20
490.711
 30
0.0
 11
217.057
 21
491.0
 31
0.0
  0
LINE
  5
1CC
330
1E
100
AcDbEntity
  8
0
100
AcDbLine
 10
217.571
 20
491.0
 30
0.0
 11
218.143
 21
491.0
 31
0.0
  0
LINE
  5
1CE
330
1E
100
AcDbEntity
  8
0
100
AcDbLine
 10
218.143
 20
491.0
 30
0.0
 11
223.857
 21
491.0
 31
0.0
  0
LINE
  5
1D3
330
1E
100
AcDbEntity
  8
0
100
AcDbLine
 10
223.857
 20
491.0
 30
0.0
 11
224.4289999999999
 21
491.0
 31
0.0
  0
LINE
  5
1D4
330
1E
100
AcDbEntity
  8
0
100
AcDbLine
 10
217.137
 20
491.0
 30
0.0
 11
217.571
 21
491.0
 31
0.0
  0
LINE
  5
1D6
330
1E
100
AcDbEntity
  8
0
100
AcDbLine
 10
224.4289999999999
 20
491.0
 30
0.0
 11
224.8629999999999
 21
491.0
 31
0.0
  0
LINE
  5
1D8
330
1E
100
AcDbEntity
  8
0
100
AcDbLine
 10
217.057
 20
491.0
 30
0.0
 11
217.137
 21
491.0
 31
0.0
  0
LINE
  5
1D9
330
1E
100
AcDbEntity
  8
0
100
AcDbLine
 10
225.0
 20
490.711
 30
0.0
 11
225.0
 21
490.305
 31
0.0
  0
LINE
  5
1DA
330
1E
100
AcDbEntity
  8
0
100
AcDbLine
 10
224.9429999999999
 20
491.0
 30
0.0
 11
225.0
 21
490.711
 31
0.0
  0
LINE
  5
1DB
330
1E
100
AcDbEntity
  8
0
100
AcDbLine
 10
224.8629999999999
 20
491.0
 30
0.0
 11
224.9429999999999
 21
491.0
 31
0.0
  0
LINE
  5
1DC
330
1E
100
AcDbEntity
  8
0
100
AcDbLine
 10
265.0
 20
490.305
 30
0.0
 11
265.0
 21
490.711
 31
0.0
  0
LINE
  5
1DD
330
1E
100
AcDbEntity
  8
0
100
AcDbLine
 10
265.0
 20
490.305
 30
0.0
 11
265.0
 21
489.263
 31
0.0
  0
LINE
  5
1DE
330
1E
100
AcDbEntity
  8
0
100
AcDbLine
 10
265.0
 20
490.711
 30
0.0
 11
265.0
 21
490.305
 31
0.0
  0
LINE
  5
1DF
330
1E
100
AcDbEntity
  8
0
100
AcDbLine
 10
265.0
 20
490.711
 30
0.0
 11
265.057
 21
491.0
 31
0.0
  0
LINE
  5
1E0
330
1E
100
AcDbEntity
  8
0
100
AcDbLine
 10
265.0
 20
489.0
 30
0.0
 11
265.0
 21
489.263
 31
0.0
  0
LINE
  5
1E1
330
1E
100
AcDbEntity
  8
0
100
AcDbLine
 10
265.0
 20
489.0
 30
0.0
 11
265.0
 21
488.6759999999999
 31
0.0
  0
LINE
  5
1E2
330
1E
100
AcDbEntity
  8
0
100
AcDbLine
 10
265.0
 20
489.263
 30
0.0
 11
265.0
 21
489.0
 31
0.0
  0
LINE
  5
1E3
330
1E
100
AcDbEntity
  8
0
100
AcDbLine
 10
265.0
 20
489.263
 30
0.0
 11
265.0
 21
490.305
 31
0.0
  0
LINE
  5
1E4
330
1E
100
AcDbEntity
  8
0
100
AcDbLine
 10
265.0
 20
480.0
 30
0.0
 11
265.0
 21
482.779
 31
0.0
  0
LINE
  5
1E5
330
1E
100
AcDbEntity
  8
0
100
AcDbLine
 10
265.0
 20
480.0
 30
0.0
 11
265.0
 21
477.6959999999999
 31
0.0
  0
LINE
  5
1E6
330
1E
100
AcDbEntity
  8
0
100
AcDbLine
 10
265.0
 20
482.779
 30
0.0
 11
265.0
 21
480.0
 31
0.0
  0
LINE
  5
1E9
330
1E
100
AcDbEntity
  8
0
100
AcDbLine
 10
265.0
 20
482.779
 30
0.0
 11
265.0
 21
485.3259999999999
 31
0.0
  0
LINE
  5
1EA
330
1E
100
AcDbEntity
  8
0
100
AcDbLine
 10
265.0
 20
479.9269999999999
 30
0.0
 11
265.0
 21
477.493
 31
0.0
  0
LINE
  5
1EB
330
1E
100
AcDbEntity
  8
0
100
AcDbLine
 10
265.0
 20
479.9269999999999
 30
0.0
 11
265.0
 21
482.2259999999999
 31
0.0
  0
LINE
  5
1EC
330
1E
100
AcDbEntity
  8
0
100
AcDbLine
 10
265.0
 20
477.493
 30
0.0
 11
265.0
 21
475.47
 31
0.0
  0
LINE
  5
1ED
330
1E
100
AcDbEntity
  8
0
100
AcDbLine
 10
265.0
 20
477.493
 30
0.0
 11
265.0
 21
479.9269999999999
 31
0.0
  0
LINE
  5
1F8
330
1E
100
AcDbEntity
  8
0
100
AcDbLine
 10
265.137
 20
491.0
 30
0.0
 11
265.5709999999999
 21
491.0
 31
0.0
  0
LINE
  5
1F9
330
1E
100
AcDbEntity
  8
0
100
AcDbLine
 10
265.057
 20
491.0
 30
0.0
 11
265.137
 21
491.0
 31
0.0
  0
LINE
  5
205
330
1E
100
AcDbEntity
  8
0
100
AcDbLine
 10
265.5709999999999
 20
491.0
 30
0.0
 11
266.1429999999999
 21
491.0
 31
0.0
  0
LINE
  5
207
330
1E
100
AcDbEntity
  8
0
100
AcDbLine
 10
266.1429999999999
 20
491.0
 30
0.0
 11
271.857
 21
491.0
 31
0.0
  0
LINE
  5
20E
330
1E
100
AcDbEntity
  8
0
100
AcDbLine
 10
265.0
 20
469.289
 30
0.0
 11
265.057
 21
469.0
 31
0.0
  0
LINE
  5
20F
330
1E
100
AcDbEntity
  8
0
100
AcDbLine
 10
265.0
 20
469.289
 30
0.0
 11
265.0
 21
469.695
 31
0.0
  0
LINE
  5
210
330
1E
100
AcDbEntity
  8
0
100
AcDbLine
 10
265.057
 20
469.0
 30
0.0
 11
265.137
 21
469.0
 31
0.0
  0
LINE
  5
211
330
1E
100
AcDbEntity
  8
0
100
AcDbLine
 10
271.857
 20
469.0
 30
0.0
 11
272.429
 21
469.0
 31
0.0
  0
LINE
  5
21F
330
1E
100
AcDbEntity
  8
0
100
AcDbLine
 10
272.429
 20
469.0
 30
0.0
 11
272.8629999999999
 21
469.0
 31
0.0
  0
LINE
  5
221
330
1E
100
AcDbEntity
  8
0
100
AcDbLine
 10
273.0
 20
469.289
 30
0.0
 11
273.0
 21
469.695
 31
0.0
  0
LINE
  5
222
330
1E
100
AcDbEntity
  8
0
100
AcDbLine
 10
273.0
 20
469.695
 30
0.0
 11
273.0
 21
469.289
 31
0.0
  0
LINE
  5
223
330
1E
100
AcDbEntity
  8
0
100
AcDbLine
 10
273.0
 20
469.695
 30
0.0
 11
273.0
 21
470.737
 31
0.0
  0
LINE
  5
224
330
1E
100
AcDbEntity
  8
0
100
AcDbLine
 10
272.9429999999999
 20
469.0
 30
0.0
 11
273.0
 21
469.289
 31
0.0
  0
LINE
  5
225
330
1E
100
AcDbEntity
  8
0
100
AcDbLine
 10
272.8629999999999
 20
469.0
 30
0.0
 11
272.9429999999999
 21
469.0
 31
0.0
  0
LINE
  5
22B
330
1E
100
AcDbEntity
  8
0
100
AcDbLine
 10
273.0
 20
470.737
 30
0.0
 11
273.0
 21
469.695
 31
0.0
  0
LINE
  5
22C
330
1E
100
AcDbEntity
  8
0
100
AcDbLine
 10
273.0
 20
470.737
 30
0.0
 11
273.0
 21
474.674
 31
0.0
  0
LINE
  5
22D
330
1E
100
AcDbEntity
  8
0
100
AcDbLine
 10
273.0
 20
474.674
 30
0.0
 11
273.0
 21
477.221
 31
0.0
  0
LINE
  5
22E
330
1E
100
AcDbEntity
  8
0
100
AcDbLine
 10
273.0
 20
474.674
 30
0.0
 11
273.0
 21
470.737
 31
0.0
  0
LINE
  5
239
330
1E
100
AcDbEntity
  8
0
100
AcDbLine
 10
273.0
 20
477.221
 30
0.0
 11
273.0
 21
474.674
 31
0.0
  0
LINE
  5
23E
330
1E
100
AcDbEntity
  8
0
100
AcDbLine
 10
273.0
 20
477.4399999999999
 30
0.0
 11
273.0
 21
480.0
 31
0.0
  0
LINE
  5
23F
330
1E
100
AcDbEntity
  8
0
100
AcDbLine
 10
273.0
 20
475.0399999999999
 30
0.0
 11
273.0
 21
477.4399999999999
 31
0.0
  0
LINE
  5
240
330
1E
100
AcDbEntity
  8
0
100
AcDbLine
 10
273.0
 20
472.92
 30
0.0
 11
273.0
 21
475.0399999999999
 31
0.0
  0
LINE
  5
243
330
1E
100
AcDbEntity
  8
0
100
AcDbLine
 10
273.0
 20
482.779
 30
0.0
 11
273.0
 21
485.3259999999999
 31
0.0
  0
LINE
  5
248
330
1E
100
AcDbEntity
  8
0
100
AcDbLine
 10
273.0
 20
480.0
 30
0.0
 11
273.0
 21
482.56
 31
0.0
  0
LINE
  5
249
330
1E
100
AcDbEntity
  8
0
100
AcDbLine
 10
273.0
 20
482.56
 30
0.0
 11
273.0
 21
484.9599999999999
 31
0.0
  0
LINE
  5
24C
330
1E
100
AcDbEntity
  8
0
100
AcDbLine
 10
273.0
 20
487.584
 30
0.0
 11
273.0
 21
485.3259999999999
 31
0.0
  0
LINE
  5
24D
330
1E
100
AcDbEntity
  8
0
100
AcDbLine
 10
273.0
 20
487.584
 30
0.0
 11
273.0
 21
489.263
 31
0.0
  0
LINE
  5
24E
330
1E
100
AcDbEntity
  8
0
100
AcDbLine
 10
273.0
 20
485.3259999999999
 30
0.0
 11
273.0
 21
482.779
 31
0.0
  0
LINE
  5
24F
330
1E
100
AcDbEntity
  8
0
100
AcDbLine
 10
273.0
 20
485.3259999999999
 30
0.0
 11
273.0
 21
487.584
 31
0.0
  0
LINE
  5
250
330
1E
100
AcDbEntity
  8
0
100
AcDbLine
 10
273.0
 20
489.263
 30
0.0
 11
273.0
 21
487.584
 31
0.0
  0
LINE
  5
251
330
1E
100
AcDbEntity
  8
0
100
AcDbLine
 10
273.0
 20
489.263
 30
0.0
 11
273.0
 21
490.305
 31
0.0
  0
LINE
  5
255
330
1E
100
AcDbEntity
  8
0
100
AcDbLine
 10
273.0
 20
484.9599999999999
 30
0.0
 11
273.0
 21
487.08
 31
0.0
  0
LINE
  5
256
330
1E
100
AcDbEntity
  8
0
100
AcDbLine
 10
273.0
 20
490.0
 30
0.0
 11
280.0
 21
490.0
 31
0.0
  0
LINE
  5
257
330
1E
100
AcDbEntity
  8
0
100
AcDbLine
 10
273.0
 20
470.0
 30
0.0
 11
280.09
 21
470.0
 31
0.0
  0
LINE
  5
258
330
1E
100
AcDbEntity
  8
0
100
AcDbLine
 10
280.0
 20
470.0
 30
0.0
 11
280.0
 21
465.0
 31
0.0
  0
LINE
  5
25B
330
1E
100
AcDbEntity
  8
0
100
AcDbLine
 10
273.0
 20
490.711
 30
0.0
 11
273.0
 21
490.305
 31
0.0
  0
LINE
  5
25C
330
1E
100
AcDbEntity
  8
0
100
AcDbLine
 10
273.0
 20
490.305
 30
0.0
 11
273.0
 21
489.263
 31
0.0
  0
LINE
  5
25D
330
1E
100
AcDbEntity
  8
0
100
AcDbLine
 10
273.0
 20
490.305
 30
0.0
 11
273.0
 21
490.711
 31
0.0
  0
LINE
  5
263
330
1E
100
AcDbEntity
  8
0
100
AcDbLine
 10
271.857
 20
491.0
 30
0.0
 11
272.429
 21
491.0
 31
0.0
  0
LINE
  5
267
330
1E
100
AcDbEntity
  8
0
100
AcDbLine
 10
272.429
 20
491.0
 30
0.0
 11
272.8629999999999
 21
491.0
 31
0.0
  0
LINE
  5
269
330
1E
100
AcDbEntity
  8
0
100
AcDbLine
 10
272.9429999999999
 20
491.0
 30
0.0
 11
273.0
 21
490.711
 31
0.0
  0
LINE
  5
26A
330
1E
100
AcDbEntity
  8
0
100
AcDbLine
 10
272.8629999999999
 20
491.0
 30
0.0
 11
272.9429999999999
 21
491.0
 31
0.0
  0
LINE
  5
26F
330
1E
100
AcDbEntity
  8
0
100
AcDbLine
 10
280.0
 20
495.0
 30
0.0
 11
280.54
 21
495.0
 31
0.0
  0
LINE
  5
270
330
1E
100
AcDbEntity
  8
0
100
AcDbLine
 10
280.0
 20
495.0
 30
0.0
 11
280.0
 21
490.0
 31
0.0
  0
LINE
  5
271
330
1E
100
AcDbEntity
  8
0
100
AcDbLine
 10
280.0
 20
490.0
 30
0.0
 11
280.0
 21
495.0
 31
0.0
  0
LINE
  5
272
330
1E
100
AcDbEntity
  8
0
100
AcDbLine
 10
285.0
 20
465.0
 30
0.0
 11
285.0
 21
450.0
 31
0.0
  0
LINE
  5
273
330
1E
100
AcDbEntity
  8
0
100
AcDbLine
 10
287.56
 20
465.0
 30
0.0
 11
291.16
 21
465.0
 31
0.0
  0
LINE
  5
274
330
1E
100
AcDbEntity
  8
0
100
AcDbLine
 10
284.3799999999999
 20
465.0
 30
0.0
 11
285.0
 21
465.0
 31
0.0
  0
LINE
  5
275
330
1E
100
AcDbEntity
  8
0
100
AcDbLine
 10
284.3799999999999
 20
465.0
 30
0.0
 11
287.56
 21
465.0
 31
0.0
  0
LINE
  5
276
330
1E
100
AcDbEntity
  8
0
100
AcDbLine
 10
281.98
 20
465.0
 30
0.0
 11
284.3799999999999
 21
465.0
 31
0.0
  0
LINE
  5
277
330
1E
100
AcDbEntity
  8
0
100
AcDbLine
 10
285.0
 20
495.0
 30
0.0
 11
285.0
 21
533.0
 31
0.0
  0
LINE
  5
278
330
1E
100
AcDbEntity
  8
0
100
AcDbLine
 10
287.56
 20
495.0
 30
0.0
 11
291.16
 21
495.0
 31
0.0
  0
LINE
  5
279
330
1E
100
AcDbEntity
  8
0
100
AcDbLine
 10
284.3799999999999
 20
495.0
 30
0.0
 11
287.56
 21
495.0
 31
0.0
  0
LINE
  5
27A
330
1E
100
AcDbEntity
  8
0
100
AcDbLine
 10
286.3199999999999
 20
533.0
 30
0.0
 11
287.92
 21
533.0
 31
0.0
  0
LINE
  5
27B
330
1E
100
AcDbEntity
  8
0
100
AcDbLine
 10
285.36
 20
533.0
 30
0.0
 11
286.3199999999999
 21
533.0
 31
0.0
  0
LINE
  5
27C
330
1E
100
AcDbEntity
  8
0
100
AcDbLine
 10
285.0
 20
533.0
 30
0.0
 11
285.0
 21
495.0
 31
0.0
  0
LINE
  5
27D
330
1E
100
AcDbEntity
  8
0
100
AcDbLine
 10
285.0
 20
533.0
 30
0.0
 11
285.36
 21
533.0
 31
0.0
  0
LINE
  5
27E
330
1E
100
AcDbEntity
  8
0
100
AcDbLine
 10
281.98
 20
495.0
 30
0.0
 11
284.3799999999999
 21
495.0
 31
0.0
  0
LINE
  5
27F
330
1E
100
AcDbEntity
  8
0
100
AcDbLine
 10
280.54
 20
495.0
 30
0.0
 11
281.98
 21
495.0
 31
0.0
  0
LINE
  5
280
330
1E
100
AcDbEntity
  8
0
100
AcDbLine
 10
280.54
 20
465.0
 30
0.0
 11
281.98
 21
465.0
 31
0.0
  0
LINE
  5
281
330
1E
100
AcDbEntity
  8
0
100
AcDbLine
 10
280.0
 20
465.0
 30
0.0
 11
280.0
 21
470.0
 31
0.0
  0
LINE
  5
282
330
1E
100
AcDbEntity
  8
0
100
AcDbLine
 10
280.0
 20
465.0
 30
0.0
 11
280.54
 21
465.0
 31
0.0
  0
LINE
  5
283
330
1E
100
AcDbEntity
  8
0
100
AcDbLine
 10
267.382
 20
533.0
 30
0.0
 11
270.2059999999999
 21
533.0
 31
0.0
  0
LINE
  5
284
330
1E
100
AcDbEntity
  8
0
100
AcDbLine
 10
295.0
 20
465.0
 30
0.0
 11
298.84
 21
465.0
 31
0.0
  0
LINE
  5
285
330
1E
100
AcDbEntity
  8
0
100
AcDbLine
 10
298.84
 20
465.0
 30
0.0
 11
302.4399999999999
 21
465.0
 31
0.0
  0
LINE
  5
286
330
1E
100
AcDbEntity
  8
0
100
AcDbLine
 10
302.4399999999999
 20
465.0
 30
0.0
 11
305.62
 21
465.0
 31
0.0
  0
LINE
  5
287
330
1E
100
AcDbEntity
  8
0
100
AcDbLine
 10
291.16
 20
465.0
 30
0.0
 11
295.0
 21
465.0
 31
0.0
  0
LINE
  5
288
330
1E
100
AcDbEntity
  8
0
100
AcDbLine
 10
305.0
 20
465.0
 30
0.0
 11
305.62
 21
465.0
 31
0.0
  0
LINE
  5
289
330
1E
100
AcDbEntity
  8
0
100
AcDbLine
 10
305.0
 20
465.0
 30
0.0
 11
305.0
 21
450.0
 31
0.0
  0
LINE
  5
28A
330
1E
100
AcDbEntity
  8
0
100
AcDbLine
 10
305.62
 20
465.0
 30
0.0
 11
308.02
 21
465.0
 31
0.0
  0
LINE
  5
28B
330
1E
100
AcDbEntity
  8
0
100
AcDbLine
 10
290.04
 20
533.0
 30
0.0
 11
292.4399999999999
 21
533.0
 31
0.0
  0
LINE
  5
28C
330
1E
100
AcDbEntity
  8
0
100
AcDbLine
 10
287.92
 20
533.0
 30
0.0
 11
290.04
 21
533.0
 31
0.0
  0
LINE
  5
28D
330
1E
100
AcDbEntity
  8
0
100
AcDbLine
 10
295.0
 20
495.0
 30
0.0
 11
298.84
 21
495.0
 31
0.0
  0
LINE
  5
28E
330
1E
100
AcDbEntity
  8
0
100
AcDbLine
 10
305.0
 20
495.0
 30
0.0
 11
305.0
 21
533.0
 31
0.0
  0
LINE
  5
28F
330
1E
100
AcDbEntity
  8
0
100
AcDbLine
 10
298.84
 20
495.0
 30
0.0
 11
302.4399999999999
 21
495.0
 31
0.0
  0
LINE
  5
290
330
1E
100
AcDbEntity
  8
0
100
AcDbLine
 10
302.4399999999999
 20
495.0
 30
0.0
 11
305.62
 21
495.0
 31
0.0
  0
LINE
  5
291
330
1E
100
AcDbEntity
  8
0
100
AcDbLine
 10
305.62
 20
495.0
 30
0.0
 11
308.02
 21
495.0
 31
0.0
  0
LINE
  5
292
330
1E
100
AcDbEntity
  8
0
100
AcDbLine
 10
295.0
 20
533.0
 30
0.0
 11
297.56
 21
533.0
 31
0.0
  0
LINE
  5
293
330
1E
100
AcDbEntity
  8
0
100
AcDbLine
 10
297.56
 20
533.0
 30
0.0
 11
299.96
 21
533.0
 31
0.0
  0
LINE
  5
294
330
1E
100
AcDbEntity
  8
0
100
AcDbLine
 10
299.96
 20
533.0
 30
0.0
 11
302.0799999999999
 21
533.0
 31
0.0
  0
LINE
  5
295
330
1E
100
AcDbEntity
  8
0
100
AcDbLine
 10
302.0799999999999
 20
533.0
 30
0.0
 11
303.6799999999999
 21
533.0
 31
0.0
  0
LINE
  5
296
330
1E
100
AcDbEntity
  8
0
100
AcDbLine
 10
303.6799999999999
 20
533.0
 30
0.0
 11
304.6399999999999
 21
533.0
 31
0.0
  0
LINE
  5
297
330
1E
100
AcDbEntity
  8
0
100
AcDbLine
 10
304.6399999999999
 20
533.0
 30
0.0
 11
305.0
 21
533.0
 31
0.0
  0
LINE
  5
298
330
1E
100
AcDbEntity
  8
0
100
AcDbLine
 10
292.4399999999999
 20
533.0
 30
0.0
 11
295.0
 21
533.0
 31
0.0
  0
LINE
  5
299
330
1E
100
AcDbEntity
  8
0
100
AcDbLine
 10
308.02
 20
495.0
 30
0.0
 11
309.4599999999999
 21
495.0
 31
0.0
  0
LINE
  5
29A
330
1E
100
AcDbEntity
  8
0
100
AcDbLine
 10
291.16
 20
495.0
 30
0.0
 11
295.0
 21
495.0
 31
0.0
  0
LINE
  5
29B
330
1E
100
AcDbEntity
  8
0
100
AcDbLine
 10
308.02
 20
465.0
 30
0.0
 11
309.4599999999999
 21
465.0
 31
0.0
  0
LINE
  5
29C
330
1E
100
AcDbEntity
  8
0
100
AcDbLine
 10
310.0
 20
490.0
 30
0.0
 11
310.0
 21
495.0
 31
0.0
  0
LINE
  5
29D
330
1E
100
AcDbEntity
  8
0
100
AcDbLine
 10
310.0
 20
465.0
 30
0.0
 11
310.0
 21
470.0
 31
0.0
  0
LINE
  5
29E
330
1E
100
AcDbEntity
  8
0
100
AcDbLine
 10
309.4599999999999
 20
465.0
 30
0.0
 11
310.0
 21
465.0
 31
0.0
  0
LINE
  5
29F
330
1E
100
AcDbEntity
  8
0
100
AcDbLine
 10
309.4599999999999
 20
495.0
 30
0.0
 11
310.0
 21
495.0
 31
0.0
  0
LINE
  5
2A0
330
1E
100
AcDbEntity
  8
0
100
AcDbLine
 10
310.0
 20
495.0
 30
0.0
 11
310.0
 21
490.0
 31
0.0
  0
LINE
  5
2A1
330
1E
100
AcDbEntity
  8
0
100
AcDbLine
 10
309.91
 20
490.0
 30
0.0
 11
317.0
 21
490.0
 31
0.0
  0
LINE
  5
2A2
330
1E
100
AcDbEntity
  8
0
100
AcDbLine
 10
317.0
 20
470.0
 30
0.0
 11
317.0
 21
469.695
 31
0.0
  0
LINE
  5
2A3
330
1E
100
AcDbEntity
  8
0
100
AcDbLine
 10
317.0
 20
469.289
 30
0.0
 11
317.057
 21
469.0
 31
0.0
  0
LINE
  5
2A4
330
1E
100
AcDbEntity
  8
0
100
AcDbLine
 10
317.0
 20
469.289
 30
0.0
 11
317.0
 21
469.695
 31
0.0
  0
LINE
  5
2A6
330
1E
100
AcDbEntity
  8
0
100
AcDbLine
 10
317.0
 20
469.695
 30
0.0
 11
317.0
 21
469.289
 31
0.0
  0
LINE
  5
2A7
330
1E
100
AcDbEntity
  8
0
100
AcDbLine
 10
317.0
 20
469.695
 30
0.0
 11
317.0
 21
470.737
 31
0.0
  0
LINE
  5
2A8
330
1E
100
AcDbEntity
  8
0
100
AcDbLine
 10
317.0
 20
469.695
 30
0.0
 11
317.0
 21
470.0
 31
0.0
  0
LINE
  5
2AB
330
1E
100
AcDbEntity
  8
0
100
AcDbLine
 10
317.0
 20
470.737
 30
0.0
 11
317.0
 21
469.695
 31
0.0
  0
LINE
  5
2AC
330
1E
100
AcDbEntity
  8
0
100
AcDbLine
 10
317.0
 20
470.737
 30
0.0
 11
317.0
 21
472.416
 31
0.0
  0
LINE
  5
2AD
330
1E
100
AcDbEntity
  8
0
100
AcDbLine
 10
317.0
 20
472.416
 30
0.0
 11
317.0
 21
474.674
 31
0.0
  0
LINE
  5
2AE
330
1E
100
AcDbEntity
  8
0
100
AcDbLine
 10
317.0
 20
472.416
 30
0.0
 11
317.0
 21
470.737
 31
0.0
  0
LINE
  5
2B3
330
1E
100
AcDbEntity
  8
0
100
AcDbLine
 10
317.0
 20
474.674
 30
0.0
 11
317.0
 21
477.221
 31
0.0
  0
LINE
  5
2B4
330
1E
100
AcDbEntity
  8
0
100
AcDbLine
 10
317.0
 20
474.674
 30
0.0
 11
317.0
 21
472.416
 31
0.0
  0
LINE
  5
2B6
330
1E
100
AcDbEntity
  8
0
100
AcDbLine
 10
317.0
 20
477.221
 30
0.0
 11
317.0
 21
474.674
 31
0.0
  0
LINE
  5
2B7
330
1E
100
AcDbEntity
  8
0
100
AcDbLine
 10
317.0
 20
477.221
 30
0.0
 11
317.0
 21
480.0
 31
0.0
  0
LINE
  5
2B8
330
1E
100
AcDbEntity
  8
0
100
AcDbLine
 10
317.0
 20
482.779
 30
0.0
 11
317.0
 21
480.0
 31
0.0
  0
LINE
  5
2BA
330
1E
100
AcDbEntity
  8
0
100
AcDbLine
 10
317.0
 20
482.779
 30
0.0
 11
317.0
 21
485.3259999999999
 31
0.0
  0
LINE
  5
2BB
330
1E
100
AcDbEntity
  8
0
100
AcDbLine
 10
317.0
 20
480.0
 30
0.0
 11
317.0
 21
477.4399999999999
 31
0.0
  0
LINE
  5
2BC
330
1E
100
AcDbEntity
  8
0
100
AcDbLine
 10
317.0
 20
480.0
 30
0.0
 11
317.0
 21
477.221
 31
0.0
  0
LINE
  5
2BE
330
1E
100
AcDbEntity
  8
0
100
AcDbLine
 10
317.0
 20
480.0
 30
0.0
 11
317.0
 21
482.779
 31
0.0
  0
LINE
  5
2BF
330
1E
100
AcDbEntity
  8
0
100
AcDbLine
 10
317.0
 20
477.4399999999999
 30
0.0
 11
317.0
 21
475.0399999999999
 31
0.0
  0
LINE
  5
2C0
330
1E
100
AcDbEntity
  8
0
100
AcDbLine
 10
317.0
 20
475.0399999999999
 30
0.0
 11
317.0
 21
472.92
 31
0.0
  0
LINE
  5
2C1
330
1E
100
AcDbEntity
  8
0
100
AcDbLine
 10
317.0
 20
472.92
 30
0.0
 11
317.0
 21
471.3199999999999
 31
0.0
  0
LINE
  5
2C2
330
1E
100
AcDbEntity
  8
0
100
AcDbLine
 10
317.0
 20
471.3199999999999
 30
0.0
 11
317.0
 21
470.36
 31
0.0
  0
LINE
  5
2C3
330
1E
100
AcDbEntity
  8
0
100
AcDbLine
 10
317.0
 20
470.36
 30
0.0
 11
317.0
 21
470.0
 31
0.0
  0
LINE
  5
2C4
330
1E
100
AcDbEntity
  8
0
100
AcDbLine
 10
317.0
 20
482.56
 30
0.0
 11
317.0
 21
480.0
 31
0.0
  0
LINE
  5
2C5
330
1E
100
AcDbEntity
  8
0
100
AcDbLine
 10
317.0
 20
487.584
 30
0.0
 11
317.0
 21
485.3259999999999
 31
0.0
  0
LINE
  5
2C8
330
1E
100
AcDbEntity
  8
0
100
AcDbLine
 10
317.0
 20
487.584
 30
0.0
 11
317.0
 21
489.263
 31
0.0
  0
LINE
  5
2C9
330
1E
100
AcDbEntity
  8
0
100
AcDbLine
 10
317.0
 20
485.3259999999999
 30
0.0
 11
317.0
 21
482.779
 31
0.0
  0
LINE
  5
2CA
330
1E
100
AcDbEntity
  8
0
100
AcDbLine
 10
317.0
 20
485.3259999999999
 30
0.0
 11
317.0
 21
487.584
 31
0.0
  0
LINE
  5
2CD
330
1E
100
AcDbEntity
  8
0
100
AcDbLine
 10
317.0
 20
484.9599999999999
 30
0.0
 11
317.0
 21
482.56
 31
0.0
  0
LINE
  5
2CE
330
1E
100
AcDbEntity
  8
0
100
AcDbLine
 10
317.0
 20
487.08
 30
0.0
 11
317.0
 21
484.9599999999999
 31
0.0
  0
LINE
  5
2CF
330
1E
100
AcDbEntity
  8
0
100
AcDbLine
 10
317.0
 20
489.263
 30
0.0
 11
317.0
 21
487.584
 31
0.0
  0
LINE
  5
2D2
330
1E
100
AcDbEntity
  8
0
100
AcDbLine
 10
317.0
 20
489.263
 30
0.0
 11
317.0
 21
490.305
 31
0.0
  0
LINE
  5
2D3
330
1E
100
AcDbEntity
  8
0
100
AcDbLine
 10
317.0
 20
488.68
 30
0.0
 11
317.0
 21
487.08
 31
0.0
  0
LINE
  5
2D4
330
1E
100
AcDbEntity
  8
0
100
AcDbLine
 10
318.1429999999999
 20
469.0
 30
0.0
 11
323.857
 21
469.0
 31
0.0
  0
LINE
  5
2D6
330
1E
100
AcDbEntity
  8
0
100
AcDbLine
 10
317.5709999999999
 20
469.0
 30
0.0
 11
318.1429999999999
 21
469.0
 31
0.0
  0
LINE
  5
2D8
330
1E
100
AcDbEntity
  8
0
100
AcDbLine
 10
317.137
 20
469.0
 30
0.0
 11
317.5709999999999
 21
469.0
 31
0.0
  0
LINE
  5
2F6
330
1E
100
AcDbEntity
  8
0
100
AcDbLine
 10
317.057
 20
469.0
 30
0.0
 11
317.137
 21
469.0
 31
0.0
  0
LINE
  5
2F7
330
1E
100
AcDbEntity
  8
0
100
AcDbLine
 10
317.0
 20
489.6399999999999
 30
0.0
 11
317.0
 21
488.68
 31
0.0
  0
LINE
  5
2FA
330
1E
100
AcDbEntity
  8
0
100
AcDbLine
 10
317.0
 20
490.711
 30
0.0
 11
317.0
 21
490.305
 31
0.0
  0
LINE
  5
2FB
330
1E
100
AcDbEntity
  8
0
100
AcDbLine
 10
317.0
 20
490.711
 30
0.0
 11
317.057
 21
491.0
 31
0.0
  0
LINE
  5
2FF
330
1E
100
AcDbEntity
  8
0
100
AcDbLine
 10
317.5709999999999
 20
491.0
 30
0.0
 11
318.1429999999999
 21
491.0
 31
0.0
  0
LINE
  5
301
330
1E
100
AcDbEntity
  8
0
100
AcDbLine
 10
317.137
 20
491.0
 30
0.0
 11
317.5709999999999
 21
491.0
 31
0.0
  0
LINE
  5
303
330
1E
100
AcDbEntity
  8
0
100
AcDbLine
 10
317.057
 20
491.0
 30
0.0
 11
317.137
 21
491.0
 31
0.0
  0
LINE
  5
304
330
1E
100
AcDbEntity
  8
0
100
AcDbLine
 10
317.0
 20
490.305
 30
0.0
 11
317.0
 21
489.263
 31
0.0
  0
LINE
  5
306
330
1E
100
AcDbEntity
  8
0
100
AcDbLine
 10
317.0
 20
490.305
 30
0.0
 11
317.0
 21
490.711
 31
0.0
  0
LINE
  5
307
330
1E
100
AcDbEntity
  8
0
100
AcDbLine
 10
317.0
 20
490.305
 30
0.0
 11
317.0
 21
490.0
 31
0.0
  0
LINE
  5
309
330
1E
100
AcDbEntity
  8
0
100
AcDbLine
 10
318.1429999999999
 20
491.0
 30
0.0
 11
323.857
 21
491.0
 31
0.0
  0
LINE
  5
30D
330
1E
100
AcDbEntity
  8
0
100
AcDbLine
 10
317.0
 20
490.0
 30
0.0
 11
317.0
 21
489.6399999999999
 31
0.0
  0
LINE
  5
30E
330
1E
100
AcDbEntity
  8
0
100
AcDbLine
 10
317.0
 20
490.0
 30
0.0
 11
317.0
 21
490.305
 31
0.0
  0
LINE
  5
30F
330
1E
100
AcDbEntity
  8
0
100
AcDbLine
 10
310.0
 20
470.0
 30
0.0
 11
317.0
 21
470.0
 31
0.0
  0
LINE
  5
310
330
1E
100
AcDbEntity
  8
0
100
AcDbLine
 10
310.0
 20
470.0
 30
0.0
 11
310.0
 21
465.0
 31
0.0
  0
LINE
  5
311
330
1E
100
AcDbEntity
  8
0
100
AcDbLine
 10
315.294
 20
533.0
 30
0.0
 11
319.794
 21
533.0
 31
0.0
  0
LINE
  5
312
330
1E
100
AcDbEntity
  8
0
100
AcDbLine
 10
319.794
 20
533.0
 30
0.0
 11
322.6179999999999
 21
533.0
 31
0.0
  0
LINE
  5
313
330
1E
100
AcDbEntity
  8
0
100
AcDbLine
 10
322.6179999999999
 20
533.0
 30
0.0
 11
323.6759999999999
 21
533.0
 31
0.0
  0
LINE
  5
314
330
1E
100
AcDbEntity
  8
0
100
AcDbLine
 10
309.294
 20
533.0
 30
0.0
 11
315.294
 21
533.0
 31
0.0
  0
LINE
  5
315
330
1E
100
AcDbEntity
  8
0
100
AcDbLine
 10
302.412
 20
533.0
 30
0.0
 11
309.294
 21
533.0
 31
0.0
  0
LINE
  5
316
330
1E
100
AcDbEntity
  8
0
100
AcDbLine
 10
287.5879999999999
 20
533.0
 30
0.0
 11
295.0
 21
533.0
 31
0.0
  0
LINE
  5
317
330
1E
100
AcDbEntity
  8
0
100
AcDbLine
 10
270.2059999999999
 20
533.0
 30
0.0
 11
285.0
 21
533.0
 31
0.0
  0
LINE
  5
318
330
1E
100
AcDbEntity
  8
0
100
AcDbLine
 10
266.3229999999999
 20
533.0
 30
0.0
 11
267.382
 21
533.0
 31
0.0
  0
LINE
  5
319
330
1E
100
AcDbEntity
  8
0
100
AcDbLine
 10
269.412
 20
533.4999999999999
 30
0.0
 11
274.0879999999999
 21
533.4999999999999
 31
0.0
  0
LINE
  5
31A
330
1E
100
AcDbEntity
  8
0
100
AcDbLine
 10
266.5
 20
533.4999999999999
 30
0.0
 11
269.412
 21
533.4999999999999
 31
0.0
  0
LINE
  5
31B
330
1E
100
AcDbEntity
  8
0
100
AcDbLine
 10
274.0879999999999
 20
533.4999999999999
 30
0.0
 11
280.2649999999999
 21
533.4999999999999
 31
0.0
  0
LINE
  5
31C
330
1E
100
AcDbEntity
  8
0
100
AcDbLine
 10
315.912
 20
533.4999999999999
 30
0.0
 11
320.5879999999999
 21
533.4999999999999
 31
0.0
  0
LINE
  5
31D
330
1E
100
AcDbEntity
  8
0
100
AcDbLine
 10
320.5879999999999
 20
533.4999999999999
 30
0.0
 11
323.4999999999999
 21
533.4999999999999
 31
0.0
  0
LINE
  5
31E
330
1E
100
AcDbEntity
  8
0
100
AcDbLine
 10
323.4999999999999
 20
533.4999999999999
 30
0.0
 11
324.559
 21
533.4999999999999
 31
0.0
  0
LINE
  5
31F
330
1E
100
AcDbEntity
  8
0
100
AcDbLine
 10
309.735
 20
533.4999999999999
 30
0.0
 11
315.912
 21
533.4999999999999
 31
0.0
  0
LINE
  5
320
330
1E
100
AcDbEntity
  8
0
100
AcDbLine
 10
302.5879999999999
 20
533.4999999999999
 30
0.0
 11
309.735
 21
533.4999999999999
 31
0.0
  0
LINE
  5
321
330
1E
100
AcDbEntity
  8
0
100
AcDbLine
 10
295.0
 20
533.4999999999999
 30
0.0
 11
302.5879999999999
 21
533.4999999999999
 31
0.0
  0
LINE
  5
322
330
1E
100
AcDbEntity
  8
0
100
AcDbLine
 10
280.2649999999999
 20
533.4999999999999
 30
0.0
 11
287.412
 21
533.4999999999999
 31
0.0
  0
LINE
  5
323
330
1E
100
AcDbEntity
  8
0
100
AcDbLine
 10
287.412
 20
533.4999999999999
 30
0.0
 11
295.0
 21
533.4999999999999
 31
0.0
  0
LINE
  5
324
330
1E
100
AcDbEntity
  8
0
100
AcDbLine
 10
265.4409999999999
 20
533.4999999999999
 30
0.0
 11
266.3229999999999
 21
533.0
 31
0.0
  0
LINE
  5
325
330
1E
100
AcDbEntity
  8
0
100
AcDbLine
 10
265.4409999999999
 20
533.4999999999999
 30
0.0
 11
266.5
 21
533.4999999999999
 31
0.0
  0
LINE
  5
326
330
1E
100
AcDbEntity
  8
0
100
AcDbLine
 10
305.0
 20
533.0
 30
0.0
 11
309.294
 21
533.0
 31
0.0
  0
LINE
  5
327
330
1E
100
AcDbEntity
  8
0
100
AcDbLine
 10
305.0
 20
533.0
 30
0.0
 11
305.0
 21
495.0
 31
0.0
  0
LINE
  5
328
330
1E
100
AcDbEntity
  8
0
100
AcDbLine
 10
323.857
 20
469.0
 30
0.0
 11
324.429
 21
469.0
 31
0.0
  0
LINE
  5
32B
330
1E
100
AcDbEntity
  8
0
100
AcDbLine
 10
365.5709999999999
 20
469.0
 30
0.0
 11
366.143
 21
469.0
 31
0.0
  0
LINE
  5
32D
330
1E
100
AcDbEntity
  8
0
100
AcDbLine
 10
366.143
 20
469.0
 30
0.0
 11
371.8569999999999
 21
469.0
 31
0.0
  0
LINE
  5
32E
330
1E
100
AcDbEntity
  8
0
100
AcDbLine
 10
371.8569999999999
 20
469.0
 30
0.0
 11
372.429
 21
469.0
 31
0.0
  0
LINE
  5
332
330
1E
100
AcDbEntity
  8
0
100
AcDbLine
 10
365.1369999999999
 20
469.0
 30
0.0
 11
365.5709999999999
 21
469.0
 31
0.0
  0
LINE
  5
333
330
1E
100
AcDbEntity
  8
0
100
AcDbLine
 10
372.429
 20
469.0
 30
0.0
 11
372.863
 21
469.0
 31
0.0
  0
LINE
  5
335
330
1E
100
AcDbEntity
  8
0
100
AcDbLine
 10
365.0569999999999
 20
469.0
 30
0.0
 11
365.1369999999999
 21
469.0
 31
0.0
  0
LINE
  5
336
330
1E
100
AcDbEntity
  8
0
100
AcDbLine
 10
372.943
 20
469.0
 30
0.0
 11
373.0
 21
469.289
 31
0.0
  0
LINE
  5
337
330
1E
100
AcDbEntity
  8
0
100
AcDbLine
 10
372.863
 20
469.0
 30
0.0
 11
372.943
 21
469.0
 31
0.0
  0
LINE
  5
346
330
1E
100
AcDbEntity
  8
0
100
AcDbLine
 10
324.9429999999999
 20
469.0
 30
0.0
 11
325.0
 21
469.289
 31
0.0
  0
LINE
  5
347
330
1E
100
AcDbEntity
  8
0
100
AcDbLine
 10
324.429
 20
469.0
 30
0.0
 11
324.8629999999999
 21
469.0
 31
0.0
  0
LINE
  5
353
330
1E
100
AcDbEntity
  8
0
100
AcDbLine
 10
323.857
 20
491.0
 30
0.0
 11
324.429
 21
491.0
 31
0.0
  0
LINE
  5
354
330
1E
100
AcDbEntity
  8
0
100
AcDbLine
 10
324.429
 20
491.0
 30
0.0
 11
324.8629999999999
 21
491.0
 31
0.0
  0
LINE
  5
364
330
1E
100
AcDbEntity
  8
0
100
AcDbLine
 10
324.8629999999999
 20
491.0
 30
0.0
 11
324.9429999999999
 21
491.0
 31
0.0
  0
LINE
  5
36B
330
1E
100
AcDbEntity
  8
0
100
AcDbLine
 10
325.0
 20
471.0
 30
0.0
 11
365.0
 21
471.0
 31
0.0
  0
LINE
  5
36C
330
1E
100
AcDbEntity
  8
0
100
AcDbLine
 10
325.0
 20
472.416
 30
0.0
 11
325.0
 21
474.674
 31
0.0
  0
LINE
  5
36D
330
1E
100
AcDbEntity
  8
0
100
AcDbLine
 10
325.0
 20
472.416
 30
0.0
 11
325.0
 21
470.737
 31
0.0
  0
LINE
  5
36E
330
1E
100
AcDbEntity
  8
0
100
AcDbLine
 10
325.0
 20
470.737
 30
0.0
 11
325.0
 21
472.416
 31
0.0
  0
LINE
  5
36F
330
1E
100
AcDbEntity
  8
0
100
AcDbLine
 10
325.0
 20
470.737
 30
0.0
 11
325.0
 21
469.695
 31
0.0
  0
LINE
  5
370
330
1E
100
AcDbEntity
  8
0
100
AcDbLine
 10
325.0
 20
489.0
 30
0.0
 11
365.0
 21
489.0
 31
0.0
  0
LINE
  5
371
330
1E
100
AcDbEntity
  8
0
100
AcDbLine
 10
325.0
 20
487.584
 30
0.0
 11
325.0
 21
485.3259999999999
 31
0.0
  0
LINE
  5
372
330
1E
100
AcDbEntity
  8
0
100
AcDbLine
 10
325.0
 20
487.584
 30
0.0
 11
325.0
 21
489.263
 31
0.0
  0
LINE
  5
373
330
1E
100
AcDbEntity
  8
0
100
AcDbLine
 10
325.0
 20
485.3259999999999
 30
0.0
 11
325.0
 21
482.779
 31
0.0
  0
LINE
  5
374
330
1E
100
AcDbEntity
  8
0
100
AcDbLine
 10
325.0
 20
485.3259999999999
 30
0.0
 11
325.0
 21
487.584
 31
0.0
  0
LINE
  5
375
330
1E
100
AcDbEntity
  8
0
100
AcDbLine
 10
325.0
 20
489.263
 30
0.0
 11
325.0
 21
487.584
 31
0.0
  0
LINE
  5
376
330
1E
100
AcDbEntity
  8
0
100
AcDbLine
 10
325.0
 20
489.263
 30
0.0
 11
325.0
 21
490.305
 31
0.0
  0
LINE
  5
377
330
1E
100
AcDbEntity
  8
0
100
AcDbLine
 10
325.0
 20
490.711
 30
0.0
 11
325.0
 21
490.305
 31
0.0
  0
LINE
  5
378
330
1E
100
AcDbEntity
  8
0
100
AcDbLine
 10
324.9429999999999
 20
491.0
 30
0.0
 11
325.0
 21
490.711
 31
0.0
  0
LINE
  5
379
330
1E
100
AcDbEntity
  8
0
100
AcDbLine
 10
325.0
 20
490.305
 30
0.0
 11
325.0
 21
489.263
 31
0.0
  0
LINE
  5
37A
330
1E
100
AcDbEntity
  8
0
100
AcDbLine
 10
325.0
 20
490.305
 30
0.0
 11
325.0
 21
490.711
 31
0.0
  0
LINE
  5
37B
330
1E
100
AcDbEntity
  8
0
100
AcDbLine
 10
325.0
 20
482.779
 30
0.0
 11
325.0
 21
480.0
 31
0.0
  0
LINE
  5
37C
330
1E
100
AcDbEntity
  8
0
100
AcDbLine
 10
325.0
 20
482.779
 30
0.0
 11
325.0
 21
485.3259999999999
 31
0.0
  0
LINE
  5
37D
330
1E
100
AcDbEntity
  8
0
100
AcDbLine
 10
325.0
 20
480.0
 30
0.0
 11
325.0
 21
477.221
 31
0.0
  0
LINE
  5
37E
330
1E
100
AcDbEntity
  8
0
100
AcDbLine
 10
325.0
 20
480.0
 30
0.0
 11
325.0
 21
482.779
 31
0.0
  0
LINE
  5
37F
330
1E
100
AcDbEntity
  8
0
100
AcDbLine
 10
325.0
 20
477.221
 30
0.0
 11
325.0
 21
474.674
 31
0.0
  0
LINE
  5
380
330
1E
100
AcDbEntity
  8
0
100
AcDbLine
 10
325.0
 20
477.221
 30
0.0
 11
325.0
 21
480.0
 31
0.0
  0
LINE
  5
381
330
1E
100
AcDbEntity
  8
0
100
AcDbLine
 10
325.0
 20
474.674
 30
0.0
 11
325.0
 21
477.221
 31
0.0
  0
LINE
  5
382
330
1E
100
AcDbEntity
  8
0
100
AcDbLine
 10
325.0
 20
474.674
 30
0.0
 11
325.0
 21
472.416
 31
0.0
  0
LINE
  5
384
330
1E
100
AcDbEntity
  8
0
100
AcDbLine
 10
325.0
 20
469.695
 30
0.0
 11
325.0
 21
469.289
 31
0.0
  0
LINE
  5
385
330
1E
100
AcDbEntity
  8
0
100
AcDbLine
 10
325.0
 20
469.695
 30
0.0
 11
325.0
 21
470.737
 31
0.0
  0
LINE
  5
386
330
1E
100
AcDbEntity
  8
0
100
AcDbLine
 10
365.0
 20
470.737
 30
0.0
 11
365.0
 21
471.0
 31
0.0
  0
LINE
  5
387
330
1E
100
AcDbEntity
  8
0
100
AcDbLine
 10
365.0
 20
470.737
 30
0.0
 11
365.0
 21
469.695
 31
0.0
  0
LINE
  5
388
330
1E
100
AcDbEntity
  8
0
100
AcDbLine
 10
365.0
 20
469.695
 30
0.0
 11
365.0
 21
470.737
 31
0.0
  0
LINE
  5
389
330
1E
100
AcDbEntity
  8
0
100
AcDbLine
 10
365.0
 20
469.695
 30
0.0
 11
365.0
 21
469.289
 31
0.0
  0
LINE
  5
38A
330
1E
100
AcDbEntity
  8
0
100
AcDbLine
 10
365.0
 20
469.289
 30
0.0
 11
365.0569999999999
 21
469.0
 31
0.0
  0
LINE
  5
38B
330
1E
100
AcDbEntity
  8
0
100
AcDbLine
 10
365.0
 20
469.289
 30
0.0
 11
365.0
 21
469.695
 31
0.0
  0
LINE
  5
38C
330
1E
100
AcDbEntity
  8
0
100
AcDbLine
 10
365.0
 20
471.5759999999999
 30
0.0
 11
365.0
 21
472.2609999999999
 31
0.0
  0
LINE
  5
38D
330
1E
100
AcDbEntity
  8
0
100
AcDbLine
 10
365.0
 20
472.2609999999999
 30
0.0
 11
365.0
 21
471.5759999999999
 31
0.0
  0
LINE
  5
38E
330
1E
100
AcDbEntity
  8
0
100
AcDbLine
 10
365.0
 20
472.2609999999999
 30
0.0
 11
365.0
 21
473.604
 31
0.0
  0
LINE
  5
38F
330
1E
100
AcDbEntity
  8
0
100
AcDbLine
 10
365.0
 20
473.604
 30
0.0
 11
365.0
 21
475.47
 31
0.0
  0
LINE
  5
390
330
1E
100
AcDbEntity
  8
0
100
AcDbLine
 10
365.0
 20
473.604
 30
0.0
 11
365.0
 21
472.2609999999999
 31
0.0
  0
LINE
  5
391
330
1E
100
AcDbEntity
  8
0
100
AcDbLine
 10
365.0
 20
475.47
 30
0.0
 11
365.0
 21
477.493
 31
0.0
  0
LINE
  5
392
330
1E
100
AcDbEntity
  8
0
100
AcDbLine
 10
365.0
 20
475.47
 30
0.0
 11
365.0
 21
473.604
 31
0.0
  0
LINE
  5
393
330
1E
100
AcDbEntity
  8
0
100
AcDbLine
 10
365.0
 20
482.2259999999999
 30
0.0
 11
365.0
 21
484.388
 31
0.0
  0
LINE
  5
394
330
1E
100
AcDbEntity
  8
0
100
AcDbLine
 10
365.0
 20
482.2259999999999
 30
0.0
 11
365.0
 21
479.9269999999999
 31
0.0
  0
LINE
  5
395
330
1E
100
AcDbEntity
  8
0
100
AcDbLine
 10
365.0
 20
479.9269999999999
 30
0.0
 11
365.0
 21
477.493
 31
0.0
  0
LINE
  5
396
330
1E
100
AcDbEntity
  8
0
100
AcDbLine
 10
365.0
 20
479.9269999999999
 30
0.0
 11
365.0
 21
482.2259999999999
 31
0.0
  0
LINE
  5
397
330
1E
100
AcDbEntity
  8
0
100
AcDbLine
 10
365.0
 20
477.493
 30
0.0
 11
365.0
 21
475.47
 31
0.0
  0
LINE
  5
398
330
1E
100
AcDbEntity
  8
0
100
AcDbLine
 10
365.0
 20
477.493
 30
0.0
 11
365.0
 21
479.9269999999999
 31
0.0
  0
LINE
  5
39B
330
1E
100
AcDbEntity
  8
0
100
AcDbLine
 10
365.0
 20
477.6959999999999
 30
0.0
 11
365.0
 21
480.0
 31
0.0
  0
LINE
  5
39C
330
1E
100
AcDbEntity
  8
0
100
AcDbLine
 10
365.0
 20
475.536
 30
0.0
 11
365.0
 21
477.6959999999999
 31
0.0
  0
LINE
  5
39D
330
1E
100
AcDbEntity
  8
0
100
AcDbLine
 10
365.0
 20
473.628
 30
0.0
 11
365.0
 21
475.536
 31
0.0
  0
LINE
  5
39E
330
1E
100
AcDbEntity
  8
0
100
AcDbLine
 10
365.0
 20
472.188
 30
0.0
 11
365.0
 21
473.628
 31
0.0
  0
LINE
  5
39F
330
1E
100
AcDbEntity
  8
0
100
AcDbLine
 10
365.0
 20
471.3239999999999
 30
0.0
 11
365.0
 21
472.188
 31
0.0
  0
LINE
  5
3A0
330
1E
100
AcDbEntity
  8
0
100
AcDbLine
 10
365.0
 20
471.0
 30
0.0
 11
365.0
 21
471.3239999999999
 31
0.0
  0
LINE
  5
3A1
330
1E
100
AcDbEntity
  8
0
100
AcDbLine
 10
365.0
 20
471.0
 30
0.0
 11
365.0
 21
470.737
 31
0.0
  0
LINE
  5
3A2
330
1E
100
AcDbEntity
  8
0
100
AcDbLine
 10
365.0
 20
480.0
 30
0.0
 11
365.0
 21
482.304
 31
0.0
  0
LINE
  5
3A3
330
1E
100
AcDbEntity
  8
0
100
AcDbLine
 10
365.0
 20
480.0
 30
0.0
 11
365.0
 21
482.779
 31
0.0
  0
LINE
  5
3A4
330
1E
100
AcDbEntity
  8
0
100
AcDbLine
 10
365.0
 20
484.388
 30
0.0
 11
365.0
 21
486.397
 31
0.0
  0
LINE
  5
3A5
330
1E
100
AcDbEntity
  8
0
100
AcDbLine
 10
365.0
 20
484.388
 30
0.0
 11
365.0
 21
482.2259999999999
 31
0.0
  0
LINE
  5
3A6
330
1E
100
AcDbEntity
  8
0
100
AcDbLine
 10
365.0
 20
485.3259999999999
 30
0.0
 11
365.0
 21
482.779
 31
0.0
  0
LINE
  5
3A8
330
1E
100
AcDbEntity
  8
0
100
AcDbLine
 10
365.0
 20
482.779
 30
0.0
 11
365.0
 21
480.0
 31
0.0
  0
LINE
  5
3AB
330
1E
100
AcDbEntity
  8
0
100
AcDbLine
 10
365.0
 20
482.779
 30
0.0
 11
365.0
 21
485.3259999999999
 31
0.0
  0
LINE
  5
3AC
330
1E
100
AcDbEntity
  8
0
100
AcDbLine
 10
365.0
 20
482.304
 30
0.0
 11
365.0
 21
484.464
 31
0.0
  0
LINE
  5
3AD
330
1E
100
AcDbEntity
  8
0
100
AcDbLine
 10
365.0
 20
484.464
 30
0.0
 11
365.0
 21
486.3719999999999
 31
0.0
  0
LINE
  5
3AE
330
1E
100
AcDbEntity
  8
0
100
AcDbLine
 10
365.0
 20
488.3759999999999
 30
0.0
 11
365.0
 21
487.739
 31
0.0
  0
LINE
  5
3B0
330
1E
100
AcDbEntity
  8
0
100
AcDbLine
 10
365.0
 20
486.397
 30
0.0
 11
365.0
 21
487.739
 31
0.0
  0
LINE
  5
3B1
330
1E
100
AcDbEntity
  8
0
100
AcDbLine
 10
365.0
 20
486.397
 30
0.0
 11
365.0
 21
484.388
 31
0.0
  0
LINE
  5
3B2
330
1E
100
AcDbEntity
  8
0
100
AcDbLine
 10
365.0
 20
487.739
 30
0.0
 11
365.0
 21
488.3759999999999
 31
0.0
  0
LINE
  5
3B3
330
1E
100
AcDbEntity
  8
0
100
AcDbLine
 10
365.0
 20
487.739
 30
0.0
 11
365.0
 21
486.397
 31
0.0
  0
LINE
  5
3B4
330
1E
100
AcDbEntity
  8
0
100
AcDbLine
 10
365.0
 20
486.3719999999999
 30
0.0
 11
365.0
 21
487.812
 31
0.0
  0
LINE
  5
3C4
330
1E
100
AcDbEntity
  8
0
100
AcDbLine
 10
373.0
 20
469.289
 30
0.0
 11
373.0
 21
469.695
 31
0.0
  0
LINE
  5
3C5
330
1E
100
AcDbEntity
  8
0
100
AcDbLine
 10
373.0
 20
469.695
 30
0.0
 11
373.0
 21
469.289
 31
0.0
  0
LINE
  5
3C6
330
1E
100
AcDbEntity
  8
0
100
AcDbLine
 10
373.0
 20
469.695
 30
0.0
 11
373.0
 21
472.416
 31
0.0
  0
LINE
  5
3CD
330
1E
100
AcDbEntity
  8
0
100
AcDbLine
 10
373.0
 20
472.416
 30
0.0
 11
373.0
 21
469.695
 31
0.0
  0
LINE
  5
3CE
330
1E
100
AcDbEntity
  8
0
100
AcDbLine
 10
373.0
 20
472.416
 30
0.0
 11
373.0
 21
474.674
 31
0.0
  0
LINE
  5
3CF
330
1E
100
AcDbEntity
  8
0
100
AcDbLine
 10
373.0
 20
474.674
 30
0.0
 11
373.0
 21
477.221
 31
0.0
  0
LINE
  5
3D0
330
1E
100
AcDbEntity
  8
0
100
AcDbLine
 10
373.0
 20
474.674
 30
0.0
 11
373.0
 21
472.416
 31
0.0
  0
LINE
  5
3E2
330
1E
100
AcDbEntity
  8
0
100
AcDbLine
 10
373.0
 20
477.221
 30
0.0
 11
373.0
 21
474.674
 31
0.0
  0
LINE
  5
3EB
330
1E
100
AcDbEntity
  8
0
100
AcDbLine
 10
373.0
 20
482.779
 30
0.0
 11
373.0
 21
485.3259999999999
 31
0.0
  0
LINE
  5
3F0
330
1E
100
AcDbEntity
  8
0
100
AcDbLine
 10
373.0
 20
480.0
 30
0.0
 11
373.0
 21
477.4399999999999
 31
0.0
  0
LINE
  5
3F1
330
1E
100
AcDbEntity
  8
0
100
AcDbLine
 10
373.0
 20
477.4399999999999
 30
0.0
 11
373.0
 21
475.0399999999999
 31
0.0
  0
LINE
  5
3F2
330
1E
100
AcDbEntity
  8
0
100
AcDbLine
 10
373.0
 20
475.0399999999999
 30
0.0
 11
373.0
 21
472.92
 31
0.0
  0
LINE
  5
3F3
330
1E
100
AcDbEntity
  8
0
100
AcDbLine
 10
373.0
 20
482.56
 30
0.0
 11
373.0
 21
480.0
 31
0.0
  0
LINE
  5
3F8
330
1E
100
AcDbEntity
  8
0
100
AcDbLine
 10
373.0
 20
487.584
 30
0.0
 11
373.0
 21
485.3259999999999
 31
0.0
  0
LINE
  5
3F9
330
1E
100
AcDbEntity
  8
0
100
AcDbLine
 10
373.0
 20
487.584
 30
0.0
 11
373.0
 21
489.263
 31
0.0
  0
LINE
  5
3FA
330
1E
100
AcDbEntity
  8
0
100
AcDbLine
 10
373.0
 20
485.3259999999999
 30
0.0
 11
373.0
 21
482.779
 31
0.0
  0
LINE
  5
3FB
330
1E
100
AcDbEntity
  8
0
100
AcDbLine
 10
373.0
 20
485.3259999999999
 30
0.0
 11
373.0
 21
487.584
 31
0.0
  0
LINE
  5
400
330
1E
100
AcDbEntity
  8
0
100
AcDbLine
 10
373.0
 20
484.9599999999999
 30
0.0
 11
373.0
 21
482.56
 31
0.0
  0
LINE
  5
401
330
1E
100
AcDbEntity
  8
0
100
AcDbLine
 10
373.0
 20
487.08
 30
0.0
 11
373.0
 21
484.9599999999999
 31
0.0
  0
LINE
  5
402
330
1E
100
AcDbEntity
  8
0
100
AcDbLine
 10
373.0
 20
470.0
 30
0.0
 11
385.0
 21
470.0
 31
0.0
  0
LINE
  5
403
330
1E
100
AcDbEntity
  8
0
100
AcDbLine
 10
365.0
 20
487.812
 30
0.0
 11
365.0
 21
488.6759999999999
 31
0.0
  0
LINE
  5
404
330
1E
100
AcDbEntity
  8
0
100
AcDbLine
 10
365.0
 20
489.0
 30
0.0
 11
365.0
 21
489.263
 31
0.0
  0
LINE
  5
405
330
1E
100
AcDbEntity
  8
0
100
AcDbLine
 10
365.0
 20
490.305
 30
0.0
 11
365.0
 21
490.711
 31
0.0
  0
LINE
  5
406
330
1E
100
AcDbEntity
  8
0
100
AcDbLine
 10
365.0
 20
490.305
 30
0.0
 11
365.0
 21
489.263
 31
0.0
  0
LINE
  5
407
330
1E
100
AcDbEntity
  8
0
100
AcDbLine
 10
365.0
 20
490.711
 30
0.0
 11
365.0
 21
490.305
 31
0.0
  0
LINE
  5
408
330
1E
100
AcDbEntity
  8
0
100
AcDbLine
 10
365.0
 20
490.711
 30
0.0
 11
365.0569999999999
 21
491.0
 31
0.0
  0
LINE
  5
40C
330
1E
100
AcDbEntity
  8
0
100
AcDbLine
 10
365.0
 20
489.263
 30
0.0
 11
365.0
 21
489.0
 31
0.0
  0
LINE
  5
40D
330
1E
100
AcDbEntity
  8
0
100
AcDbLine
 10
365.0
 20
489.263
 30
0.0
 11
365.0
 21
490.305
 31
0.0
  0
LINE
  5
410
330
1E
100
AcDbEntity
  8
0
100
AcDbLine
 10
373.0
 20
489.263
 30
0.0
 11
373.0
 21
487.584
 31
0.0
  0
LINE
  5
411
330
1E
100
AcDbEntity
  8
0
100
AcDbLine
 10
373.0
 20
489.263
 30
0.0
 11
373.0
 21
490.305
 31
0.0
  0
LINE
  5
412
330
1E
100
AcDbEntity
  8
0
100
AcDbLine
 10
373.0
 20
490.711
 30
0.0
 11
373.0
 21
490.305
 31
0.0
  0
LINE
  5
413
330
1E
100
AcDbEntity
  8
0
100
AcDbLine
 10
373.0
 20
490.305
 30
0.0
 11
373.0
 21
489.263
 31
0.0
  0
LINE
  5
414
330
1E
100
AcDbEntity
  8
0
100
AcDbLine
 10
373.0
 20
490.305
 30
0.0
 11
373.0
 21
490.711
 31
0.0
  0
LINE
  5
418
330
1E
100
AcDbEntity
  8
0
100
AcDbLine
 10
372.943
 20
491.0
 30
0.0
 11
373.0
 21
490.711
 31
0.0
  0
LINE
  5
41D
330
1E
100
AcDbEntity
  8
0
100
AcDbLine
 10
371.8569999999999
 20
491.0
 30
0.0
 11
372.429
 21
491.0
 31
0.0
  0
LINE
  5
421
330
1E
100
AcDbEntity
  8
0
100
AcDbLine
 10
366.143
 20
491.0
 30
0.0
 11
371.8569999999999
 21
491.0
 31
0.0
  0
LINE
  5
422
330
1E
100
AcDbEntity
  8
0
100
AcDbLine
 10
365.5709999999999
 20
491.0
 30
0.0
 11
366.143
 21
491.0
 31
0.0
  0
LINE
  5
424
330
1E
100
AcDbEntity
  8
0
100
AcDbLine
 10
372.429
 20
491.0
 30
0.0
 11
372.863
 21
491.0
 31
0.0
  0
LINE
  5
426
330
1E
100
AcDbEntity
  8
0
100
AcDbLine
 10
365.1369999999999
 20
491.0
 30
0.0
 11
365.5709999999999
 21
491.0
 31
0.0
  0
LINE
  5
427
330
1E
100
AcDbEntity
  8
0
100
AcDbLine
 10
372.863
 20
491.0
 30
0.0
 11
372.943
 21
491.0
 31
0.0
  0
LINE
  5
42A
330
1E
100
AcDbEntity
  8
0
100
AcDbLine
 10
365.0569999999999
 20
491.0
 30
0.0
 11
365.1369999999999
 21
491.0
 31
0.0
  0
LINE
  5
42D
330
1E
100
AcDbEntity
  8
0
100
AcDbLine
 10
373.0
 20
490.0
 30
0.0
 11
385.0
 21
490.0
 31
0.0
  0
LINE
  5
42E
330
1E
100
AcDbEntity
  8
0
100
AcDbLine
 10
365.0
 20
488.6759999999999
 30
0.0
 11
365.0
 21
489.0
 31
0.0
  0
LINE
  5
42F
330
1E
100
AcDbEntity
  8
0
100
AcDbLine
 10
325.0
 20
469.289
 30
0.0
 11
325.0
 21
469.695
 31
0.0
  0
LINE
  5
430
330
1E
100
AcDbEntity
  8
0
100
AcDbLine
 10
324.8629999999999
 20
469.0
 30
0.0
 11
324.9429999999999
 21
469.0
 31
0.0
  0
LINE
  5
431
330
1E
100
AcDbEntity
  8
0
100
AcDbLine
 10
323.6759999999999
 20
533.0
 30
0.0
 11
324.559
 21
533.4999999999999
 31
0.0
  0
LINE
  5
432
330
1E
100
AcDbEntity
  8
0
100
AcDbLine
 10
324.559
 20
533.4999999999999
 30
0.0
 11
325.0
 21
534.4999999999999
 31
0.0
  0
LINE
  5
437
330
1E
100
AcDbEntity
  8
0
100
AcDbLine
 10
382.429
 20
450.0569999999999
 30
0.0
 11
382.4402696078429
 21
450.0
 31
0.0
  0
LINE
  5
442
330
1E
100
AcDbEntity
  8
0
100
AcDbLine
 10
385.0
 20
464.5
 30
0.0
 11
385.294
 21
463.4999999999999
 31
0.0
  0
LINE
  5
443
330
1E
100
AcDbEntity
  8
0
100
AcDbLine
 10
385.0
 20
464.5
 30
0.0
 11
385.0
 21
470.0
 31
0.0
  0
LINE
  5
444
330
1E
100
AcDbEntity
  8
0
100
AcDbLine
 10
385.0
 20
490.0
 30
0.0
 11
385.0
 21
533.0
 31
0.0
  0
LINE
  5
445
330
1E
100
AcDbEntity
  8
0
100
AcDbLine
 10
385.0
 20
470.0
 30
0.0
 11
385.0
 21
464.5
 31
0.0
  0
LINE
  5
446
330
1E
100
AcDbEntity
  8
0
100
AcDbLine
 10
391.4709999999999
 20
463.0
 30
0.0
 11
395.0
 21
463.0
 31
0.0
  0
LINE
  5
447
330
1E
100
AcDbEntity
  8
0
100
AcDbLine
 10
391.4709999999999
 20
463.0
 30
0.0
 11
395.471
 21
463.0
 31
0.0
  0
LINE
  5
448
330
1E
100
AcDbEntity
  8
0
100
AcDbLine
 10
388.471
 20
463.0
 30
0.0
 11
391.4709999999999
 21
463.0
 31
0.0
  0
LINE
  5
449
330
1E
100
AcDbEntity
  8
0
100
AcDbLine
 10
386.588
 20
463.0
 30
0.0
 11
388.471
 21
463.0
 31
0.0
  0
LINE
  5
44C
330
1E
100
AcDbEntity
  8
0
100
AcDbLine
 10
387.7059999999999
 20
533.0
 30
0.0
 11
390.8819999999999
 21
533.0
 31
0.0
  0
LINE
  5
44D
330
1E
100
AcDbEntity
  8
0
100
AcDbLine
 10
385.7059999999999
 20
533.0
 30
0.0
 11
387.7059999999999
 21
533.0
 31
0.0
  0
LINE
  5
44F
330
1E
100
AcDbEntity
  8
0
100
AcDbLine
 10
390.8819999999999
 20
533.0
 30
0.0
 11
395.059
 21
533.0
 31
0.0
  0
LINE
  5
450
330
1E
100
AcDbEntity
  8
0
100
AcDbLine
 10
385.294
 20
463.4999999999999
 30
0.0
 11
385.8819999999999
 21
463.0
 31
0.0
  0
LINE
  5
451
330
1E
100
AcDbEntity
  8
0
100
AcDbLine
 10
385.8819999999999
 20
463.0
 30
0.0
 11
386.588
 21
463.0
 31
0.0
  0
LINE
  5
452
330
1E
100
AcDbEntity
  8
0
100
AcDbLine
 10
385.0
 20
533.0
 30
0.0
 11
385.0
 21
490.0
 31
0.0
  0
LINE
  5
453
330
1E
100
AcDbEntity
  8
0
100
AcDbLine
 10
385.0
 20
533.0
 30
0.0
 11
385.7059999999999
 21
533.0
 31
0.0
  0
LINE
  5
45A
330
1E
100
AcDbEntity
  8
0
100
AcDbLine
 10
395.471
 20
463.0
 30
0.0
 11
400.059
 21
463.0
 31
0.0
  0
LINE
  5
45C
330
1E
100
AcDbEntity
  8
0
100
AcDbLine
 10
395.059
 20
533.0
 30
0.0
 11
399.8819999999999
 21
533.0
 31
0.0
  0
LINE
  5
45D
330
1E
100
AcDbEntity
  8
0
100
AcDbLine
 10
395.0
 20
463.0
 30
0.0
 11
395.0
 21
450.0
 31
0.0
  0
LINE
  5
45E
330
1E
100
AcDbEntity
  8
0
100
AcDbLine
 10
377.3819999999999
 20
533.0
 30
0.0
 11
380.2059999999999
 21
533.0
 31
0.0
  0
LINE
  5
45F
330
1E
100
AcDbEntity
  8
0
100
AcDbLine
 10
400.059
 20
463.0
 30
0.0
 11
405.0
 21
463.0
 31
0.0
  0
LINE
  5
460
330
1E
100
AcDbEntity
  8
0
100
AcDbLine
 10
414.529
 20
463.0
 30
0.0
 11
418.529
 21
463.0
 31
0.0
  0
LINE
  5
461
330
1E
100
AcDbEntity
  8
0
100
AcDbLine
 10
409.9409999999999
 20
463.0
 30
0.0
 11
414.529
 21
463.0
 31
0.0
  0
LINE
  5
462
330
1E
100
AcDbEntity
  8
0
100
AcDbLine
 10
405.0
 20
463.0
 30
0.0
 11
409.9409999999999
 21
463.0
 31
0.0
  0
LINE
  5
463
330
1E
100
AcDbEntity
  8
0
100
AcDbLine
 10
418.529
 20
463.0
 30
0.0
 11
421.529
 21
463.0
 31
0.0
  0
LINE
  5
464
330
1E
100
AcDbEntity
  8
0
100
AcDbLine
 10
399.8819999999999
 20
533.0
 30
0.0
 11
405.0
 21
533.0
 31
0.0
  0
LINE
  5
468
330
1E
100
AcDbEntity
  8
0
100
AcDbLine
 10
419.1180000000001
 20
533.0
 30
0.0
 11
422.294
 21
533.0
 31
0.0
  0
LINE
  5
469
330
1E
100
AcDbEntity
  8
0
100
AcDbLine
 10
414.9409999999999
 20
533.0
 30
0.0
 11
419.1180000000001
 21
533.0
 31
0.0
  0
LINE
  5
46A
330
1E
100
AcDbEntity
  8
0
100
AcDbLine
 10
410.118
 20
533.0
 30
0.0
 11
414.9409999999999
 21
533.0
 31
0.0
  0
LINE
  5
46B
330
1E
100
AcDbEntity
  8
0
100
AcDbLine
 10
405.0
 20
533.0
 30
0.0
 11
410.118
 21
533.0
 31
0.0
  0
LINE
  5
46C
330
1E
100
AcDbEntity
  8
0
100
AcDbLine
 10
415.0
 20
463.0
 30
0.0
 11
415.0
 21
450.0
 31
0.0
  0
LINE
  5
46D
330
1E
100
AcDbEntity
  8
0
100
AcDbLine
 10
415.0
 20
463.0
 30
0.0
 11
418.529
 21
463.0
 31
0.0
  0
LINE
  5
46E
330
1E
100
AcDbEntity
  8
0
100
AcDbLine
 10
421.529
 20
463.0
 30
0.0
 11
423.4119999999999
 21
463.0
 31
0.0
  0
LINE
  5
470
330
1E
100
AcDbEntity
  8
0
100
AcDbLine
 10
423.4119999999999
 20
463.0
 30
0.0
 11
424.118
 21
463.0
 31
0.0
  0
LINE
  5
471
330
1E
100
AcDbEntity
  8
0
100
AcDbLine
 10
424.118
 20
463.0
 30
0.0
 11
424.7059999999999
 21
463.4999999999999
 31
0.0
  0
LINE
  5
472
330
1E
100
AcDbEntity
  8
0
100
AcDbLine
 10
422.294
 20
533.0
 30
0.0
 11
424.294
 21
533.0
 31
0.0
  0
LINE
  5
473
330
1E
100
AcDbEntity
  8
0
100
AcDbLine
 10
424.294
 20
533.0
 30
0.0
 11
425.0
 21
533.0
 31
0.0
  0
LINE
  5
474
330
1E
100
AcDbEntity
  8
0
100
AcDbLine
 10
425.0
 20
533.0
 30
0.0
 11
425.0
 21
464.5
 31
0.0
  0
LINE
  5
475
330
1E
100
AcDbEntity
  8
0
100
AcDbLine
 10
424.7059999999999
 20
463.4999999999999
 30
0.0
 11
425.0
 21
464.5
 31
0.0
  0
LINE
  5
476
330
1E
100
AcDbEntity
  8
0
100
AcDbLine
 10
425.0
 20
464.5
 30
0.0
 11
425.0
 21
533.0
 31
0.0
  0
LINE
  5
477
330
1E
100
AcDbEntity
  8
0
100
AcDbLine
 10
425.294
 20
533.0
 30
0.0
 11
429.794
 21
533.0
 31
0.0
  0
LINE
  5
478
330
1E
100
AcDbEntity
  8
0
100
AcDbLine
 10
429.794
 20
533.0
 30
0.0
 11
432.618
 21
533.0
 31
0.0
  0
LINE
  5
479
330
1E
100
AcDbEntity
  8
0
100
AcDbLine
 10
432.618
 20
533.0
 30
0.0
 11
433.6759999999999
 21
533.0
 31
0.0
  0
LINE
  5
47A
330
1E
100
AcDbEntity
  8
0
100
AcDbLine
 10
419.294
 20
533.0
 30
0.0
 11
425.294
 21
533.0
 31
0.0
  0
LINE
  5
47B
330
1E
100
AcDbEntity
  8
0
100
AcDbLine
 10
412.4119999999999
 20
533.0
 30
0.0
 11
419.294
 21
533.0
 31
0.0
  0
LINE
  5
47C
330
1E
100
AcDbEntity
  8
0
100
AcDbLine
 10
397.588
 20
533.0
 30
0.0
 11
405.0
 21
533.0
 31
0.0
  0
LINE
  5
47D
330
1E
100
AcDbEntity
  8
0
100
AcDbLine
 10
379.4119999999999
 20
533.4999999999999
 30
0.0
 11
384.088
 21
533.4999999999999
 31
0.0
  0
LINE
  5
47E
330
1E
100
AcDbEntity
  8
0
100
AcDbLine
 10
376.5
 20
533.4999999999999
 30
0.0
 11
379.4119999999999
 21
533.4999999999999
 31
0.0
  0
LINE
  5
47F
330
1E
100
AcDbEntity
  8
0
100
AcDbLine
 10
384.088
 20
533.4999999999999
 30
0.0
 11
390.2649999999999
 21
533.4999999999999
 31
0.0
  0
LINE
  5
480
330
1E
100
AcDbEntity
  8
0
100
AcDbLine
 10
390.2649999999999
 20
533.4999999999999
 30
0.0
 11
397.4119999999999
 21
533.4999999999999
 31
0.0
  0
LINE
  5
481
330
1E
100
AcDbEntity
  8
0
100
AcDbLine
 10
425.912
 20
533.4999999999999
 30
0.0
 11
430.588
 21
533.4999999999999
 31
0.0
  0
LINE
  5
482
330
1E
100
AcDbEntity
  8
0
100
AcDbLine
 10
430.588
 20
533.4999999999999
 30
0.0
 11
433.4999999999999
 21
533.4999999999999
 31
0.0
  0
LINE
  5
483
330
1E
100
AcDbEntity
  8
0
100
AcDbLine
 10
433.4999999999999
 20
533.4999999999999
 30
0.0
 11
434.559
 21
533.4999999999999
 31
0.0
  0
LINE
  5
484
330
1E
100
AcDbEntity
  8
0
100
AcDbLine
 10
419.735
 20
533.4999999999999
 30
0.0
 11
425.912
 21
533.4999999999999
 31
0.0
  0
LINE
  5
485
330
1E
100
AcDbEntity
  8
0
100
AcDbLine
 10
412.588
 20
533.4999999999999
 30
0.0
 11
419.735
 21
533.4999999999999
 31
0.0
  0
LINE
  5
486
330
1E
100
AcDbEntity
  8
0
100
AcDbLine
 10
405.0
 20
533.4999999999999
 30
0.0
 11
412.588
 21
533.4999999999999
 31
0.0
  0
LINE
  5
487
330
1E
100
AcDbEntity
  8
0
100
AcDbLine
 10
397.4119999999999
 20
533.4999999999999
 30
0.0
 11
405.0
 21
533.4999999999999
 31
0.0
  0
LINE
  5
488
330
1E
100
AcDbEntity
  8
0
100
AcDbLine
 10
380.2059999999999
 20
533.0
 30
0.0
 11
384.7059999999999
 21
533.0
 31
0.0
  0
LINE
  5
489
330
1E
100
AcDbEntity
  8
0
100
AcDbLine
 10
376.323
 20
533.0
 30
0.0
 11
377.3819999999999
 21
533.0
 31
0.0
  0
LINE
  5
48A
330
1E
100
AcDbEntity
  8
0
100
AcDbLine
 10
375.441
 20
533.4999999999999
 30
0.0
 11
376.323
 21
533.0
 31
0.0
  0
LINE
  5
48B
330
1E
100
AcDbEntity
  8
0
100
AcDbLine
 10
375.441
 20
533.4999999999999
 30
0.0
 11
376.5
 21
533.4999999999999
 31
0.0
  0
LINE
  5
48C
330
1E
100
AcDbEntity
  8
0
100
AcDbLine
 10
433.6759999999999
 20
533.0
 30
0.0
 11
434.559
 21
533.4999999999999
 31
0.0
  0
LINE
  5
48D
330
1E
100
AcDbEntity
  8
0
100
AcDbLine
 10
325.0
 20
534.4999999999999
 30
0.0
 11
325.0
 21
580.0
 31
0.0
  0
LINE
  5
48E
330
1E
100
AcDbEntity
  8
0
100
AcDbLine
 10
265.0
 20
534.4999999999999
 30
0.0
 11
265.0
 21
580.0
 31
0.0
  0
LINE
  5
48F
330
1E
100
AcDbEntity
  8
0
100
AcDbLine
 10
265.0
 20
534.4999999999999
 30
0.0
 11
265.4409999999999
 21
533.4999999999999
 31
0.0
  0
LINE
  5
490
330
1E
100
AcDbEntity
  8
0
100
AcDbLine
 10
435.0
 20
534.4999999999999
 30
0.0
 11
435.0
 21
580.0
 31
0.0
  0
LINE
  5
491
330
1E
100
AcDbEntity
  8
0
100
AcDbLine
 10
375.0
 20
534.4999999999999
 30
0.0
 11
375.0
 21
580.0
 31
0.0
  0
LINE
  5
492
330
1E
100
AcDbEntity
  8
0
100
AcDbLine
 10
375.0
 20
534.4999999999999
 30
0.0
 11
375.441
 21
533.4999999999999
 31
0.0
  0
LINE
  5
493
330
1E
100
AcDbEntity
  8
0
100
AcDbLine
 10
434.559
 20
533.4999999999999
 30
0.0
 11
435.0
 21
534.4999999999999
 31
0.0
  0
LINE
  5
494
330
1E
100
AcDbEntity
  8
0
100
AcDbLine
 10
215.0
 20
550.0
 30
0.0
 11
265.0
 21
550.0
 31
0.0
  0
LINE
  5
495
330
1E
100
AcDbEntity
  8
0
100
AcDbLine
 10
325.0
 20
550.0
 30
0.0
 11
375.0
 21
550.0
 31
0.0
  0
LINE
  5
496
330
1E
100
AcDbEntity
  8
0
100
AcDbLine
 10
487.3819999999999
 20
533.0
 30
0.0
 11
490.2059999999999
 21
533.0
 31
0.0
  0
LINE
  5
497
330
1E
100
AcDbEntity
  8
0
100
AcDbLine
 10
497.0
 20
483.0
 30
0.0
 11
497.0
 21
450.0
 31
0.0
  0
LINE
  5
499
330
1E
100
AcDbEntity
  8
0
100
AcDbLine
 10
509.8799999999999
 20
483.0
 30
0.0
 11
515.0
 21
483.0
 31
0.0
  0
LINE
  5
49A
330
1E
100
AcDbEntity
  8
0
100
AcDbLine
 10
505.0799999999999
 20
483.0
 30
0.0
 11
509.8799999999999
 21
483.0
 31
0.0
  0
LINE
  5
49B
330
1E
100
AcDbEntity
  8
0
100
AcDbLine
 10
500.8399999999999
 20
483.0
 30
0.0
 11
505.0799999999999
 21
483.0
 31
0.0
  0
LINE
  5
49C
330
1E
100
AcDbEntity
  8
0
100
AcDbLine
 10
497.6399999999999
 20
483.0
 30
0.0
 11
500.8399999999999
 21
483.0
 31
0.0
  0
LINE
  5
49D
330
1E
100
AcDbEntity
  8
0
100
AcDbLine
 10
495.72
 20
483.0
 30
0.0
 11
497.6399999999999
 21
483.0
 31
0.0
  0
LINE
  5
49E
330
1E
100
AcDbEntity
  8
0
100
AcDbLine
 10
495.72
 20
483.0
 30
0.0
 11
497.0
 21
483.0
 31
0.0
  0
LINE
  5
49F
330
1E
100
AcDbEntity
  8
0
100
AcDbLine
 10
495.0
 20
483.0
 30
0.0
 11
495.72
 21
483.0
 31
0.0
  0
LINE
  5
4A0
330
1E
100
AcDbEntity
  8
0
100
AcDbLine
 10
495.0
 20
483.0
 30
0.0
 11
495.0
 21
533.0
 31
0.0
  0
LINE
  5
4A1
330
1E
100
AcDbEntity
  8
0
100
AcDbLine
 10
509.8799999999999
 20
533.0
 30
0.0
 11
515.0
 21
533.0
 31
0.0
  0
LINE
  5
4A2
330
1E
100
AcDbEntity
  8
0
100
AcDbLine
 10
505.0799999999999
 20
533.0
 30
0.0
 11
509.8799999999999
 21
533.0
 31
0.0
  0
LINE
  5
4A3
330
1E
100
AcDbEntity
  8
0
100
AcDbLine
 10
500.8399999999999
 20
533.0
 30
0.0
 11
505.0799999999999
 21
533.0
 31
0.0
  0
LINE
  5
4A4
330
1E
100
AcDbEntity
  8
0
100
AcDbLine
 10
497.6399999999999
 20
533.0
 30
0.0
 11
500.8399999999999
 21
533.0
 31
0.0
  0
LINE
  5
4A5
330
1E
100
AcDbEntity
  8
0
100
AcDbLine
 10
495.72
 20
533.0
 30
0.0
 11
497.6399999999999
 21
533.0
 31
0.0
  0
LINE
  5
4A6
330
1E
100
AcDbEntity
  8
0
100
AcDbLine
 10
495.0
 20
533.0
 30
0.0
 11
495.0
 21
483.0
 31
0.0
  0
LINE
  5
4A7
330
1E
100
AcDbEntity
  8
0
100
AcDbLine
 10
495.0
 20
533.0
 30
0.0
 11
495.72
 21
533.0
 31
0.0
  0
LINE
  5
4A8
330
1E
100
AcDbEntity
  8
0
100
AcDbLine
 10
515.0
 20
483.0
 30
0.0
 11
520.12
 21
483.0
 31
0.0
  0
LINE
  5
4AD
330
1E
100
AcDbEntity
  8
0
100
AcDbLine
 10
520.12
 20
483.0
 30
0.0
 11
524.92
 21
483.0
 31
0.0
  0
LINE
  5
4AE
330
1E
100
AcDbEntity
  8
0
100
AcDbLine
 10
524.92
 20
483.0
 30
0.0
 11
529.1599999999999
 21
483.0
 31
0.0
  0
LINE
  5
4AF
330
1E
100
AcDbEntity
  8
0
100
AcDbLine
 10
533.0
 20
483.0
 30
0.0
 11
534.2799999999999
 21
483.0
 31
0.0
  0
LINE
  5
4B0
330
1E
100
AcDbEntity
  8
0
100
AcDbLine
 10
533.0
 20
483.0
 30
0.0
 11
533.0
 21
450.0
 31
0.0
  0
LINE
  5
4B1
330
1E
100
AcDbEntity
  8
0
100
AcDbLine
 10
529.1599999999999
 20
483.0
 30
0.0
 11
532.3599999999999
 21
483.0
 31
0.0
  0
LINE
  5
4B2
330
1E
100
AcDbEntity
  8
0
100
AcDbLine
 10
520.12
 20
533.0
 30
0.0
 11
524.92
 21
533.0
 31
0.0
  0
LINE
  5
4B3
330
1E
100
AcDbEntity
  8
0
100
AcDbLine
 10
524.92
 20
533.0
 30
0.0
 11
529.1599999999999
 21
533.0
 31
0.0
  0
LINE
  5
4B4
330
1E
100
AcDbEntity
  8
0
100
AcDbLine
 10
529.1599999999999
 20
533.0
 30
0.0
 11
532.3599999999999
 21
533.0
 31
0.0
  0
LINE
  5
4B5
330
1E
100
AcDbEntity
  8
0
100
AcDbLine
 10
532.3599999999999
 20
533.0
 30
0.0
 11
534.2799999999999
 21
533.0
 31
0.0
  0
LINE
  5
4B6
330
1E
100
AcDbEntity
  8
0
100
AcDbLine
 10
534.2799999999999
 20
533.0
 30
0.0
 11
535.0
 21
533.0
 31
0.0
  0
LINE
  5
4B7
330
1E
100
AcDbEntity
  8
0
100
AcDbLine
 10
532.3599999999999
 20
483.0
 30
0.0
 11
534.2799999999999
 21
483.0
 31
0.0
  0
LINE
  5
4B8
330
1E
100
AcDbEntity
  8
0
100
AcDbLine
 10
535.0
 20
483.0
 30
0.0
 11
535.0
 21
533.0
 31
0.0
  0
LINE
  5
4B9
330
1E
100
AcDbEntity
  8
0
100
AcDbLine
 10
534.2799999999999
 20
483.0
 30
0.0
 11
535.0
 21
483.0
 31
0.0
  0
LINE
  5
4BA
330
1E
100
AcDbEntity
  8
0
100
AcDbLine
 10
522.4119999999999
 20
533.0
 30
0.0
 11
529.2939999999999
 21
533.0
 31
0.0
  0
LINE
  5
4BB
330
1E
100
AcDbEntity
  8
0
100
AcDbLine
 10
515.0
 20
533.0
 30
0.0
 11
522.4119999999999
 21
533.0
 31
0.0
  0
LINE
  5
4BC
330
1E
100
AcDbEntity
  8
0
100
AcDbLine
 10
515.0
 20
533.0
 30
0.0
 11
520.12
 21
533.0
 31
0.0
  0
LINE
  5
4BD
330
1E
100
AcDbEntity
  8
0
100
AcDbLine
 10
507.588
 20
533.0
 30
0.0
 11
515.0
 21
533.0
 31
0.0
  0
LINE
  5
4BE
330
1E
100
AcDbEntity
  8
0
100
AcDbLine
 10
490.2059999999999
 20
533.0
 30
0.0
 11
494.7059999999999
 21
533.0
 31
0.0
  0
LINE
  5
4BF
330
1E
100
AcDbEntity
  8
0
100
AcDbLine
 10
486.323
 20
533.0
 30
0.0
 11
487.3819999999999
 21
533.0
 31
0.0
  0
LINE
  5
4C0
330
1E
100
AcDbEntity
  8
0
100
AcDbLine
 10
535.0
 20
533.0
 30
0.0
 11
535.294
 21
533.0
 31
0.0
  0
LINE
  5
4C1
330
1E
100
AcDbEntity
  8
0
100
AcDbLine
 10
535.0
 20
533.0
 30
0.0
 11
535.0
 21
483.0
 31
0.0
  0
LINE
  5
4C2
330
1E
100
AcDbEntity
  8
0
100
AcDbLine
 10
535.294
 20
533.0
 30
0.0
 11
539.794
 21
533.0
 31
0.0
  0
LINE
  5
4C3
330
1E
100
AcDbEntity
  8
0
100
AcDbLine
 10
542.618
 20
533.0
 30
0.0
 11
543.6759999999999
 21
533.0
 31
0.0
  0
LINE
  5
4C4
330
1E
100
AcDbEntity
  8
0
100
AcDbLine
 10
539.794
 20
533.0
 30
0.0
 11
542.618
 21
533.0
 31
0.0
  0
LINE
  5
4C5
330
1E
100
AcDbEntity
  8
0
100
AcDbLine
 10
489.412
 20
533.4999999999999
 30
0.0
 11
494.0879999999999
 21
533.4999999999999
 31
0.0
  0
LINE
  5
4C6
330
1E
100
AcDbEntity
  8
0
100
AcDbLine
 10
486.5
 20
533.4999999999999
 30
0.0
 11
489.412
 21
533.4999999999999
 31
0.0
  0
LINE
  5
4C7
330
1E
100
AcDbEntity
  8
0
100
AcDbLine
 10
494.0879999999999
 20
533.4999999999999
 30
0.0
 11
500.265
 21
533.4999999999999
 31
0.0
  0
LINE
  5
4C8
330
1E
100
AcDbEntity
  8
0
100
AcDbLine
 10
500.265
 20
533.4999999999999
 30
0.0
 11
507.4119999999999
 21
533.4999999999999
 31
0.0
  0
LINE
  5
4C9
330
1E
100
AcDbEntity
  8
0
100
AcDbLine
 10
535.9119999999998
 20
533.4999999999999
 30
0.0
 11
540.588
 21
533.4999999999999
 31
0.0
  0
LINE
  5
4CA
330
1E
100
AcDbEntity
  8
0
100
AcDbLine
 10
540.588
 20
533.4999999999999
 30
0.0
 11
543.5
 21
533.4999999999999
 31
0.0
  0
LINE
  5
4CB
330
1E
100
AcDbEntity
  8
0
100
AcDbLine
 10
543.5
 20
533.4999999999999
 30
0.0
 11
544.559
 21
533.4999999999999
 31
0.0
  0
LINE
  5
4CC
330
1E
100
AcDbEntity
  8
0
100
AcDbLine
 10
529.735
 20
533.4999999999999
 30
0.0
 11
535.9119999999998
 21
533.4999999999999
 31
0.0
  0
LINE
  5
4CD
330
1E
100
AcDbEntity
  8
0
100
AcDbLine
 10
522.588
 20
533.4999999999999
 30
0.0
 11
529.735
 21
533.4999999999999
 31
0.0
  0
LINE
  5
4CE
330
1E
100
AcDbEntity
  8
0
100
AcDbLine
 10
515.0
 20
533.4999999999999
 30
0.0
 11
522.588
 21
533.4999999999999
 31
0.0
  0
LINE
  5
4CF
330
1E
100
AcDbEntity
  8
0
100
AcDbLine
 10
507.4119999999999
 20
533.4999999999999
 30
0.0
 11
515.0
 21
533.4999999999999
 31
0.0
  0
LINE
  5
4D0
330
1E
100
AcDbEntity
  8
0
100
AcDbLine
 10
485.4409999999999
 20
533.4999999999999
 30
0.0
 11
486.323
 21
533.0
 31
0.0
  0
LINE
  5
4D1
330
1E
100
AcDbEntity
  8
0
100
AcDbLine
 10
485.4409999999999
 20
533.4999999999999
 30
0.0
 11
486.5
 21
533.4999999999999
 31
0.0
  0
LINE
  5
4D2
330
1E
100
AcDbEntity
  8
0
100
AcDbLine
 10
485.0
 20
534.4999999999999
 30
0.0
 11
485.0
 21
580.0
 31
0.0
  0
LINE
  5
4D3
330
1E
100
AcDbEntity
  8
0
100
AcDbLine
 10
485.0
 20
534.4999999999999
 30
0.0
 11
485.4409999999999
 21
533.4999999999999
 31
0.0
  0
LINE
  5
4D4
330
1E
100
AcDbEntity
  8
0
100
AcDbLine
 10
543.6759999999999
 20
533.0
 30
0.0
 11
544.559
 21
533.4999999999999
 31
0.0
  0
LINE
  5
4D5
330
1E
100
AcDbEntity
  8
0
100
AcDbLine
 10
545.0
 20
534.4999999999999
 30
0.0
 11
545.0
 21
580.0
 31
0.0
  0
LINE
  5
4D6
330
1E
100
AcDbEntity
  8
0
100
AcDbLine
 10
544.559
 20
533.4999999999999
 30
0.0
 11
545.0
 21
534.4999999999999
 31
0.0
  0
LINE
  5
4D7
330
1E
100
AcDbEntity
  8
0
100
AcDbLine
 10
551.0
 20
550.0
 30
0.0
 11
551.0
 21
450.0
 31
0.0
  0
LINE
  5
4D8
330
1E
100
AcDbEntity
  8
0
100
AcDbLine
 10
551.0
 20
550.0
 30
0.0
 11
551.0
 21
250.0
 31
0.0
  0
LINE
  5
4D9
330
1E
100
AcDbEntity
  8
0
100
AcDbLine
 10
435.0
 20
550.0
 30
0.0
 11
485.0
 21
550.0
 31
0.0
  0
LINE
  5
4DA
330
1E
100
AcDbEntity
  8
0
100
AcDbLine
 10
149.358
 20
578.853
 30
0.0
 11
150.097
 21
578.853
 31
0.0
  0
LINE
  5
4DB
330
1E
100
AcDbEntity
  8
0
100
AcDbLine
 10
150.867
 20
578.853
 30
0.0
 11
151.637
 21
578.853
 31
0.0
  0
LINE
  5
4DC
330
1E
100
AcDbEntity
  8
0
100
AcDbLine
 10
150.097
 20
578.853
 30
0.0
 11
150.867
 21
578.853
 31
0.0
  0
LINE
  5
4DD
330
1E
100
AcDbEntity
  8
0
100
AcDbLine
 10
150.084
 20
578.853
 30
0.0
 11
150.8539999999999
 21
578.853
 31
0.0
  0
LINE
  5
4DE
330
1E
100
AcDbEntity
  8
0
100
AcDbLine
 10
150.8539999999999
 20
578.853
 30
0.0
 11
151.6239999999999
 21
578.853
 31
0.0
  0
LINE
  5
4DF
330
1E
100
AcDbEntity
  8
0
100
AcDbLine
 10
151.637
 20
578.853
 30
0.0
 11
152.3509999999999
 21
578.853
 31
0.0
  0
LINE
  5
4E0
330
1E
100
AcDbEntity
  8
0
100
AcDbLine
 10
152.3509999999999
 20
578.853
 30
0.0
 11
152.972
 21
578.853
 31
0.0
  0
LINE
  5
4E1
330
1E
100
AcDbEntity
  8
0
100
AcDbLine
 10
152.972
 20
578.853
 30
0.0
 11
153.462
 21
578.853
 31
0.0
  0
LINE
  5
4E2
330
1E
100
AcDbEntity
  8
0
100
AcDbLine
 10
151.6239999999999
 20
578.853
 30
0.0
 11
152.362
 21
578.853
 31
0.0
  0
LINE
  5
4E3
330
1E
100
AcDbEntity
  8
0
100
AcDbLine
 10
152.362
 20
578.853
 30
0.0
 11
152.99
 21
578.853
 31
0.0
  0
LINE
  5
4E4
330
1E
100
AcDbEntity
  8
0
100
AcDbLine
 10
153.462
 20
578.853
 30
0.0
 11
153.7609999999999
 21
578.853
 31
0.0
  0
LINE
  5
4E5
330
1E
100
AcDbEntity
  8
0
100
AcDbLine
 10
153.8529999999999
 20
578.853
 30
0.0
 11
153.8529999999999
 21
580.0
 31
0.0
  0
LINE
  5
4E6
330
1E
100
AcDbEntity
  8
0
100
AcDbLine
 10
153.7609999999999
 20
578.853
 30
0.0
 11
153.8529999999999
 21
578.853
 31
0.0
  0
LINE
  5
4E7
330
1E
100
AcDbEntity
  8
0
100
AcDbLine
 10
153.7579999999999
 20
578.853
 30
0.0
 11
153.8529999999999
 21
578.853
 31
0.0
  0
LINE
  5
4E8
330
1E
100
AcDbEntity
  8
0
100
AcDbLine
 10
152.99
 20
578.853
 30
0.0
 11
153.455
 21
578.853
 31
0.0
  0
LINE
  5
4E9
330
1E
100
AcDbEntity
  8
0
100
AcDbLine
 10
153.8529999999999
 20
580.0
 30
0.0
 11
155.0
 21
580.0
 31
0.0
  0
LINE
  5
4EA
330
1E
100
AcDbEntity
  8
0
100
AcDbLine
 10
153.8529999999999
 20
580.0
 30
0.0
 11
155.0
 21
580.0
 31
0.0
  0
LINE
  5
4EB
330
1E
100
AcDbEntity
  8
0
100
AcDbLine
 10
153.8529999999999
 20
580.0
 30
0.0
 11
153.8529999999999
 21
578.853
 31
0.0
  0
LINE
  5
4EC
330
1E
100
AcDbEntity
  8
0
100
AcDbLine
 10
153.8529999999999
 20
580.0
 30
0.0
 11
155.0
 21
580.0
 31
0.0
  0
LINE
  5
4ED
330
1E
100
AcDbEntity
  8
0
100
AcDbLine
 10
153.455
 20
578.853
 30
0.0
 11
153.7579999999999
 21
578.853
 31
0.0
  0
LINE
  5
4EE
330
1E
100
AcDbEntity
  8
0
100
AcDbLine
 10
149.37
 20
578.853
 30
0.0
 11
150.084
 21
578.853
 31
0.0
  0
LINE
  5
4EF
330
1E
100
AcDbEntity
  8
0
100
AcDbLine
 10
155.0
 20
580.0
 30
0.0
 11
155.0
 21
534.4999999999999
 31
0.0
  0
LINE
  5
4F0
330
1E
100
AcDbEntity
  8
0
100
AcDbLine
 10
176.5679999999999
 20
600.0
 30
0.0
 11
180.648
 21
600.0
 31
0.0
  0
LINE
  5
4F1
330
1E
100
AcDbEntity
  8
0
100
AcDbLine
 10
172.964
 20
600.0
 30
0.0
 11
176.5679999999999
 21
600.0
 31
0.0
  0
LINE
  5
4F2
330
1E
100
AcDbEntity
  8
0
100
AcDbLine
 10
170.244
 20
600.0
 30
0.0
 11
172.964
 21
600.0
 31
0.0
  0
LINE
  5
4F3
330
1E
100
AcDbEntity
  8
0
100
AcDbLine
 10
168.612
 20
600.0
 30
0.0
 11
170.244
 21
600.0
 31
0.0
  0
LINE
  5
4F4
330
1E
100
AcDbEntity
  8
0
100
AcDbLine
 10
168.0
 20
600.0
 30
0.0
 11
168.612
 21
600.0
 31
0.0
  0
LINE
  5
4F5
330
1E
100
AcDbEntity
  8
0
100
AcDbLine
 10
168.0
 20
600.0
 30
0.0
 11
168.0
 21
595.0
 31
0.0
  0
LINE
  5
4F6
330
1E
100
AcDbEntity
  8
0
100
AcDbLine
 10
168.0
 20
595.0
 30
0.0
 11
168.0
 21
600.0
 31
0.0
  0
LINE
  5
4F7
330
1E
100
AcDbEntity
  8
0
100
AcDbLine
 10
180.648
 20
600.0
 30
0.0
 11
185.0
 21
600.0
 31
0.0
  0
LINE
  5
4F8
330
1E
100
AcDbEntity
  8
0
100
AcDbLine
 10
177.3199999999999
 20
600.0
 30
0.0
 11
185.0
 21
600.0
 31
0.0
  0
LINE
  5
4F9
330
1E
100
AcDbEntity
  8
0
100
AcDbLine
 10
170.12
 20
600.0
 30
0.0
 11
177.3199999999999
 21
600.0
 31
0.0
  0
LINE
  5
4FA
330
1E
100
AcDbEntity
  8
0
100
AcDbLine
 10
189.352
 20
600.0
 30
0.0
 11
193.432
 21
600.0
 31
0.0
  0
LINE
  5
4FB
330
1E
100
AcDbEntity
  8
0
100
AcDbLine
 10
193.432
 20
600.0
 30
0.0
 11
197.0359999999999
 21
600.0
 31
0.0
  0
LINE
  5
4FC
330
1E
100
AcDbEntity
  8
0
100
AcDbLine
 10
197.0359999999999
 20
600.0
 30
0.0
 11
199.7559999999999
 21
600.0
 31
0.0
  0
LINE
  5
4FD
330
1E
100
AcDbEntity
  8
0
100
AcDbLine
 10
199.7559999999999
 20
600.0
 30
0.0
 11
201.3879999999999
 21
600.0
 31
0.0
  0
LINE
  5
4FE
330
1E
100
AcDbEntity
  8
0
100
AcDbLine
 10
185.0
 20
600.0
 30
0.0
 11
192.68
 21
600.0
 31
0.0
  0
LINE
  5
4FF
330
1E
100
AcDbEntity
  8
0
100
AcDbLine
 10
185.0
 20
600.0
 30
0.0
 11
189.352
 21
600.0
 31
0.0
  0
LINE
  5
500
330
1E
100
AcDbEntity
  8
0
100
AcDbLine
 10
192.68
 20
600.0
 30
0.0
 11
199.8799999999999
 21
600.0
 31
0.0
  0
LINE
  5
501
330
1E
100
AcDbEntity
  8
0
100
AcDbLine
 10
202.0
 20
595.0
 30
0.0
 11
202.0
 21
600.0
 31
0.0
  0
LINE
  5
502
330
1E
100
AcDbEntity
  8
0
100
AcDbLine
 10
201.3879999999999
 20
600.0
 30
0.0
 11
202.0
 21
600.0
 31
0.0
  0
LINE
  5
503
330
1E
100
AcDbEntity
  8
0
100
AcDbLine
 10
199.8799999999999
 20
600.0
 30
0.0
 11
206.24
 21
600.0
 31
0.0
  0
LINE
  5
504
330
1E
100
AcDbEntity
  8
0
100
AcDbLine
 10
202.0
 20
600.0
 30
0.0
 11
206.24
 21
600.0
 31
0.0
  0
LINE
  5
505
330
1E
100
AcDbEntity
  8
0
100
AcDbLine
 10
202.0
 20
600.0
 30
0.0
 11
202.0
 21
595.0
 31
0.0
  0
LINE
  5
506
330
1E
100
AcDbEntity
  8
0
100
AcDbLine
 10
206.24
 20
600.0
 30
0.0
 11
211.0399999999999
 21
600.0
 31
0.0
  0
LINE
  5
507
330
1E
100
AcDbEntity
  8
0
100
AcDbLine
 10
211.0399999999999
 20
600.0
 30
0.0
 11
213.9199999999999
 21
600.0
 31
0.0
  0
LINE
  5
508
330
1E
100
AcDbEntity
  8
0
100
AcDbLine
 10
216.5379999999999
 20
578.853
 30
0.0
 11
217.0279999999999
 21
578.853
 31
0.0
  0
LINE
  5
509
330
1E
100
AcDbEntity
  8
0
100
AcDbLine
 10
216.239
 20
578.853
 30
0.0
 11
216.5379999999999
 21
578.853
 31
0.0
  0
LINE
  5
50A
330
1E
100
AcDbEntity
  8
0
100
AcDbLine
 10
216.147
 20
578.853
 30
0.0
 11
216.242
 21
578.853
 31
0.0
  0
LINE
  5
50B
330
1E
100
AcDbEntity
  8
0
100
AcDbLine
 10
216.147
 20
578.853
 30
0.0
 11
216.239
 21
578.853
 31
0.0
  0
LINE
  5
50C
330
1E
100
AcDbEntity
  8
0
100
AcDbLine
 10
216.147
 20
578.853
 30
0.0
 11
216.147
 21
580.0
 31
0.0
  0
LINE
  5
50D
330
1E
100
AcDbEntity
  8
0
100
AcDbLine
 10
217.0279999999999
 20
578.853
 30
0.0
 11
217.649
 21
578.853
 31
0.0
  0
LINE
  5
50E
330
1E
100
AcDbEntity
  8
0
100
AcDbLine
 10
218.3629999999999
 20
578.853
 30
0.0
 11
219.1329999999999
 21
578.853
 31
0.0
  0
LINE
  5
50F
330
1E
100
AcDbEntity
  8
0
100
AcDbLine
 10
219.1329999999999
 20
578.853
 30
0.0
 11
219.903
 21
578.853
 31
0.0
  0
LINE
  5
510
330
1E
100
AcDbEntity
  8
0
100
AcDbLine
 10
217.649
 20
578.853
 30
0.0
 11
218.3629999999999
 21
578.853
 31
0.0
  0
LINE
  5
511
330
1E
100
AcDbEntity
  8
0
100
AcDbLine
 10
219.903
 20
578.853
 30
0.0
 11
220.642
 21
578.853
 31
0.0
  0
LINE
  5
512
330
1E
100
AcDbEntity
  8
0
100
AcDbLine
 10
219.1459999999999
 20
578.853
 30
0.0
 11
219.916
 21
578.853
 31
0.0
  0
LINE
  5
513
330
1E
100
AcDbEntity
  8
0
100
AcDbLine
 10
218.3759999999999
 20
578.853
 30
0.0
 11
219.1459999999999
 21
578.853
 31
0.0
  0
LINE
  5
514
330
1E
100
AcDbEntity
  8
0
100
AcDbLine
 10
217.6379999999999
 20
578.853
 30
0.0
 11
218.3759999999999
 21
578.853
 31
0.0
  0
LINE
  5
515
330
1E
100
AcDbEntity
  8
0
100
AcDbLine
 10
217.01
 20
578.853
 30
0.0
 11
217.6379999999999
 21
578.853
 31
0.0
  0
LINE
  5
516
330
1E
100
AcDbEntity
  8
0
100
AcDbLine
 10
216.5449999999999
 20
578.853
 30
0.0
 11
217.01
 21
578.853
 31
0.0
  0
LINE
  5
517
330
1E
100
AcDbEntity
  8
0
100
AcDbLine
 10
216.242
 20
578.853
 30
0.0
 11
216.5449999999999
 21
578.853
 31
0.0
  0
LINE
  5
518
330
1E
100
AcDbEntity
  8
0
100
AcDbLine
 10
220.642
 20
578.853
 30
0.0
 11
221.27
 21
578.853
 31
0.0
  0
LINE
  5
519
330
1E
100
AcDbEntity
  8
0
100
AcDbLine
 10
219.916
 20
578.853
 30
0.0
 11
220.63
 21
578.853
 31
0.0
  0
LINE
  5
51A
330
1E
100
AcDbEntity
  8
0
100
AcDbLine
 10
220.63
 20
578.853
 30
0.0
 11
221.2509999999999
 21
578.853
 31
0.0
  0
LINE
  5
51B
330
1E
100
AcDbEntity
  8
0
100
AcDbLine
 10
221.27
 20
578.853
 30
0.0
 11
221.734
 21
578.853
 31
0.0
  0
LINE
  5
51C
330
1E
100
AcDbEntity
  8
0
100
AcDbLine
 10
221.734
 20
578.853
 30
0.0
 11
222.0369999999999
 21
578.853
 31
0.0
  0
LINE
  5
51D
330
1E
100
AcDbEntity
  8
0
100
AcDbLine
 10
221.2509999999999
 20
578.853
 30
0.0
 11
221.741
 21
578.853
 31
0.0
  0
LINE
  5
51E
330
1E
100
AcDbEntity
  8
0
100
AcDbLine
 10
221.741
 20
578.853
 30
0.0
 11
222.04
 21
578.853
 31
0.0
  0
LINE
  5
51F
330
1E
100
AcDbEntity
  8
0
100
AcDbLine
 10
222.1319999999999
 20
578.853
 30
0.0
 11
222.1319999999999
 21
580.0
 31
0.0
  0
LINE
  5
520
330
1E
100
AcDbEntity
  8
0
100
AcDbLine
 10
222.04
 20
578.853
 30
0.0
 11
222.1319999999999
 21
578.853
 31
0.0
  0
LINE
  5
521
330
1E
100
AcDbEntity
  8
0
100
AcDbLine
 10
215.0
 20
580.0
 30
0.0
 11
216.147
 21
580.0
 31
0.0
  0
LINE
  5
522
330
1E
100
AcDbEntity
  8
0
100
AcDbLine
 10
215.0
 20
580.0
 30
0.0
 11
216.147
 21
580.0
 31
0.0
  0
LINE
  5
523
330
1E
100
AcDbEntity
  8
0
100
AcDbLine
 10
222.1319999999999
 20
580.0
 30
0.0
 11
257.8679999999999
 21
580.0
 31
0.0
  0
LINE
  5
524
330
1E
100
AcDbEntity
  8
0
100
AcDbLine
 10
216.147
 20
580.0
 30
0.0
 11
216.147
 21
578.853
 31
0.0
  0
LINE
  5
525
330
1E
100
AcDbEntity
  8
0
100
AcDbLine
 10
222.1319999999999
 20
580.0
 30
0.0
 11
257.8679999999999
 21
580.0
 31
0.0
  0
LINE
  5
526
330
1E
100
AcDbEntity
  8
0
100
AcDbLine
 10
222.1319999999999
 20
580.0
 30
0.0
 11
222.1319999999999
 21
578.853
 31
0.0
  0
LINE
  5
527
330
1E
100
AcDbEntity
  8
0
100
AcDbLine
 10
222.1319999999999
 20
580.0
 30
0.0
 11
257.8679999999999
 21
580.0
 31
0.0
  0
LINE
  5
528
330
1E
100
AcDbEntity
  8
0
100
AcDbLine
 10
222.0369999999999
 20
578.853
 30
0.0
 11
222.1319999999999
 21
578.853
 31
0.0
  0
LINE
  5
529
330
1E
100
AcDbEntity
  8
0
100
AcDbLine
 10
215.0
 20
580.0
 30
0.0
 11
215.0
 21
534.4999999999999
 31
0.0
  0
LINE
  5
52A
330
1E
100
AcDbEntity
  8
0
100
AcDbLine
 10
215.0
 20
580.0
 30
0.0
 11
216.147
 21
580.0
 31
0.0
  0
LINE
  5
52B
330
1E
100
AcDbEntity
  8
0
100
AcDbLine
 10
257.8679999999999
 20
580.0
 30
0.0
 11
257.8679999999999
 21
578.853
 31
0.0
  0
LINE
  5
52C
330
1E
100
AcDbEntity
  8
0
100
AcDbLine
 10
257.9629999999999
 20
578.853
 30
0.0
 11
258.2659999999999
 21
578.853
 31
0.0
  0
LINE
  5
52D
330
1E
100
AcDbEntity
  8
0
100
AcDbLine
 10
259.358
 20
578.853
 30
0.0
 11
260.0969999999999
 21
578.853
 31
0.0
  0
LINE
  5
52E
330
1E
100
AcDbEntity
  8
0
100
AcDbLine
 10
258.73
 20
578.853
 30
0.0
 11
259.358
 21
578.853
 31
0.0
  0
LINE
  5
52F
330
1E
100
AcDbEntity
  8
0
100
AcDbLine
 10
258.2659999999999
 20
578.853
 30
0.0
 11
258.73
 21
578.853
 31
0.0
  0
LINE
  5
530
330
1E
100
AcDbEntity
  8
0
100
AcDbLine
 10
260.0969999999999
 20
578.853
 30
0.0
 11
260.867
 21
578.853
 31
0.0
  0
LINE
  5
531
330
1E
100
AcDbEntity
  8
0
100
AcDbLine
 10
260.084
 20
578.853
 30
0.0
 11
260.854
 21
578.853
 31
0.0
  0
LINE
  5
532
330
1E
100
AcDbEntity
  8
0
100
AcDbLine
 10
260.867
 20
578.853
 30
0.0
 11
261.6369999999999
 21
578.853
 31
0.0
  0
LINE
  5
533
330
1E
100
AcDbEntity
  8
0
100
AcDbLine
 10
261.6369999999999
 20
578.853
 30
0.0
 11
262.351
 21
578.853
 31
0.0
  0
LINE
  5
534
330
1E
100
AcDbEntity
  8
0
100
AcDbLine
 10
262.351
 20
578.853
 30
0.0
 11
262.9719999999999
 21
578.853
 31
0.0
  0
LINE
  5
535
330
1E
100
AcDbEntity
  8
0
100
AcDbLine
 10
260.854
 20
578.853
 30
0.0
 11
261.624
 21
578.853
 31
0.0
  0
LINE
  5
536
330
1E
100
AcDbEntity
  8
0
100
AcDbLine
 10
261.624
 20
578.853
 30
0.0
 11
262.362
 21
578.853
 31
0.0
  0
LINE
  5
537
330
1E
100
AcDbEntity
  8
0
100
AcDbLine
 10
262.9719999999999
 20
578.853
 30
0.0
 11
263.4619999999999
 21
578.853
 31
0.0
  0
LINE
  5
538
330
1E
100
AcDbEntity
  8
0
100
AcDbLine
 10
262.362
 20
578.853
 30
0.0
 11
262.99
 21
578.853
 31
0.0
  0
LINE
  5
539
330
1E
100
AcDbEntity
  8
0
100
AcDbLine
 10
262.99
 20
578.853
 30
0.0
 11
263.4549999999999
 21
578.853
 31
0.0
  0
LINE
  5
53A
330
1E
100
AcDbEntity
  8
0
100
AcDbLine
 10
259.37
 20
578.853
 30
0.0
 11
260.084
 21
578.853
 31
0.0
  0
LINE
  5
53B
330
1E
100
AcDbEntity
  8
0
100
AcDbLine
 10
258.749
 20
578.853
 30
0.0
 11
259.37
 21
578.853
 31
0.0
  0
LINE
  5
53C
330
1E
100
AcDbEntity
  8
0
100
AcDbLine
 10
258.259
 20
578.853
 30
0.0
 11
258.749
 21
578.853
 31
0.0
  0
LINE
  5
53D
330
1E
100
AcDbEntity
  8
0
100
AcDbLine
 10
257.9599999999999
 20
578.853
 30
0.0
 11
258.259
 21
578.853
 31
0.0
  0
LINE
  5
53E
330
1E
100
AcDbEntity
  8
0
100
AcDbLine
 10
257.8679999999999
 20
578.853
 30
0.0
 11
257.9629999999999
 21
578.853
 31
0.0
  0
LINE
  5
53F
330
1E
100
AcDbEntity
  8
0
100
AcDbLine
 10
257.8679999999999
 20
578.853
 30
0.0
 11
257.9599999999999
 21
578.853
 31
0.0
  0
LINE
  5
540
330
1E
100
AcDbEntity
  8
0
100
AcDbLine
 10
257.8679999999999
 20
578.853
 30
0.0
 11
257.8679999999999
 21
580.0
 31
0.0
  0
LINE
  5
541
330
1E
100
AcDbEntity
  8
0
100
AcDbLine
 10
215.0
 20
600.0
 30
0.0
 11
215.0
 21
602.0
 31
0.0
  0
LINE
  5
542
330
1E
100
AcDbEntity
  8
0
100
AcDbLine
 10
213.9199999999999
 20
600.0
 30
0.0
 11
215.0
 21
600.0
 31
0.0
  0
LINE
  5
543
330
1E
100
AcDbEntity
  8
0
100
AcDbLine
 10
163.7599999999999
 20
600.0
 30
0.0
 11
168.0
 21
600.0
 31
0.0
  0
LINE
  5
544
330
1E
100
AcDbEntity
  8
0
100
AcDbLine
 10
163.7599999999999
 20
600.0
 30
0.0
 11
170.12
 21
600.0
 31
0.0
  0
LINE
  5
545
330
1E
100
AcDbEntity
  8
0
100
AcDbLine
 10
158.96
 20
600.0
 30
0.0
 11
163.7599999999999
 21
600.0
 31
0.0
  0
LINE
  5
546
330
1E
100
AcDbEntity
  8
0
100
AcDbLine
 10
156.08
 20
600.0
 30
0.0
 11
158.96
 21
600.0
 31
0.0
  0
LINE
  5
547
330
1E
100
AcDbEntity
  8
0
100
AcDbLine
 10
155.0
 20
600.0
 30
0.0
 11
155.0
 21
602.0
 31
0.0
  0
LINE
  5
548
330
1E
100
AcDbEntity
  8
0
100
AcDbLine
 10
155.0
 20
600.0
 30
0.0
 11
156.08
 21
600.0
 31
0.0
  0
LINE
  5
549
330
1E
100
AcDbEntity
  8
0
100
AcDbLine
 10
172.0
 20
602.0
 30
0.0
 11
172.0
 21
607.0
 31
0.0
  0
LINE
  5
54A
330
1E
100
AcDbEntity
  8
0
100
AcDbLine
 10
177.3199999999999
 20
602.0
 30
0.0
 11
185.0
 21
602.0
 31
0.0
  0
LINE
  5
54B
330
1E
100
AcDbEntity
  8
0
100
AcDbLine
 10
170.12
 20
602.0
 30
0.0
 11
177.3199999999999
 21
602.0
 31
0.0
  0
LINE
  5
54C
330
1E
100
AcDbEntity
  8
0
100
AcDbLine
 10
163.7599999999999
 20
602.0
 30
0.0
 11
170.12
 21
602.0
 31
0.0
  0
LINE
  5
54D
330
1E
100
AcDbEntity
  8
0
100
AcDbLine
 10
158.96
 20
602.0
 30
0.0
 11
163.7599999999999
 21
602.0
 31
0.0
  0
LINE
  5
54E
330
1E
100
AcDbEntity
  8
0
100
AcDbLine
 10
156.08
 20
602.0
 30
0.0
 11
158.96
 21
602.0
 31
0.0
  0
LINE
  5
54F
330
1E
100
AcDbEntity
  8
0
100
AcDbLine
 10
155.0
 20
602.0
 30
0.0
 11
156.08
 21
602.0
 31
0.0
  0
LINE
  5
550
330
1E
100
AcDbEntity
  8
0
100
AcDbLine
 10
155.0
 20
602.0
 30
0.0
 11
155.0
 21
600.0
 31
0.0
  0
LINE
  5
551
330
1E
100
AcDbEntity
  8
0
100
AcDbLine
 10
198.0
 20
602.0
 30
0.0
 11
198.0
 21
607.0
 31
0.0
  0
LINE
  5
552
330
1E
100
AcDbEntity
  8
0
100
AcDbLine
 10
185.0
 20
602.0
 30
0.0
 11
192.68
 21
602.0
 31
0.0
  0
LINE
  5
553
330
1E
100
AcDbEntity
  8
0
100
AcDbLine
 10
192.68
 20
602.0
 30
0.0
 11
199.8799999999999
 21
602.0
 31
0.0
  0
LINE
  5
554
330
1E
100
AcDbEntity
  8
0
100
AcDbLine
 10
199.8799999999999
 20
602.0
 30
0.0
 11
206.24
 21
602.0
 31
0.0
  0
LINE
  5
555
330
1E
100
AcDbEntity
  8
0
100
AcDbLine
 10
206.24
 20
602.0
 30
0.0
 11
211.0399999999999
 21
602.0
 31
0.0
  0
LINE
  5
556
330
1E
100
AcDbEntity
  8
0
100
AcDbLine
 10
211.0399999999999
 20
602.0
 30
0.0
 11
213.9199999999999
 21
602.0
 31
0.0
  0
LINE
  5
557
330
1E
100
AcDbEntity
  8
0
100
AcDbLine
 10
175.0
 20
607.0
 30
0.0
 11
175.0
 21
611.0
 31
0.0
  0
LINE
  5
558
330
1E
100
AcDbEntity
  8
0
100
AcDbLine
 10
181.672
 20
607.0
 30
0.0
 11
185.0
 21
607.0
 31
0.0
  0
LINE
  5
559
330
1E
100
AcDbEntity
  8
0
100
AcDbLine
 10
178.552
 20
607.0
 30
0.0
 11
181.672
 21
607.0
 31
0.0
  0
LINE
  5
55A
330
1E
100
AcDbEntity
  8
0
100
AcDbLine
 10
175.7959999999999
 20
607.0
 30
0.0
 11
178.552
 21
607.0
 31
0.0
  0
LINE
  5
55B
330
1E
100
AcDbEntity
  8
0
100
AcDbLine
 10
173.7159999999999
 20
607.0
 30
0.0
 11
175.7959999999999
 21
607.0
 31
0.0
  0
LINE
  5
55C
330
1E
100
AcDbEntity
  8
0
100
AcDbLine
 10
172.468
 20
607.0
 30
0.0
 11
173.7159999999999
 21
607.0
 31
0.0
  0
LINE
  5
55D
330
1E
100
AcDbEntity
  8
0
100
AcDbLine
 10
172.0
 20
607.0
 30
0.0
 11
172.468
 21
607.0
 31
0.0
  0
LINE
  5
55E
330
1E
100
AcDbEntity
  8
0
100
AcDbLine
 10
172.0
 20
607.0
 30
0.0
 11
172.0
 21
602.0
 31
0.0
  0
LINE
  5
55F
330
1E
100
AcDbEntity
  8
0
100
AcDbLine
 10
185.0
 20
607.0
 30
0.0
 11
188.328
 21
607.0
 31
0.0
  0
LINE
  5
560
330
1E
100
AcDbEntity
  8
0
100
AcDbLine
 10
188.328
 20
607.0
 30
0.0
 11
191.4479999999999
 21
607.0
 31
0.0
  0
LINE
  5
561
330
1E
100
AcDbEntity
  8
0
100
AcDbLine
 10
195.0
 20
607.0
 30
0.0
 11
195.0
 21
611.0
 31
0.0
  0
LINE
  5
562
330
1E
100
AcDbEntity
  8
0
100
AcDbLine
 10
191.4479999999999
 20
607.0
 30
0.0
 11
194.204
 21
607.0
 31
0.0
  0
LINE
  5
563
330
1E
100
AcDbEntity
  8
0
100
AcDbLine
 10
194.204
 20
607.0
 30
0.0
 11
196.284
 21
607.0
 31
0.0
  0
LINE
  5
564
330
1E
100
AcDbEntity
  8
0
100
AcDbLine
 10
196.284
 20
607.0
 30
0.0
 11
197.532
 21
607.0
 31
0.0
  0
LINE
  5
565
330
1E
100
AcDbEntity
  8
0
100
AcDbLine
 10
174.3959999999999
 20
611.0
 30
0.0
 11
175.0
 21
611.0
 31
0.0
  0
LINE
  5
566
330
1E
100
AcDbEntity
  8
0
100
AcDbLine
 10
174.3959999999999
 20
611.0
 30
0.0
 11
175.452
 21
611.0
 31
0.0
  0
LINE
  5
567
330
1E
100
AcDbEntity
  8
0
100
AcDbLine
 10
174.0
 20
611.0
 30
0.0
 11
174.0
 21
613.0
 31
0.0
  0
LINE
  5
568
330
1E
100
AcDbEntity
  8
0
100
AcDbLine
 10
174.0
 20
611.0
 30
0.0
 11
174.3959999999999
 21
611.0
 31
0.0
  0
LINE
  5
569
330
1E
100
AcDbEntity
  8
0
100
AcDbLine
 10
177.212
 20
611.0
 30
0.0
 11
179.544
 21
611.0
 31
0.0
  0
LINE
  5
56A
330
1E
100
AcDbEntity
  8
0
100
AcDbLine
 10
175.452
 20
611.0
 30
0.0
 11
177.212
 21
611.0
 31
0.0
  0
LINE
  5
56B
330
1E
100
AcDbEntity
  8
0
100
AcDbLine
 10
182.184
 20
611.0
 30
0.0
 11
185.0
 21
611.0
 31
0.0
  0
LINE
  5
56C
330
1E
100
AcDbEntity
  8
0
100
AcDbLine
 10
179.544
 20
611.0
 30
0.0
 11
182.184
 21
611.0
 31
0.0
  0
LINE
  5
56D
330
1E
100
AcDbEntity
  8
0
100
AcDbLine
 10
182.4399999999999
 20
611.0
 30
0.0
 11
185.0
 21
611.0
 31
0.0
  0
LINE
  5
56E
330
1E
100
AcDbEntity
  8
0
100
AcDbLine
 10
180.0399999999999
 20
611.0
 30
0.0
 11
182.4399999999999
 21
611.0
 31
0.0
  0
LINE
  5
56F
330
1E
100
AcDbEntity
  8
0
100
AcDbLine
 10
177.9199999999999
 20
611.0
 30
0.0
 11
180.0399999999999
 21
611.0
 31
0.0
  0
LINE
  5
570
330
1E
100
AcDbEntity
  8
0
100
AcDbLine
 10
176.3199999999999
 20
611.0
 30
0.0
 11
177.9199999999999
 21
611.0
 31
0.0
  0
LINE
  5
571
330
1E
100
AcDbEntity
  8
0
100
AcDbLine
 10
175.36
 20
611.0
 30
0.0
 11
176.3199999999999
 21
611.0
 31
0.0
  0
LINE
  5
572
330
1E
100
AcDbEntity
  8
0
100
AcDbLine
 10
175.0
 20
611.0
 30
0.0
 11
175.36
 21
611.0
 31
0.0
  0
LINE
  5
573
330
1E
100
AcDbEntity
  8
0
100
AcDbLine
 10
175.0
 20
611.0
 30
0.0
 11
175.0
 21
607.0
 31
0.0
  0
LINE
  5
574
330
1E
100
AcDbEntity
  8
0
100
AcDbLine
 10
187.8159999999999
 20
611.0
 30
0.0
 11
190.456
 21
611.0
 31
0.0
  0
LINE
  5
575
330
1E
100
AcDbEntity
  8
0
100
AcDbLine
 10
185.0
 20
611.0
 30
0.0
 11
187.56
 21
611.0
 31
0.0
  0
LINE
  5
576
330
1E
100
AcDbEntity
  8
0
100
AcDbLine
 10
185.0
 20
611.0
 30
0.0
 11
187.8159999999999
 21
611.0
 31
0.0
  0
LINE
  5
577
330
1E
100
AcDbEntity
  8
0
100
AcDbLine
 10
187.56
 20
611.0
 30
0.0
 11
189.96
 21
611.0
 31
0.0
  0
LINE
  5
578
330
1E
100
AcDbEntity
  8
0
100
AcDbLine
 10
190.456
 20
611.0
 30
0.0
 11
192.7879999999999
 21
611.0
 31
0.0
  0
LINE
  5
579
330
1E
100
AcDbEntity
  8
0
100
AcDbLine
 10
192.7879999999999
 20
611.0
 30
0.0
 11
194.548
 21
611.0
 31
0.0
  0
LINE
  5
57A
330
1E
100
AcDbEntity
  8
0
100
AcDbLine
 10
189.96
 20
611.0
 30
0.0
 11
192.08
 21
611.0
 31
0.0
  0
LINE
  5
57B
330
1E
100
AcDbEntity
  8
0
100
AcDbLine
 10
192.08
 20
611.0
 30
0.0
 11
193.68
 21
611.0
 31
0.0
  0
LINE
  5
57C
330
1E
100
AcDbEntity
  8
0
100
AcDbLine
 10
194.548
 20
611.0
 30
0.0
 11
195.604
 21
611.0
 31
0.0
  0
LINE
  5
57D
330
1E
100
AcDbEntity
  8
0
100
AcDbLine
 10
193.68
 20
611.0
 30
0.0
 11
194.6399999999999
 21
611.0
 31
0.0
  0
LINE
  5
57E
330
1E
100
AcDbEntity
  8
0
100
AcDbLine
 10
175.0
 20
613.0
 30
0.0
 11
175.0
 21
615.0
 31
0.0
  0
LINE
  5
57F
330
1E
100
AcDbEntity
  8
0
100
AcDbLine
 10
182.184
 20
613.0
 30
0.0
 11
185.0
 21
613.0
 31
0.0
  0
LINE
  5
580
330
1E
100
AcDbEntity
  8
0
100
AcDbLine
 10
179.544
 20
613.0
 30
0.0
 11
182.184
 21
613.0
 31
0.0
  0
LINE
  5
581
330
1E
100
AcDbEntity
  8
0
100
AcDbLine
 10
177.212
 20
613.0
 30
0.0
 11
179.544
 21
613.0
 31
0.0
  0
LINE
  5
582
330
1E
100
AcDbEntity
  8
0
100
AcDbLine
 10
175.452
 20
613.0
 30
0.0
 11
177.212
 21
613.0
 31
0.0
  0
LINE
  5
583
330
1E
100
AcDbEntity
  8
0
100
AcDbLine
 10
174.3959999999999
 20
613.0
 30
0.0
 11
175.452
 21
613.0
 31
0.0
  0
LINE
  5
584
330
1E
100
AcDbEntity
  8
0
100
AcDbLine
 10
174.0
 20
613.0
 30
0.0
 11
174.3959999999999
 21
613.0
 31
0.0
  0
LINE
  5
585
330
1E
100
AcDbEntity
  8
0
100
AcDbLine
 10
174.0
 20
613.0
 30
0.0
 11
174.0
 21
611.0
 31
0.0
  0
LINE
  5
586
330
1E
100
AcDbEntity
  8
0
100
AcDbLine
 10
185.0
 20
613.0
 30
0.0
 11
187.8159999999999
 21
613.0
 31
0.0
  0
LINE
  5
587
330
1E
100
AcDbEntity
  8
0
100
AcDbLine
 10
187.8159999999999
 20
613.0
 30
0.0
 11
190.456
 21
613.0
 31
0.0
  0
LINE
  5
588
330
1E
100
AcDbEntity
  8
0
100
AcDbLine
 10
190.456
 20
613.0
 30
0.0
 11
192.7879999999999
 21
613.0
 31
0.0
  0
LINE
  5
589
330
1E
100
AcDbEntity
  8
0
100
AcDbLine
 10
174.0
 20
617.0
 30
0.0
 11
174.3959999999999
 21
617.0
 31
0.0
  0
LINE
  5
58A
330
1E
100
AcDbEntity
  8
0
100
AcDbLine
 10
174.0
 20
617.0
 30
0.0
 11
174.0
 21
615.0
 31
0.0
  0
LINE
  5
58B
330
1E
100
AcDbEntity
  8
0
100
AcDbLine
 10
176.3199999999999
 20
615.0
 30
0.0
 11
177.9199999999999
 21
615.0
 31
0.0
  0
LINE
  5
58C
330
1E
100
AcDbEntity
  8
0
100
AcDbLine
 10
175.36
 20
615.0
 30
0.0
 11
176.3199999999999
 21
615.0
 31
0.0
  0
LINE
  5
58D
330
1E
100
AcDbEntity
  8
0
100
AcDbLine
 10
175.0
 20
615.0
 30
0.0
 11
175.36
 21
615.0
 31
0.0
  0
LINE
  5
58E
330
1E
100
AcDbEntity
  8
0
100
AcDbLine
 10
175.0
 20
615.0
 30
0.0
 11
175.0
 21
613.0
 31
0.0
  0
LINE
  5
58F
330
1E
100
AcDbEntity
  8
0
100
AcDbLine
 10
180.0399999999999
 20
615.0
 30
0.0
 11
182.4399999999999
 21
615.0
 31
0.0
  0
LINE
  5
590
330
1E
100
AcDbEntity
  8
0
100
AcDbLine
 10
177.9199999999999
 20
615.0
 30
0.0
 11
180.0399999999999
 21
615.0
 31
0.0
  0
LINE
  5
591
330
1E
100
AcDbEntity
  8
0
100
AcDbLine
 10
182.4399999999999
 20
615.0
 30
0.0
 11
185.0
 21
615.0
 31
0.0
  0
LINE
  5
592
330
1E
100
AcDbEntity
  8
0
100
AcDbLine
 10
182.184
 20
615.0
 30
0.0
 11
185.0
 21
615.0
 31
0.0
  0
LINE
  5
593
330
1E
100
AcDbEntity
  8
0
100
AcDbLine
 10
179.544
 20
615.0
 30
0.0
 11
182.184
 21
615.0
 31
0.0
  0
LINE
  5
594
330
1E
100
AcDbEntity
  8
0
100
AcDbLine
 10
177.212
 20
615.0
 30
0.0
 11
179.544
 21
615.0
 31
0.0
  0
LINE
  5
595
330
1E
100
AcDbEntity
  8
0
100
AcDbLine
 10
175.452
 20
615.0
 30
0.0
 11
177.212
 21
615.0
 31
0.0
  0
LINE
  5
596
330
1E
100
AcDbEntity
  8
0
100
AcDbLine
 10
187.56
 20
615.0
 30
0.0
 11
189.96
 21
615.0
 31
0.0
  0
LINE
  5
597
330
1E
100
AcDbEntity
  8
0
100
AcDbLine
 10
189.96
 20
615.0
 30
0.0
 11
192.08
 21
615.0
 31
0.0
  0
LINE
  5
598
330
1E
100
AcDbEntity
  8
0
100
AcDbLine
 10
185.0
 20
615.0
 30
0.0
 11
187.8159999999999
 21
615.0
 31
0.0
  0
LINE
  5
599
330
1E
100
AcDbEntity
  8
0
100
AcDbLine
 10
185.0
 20
615.0
 30
0.0
 11
187.56
 21
615.0
 31
0.0
  0
LINE
  5
59A
330
1E
100
AcDbEntity
  8
0
100
AcDbLine
 10
187.8159999999999
 20
615.0
 30
0.0
 11
190.456
 21
615.0
 31
0.0
  0
LINE
  5
59B
330
1E
100
AcDbEntity
  8
0
100
AcDbLine
 10
192.08
 20
615.0
 30
0.0
 11
193.68
 21
615.0
 31
0.0
  0
LINE
  5
59C
330
1E
100
AcDbEntity
  8
0
100
AcDbLine
 10
193.68
 20
615.0
 30
0.0
 11
194.6399999999999
 21
615.0
 31
0.0
  0
LINE
  5
59D
330
1E
100
AcDbEntity
  8
0
100
AcDbLine
 10
190.456
 20
615.0
 30
0.0
 11
192.7879999999999
 21
615.0
 31
0.0
  0
LINE
  5
59E
330
1E
100
AcDbEntity
  8
0
100
AcDbLine
 10
192.7879999999999
 20
615.0
 30
0.0
 11
194.548
 21
615.0
 31
0.0
  0
LINE
  5
59F
330
1E
100
AcDbEntity
  8
0
100
AcDbLine
 10
194.548
 20
615.0
 30
0.0
 11
195.604
 21
615.0
 31
0.0
  0
LINE
  5
5A0
330
1E
100
AcDbEntity
  8
0
100
AcDbLine
 10
180.0
 20
617.0
 30
0.0
 11
180.0
 21
627.0
 31
0.0
  0
LINE
  5
5A1
330
1E
100
AcDbEntity
  8
0
100
AcDbLine
 10
182.184
 20
617.0
 30
0.0
 11
185.0
 21
617.0
 31
0.0
  0
LINE
  5
5A2
330
1E
100
AcDbEntity
  8
0
100
AcDbLine
 10
179.544
 20
617.0
 30
0.0
 11
182.184
 21
617.0
 31
0.0
  0
LINE
  5
5A3
330
1E
100
AcDbEntity
  8
0
100
AcDbLine
 10
177.212
 20
617.0
 30
0.0
 11
179.544
 21
617.0
 31
0.0
  0
LINE
  5
5A4
330
1E
100
AcDbEntity
  8
0
100
AcDbLine
 10
175.452
 20
617.0
 30
0.0
 11
177.212
 21
617.0
 31
0.0
  0
LINE
  5
5A5
330
1E
100
AcDbEntity
  8
0
100
AcDbLine
 10
174.3959999999999
 20
617.0
 30
0.0
 11
175.452
 21
617.0
 31
0.0
  0
LINE
  5
5A6
330
1E
100
AcDbEntity
  8
0
100
AcDbLine
 10
190.0
 20
617.0
 30
0.0
 11
190.0
 21
627.0
 31
0.0
  0
LINE
  5
5A7
330
1E
100
AcDbEntity
  8
0
100
AcDbLine
 10
185.0
 20
617.0
 30
0.0
 11
187.8159999999999
 21
617.0
 31
0.0
  0
LINE
  5
5A8
330
1E
100
AcDbEntity
  8
0
100
AcDbLine
 10
187.8159999999999
 20
617.0
 30
0.0
 11
190.456
 21
617.0
 31
0.0
  0
LINE
  5
5A9
330
1E
100
AcDbEntity
  8
0
100
AcDbLine
 10
190.456
 20
617.0
 30
0.0
 11
192.7879999999999
 21
617.0
 31
0.0
  0
LINE
  5
5AA
330
1E
100
AcDbEntity
  8
0
100
AcDbLine
 10
182.0
 20
627.0
 30
0.0
 11
182.0
 21
630.0
 31
0.0
  0
LINE
  5
5AB
330
1E
100
AcDbEntity
  8
0
100
AcDbLine
 10
183.7199999999999
 20
627.0
 30
0.0
 11
185.0
 21
627.0
 31
0.0
  0
LINE
  5
5AC
330
1E
100
AcDbEntity
  8
0
100
AcDbLine
 10
182.52
 20
627.0
 30
0.0
 11
183.7199999999999
 21
627.0
 31
0.0
  0
LINE
  5
5AD
330
1E
100
AcDbEntity
  8
0
100
AcDbLine
 10
181.46
 20
627.0
 30
0.0
 11
182.52
 21
627.0
 31
0.0
  0
LINE
  5
5AE
330
1E
100
AcDbEntity
  8
0
100
AcDbLine
 10
180.6599999999999
 20
627.0
 30
0.0
 11
181.46
 21
627.0
 31
0.0
  0
LINE
  5
5AF
330
1E
100
AcDbEntity
  8
0
100
AcDbLine
 10
180.18
 20
627.0
 30
0.0
 11
180.6599999999999
 21
627.0
 31
0.0
  0
LINE
  5
5B0
330
1E
100
AcDbEntity
  8
0
100
AcDbLine
 10
180.0
 20
627.0
 30
0.0
 11
180.18
 21
627.0
 31
0.0
  0
LINE
  5
5B1
330
1E
100
AcDbEntity
  8
0
100
AcDbLine
 10
180.0
 20
627.0
 30
0.0
 11
180.0
 21
617.0
 31
0.0
  0
LINE
  5
5B2
330
1E
100
AcDbEntity
  8
0
100
AcDbLine
 10
185.0
 20
627.0
 30
0.0
 11
186.28
 21
627.0
 31
0.0
  0
LINE
  5
5B3
330
1E
100
AcDbEntity
  8
0
100
AcDbLine
 10
186.28
 20
627.0
 30
0.0
 11
187.48
 21
627.0
 31
0.0
  0
LINE
  5
5B4
330
1E
100
AcDbEntity
  8
0
100
AcDbLine
 10
188.0
 20
627.0
 30
0.0
 11
188.0
 21
630.0
 31
0.0
  0
LINE
  5
5B5
330
1E
100
AcDbEntity
  8
0
100
AcDbLine
 10
187.48
 20
627.0
 30
0.0
 11
188.5399999999999
 21
627.0
 31
0.0
  0
LINE
  5
5B6
330
1E
100
AcDbEntity
  8
0
100
AcDbLine
 10
188.5399999999999
 20
627.0
 30
0.0
 11
189.3399999999999
 21
627.0
 31
0.0
  0
LINE
  5
5B7
330
1E
100
AcDbEntity
  8
0
100
AcDbLine
 10
189.3399999999999
 20
627.0
 30
0.0
 11
189.8199999999999
 21
627.0
 31
0.0
  0
LINE
  5
5B8
330
1E
100
AcDbEntity
  8
0
100
AcDbLine
 10
180.0
 20
632.0
 30
0.0
 11
180.18
 21
632.0
 31
0.0
  0
LINE
  5
5B9
330
1E
100
AcDbEntity
  8
0
100
AcDbLine
 10
180.0
 20
632.0
 30
0.0
 11
180.0
 21
630.0
 31
0.0
  0
LINE
  5
5BA
330
1E
100
AcDbEntity
  8
0
100
AcDbLine
 10
183.512
 20
630.0
 30
0.0
 11
184.2319999999999
 21
630.0
 31
0.0
  0
LINE
  5
5BB
330
1E
100
AcDbEntity
  8
0
100
AcDbLine
 10
182.8759999999999
 20
630.0
 30
0.0
 11
183.512
 21
630.0
 31
0.0
  0
LINE
  5
5BC
330
1E
100
AcDbEntity
  8
0
100
AcDbLine
 10
182.3959999999999
 20
630.0
 30
0.0
 11
182.8759999999999
 21
630.0
 31
0.0
  0
LINE
  5
5BD
330
1E
100
AcDbEntity
  8
0
100
AcDbLine
 10
182.108
 20
630.0
 30
0.0
 11
182.3959999999999
 21
630.0
 31
0.0
  0
LINE
  5
5BE
330
1E
100
AcDbEntity
  8
0
100
AcDbLine
 10
182.0
 20
630.0
 30
0.0
 11
182.108
 21
630.0
 31
0.0
  0
LINE
  5
5BF
330
1E
100
AcDbEntity
  8
0
100
AcDbLine
 10
182.0
 20
630.0
 30
0.0
 11
182.0
 21
627.0
 31
0.0
  0
LINE
  5
5C0
330
1E
100
AcDbEntity
  8
0
100
AcDbLine
 10
184.2319999999999
 20
630.0
 30
0.0
 11
185.0
 21
630.0
 31
0.0
  0
LINE
  5
5C1
330
1E
100
AcDbEntity
  8
0
100
AcDbLine
 10
183.7199999999999
 20
630.0
 30
0.0
 11
185.0
 21
630.0
 31
0.0
  0
LINE
  5
5C2
330
1E
100
AcDbEntity
  8
0
100
AcDbLine
 10
182.52
 20
630.0
 30
0.0
 11
183.7199999999999
 21
630.0
 31
0.0
  0
LINE
  5
5C3
330
1E
100
AcDbEntity
  8
0
100
AcDbLine
 10
185.768
 20
630.0
 30
0.0
 11
186.488
 21
630.0
 31
0.0
  0
LINE
  5
5C4
330
1E
100
AcDbEntity
  8
0
100
AcDbLine
 10
186.488
 20
630.0
 30
0.0
 11
187.124
 21
630.0
 31
0.0
  0
LINE
  5
5C5
330
1E
100
AcDbEntity
  8
0
100
AcDbLine
 10
187.124
 20
630.0
 30
0.0
 11
187.604
 21
630.0
 31
0.0
  0
LINE
  5
5C6
330
1E
100
AcDbEntity
  8
0
100
AcDbLine
 10
185.0
 20
630.0
 30
0.0
 11
186.28
 21
630.0
 31
0.0
  0
LINE
  5
5C7
330
1E
100
AcDbEntity
  8
0
100
AcDbLine
 10
185.0
 20
630.0
 30
0.0
 11
185.768
 21
630.0
 31
0.0
  0
LINE
  5
5C8
330
1E
100
AcDbEntity
  8
0
100
AcDbLine
 10
186.28
 20
630.0
 30
0.0
 11
187.48
 21
630.0
 31
0.0
  0
LINE
  5
5C9
330
1E
100
AcDbEntity
  8
0
100
AcDbLine
 10
187.604
 20
630.0
 30
0.0
 11
187.8919999999999
 21
630.0
 31
0.0
  0
LINE
  5
5CA
330
1E
100
AcDbEntity
  8
0
100
AcDbLine
 10
187.8919999999999
 20
630.0
 30
0.0
 11
188.0
 21
630.0
 31
0.0
  0
LINE
  5
5CB
330
1E
100
AcDbEntity
  8
0
100
AcDbLine
 10
187.48
 20
630.0
 30
0.0
 11
188.5399999999999
 21
630.0
 31
0.0
  0
LINE
  5
5CC
330
1E
100
AcDbEntity
  8
0
100
AcDbLine
 10
188.0
 20
630.0
 30
0.0
 11
188.5399999999999
 21
630.0
 31
0.0
  0
LINE
  5
5CD
330
1E
100
AcDbEntity
  8
0
100
AcDbLine
 10
188.0
 20
630.0
 30
0.0
 11
188.0
 21
627.0
 31
0.0
  0
LINE
  5
5CE
330
1E
100
AcDbEntity
  8
0
100
AcDbLine
 10
188.5399999999999
 20
630.0
 30
0.0
 11
189.3399999999999
 21
630.0
 31
0.0
  0
LINE
  5
5CF
330
1E
100
AcDbEntity
  8
0
100
AcDbLine
 10
189.3399999999999
 20
630.0
 30
0.0
 11
189.8199999999999
 21
630.0
 31
0.0
  0
LINE
  5
5D0
330
1E
100
AcDbEntity
  8
0
100
AcDbLine
 10
190.0
 20
630.0
 30
0.0
 11
190.0
 21
632.0
 31
0.0
  0
LINE
  5
5D1
330
1E
100
AcDbEntity
  8
0
100
AcDbLine
 10
189.8199999999999
 20
630.0
 30
0.0
 11
190.0
 21
630.0
 31
0.0
  0
LINE
  5
5D2
330
1E
100
AcDbEntity
  8
0
100
AcDbLine
 10
181.46
 20
630.0
 30
0.0
 11
182.0
 21
630.0
 31
0.0
  0
LINE
  5
5D3
330
1E
100
AcDbEntity
  8
0
100
AcDbLine
 10
181.46
 20
630.0
 30
0.0
 11
182.52
 21
630.0
 31
0.0
  0
LINE
  5
5D4
330
1E
100
AcDbEntity
  8
0
100
AcDbLine
 10
180.6599999999999
 20
630.0
 30
0.0
 11
181.46
 21
630.0
 31
0.0
  0
LINE
  5
5D5
330
1E
100
AcDbEntity
  8
0
100
AcDbLine
 10
183.7199999999999
 20
632.0
 30
0.0
 11
185.0
 21
632.0
 31
0.0
  0
LINE
  5
5D6
330
1E
100
AcDbEntity
  8
0
100
AcDbLine
 10
182.52
 20
632.0
 30
0.0
 11
183.7199999999999
 21
632.0
 31
0.0
  0
LINE
  5
5D7
330
1E
100
AcDbEntity
  8
0
100
AcDbLine
 10
181.46
 20
632.0
 30
0.0
 11
182.52
 21
632.0
 31
0.0
  0
LINE
  5
5D8
330
1E
100
AcDbEntity
  8
0
100
AcDbLine
 10
180.6599999999999
 20
632.0
 30
0.0
 11
181.46
 21
632.0
 31
0.0
  0
LINE
  5
5D9
330
1E
100
AcDbEntity
  8
0
100
AcDbLine
 10
180.18
 20
632.0
 30
0.0
 11
180.6599999999999
 21
632.0
 31
0.0
  0
LINE
  5
5DA
330
1E
100
AcDbEntity
  8
0
100
AcDbLine
 10
185.0
 20
632.0
 30
0.0
 11
186.28
 21
632.0
 31
0.0
  0
LINE
  5
5DB
330
1E
100
AcDbEntity
  8
0
100
AcDbLine
 10
186.28
 20
632.0
 30
0.0
 11
187.48
 21
632.0
 31
0.0
  0
LINE
  5
5DC
330
1E
100
AcDbEntity
  8
0
100
AcDbLine
 10
187.48
 20
632.0
 30
0.0
 11
188.5399999999999
 21
632.0
 31
0.0
  0
LINE
  5
5DD
330
1E
100
AcDbEntity
  8
0
100
AcDbLine
 10
188.5399999999999
 20
632.0
 30
0.0
 11
189.3399999999999
 21
632.0
 31
0.0
  0
LINE
  5
5DE
330
1E
100
AcDbEntity
  8
0
100
AcDbLine
 10
189.3399999999999
 20
632.0
 30
0.0
 11
189.8199999999999
 21
632.0
 31
0.0
  0
LINE
  5
5DF
330
1E
100
AcDbEntity
  8
0
100
AcDbLine
 10
189.8199999999999
 20
632.0
 30
0.0
 11
190.0
 21
632.0
 31
0.0
  0
LINE
  5
5E0
330
1E
100
AcDbEntity
  8
0
100
AcDbLine
 10
190.0
 20
632.0
 30
0.0
 11
190.0
 21
630.0
 31
0.0
  0
LINE
  5
5E1
330
1E
100
AcDbEntity
  8
0
100
AcDbLine
 10
180.18
 20
630.0
 30
0.0
 11
180.6599999999999
 21
630.0
 31
0.0
  0
LINE
  5
5E2
330
1E
100
AcDbEntity
  8
0
100
AcDbLine
 10
180.0
 20
630.0
 30
0.0
 11
180.0
 21
632.0
 31
0.0
  0
LINE
  5
5E3
330
1E
100
AcDbEntity
  8
0
100
AcDbLine
 10
180.0
 20
630.0
 30
0.0
 11
180.18
 21
630.0
 31
0.0
  0
LINE
  5
5E4
330
1E
100
AcDbEntity
  8
0
100
AcDbLine
 10
189.8199999999999
 20
627.0
 30
0.0
 11
190.0
 21
627.0
 31
0.0
  0
LINE
  5
5E5
330
1E
100
AcDbEntity
  8
0
100
AcDbLine
 10
190.0
 20
627.0
 30
0.0
 11
190.0
 21
617.0
 31
0.0
  0
LINE
  5
5E6
330
1E
100
AcDbEntity
  8
0
100
AcDbLine
 10
192.7879999999999
 20
617.0
 30
0.0
 11
194.548
 21
617.0
 31
0.0
  0
LINE
  5
5E7
330
1E
100
AcDbEntity
  8
0
100
AcDbLine
 10
194.548
 20
617.0
 30
0.0
 11
195.604
 21
617.0
 31
0.0
  0
LINE
  5
5E8
330
1E
100
AcDbEntity
  8
0
100
AcDbLine
 10
174.3959999999999
 20
615.0
 30
0.0
 11
175.0
 21
615.0
 31
0.0
  0
LINE
  5
5E9
330
1E
100
AcDbEntity
  8
0
100
AcDbLine
 10
174.3959999999999
 20
615.0
 30
0.0
 11
175.452
 21
615.0
 31
0.0
  0
LINE
  5
5EA
330
1E
100
AcDbEntity
  8
0
100
AcDbLine
 10
174.0
 20
615.0
 30
0.0
 11
174.0
 21
617.0
 31
0.0
  0
LINE
  5
5EB
330
1E
100
AcDbEntity
  8
0
100
AcDbLine
 10
174.0
 20
615.0
 30
0.0
 11
174.3959999999999
 21
615.0
 31
0.0
  0
LINE
  5
5EC
330
1E
100
AcDbEntity
  8
0
100
AcDbLine
 10
192.7879999999999
 20
613.0
 30
0.0
 11
194.548
 21
613.0
 31
0.0
  0
LINE
  5
5ED
330
1E
100
AcDbEntity
  8
0
100
AcDbLine
 10
195.0
 20
613.0
 30
0.0
 11
195.0
 21
615.0
 31
0.0
  0
LINE
  5
5EE
330
1E
100
AcDbEntity
  8
0
100
AcDbLine
 10
194.6399999999999
 20
615.0
 30
0.0
 11
195.0
 21
615.0
 31
0.0
  0
LINE
  5
5EF
330
1E
100
AcDbEntity
  8
0
100
AcDbLine
 10
195.0
 20
615.0
 30
0.0
 11
195.604
 21
615.0
 31
0.0
  0
LINE
  5
5F0
330
1E
100
AcDbEntity
  8
0
100
AcDbLine
 10
195.0
 20
615.0
 30
0.0
 11
195.0
 21
613.0
 31
0.0
  0
LINE
  5
5F1
330
1E
100
AcDbEntity
  8
0
100
AcDbLine
 10
194.548
 20
613.0
 30
0.0
 11
195.604
 21
613.0
 31
0.0
  0
LINE
  5
5F2
330
1E
100
AcDbEntity
  8
0
100
AcDbLine
 10
194.6399999999999
 20
611.0
 30
0.0
 11
195.0
 21
611.0
 31
0.0
  0
LINE
  5
5F3
330
1E
100
AcDbEntity
  8
0
100
AcDbLine
 10
196.0
 20
611.0
 30
0.0
 11
196.0
 21
613.0
 31
0.0
  0
LINE
  5
5F4
330
1E
100
AcDbEntity
  8
0
100
AcDbLine
 10
195.604
 20
617.0
 30
0.0
 11
196.0
 21
617.0
 31
0.0
  0
LINE
  5
5F5
330
1E
100
AcDbEntity
  8
0
100
AcDbLine
 10
196.0
 20
615.0
 30
0.0
 11
196.0
 21
617.0
 31
0.0
  0
LINE
  5
5F6
330
1E
100
AcDbEntity
  8
0
100
AcDbLine
 10
196.0
 20
617.0
 30
0.0
 11
196.0
 21
615.0
 31
0.0
  0
LINE
  5
5F7
330
1E
100
AcDbEntity
  8
0
100
AcDbLine
 10
195.604
 20
615.0
 30
0.0
 11
196.0
 21
615.0
 31
0.0
  0
LINE
  5
5F8
330
1E
100
AcDbEntity
  8
0
100
AcDbLine
 10
195.604
 20
613.0
 30
0.0
 11
196.0
 21
613.0
 31
0.0
  0
LINE
  5
5F9
330
1E
100
AcDbEntity
  8
0
100
AcDbLine
 10
196.0
 20
613.0
 30
0.0
 11
196.0
 21
611.0
 31
0.0
  0
LINE
  5
5FA
330
1E
100
AcDbEntity
  8
0
100
AcDbLine
 10
195.604
 20
611.0
 30
0.0
 11
196.0
 21
611.0
 31
0.0
  0
LINE
  5
5FB
330
1E
100
AcDbEntity
  8
0
100
AcDbLine
 10
195.0
 20
611.0
 30
0.0
 11
195.0
 21
607.0
 31
0.0
  0
LINE
  5
5FC
330
1E
100
AcDbEntity
  8
0
100
AcDbLine
 10
195.0
 20
611.0
 30
0.0
 11
195.604
 21
611.0
 31
0.0
  0
LINE
  5
5FD
330
1E
100
AcDbEntity
  8
0
100
AcDbLine
 10
197.532
 20
607.0
 30
0.0
 11
198.0
 21
607.0
 31
0.0
  0
LINE
  5
5FE
330
1E
100
AcDbEntity
  8
0
100
AcDbLine
 10
198.0
 20
607.0
 30
0.0
 11
198.0
 21
602.0
 31
0.0
  0
LINE
  5
5FF
330
1E
100
AcDbEntity
  8
0
100
AcDbLine
 10
213.9199999999999
 20
602.0
 30
0.0
 11
215.0
 21
602.0
 31
0.0
  0
LINE
  5
600
330
1E
100
AcDbEntity
  8
0
100
AcDbLine
 10
215.0
 20
602.0
 30
0.0
 11
215.0
 21
600.0
 31
0.0
  0
LINE
  5
601
330
1E
100
AcDbEntity
  8
0
100
AcDbLine
 10
263.0
 20
600.1739999999999
 30
0.0
 11
263.7679999999999
 21
600.0
 31
0.0
  0
LINE
  5
602
330
1E
100
AcDbEntity
  8
0
100
AcDbLine
 10
263.0
 20
600.1739999999999
 30
0.0
 11
263.0
 21
602.826
 31
0.0
  0
LINE
  5
603
330
1E
100
AcDbEntity
  8
0
100
AcDbLine
 10
263.0
 20
600.1739999999999
 30
0.0
 11
264.1519999999999
 21
600.1739999999999
 31
0.0
  0
LINE
  5
604
330
1E
100
AcDbEntity
  8
0
100
AcDbLine
 10
263.4619999999999
 20
578.853
 30
0.0
 11
263.7609999999999
 21
578.853
 31
0.0
  0
LINE
  5
605
330
1E
100
AcDbEntity
  8
0
100
AcDbLine
 10
263.7609999999999
 20
578.853
 30
0.0
 11
263.853
 21
578.853
 31
0.0
  0
LINE
  5
606
330
1E
100
AcDbEntity
  8
0
100
AcDbLine
 10
263.7579999999999
 20
578.853
 30
0.0
 11
263.853
 21
578.853
 31
0.0
  0
LINE
  5
607
330
1E
100
AcDbEntity
  8
0
100
AcDbLine
 10
263.4549999999999
 20
578.853
 30
0.0
 11
263.7579999999999
 21
578.853
 31
0.0
  0
LINE
  5
608
330
1E
100
AcDbEntity
  8
0
100
AcDbLine
 10
263.853
 20
580.0
 30
0.0
 11
265.0
 21
580.0
 31
0.0
  0
LINE
  5
609
330
1E
100
AcDbEntity
  8
0
100
AcDbLine
 10
265.0
 20
580.0
 30
0.0
 11
265.0
 21
534.4999999999999
 31
0.0
  0
LINE
  5
60A
330
1E
100
AcDbEntity
  8
0
100
AcDbLine
 10
263.853
 20
578.853
 30
0.0
 11
263.853
 21
580.0
 31
0.0
  0
LINE
  5
60B
330
1E
100
AcDbEntity
  8
0
100
AcDbLine
 10
263.853
 20
580.0
 30
0.0
 11
263.853
 21
578.853
 31
0.0
  0
LINE
  5
60C
330
1E
100
AcDbEntity
  8
0
100
AcDbLine
 10
263.853
 20
580.0
 30
0.0
 11
265.0
 21
580.0
 31
0.0
  0
LINE
  5
60D
330
1E
100
AcDbEntity
  8
0
100
AcDbLine
 10
263.7679999999999
 20
600.0
 30
0.0
 11
264.9199999999999
 21
600.0
 31
0.0
  0
LINE
  5
60E
330
1E
100
AcDbEntity
  8
0
100
AcDbLine
 10
264.1519999999999
 20
602.826
 30
0.0
 11
267.2239999999999
 21
602.826
 31
0.0
  0
LINE
  5
60F
330
1E
100
AcDbEntity
  8
0
100
AcDbLine
 10
264.1519999999999
 20
600.1739999999999
 30
0.0
 11
267.2239999999999
 21
600.1739999999999
 31
0.0
  0
LINE
  5
610
330
1E
100
AcDbEntity
  8
0
100
AcDbLine
 10
263.7679999999999
 20
603.0
 30
0.0
 11
264.9199999999999
 21
603.0
 31
0.0
  0
LINE
  5
611
330
1E
100
AcDbEntity
  8
0
100
AcDbLine
 10
264.9199999999999
 20
603.0
 30
0.0
 11
267.992
 21
603.0
 31
0.0
  0
LINE
  5
612
330
1E
100
AcDbEntity
  8
0
100
AcDbLine
 10
267.2239999999999
 20
602.826
 30
0.0
 11
272.344
 21
602.826
 31
0.0
  0
LINE
  5
613
330
1E
100
AcDbEntity
  8
0
100
AcDbLine
 10
267.992
 20
603.0
 30
0.0
 11
272.984
 21
603.0
 31
0.0
  0
LINE
  5
614
330
1E
100
AcDbEntity
  8
0
100
AcDbLine
 10
267.2239999999999
 20
600.1739999999999
 30
0.0
 11
272.344
 21
600.1739999999999
 31
0.0
  0
LINE
  5
615
330
1E
100
AcDbEntity
  8
0
100
AcDbLine
 10
264.9199999999999
 20
600.0
 30
0.0
 11
267.992
 21
600.0
 31
0.0
  0
LINE
  5
616
330
1E
100
AcDbEntity
  8
0
100
AcDbLine
 10
272.432
 20
600.0
 30
0.0
 11
276.5919999999999
 21
600.0
 31
0.0
  0
LINE
  5
617
330
1E
100
AcDbEntity
  8
0
100
AcDbLine
 10
269.9359999999999
 20
600.0
 30
0.0
 11
272.432
 21
600.0
 31
0.0
  0
LINE
  5
618
330
1E
100
AcDbEntity
  8
0
100
AcDbLine
 10
269.0
 20
600.0
 30
0.0
 11
269.9359999999999
 21
600.0
 31
0.0
  0
LINE
  5
619
330
1E
100
AcDbEntity
  8
0
100
AcDbLine
 10
269.0
 20
600.0
 30
0.0
 11
269.0
 21
595.0
 31
0.0
  0
LINE
  5
61A
330
1E
100
AcDbEntity
  8
0
100
AcDbLine
 10
269.0
 20
595.0
 30
0.0
 11
269.0
 21
600.0
 31
0.0
  0
LINE
  5
61B
330
1E
100
AcDbEntity
  8
0
100
AcDbLine
 10
276.5919999999999
 20
600.0
 30
0.0
 11
282.104
 21
600.0
 31
0.0
  0
LINE
  5
61C
330
1E
100
AcDbEntity
  8
0
100
AcDbLine
 10
272.984
 20
600.0
 30
0.0
 11
279.512
 21
600.0
 31
0.0
  0
LINE
  5
61D
330
1E
100
AcDbEntity
  8
0
100
AcDbLine
 10
272.344
 20
600.1739999999999
 30
0.0
 11
279.1279999999999
 21
600.1739999999999
 31
0.0
  0
LINE
  5
61E
330
1E
100
AcDbEntity
  8
0
100
AcDbLine
 10
295.0
 20
600.0
 30
0.0
 11
301.656
 21
600.0
 31
0.0
  0
LINE
  5
61F
330
1E
100
AcDbEntity
  8
0
100
AcDbLine
 10
301.656
 20
600.0
 30
0.0
 11
307.8959999999999
 21
600.0
 31
0.0
  0
LINE
  5
620
330
1E
100
AcDbEntity
  8
0
100
AcDbLine
 10
288.3439999999999
 20
600.0
 30
0.0
 11
295.0
 21
600.0
 31
0.0
  0
LINE
  5
621
330
1E
100
AcDbEntity
  8
0
100
AcDbLine
 10
282.104
 20
600.0
 30
0.0
 11
288.3439999999999
 21
600.0
 31
0.0
  0
LINE
  5
622
330
1E
100
AcDbEntity
  8
0
100
AcDbLine
 10
303.064
 20
600.0
 30
0.0
 11
310.488
 21
600.0
 31
0.0
  0
LINE
  5
623
330
1E
100
AcDbEntity
  8
0
100
AcDbLine
 10
307.8959999999999
 20
600.0
 30
0.0
 11
313.408
 21
600.0
 31
0.0
  0
LINE
  5
624
330
1E
100
AcDbEntity
  8
0
100
AcDbLine
 10
313.408
 20
600.0
 30
0.0
 11
317.5679999999999
 21
600.0
 31
0.0
  0
LINE
  5
625
330
1E
100
AcDbEntity
  8
0
100
AcDbLine
 10
317.5679999999999
 20
600.0
 30
0.0
 11
320.064
 21
600.0
 31
0.0
  0
LINE
  5
626
330
1E
100
AcDbEntity
  8
0
100
AcDbLine
 10
321.0
 20
595.0
 30
0.0
 11
321.0
 21
600.0
 31
0.0
  0
LINE
  5
627
330
1E
100
AcDbEntity
  8
0
100
AcDbLine
 10
320.064
 20
600.0
 30
0.0
 11
321.0
 21
600.0
 31
0.0
  0
LINE
  5
628
330
1E
100
AcDbEntity
  8
0
100
AcDbLine
 10
317.656
 20
600.1739999999999
 30
0.0
 11
322.7759999999999
 21
600.1739999999999
 31
0.0
  0
LINE
  5
629
330
1E
100
AcDbEntity
  8
0
100
AcDbLine
 10
310.872
 20
600.1739999999999
 30
0.0
 11
317.656
 21
600.1739999999999
 31
0.0
  0
LINE
  5
62A
330
1E
100
AcDbEntity
  8
0
100
AcDbLine
 10
303.1919999999999
 20
600.1739999999999
 30
0.0
 11
310.872
 21
600.1739999999999
 31
0.0
  0
LINE
  5
62B
330
1E
100
AcDbEntity
  8
0
100
AcDbLine
 10
295.0
 20
600.1739999999999
 30
0.0
 11
303.1919999999999
 21
600.1739999999999
 31
0.0
  0
LINE
  5
62C
330
1E
100
AcDbEntity
  8
0
100
AcDbLine
 10
279.1279999999999
 20
600.1739999999999
 30
0.0
 11
286.8079999999999
 21
600.1739999999999
 31
0.0
  0
LINE
  5
62D
330
1E
100
AcDbEntity
  8
0
100
AcDbLine
 10
286.8079999999999
 20
600.1739999999999
 30
0.0
 11
295.0
 21
600.1739999999999
 31
0.0
  0
LINE
  5
62E
330
1E
100
AcDbEntity
  8
0
100
AcDbLine
 10
325.0
 20
580.0
 30
0.0
 11
326.147
 21
580.0
 31
0.0
  0
LINE
  5
62F
330
1E
100
AcDbEntity
  8
0
100
AcDbLine
 10
326.147
 20
580.0
 30
0.0
 11
326.147
 21
578.853
 31
0.0
  0
LINE
  5
630
330
1E
100
AcDbEntity
  8
0
100
AcDbLine
 10
326.147
 20
578.853
 30
0.0
 11
326.242
 21
578.853
 31
0.0
  0
LINE
  5
631
330
1E
100
AcDbEntity
  8
0
100
AcDbLine
 10
326.147
 20
578.853
 30
0.0
 11
326.239
 21
578.853
 31
0.0
  0
LINE
  5
632
330
1E
100
AcDbEntity
  8
0
100
AcDbLine
 10
326.147
 20
578.853
 30
0.0
 11
326.147
 21
580.0
 31
0.0
  0
LINE
  5
633
330
1E
100
AcDbEntity
  8
0
100
AcDbLine
 10
325.0
 20
580.0
 30
0.0
 11
325.0
 21
534.4999999999999
 31
0.0
  0
LINE
  5
634
330
1E
100
AcDbEntity
  8
0
100
AcDbLine
 10
325.0
 20
580.0
 30
0.0
 11
326.147
 21
580.0
 31
0.0
  0
LINE
  5
635
330
1E
100
AcDbEntity
  8
0
100
AcDbLine
 10
325.0799999999999
 20
600.0
 30
0.0
 11
326.232
 21
600.0
 31
0.0
  0
LINE
  5
636
330
1E
100
AcDbEntity
  8
0
100
AcDbLine
 10
326.538
 20
578.853
 30
0.0
 11
327.028
 21
578.853
 31
0.0
  0
LINE
  5
637
330
1E
100
AcDbEntity
  8
0
100
AcDbLine
 10
326.239
 20
578.853
 30
0.0
 11
326.538
 21
578.853
 31
0.0
  0
LINE
  5
638
330
1E
100
AcDbEntity
  8
0
100
AcDbLine
 10
327.028
 20
578.853
 30
0.0
 11
327.6489999999999
 21
578.853
 31
0.0
  0
LINE
  5
639
330
1E
100
AcDbEntity
  8
0
100
AcDbLine
 10
328.363
 20
578.853
 30
0.0
 11
329.133
 21
578.853
 31
0.0
  0
LINE
  5
63A
330
1E
100
AcDbEntity
  8
0
100
AcDbLine
 10
329.133
 20
578.853
 30
0.0
 11
329.903
 21
578.853
 31
0.0
  0
LINE
  5
63B
330
1E
100
AcDbEntity
  8
0
100
AcDbLine
 10
327.6489999999999
 20
578.853
 30
0.0
 11
328.363
 21
578.853
 31
0.0
  0
LINE
  5
63C
330
1E
100
AcDbEntity
  8
0
100
AcDbLine
 10
329.903
 20
578.853
 30
0.0
 11
330.642
 21
578.853
 31
0.0
  0
LINE
  5
63D
330
1E
100
AcDbEntity
  8
0
100
AcDbLine
 10
329.1459999999999
 20
578.853
 30
0.0
 11
329.916
 21
578.853
 31
0.0
  0
LINE
  5
63E
330
1E
100
AcDbEntity
  8
0
100
AcDbLine
 10
328.376
 20
578.853
 30
0.0
 11
329.1459999999999
 21
578.853
 31
0.0
  0
LINE
  5
63F
330
1E
100
AcDbEntity
  8
0
100
AcDbLine
 10
327.6379999999999
 20
578.853
 30
0.0
 11
328.376
 21
578.853
 31
0.0
  0
LINE
  5
640
330
1E
100
AcDbEntity
  8
0
100
AcDbLine
 10
327.0099999999999
 20
578.853
 30
0.0
 11
327.6379999999999
 21
578.853
 31
0.0
  0
LINE
  5
641
330
1E
100
AcDbEntity
  8
0
100
AcDbLine
 10
326.545
 20
578.853
 30
0.0
 11
327.0099999999999
 21
578.853
 31
0.0
  0
LINE
  5
642
330
1E
100
AcDbEntity
  8
0
100
AcDbLine
 10
326.242
 20
578.853
 30
0.0
 11
326.545
 21
578.853
 31
0.0
  0
LINE
  5
643
330
1E
100
AcDbEntity
  8
0
100
AcDbLine
 10
330.642
 20
578.853
 30
0.0
 11
331.2699999999999
 21
578.853
 31
0.0
  0
LINE
  5
644
330
1E
100
AcDbEntity
  8
0
100
AcDbLine
 10
329.916
 20
578.853
 30
0.0
 11
330.63
 21
578.853
 31
0.0
  0
LINE
  5
645
330
1E
100
AcDbEntity
  8
0
100
AcDbLine
 10
330.63
 20
578.853
 30
0.0
 11
331.2509999999999
 21
578.853
 31
0.0
  0
LINE
  5
646
330
1E
100
AcDbEntity
  8
0
100
AcDbLine
 10
331.2699999999999
 20
578.853
 30
0.0
 11
331.734
 21
578.853
 31
0.0
  0
LINE
  5
647
330
1E
100
AcDbEntity
  8
0
100
AcDbLine
 10
331.734
 20
578.853
 30
0.0
 11
332.037
 21
578.853
 31
0.0
  0
LINE
  5
648
330
1E
100
AcDbEntity
  8
0
100
AcDbLine
 10
331.2509999999999
 20
578.853
 30
0.0
 11
331.7409999999999
 21
578.853
 31
0.0
  0
LINE
  5
649
330
1E
100
AcDbEntity
  8
0
100
AcDbLine
 10
331.7409999999999
 20
578.853
 30
0.0
 11
332.04
 21
578.853
 31
0.0
  0
LINE
  5
64A
330
1E
100
AcDbEntity
  8
0
100
AcDbLine
 10
332.1319999999999
 20
578.853
 30
0.0
 11
332.1319999999999
 21
580.0
 31
0.0
  0
LINE
  5
64B
330
1E
100
AcDbEntity
  8
0
100
AcDbLine
 10
332.04
 20
578.853
 30
0.0
 11
332.1319999999999
 21
578.853
 31
0.0
  0
LINE
  5
64C
330
1E
100
AcDbEntity
  8
0
100
AcDbLine
 10
332.037
 20
578.853
 30
0.0
 11
332.1319999999999
 21
578.853
 31
0.0
  0
LINE
  5
64D
330
1E
100
AcDbEntity
  8
0
100
AcDbLine
 10
368.73
 20
578.853
 30
0.0
 11
369.358
 21
578.853
 31
0.0
  0
LINE
  5
64E
330
1E
100
AcDbEntity
  8
0
100
AcDbLine
 10
368.2659999999999
 20
578.853
 30
0.0
 11
368.73
 21
578.853
 31
0.0
  0
LINE
  5
64F
330
1E
100
AcDbEntity
  8
0
100
AcDbLine
 10
367.963
 20
578.853
 30
0.0
 11
368.2659999999999
 21
578.853
 31
0.0
  0
LINE
  5
650
330
1E
100
AcDbEntity
  8
0
100
AcDbLine
 10
370.0969999999999
 20
578.853
 30
0.0
 11
370.8669999999999
 21
578.853
 31
0.0
  0
LINE
  5
651
330
1E
100
AcDbEntity
  8
0
100
AcDbLine
 10
369.358
 20
578.853
 30
0.0
 11
370.0969999999999
 21
578.853
 31
0.0
  0
LINE
  5
652
330
1E
100
AcDbEntity
  8
0
100
AcDbLine
 10
370.0839999999999
 20
578.853
 30
0.0
 11
370.854
 21
578.853
 31
0.0
  0
LINE
  5
653
330
1E
100
AcDbEntity
  8
0
100
AcDbLine
 10
370.8669999999999
 20
578.853
 30
0.0
 11
371.6369999999999
 21
578.853
 31
0.0
  0
LINE
  5
654
330
1E
100
AcDbEntity
  8
0
100
AcDbLine
 10
371.6369999999999
 20
578.853
 30
0.0
 11
372.351
 21
578.853
 31
0.0
  0
LINE
  5
655
330
1E
100
AcDbEntity
  8
0
100
AcDbLine
 10
372.351
 20
578.853
 30
0.0
 11
372.9719999999999
 21
578.853
 31
0.0
  0
LINE
  5
656
330
1E
100
AcDbEntity
  8
0
100
AcDbLine
 10
370.854
 20
578.853
 30
0.0
 11
371.624
 21
578.853
 31
0.0
  0
LINE
  5
657
330
1E
100
AcDbEntity
  8
0
100
AcDbLine
 10
371.624
 20
578.853
 30
0.0
 11
372.3619999999999
 21
578.853
 31
0.0
  0
LINE
  5
658
330
1E
100
AcDbEntity
  8
0
100
AcDbLine
 10
372.9719999999999
 20
578.853
 30
0.0
 11
373.462
 21
578.853
 31
0.0
  0
LINE
  5
659
330
1E
100
AcDbEntity
  8
0
100
AcDbLine
 10
372.3619999999999
 20
578.853
 30
0.0
 11
372.99
 21
578.853
 31
0.0
  0
LINE
  5
65A
330
1E
100
AcDbEntity
  8
0
100
AcDbLine
 10
372.99
 20
578.853
 30
0.0
 11
373.455
 21
578.853
 31
0.0
  0
LINE
  5
65B
330
1E
100
AcDbEntity
  8
0
100
AcDbLine
 10
373.462
 20
578.853
 30
0.0
 11
373.7609999999999
 21
578.853
 31
0.0
  0
LINE
  5
65C
330
1E
100
AcDbEntity
  8
0
100
AcDbLine
 10
373.853
 20
578.853
 30
0.0
 11
373.853
 21
580.0
 31
0.0
  0
LINE
  5
65D
330
1E
100
AcDbEntity
  8
0
100
AcDbLine
 10
373.7609999999999
 20
578.853
 30
0.0
 11
373.853
 21
578.853
 31
0.0
  0
LINE
  5
65E
330
1E
100
AcDbEntity
  8
0
100
AcDbLine
 10
373.758
 20
578.853
 30
0.0
 11
373.853
 21
578.853
 31
0.0
  0
LINE
  5
65F
330
1E
100
AcDbEntity
  8
0
100
AcDbLine
 10
373.455
 20
578.853
 30
0.0
 11
373.758
 21
578.853
 31
0.0
  0
LINE
  5
660
330
1E
100
AcDbEntity
  8
0
100
AcDbLine
 10
369.37
 20
578.853
 30
0.0
 11
370.0839999999999
 21
578.853
 31
0.0
  0
LINE
  5
661
330
1E
100
AcDbEntity
  8
0
100
AcDbLine
 10
368.749
 20
578.853
 30
0.0
 11
369.37
 21
578.853
 31
0.0
  0
LINE
  5
662
330
1E
100
AcDbEntity
  8
0
100
AcDbLine
 10
368.259
 20
578.853
 30
0.0
 11
368.749
 21
578.853
 31
0.0
  0
LINE
  5
663
330
1E
100
AcDbEntity
  8
0
100
AcDbLine
 10
367.9599999999999
 20
578.853
 30
0.0
 11
368.259
 21
578.853
 31
0.0
  0
LINE
  5
664
330
1E
100
AcDbEntity
  8
0
100
AcDbLine
 10
332.1319999999999
 20
580.0
 30
0.0
 11
367.868
 21
580.0
 31
0.0
  0
LINE
  5
665
330
1E
100
AcDbEntity
  8
0
100
AcDbLine
 10
332.1319999999999
 20
580.0
 30
0.0
 11
332.1319999999999
 21
578.853
 31
0.0
  0
LINE
  5
666
330
1E
100
AcDbEntity
  8
0
100
AcDbLine
 10
332.1319999999999
 20
580.0
 30
0.0
 11
367.868
 21
580.0
 31
0.0
  0
LINE
  5
667
330
1E
100
AcDbEntity
  8
0
100
AcDbLine
 10
375.0
 20
580.0
 30
0.0
 11
375.0
 21
534.4999999999999
 31
0.0
  0
LINE
  5
668
330
1E
100
AcDbEntity
  8
0
100
AcDbLine
 10
373.853
 20
580.0
 30
0.0
 11
373.853
 21
578.853
 31
0.0
  0
LINE
  5
669
330
1E
100
AcDbEntity
  8
0
100
AcDbLine
 10
373.853
 20
580.0
 30
0.0
 11
375.0
 21
580.0
 31
0.0
  0
LINE
  5
66A
330
1E
100
AcDbEntity
  8
0
100
AcDbLine
 10
367.868
 20
580.0
 30
0.0
 11
367.868
 21
578.853
 31
0.0
  0
LINE
  5
66B
330
1E
100
AcDbEntity
  8
0
100
AcDbLine
 10
367.868
 20
578.853
 30
0.0
 11
367.963
 21
578.853
 31
0.0
  0
LINE
  5
66C
330
1E
100
AcDbEntity
  8
0
100
AcDbLine
 10
367.868
 20
578.853
 30
0.0
 11
367.9599999999999
 21
578.853
 31
0.0
  0
LINE
  5
66D
330
1E
100
AcDbEntity
  8
0
100
AcDbLine
 10
367.868
 20
578.853
 30
0.0
 11
367.868
 21
580.0
 31
0.0
  0
LINE
  5
66E
330
1E
100
AcDbEntity
  8
0
100
AcDbLine
 10
396.568
 20
600.0
 30
0.0
 11
400.648
 21
600.0
 31
0.0
  0
LINE
  5
66F
330
1E
100
AcDbEntity
  8
0
100
AcDbLine
 10
392.964
 20
600.0
 30
0.0
 11
396.568
 21
600.0
 31
0.0
  0
LINE
  5
670
330
1E
100
AcDbEntity
  8
0
100
AcDbLine
 10
390.244
 20
600.0
 30
0.0
 11
392.964
 21
600.0
 31
0.0
  0
LINE
  5
671
330
1E
100
AcDbEntity
  8
0
100
AcDbLine
 10
388.6119999999999
 20
600.0
 30
0.0
 11
390.244
 21
600.0
 31
0.0
  0
LINE
  5
672
330
1E
100
AcDbEntity
  8
0
100
AcDbLine
 10
388.0
 20
600.0
 30
0.0
 11
388.6119999999999
 21
600.0
 31
0.0
  0
LINE
  5
673
330
1E
100
AcDbEntity
  8
0
100
AcDbLine
 10
388.0
 20
600.0
 30
0.0
 11
388.0
 21
595.0
 31
0.0
  0
LINE
  5
674
330
1E
100
AcDbEntity
  8
0
100
AcDbLine
 10
388.0
 20
595.0
 30
0.0
 11
388.0
 21
600.0
 31
0.0
  0
LINE
  5
675
330
1E
100
AcDbEntity
  8
0
100
AcDbLine
 10
400.648
 20
600.0
 30
0.0
 11
405.0
 21
600.0
 31
0.0
  0
LINE
  5
676
330
1E
100
AcDbEntity
  8
0
100
AcDbLine
 10
397.3199999999999
 20
600.0
 30
0.0
 11
405.0
 21
600.0
 31
0.0
  0
LINE
  5
677
330
1E
100
AcDbEntity
  8
0
100
AcDbLine
 10
390.12
 20
600.0
 30
0.0
 11
397.3199999999999
 21
600.0
 31
0.0
  0
LINE
  5
678
330
1E
100
AcDbEntity
  8
0
100
AcDbLine
 10
409.3519999999999
 20
600.0
 30
0.0
 11
413.4319999999999
 21
600.0
 31
0.0
  0
LINE
  5
679
330
1E
100
AcDbEntity
  8
0
100
AcDbLine
 10
413.4319999999999
 20
600.0
 30
0.0
 11
417.036
 21
600.0
 31
0.0
  0
LINE
  5
67A
330
1E
100
AcDbEntity
  8
0
100
AcDbLine
 10
417.036
 20
600.0
 30
0.0
 11
419.756
 21
600.0
 31
0.0
  0
LINE
  5
67B
330
1E
100
AcDbEntity
  8
0
100
AcDbLine
 10
419.756
 20
600.0
 30
0.0
 11
421.388
 21
600.0
 31
0.0
  0
LINE
  5
67C
330
1E
100
AcDbEntity
  8
0
100
AcDbLine
 10
405.0
 20
600.0
 30
0.0
 11
412.68
 21
600.0
 31
0.0
  0
LINE
  5
67D
330
1E
100
AcDbEntity
  8
0
100
AcDbLine
 10
405.0
 20
600.0
 30
0.0
 11
409.3519999999999
 21
600.0
 31
0.0
  0
LINE
  5
67E
330
1E
100
AcDbEntity
  8
0
100
AcDbLine
 10
412.68
 20
600.0
 30
0.0
 11
419.88
 21
600.0
 31
0.0
  0
LINE
  5
67F
330
1E
100
AcDbEntity
  8
0
100
AcDbLine
 10
422.0
 20
595.0
 30
0.0
 11
422.0
 21
600.0
 31
0.0
  0
LINE
  5
680
330
1E
100
AcDbEntity
  8
0
100
AcDbLine
 10
421.388
 20
600.0
 30
0.0
 11
422.0
 21
600.0
 31
0.0
  0
LINE
  5
681
330
1E
100
AcDbEntity
  8
0
100
AcDbLine
 10
419.88
 20
600.0
 30
0.0
 11
426.24
 21
600.0
 31
0.0
  0
LINE
  5
682
330
1E
100
AcDbEntity
  8
0
100
AcDbLine
 10
422.0
 20
600.0
 30
0.0
 11
426.24
 21
600.0
 31
0.0
  0
LINE
  5
683
330
1E
100
AcDbEntity
  8
0
100
AcDbLine
 10
422.0
 20
600.0
 30
0.0
 11
422.0
 21
595.0
 31
0.0
  0
LINE
  5
684
330
1E
100
AcDbEntity
  8
0
100
AcDbLine
 10
426.24
 20
600.0
 30
0.0
 11
431.04
 21
600.0
 31
0.0
  0
LINE
  5
685
330
1E
100
AcDbEntity
  8
0
100
AcDbLine
 10
431.04
 20
600.0
 30
0.0
 11
433.9199999999999
 21
600.0
 31
0.0
  0
LINE
  5
686
330
1E
100
AcDbEntity
  8
0
100
AcDbLine
 10
436.538
 20
578.853
 30
0.0
 11
437.028
 21
578.853
 31
0.0
  0
LINE
  5
687
330
1E
100
AcDbEntity
  8
0
100
AcDbLine
 10
436.239
 20
578.853
 30
0.0
 11
436.538
 21
578.853
 31
0.0
  0
LINE
  5
688
330
1E
100
AcDbEntity
  8
0
100
AcDbLine
 10
436.1469999999999
 20
578.853
 30
0.0
 11
436.2419999999999
 21
578.853
 31
0.0
  0
LINE
  5
689
330
1E
100
AcDbEntity
  8
0
100
AcDbLine
 10
436.1469999999999
 20
578.853
 30
0.0
 11
436.239
 21
578.853
 31
0.0
  0
LINE
  5
68A
330
1E
100
AcDbEntity
  8
0
100
AcDbLine
 10
436.1469999999999
 20
578.853
 30
0.0
 11
436.1469999999999
 21
580.0
 31
0.0
  0
LINE
  5
68B
330
1E
100
AcDbEntity
  8
0
100
AcDbLine
 10
437.028
 20
578.853
 30
0.0
 11
437.649
 21
578.853
 31
0.0
  0
LINE
  5
68C
330
1E
100
AcDbEntity
  8
0
100
AcDbLine
 10
438.3630000000001
 20
578.853
 30
0.0
 11
439.133
 21
578.853
 31
0.0
  0
LINE
  5
68D
330
1E
100
AcDbEntity
  8
0
100
AcDbLine
 10
439.133
 20
578.853
 30
0.0
 11
439.903
 21
578.853
 31
0.0
  0
LINE
  5
68E
330
1E
100
AcDbEntity
  8
0
100
AcDbLine
 10
437.649
 20
578.853
 30
0.0
 11
438.3630000000001
 21
578.853
 31
0.0
  0
LINE
  5
68F
330
1E
100
AcDbEntity
  8
0
100
AcDbLine
 10
439.903
 20
578.853
 30
0.0
 11
440.6419999999999
 21
578.853
 31
0.0
  0
LINE
  5
690
330
1E
100
AcDbEntity
  8
0
100
AcDbLine
 10
439.1459999999999
 20
578.853
 30
0.0
 11
439.916
 21
578.853
 31
0.0
  0
LINE
  5
691
330
1E
100
AcDbEntity
  8
0
100
AcDbLine
 10
438.3759999999999
 20
578.853
 30
0.0
 11
439.1459999999999
 21
578.853
 31
0.0
  0
LINE
  5
692
330
1E
100
AcDbEntity
  8
0
100
AcDbLine
 10
437.638
 20
578.853
 30
0.0
 11
438.3759999999999
 21
578.853
 31
0.0
  0
LINE
  5
693
330
1E
100
AcDbEntity
  8
0
100
AcDbLine
 10
437.0099999999999
 20
578.853
 30
0.0
 11
437.638
 21
578.853
 31
0.0
  0
LINE
  5
694
330
1E
100
AcDbEntity
  8
0
100
AcDbLine
 10
436.545
 20
578.853
 30
0.0
 11
437.0099999999999
 21
578.853
 31
0.0
  0
LINE
  5
695
330
1E
100
AcDbEntity
  8
0
100
AcDbLine
 10
436.2419999999999
 20
578.853
 30
0.0
 11
436.545
 21
578.853
 31
0.0
  0
LINE
  5
696
330
1E
100
AcDbEntity
  8
0
100
AcDbLine
 10
440.6419999999999
 20
578.853
 30
0.0
 11
441.27
 21
578.853
 31
0.0
  0
LINE
  5
697
330
1E
100
AcDbEntity
  8
0
100
AcDbLine
 10
439.916
 20
578.853
 30
0.0
 11
440.6299999999999
 21
578.853
 31
0.0
  0
LINE
  5
698
330
1E
100
AcDbEntity
  8
0
100
AcDbLine
 10
440.6299999999999
 20
578.853
 30
0.0
 11
441.251
 21
578.853
 31
0.0
  0
LINE
  5
699
330
1E
100
AcDbEntity
  8
0
100
AcDbLine
 10
441.27
 20
578.853
 30
0.0
 11
441.734
 21
578.853
 31
0.0
  0
LINE
  5
69A
330
1E
100
AcDbEntity
  8
0
100
AcDbLine
 10
441.734
 20
578.853
 30
0.0
 11
442.037
 21
578.853
 31
0.0
  0
LINE
  5
69B
330
1E
100
AcDbEntity
  8
0
100
AcDbLine
 10
441.251
 20
578.853
 30
0.0
 11
441.741
 21
578.853
 31
0.0
  0
LINE
  5
69C
330
1E
100
AcDbEntity
  8
0
100
AcDbLine
 10
441.741
 20
578.853
 30
0.0
 11
442.0399999999999
 21
578.853
 31
0.0
  0
LINE
  5
69D
330
1E
100
AcDbEntity
  8
0
100
AcDbLine
 10
442.1319999999999
 20
578.853
 30
0.0
 11
442.1319999999999
 21
580.0
 31
0.0
  0
LINE
  5
69E
330
1E
100
AcDbEntity
  8
0
100
AcDbLine
 10
442.0399999999999
 20
578.853
 30
0.0
 11
442.1319999999999
 21
578.853
 31
0.0
  0
LINE
  5
69F
330
1E
100
AcDbEntity
  8
0
100
AcDbLine
 10
436.1469999999999
 20
580.0
 30
0.0
 11
436.1469999999999
 21
578.853
 31
0.0
  0
LINE
  5
6A0
330
1E
100
AcDbEntity
  8
0
100
AcDbLine
 10
442.1319999999999
 20
580.0
 30
0.0
 11
442.1319999999999
 21
578.853
 31
0.0
  0
LINE
  5
6A1
330
1E
100
AcDbEntity
  8
0
100
AcDbLine
 10
442.1319999999999
 20
580.0
 30
0.0
 11
477.868
 21
580.0
 31
0.0
  0
LINE
  5
6A2
330
1E
100
AcDbEntity
  8
0
100
AcDbLine
 10
442.037
 20
578.853
 30
0.0
 11
442.1319999999999
 21
578.853
 31
0.0
  0
LINE
  5
6A3
330
1E
100
AcDbEntity
  8
0
100
AcDbLine
 10
435.0
 20
580.0
 30
0.0
 11
435.0
 21
534.4999999999999
 31
0.0
  0
LINE
  5
6A4
330
1E
100
AcDbEntity
  8
0
100
AcDbLine
 10
435.0
 20
580.0
 30
0.0
 11
436.1469999999999
 21
580.0
 31
0.0
  0
LINE
  5
6A5
330
1E
100
AcDbEntity
  8
0
100
AcDbLine
 10
477.868
 20
580.0
 30
0.0
 11
477.868
 21
578.853
 31
0.0
  0
LINE
  5
6A6
330
1E
100
AcDbEntity
  8
0
100
AcDbLine
 10
477.963
 20
578.853
 30
0.0
 11
478.2659999999999
 21
578.853
 31
0.0
  0
LINE
  5
6A7
330
1E
100
AcDbEntity
  8
0
100
AcDbLine
 10
479.358
 20
578.853
 30
0.0
 11
480.0969999999999
 21
578.853
 31
0.0
  0
LINE
  5
6A8
330
1E
100
AcDbEntity
  8
0
100
AcDbLine
 10
478.73
 20
578.853
 30
0.0
 11
479.358
 21
578.853
 31
0.0
  0
LINE
  5
6A9
330
1E
100
AcDbEntity
  8
0
100
AcDbLine
 10
478.2659999999999
 20
578.853
 30
0.0
 11
478.73
 21
578.853
 31
0.0
  0
LINE
  5
6AA
330
1E
100
AcDbEntity
  8
0
100
AcDbLine
 10
480.8669999999999
 20
578.853
 30
0.0
 11
481.6369999999999
 21
578.853
 31
0.0
  0
LINE
  5
6AB
330
1E
100
AcDbEntity
  8
0
100
AcDbLine
 10
480.0969999999999
 20
578.853
 30
0.0
 11
480.8669999999999
 21
578.853
 31
0.0
  0
LINE
  5
6AC
330
1E
100
AcDbEntity
  8
0
100
AcDbLine
 10
480.0839999999999
 20
578.853
 30
0.0
 11
480.854
 21
578.853
 31
0.0
  0
LINE
  5
6AD
330
1E
100
AcDbEntity
  8
0
100
AcDbLine
 10
480.854
 20
578.853
 30
0.0
 11
481.624
 21
578.853
 31
0.0
  0
LINE
  5
6AE
330
1E
100
AcDbEntity
  8
0
100
AcDbLine
 10
481.6369999999999
 20
578.853
 30
0.0
 11
482.3509999999999
 21
578.853
 31
0.0
  0
LINE
  5
6AF
330
1E
100
AcDbEntity
  8
0
100
AcDbLine
 10
482.3509999999999
 20
578.853
 30
0.0
 11
482.972
 21
578.853
 31
0.0
  0
LINE
  5
6B0
330
1E
100
AcDbEntity
  8
0
100
AcDbLine
 10
482.972
 20
578.853
 30
0.0
 11
483.462
 21
578.853
 31
0.0
  0
LINE
  5
6B1
330
1E
100
AcDbEntity
  8
0
100
AcDbLine
 10
481.624
 20
578.853
 30
0.0
 11
482.362
 21
578.853
 31
0.0
  0
LINE
  5
6B2
330
1E
100
AcDbEntity
  8
0
100
AcDbLine
 10
482.362
 20
578.853
 30
0.0
 11
482.99
 21
578.853
 31
0.0
  0
LINE
  5
6B3
330
1E
100
AcDbEntity
  8
0
100
AcDbLine
 10
483.462
 20
578.853
 30
0.0
 11
483.7609999999999
 21
578.853
 31
0.0
  0
LINE
  5
6B4
330
1E
100
AcDbEntity
  8
0
100
AcDbLine
 10
483.853
 20
578.853
 30
0.0
 11
483.853
 21
580.0
 31
0.0
  0
LINE
  5
6B5
330
1E
100
AcDbEntity
  8
0
100
AcDbLine
 10
483.7609999999999
 20
578.853
 30
0.0
 11
483.853
 21
578.853
 31
0.0
  0
LINE
  5
6B6
330
1E
100
AcDbEntity
  8
0
100
AcDbLine
 10
483.758
 20
578.853
 30
0.0
 11
483.853
 21
578.853
 31
0.0
  0
LINE
  5
6B7
330
1E
100
AcDbEntity
  8
0
100
AcDbLine
 10
482.99
 20
578.853
 30
0.0
 11
483.455
 21
578.853
 31
0.0
  0
LINE
  5
6B8
330
1E
100
AcDbEntity
  8
0
100
AcDbLine
 10
483.455
 20
578.853
 30
0.0
 11
483.758
 21
578.853
 31
0.0
  0
LINE
  5
6B9
330
1E
100
AcDbEntity
  8
0
100
AcDbLine
 10
479.37
 20
578.853
 30
0.0
 11
480.0839999999999
 21
578.853
 31
0.0
  0
LINE
  5
6BA
330
1E
100
AcDbEntity
  8
0
100
AcDbLine
 10
478.749
 20
578.853
 30
0.0
 11
479.37
 21
578.853
 31
0.0
  0
LINE
  5
6BB
330
1E
100
AcDbEntity
  8
0
100
AcDbLine
 10
478.2589999999999
 20
578.853
 30
0.0
 11
478.749
 21
578.853
 31
0.0
  0
LINE
  5
6BC
330
1E
100
AcDbEntity
  8
0
100
AcDbLine
 10
483.853
 20
580.0
 30
0.0
 11
483.853
 21
578.853
 31
0.0
  0
LINE
  5
6BD
330
1E
100
AcDbEntity
  8
0
100
AcDbLine
 10
483.853
 20
580.0
 30
0.0
 11
485.0
 21
580.0
 31
0.0
  0
LINE
  5
6BE
330
1E
100
AcDbEntity
  8
0
100
AcDbLine
 10
477.96
 20
578.853
 30
0.0
 11
478.2589999999999
 21
578.853
 31
0.0
  0
LINE
  5
6BF
330
1E
100
AcDbEntity
  8
0
100
AcDbLine
 10
477.868
 20
578.853
 30
0.0
 11
477.963
 21
578.853
 31
0.0
  0
LINE
  5
6C0
330
1E
100
AcDbEntity
  8
0
100
AcDbLine
 10
477.868
 20
578.853
 30
0.0
 11
477.96
 21
578.853
 31
0.0
  0
LINE
  5
6C1
330
1E
100
AcDbEntity
  8
0
100
AcDbLine
 10
477.868
 20
578.853
 30
0.0
 11
477.868
 21
580.0
 31
0.0
  0
LINE
  5
6C2
330
1E
100
AcDbEntity
  8
0
100
AcDbLine
 10
435.0
 20
600.0
 30
0.0
 11
435.0
 21
602.0
 31
0.0
  0
LINE
  5
6C3
330
1E
100
AcDbEntity
  8
0
100
AcDbLine
 10
433.9199999999999
 20
600.0
 30
0.0
 11
435.0
 21
600.0
 31
0.0
  0
LINE
  5
6C4
330
1E
100
AcDbEntity
  8
0
100
AcDbLine
 10
383.76
 20
600.0
 30
0.0
 11
388.0
 21
600.0
 31
0.0
  0
LINE
  5
6C5
330
1E
100
AcDbEntity
  8
0
100
AcDbLine
 10
383.76
 20
600.0
 30
0.0
 11
390.12
 21
600.0
 31
0.0
  0
LINE
  5
6C6
330
1E
100
AcDbEntity
  8
0
100
AcDbLine
 10
378.96
 20
600.0
 30
0.0
 11
383.76
 21
600.0
 31
0.0
  0
LINE
  5
6C7
330
1E
100
AcDbEntity
  8
0
100
AcDbLine
 10
376.0799999999999
 20
600.0
 30
0.0
 11
378.96
 21
600.0
 31
0.0
  0
LINE
  5
6C8
330
1E
100
AcDbEntity
  8
0
100
AcDbLine
 10
375.0
 20
600.0
 30
0.0
 11
375.0
 21
602.0
 31
0.0
  0
LINE
  5
6C9
330
1E
100
AcDbEntity
  8
0
100
AcDbLine
 10
375.0
 20
600.0
 30
0.0
 11
376.0799999999999
 21
600.0
 31
0.0
  0
LINE
  5
6CA
330
1E
100
AcDbEntity
  8
0
100
AcDbLine
 10
483.768
 20
600.0
 30
0.0
 11
484.92
 21
600.0
 31
0.0
  0
LINE
  5
6CB
330
1E
100
AcDbEntity
  8
0
100
AcDbLine
 10
489.0
 20
600.0
 30
0.0
 11
489.9359999999999
 21
600.0
 31
0.0
  0
LINE
  5
6CC
330
1E
100
AcDbEntity
  8
0
100
AcDbLine
 10
489.0
 20
600.0
 30
0.0
 11
489.0
 21
595.0
 31
0.0
  0
LINE
  5
6CD
330
1E
100
AcDbEntity
  8
0
100
AcDbLine
 10
515.0
 20
600.0
 30
0.0
 11
521.6559999999999
 21
600.0
 31
0.0
  0
LINE
  5
6CE
330
1E
100
AcDbEntity
  8
0
100
AcDbLine
 10
521.6559999999999
 20
600.0
 30
0.0
 11
527.8959999999999
 21
600.0
 31
0.0
  0
LINE
  5
6CF
330
1E
100
AcDbEntity
  8
0
100
AcDbLine
 10
527.8959999999999
 20
600.0
 30
0.0
 11
533.408
 21
600.0
 31
0.0
  0
LINE
  5
6D0
330
1E
100
AcDbEntity
  8
0
100
AcDbLine
 10
533.408
 20
600.0
 30
0.0
 11
537.568
 21
600.0
 31
0.0
  0
LINE
  5
6D1
330
1E
100
AcDbEntity
  8
0
100
AcDbLine
 10
537.568
 20
600.0
 30
0.0
 11
540.064
 21
600.0
 31
0.0
  0
LINE
  5
6D2
330
1E
100
AcDbEntity
  8
0
100
AcDbLine
 10
541.0
 20
595.0
 30
0.0
 11
541.0
 21
600.0
 31
0.0
  0
LINE
  5
6D3
330
1E
100
AcDbEntity
  8
0
100
AcDbLine
 10
540.064
 20
600.0
 30
0.0
 11
541.0
 21
600.0
 31
0.0
  0
LINE
  5
6D4
330
1E
100
AcDbEntity
  8
0
100
AcDbLine
 10
508.344
 20
600.0
 30
0.0
 11
515.0
 21
600.0
 31
0.0
  0
LINE
  5
6D5
330
1E
100
AcDbEntity
  8
0
100
AcDbLine
 10
502.104
 20
600.0
 30
0.0
 11
508.344
 21
600.0
 31
0.0
  0
LINE
  5
6D6
330
1E
100
AcDbEntity
  8
0
100
AcDbLine
 10
496.5919999999999
 20
600.0
 30
0.0
 11
502.104
 21
600.0
 31
0.0
  0
LINE
  5
6D7
330
1E
100
AcDbEntity
  8
0
100
AcDbLine
 10
492.4319999999999
 20
600.0
 30
0.0
 11
496.5919999999999
 21
600.0
 31
0.0
  0
LINE
  5
6D8
330
1E
100
AcDbEntity
  8
0
100
AcDbLine
 10
489.9359999999999
 20
600.0
 30
0.0
 11
492.4319999999999
 21
600.0
 31
0.0
  0
LINE
  5
6D9
330
1E
100
AcDbEntity
  8
0
100
AcDbLine
 10
489.0
 20
595.0
 30
0.0
 11
489.0
 21
600.0
 31
0.0
  0
LINE
  5
6DA
330
1E
100
AcDbEntity
  8
0
100
AcDbLine
 10
485.0
 20
580.0
 30
0.0
 11
485.0
 21
534.4999999999999
 31
0.0
  0
LINE
  5
6DB
330
1E
100
AcDbEntity
  8
0
100
AcDbLine
 10
546.1469999999999
 20
580.0
 30
0.0
 11
546.1469999999999
 21
578.853
 31
0.0
  0
LINE
  5
6DC
330
1E
100
AcDbEntity
  8
0
100
AcDbLine
 10
546.1469999999999
 20
578.853
 30
0.0
 11
546.2419999999999
 21
578.853
 31
0.0
  0
LINE
  5
6DD
330
1E
100
AcDbEntity
  8
0
100
AcDbLine
 10
546.1469999999999
 20
578.853
 30
0.0
 11
546.239
 21
578.853
 31
0.0
  0
LINE
  5
6DE
330
1E
100
AcDbEntity
  8
0
100
AcDbLine
 10
546.1469999999999
 20
578.853
 30
0.0
 11
546.1469999999999
 21
580.0
 31
0.0
  0
LINE
  5
6DF
330
1E
100
AcDbEntity
  8
0
100
AcDbLine
 10
545.0
 20
580.0
 30
0.0
 11
545.0
 21
534.4999999999999
 31
0.0
  0
LINE
  5
6E0
330
1E
100
AcDbEntity
  8
0
100
AcDbLine
 10
545.0
 20
580.0
 30
0.0
 11
546.1469999999999
 21
580.0
 31
0.0
  0
LINE
  5
6E1
330
1E
100
AcDbEntity
  8
0
100
AcDbLine
 10
545.08
 20
600.0
 30
0.0
 11
546.232
 21
600.0
 31
0.0
  0
LINE
  5
6E2
330
1E
100
AcDbEntity
  8
0
100
AcDbLine
 10
542.008
 20
600.0
 30
0.0
 11
545.08
 21
600.0
 31
0.0
  0
LINE
  5
6E3
330
1E
100
AcDbEntity
  8
0
100
AcDbLine
 10
492.984
 20
600.0
 30
0.0
 11
499.5119999999999
 21
600.0
 31
0.0
  0
LINE
  5
6E4
330
1E
100
AcDbEntity
  8
0
100
AcDbLine
 10
546.538
 20
578.853
 30
0.0
 11
547.028
 21
578.853
 31
0.0
  0
LINE
  5
6E5
330
1E
100
AcDbEntity
  8
0
100
AcDbLine
 10
546.239
 20
578.853
 30
0.0
 11
546.538
 21
578.853
 31
0.0
  0
LINE
  5
6E6
330
1E
100
AcDbEntity
  8
0
100
AcDbLine
 10
547.028
 20
578.853
 30
0.0
 11
547.649
 21
578.853
 31
0.0
  0
LINE
  5
6E7
330
1E
100
AcDbEntity
  8
0
100
AcDbLine
 10
548.363
 20
578.853
 30
0.0
 11
549.133
 21
578.853
 31
0.0
  0
LINE
  5
6E8
330
1E
100
AcDbEntity
  8
0
100
AcDbLine
 10
549.133
 20
578.853
 30
0.0
 11
549.903
 21
578.853
 31
0.0
  0
LINE
  5
6E9
330
1E
100
AcDbEntity
  8
0
100
AcDbLine
 10
547.649
 20
578.853
 30
0.0
 11
548.363
 21
578.853
 31
0.0
  0
LINE
  5
6EA
330
1E
100
AcDbEntity
  8
0
100
AcDbLine
 10
549.903
 20
578.853
 30
0.0
 11
550.6419999999999
 21
578.853
 31
0.0
  0
LINE
  5
6EB
330
1E
100
AcDbEntity
  8
0
100
AcDbLine
 10
549.146
 20
578.853
 30
0.0
 11
549.9159999999999
 21
578.853
 31
0.0
  0
LINE
  5
6EC
330
1E
100
AcDbEntity
  8
0
100
AcDbLine
 10
548.376
 20
578.853
 30
0.0
 11
549.146
 21
578.853
 31
0.0
  0
LINE
  5
6ED
330
1E
100
AcDbEntity
  8
0
100
AcDbLine
 10
547.638
 20
578.853
 30
0.0
 11
548.376
 21
578.853
 31
0.0
  0
LINE
  5
6EE
330
1E
100
AcDbEntity
  8
0
100
AcDbLine
 10
547.01
 20
578.853
 30
0.0
 11
547.638
 21
578.853
 31
0.0
  0
LINE
  5
6EF
330
1E
100
AcDbEntity
  8
0
100
AcDbLine
 10
546.5449999999999
 20
578.853
 30
0.0
 11
547.01
 21
578.853
 31
0.0
  0
LINE
  5
6F0
330
1E
100
AcDbEntity
  8
0
100
AcDbLine
 10
546.2419999999999
 20
578.853
 30
0.0
 11
546.5449999999999
 21
578.853
 31
0.0
  0
LINE
  5
6F1
330
1E
100
AcDbEntity
  8
0
100
AcDbLine
 10
550.6419999999999
 20
578.853
 30
0.0
 11
551.2699999999999
 21
578.853
 31
0.0
  0
LINE
  5
6F2
330
1E
100
AcDbEntity
  8
0
100
AcDbLine
 10
549.9159999999999
 20
578.853
 30
0.0
 11
550.63
 21
578.853
 31
0.0
  0
LINE
  5
6F3
330
1E
100
AcDbEntity
  8
0
100
AcDbLine
 10
550.63
 20
578.853
 30
0.0
 11
551.2509999999999
 21
578.853
 31
0.0
  0
LINE
  5
6F4
330
1E
100
AcDbEntity
  8
0
100
AcDbLine
 10
551.2699999999999
 20
578.853
 30
0.0
 11
551.734
 21
578.853
 31
0.0
  0
LINE
  5
6F5
330
1E
100
AcDbEntity
  8
0
100
AcDbLine
 10
551.734
 20
578.853
 30
0.0
 11
552.0369999999998
 21
578.853
 31
0.0
  0
LINE
  5
6F6
330
1E
100
AcDbEntity
  8
0
100
AcDbLine
 10
551.2509999999999
 20
578.853
 30
0.0
 11
551.7409999999999
 21
578.853
 31
0.0
  0
LINE
  5
6F7
330
1E
100
AcDbEntity
  8
0
100
AcDbLine
 10
551.7409999999999
 20
578.853
 30
0.0
 11
552.0399999999999
 21
578.853
 31
0.0
  0
LINE
  5
6F8
330
1E
100
AcDbEntity
  8
0
100
AcDbLine
 10
552.1319999999999
 20
578.853
 30
0.0
 11
552.1319999999999
 21
580.0
 31
0.0
  0
LINE
  5
6F9
330
1E
100
AcDbEntity
  8
0
100
AcDbLine
 10
552.0399999999999
 20
578.853
 30
0.0
 11
552.1319999999999
 21
578.853
 31
0.0
  0
LINE
  5
6FA
330
1E
100
AcDbEntity
  8
0
100
AcDbLine
 10
582.0
 20
580.0
 30
0.0
 11
582.0
 21
325.0
 31
0.0
  0
LINE
  5
6FB
330
1E
100
AcDbEntity
  8
0
100
AcDbLine
 10
582.0
 20
580.0
 30
0.0
 11
608.0
 21
580.0
 31
0.0
  0
LINE
  5
6FC
330
1E
100
AcDbEntity
  8
0
100
AcDbLine
 10
582.0
 20
580.0
 30
0.0
 11
582.0
 21
400.0
 31
0.0
  0
LINE
  5
6FD
330
1E
100
AcDbEntity
  8
0
100
AcDbLine
 10
580.0
 20
580.0
 30
0.0
 11
580.0
 21
325.0
 31
0.0
  0
LINE
  5
6FE
330
1E
100
AcDbEntity
  8
0
100
AcDbLine
 10
580.0
 20
580.0
 30
0.0
 11
582.0
 21
580.0
 31
0.0
  0
LINE
  5
6FF
330
1E
100
AcDbEntity
  8
0
100
AcDbLine
 10
610.0
 20
580.0
 30
0.0
 11
610.0
 21
170.805369127517
 31
0.0
  0
LINE
  5
700
330
1E
100
AcDbEntity
  8
0
100
AcDbLine
 10
608.0
 20
580.0
 30
0.0
 11
610.0
 21
580.0
 31
0.0
  0
LINE
  5
701
330
1E
100
AcDbEntity
  8
0
100
AcDbLine
 10
608.0
 20
580.0
 30
0.0
 11
608.0
 21
325.0
 31
0.0
  0
LINE
  5
702
330
1E
100
AcDbEntity
  8
0
100
AcDbLine
 10
608.0
 20
580.0
 30
0.0
 11
608.0
 21
400.0
 31
0.0
  0
LINE
  5
703
330
1E
100
AcDbEntity
  8
0
100
AcDbLine
 10
628.0
 20
580.0
 30
0.0
 11
630.0
 21
580.0
 31
0.0
  0
LINE
  5
704
330
1E
100
AcDbEntity
  8
0
100
AcDbLine
 10
630.0
 20
595.0
 30
0.0
 11
630.0
 21
580.0
 31
0.0
  0
LINE
  5
705
330
1E
100
AcDbEntity
  8
0
100
AcDbLine
 10
630.0
 20
580.0
 30
0.0
 11
630.0
 21
595.0
 31
0.0
  0
LINE
  5
706
330
1E
100
AcDbEntity
  8
0
100
AcDbLine
 10
552.1319999999999
 20
580.0
 30
0.0
 11
552.1319999999999
 21
578.853
 31
0.0
  0
LINE
  5
707
330
1E
100
AcDbEntity
  8
0
100
AcDbLine
 10
552.1319999999999
 20
580.0
 30
0.0
 11
630.0
 21
580.0
 31
0.0
  0
LINE
  5
708
330
1E
100
AcDbEntity
  8
0
100
AcDbLine
 10
552.1319999999999
 20
580.0
 30
0.0
 11
628.0
 21
580.0
 31
0.0
  0
LINE
  5
709
330
1E
100
AcDbEntity
  8
0
100
AcDbLine
 10
552.0369999999998
 20
578.853
 30
0.0
 11
552.1319999999999
 21
578.853
 31
0.0
  0
LINE
  5
70A
330
1E
100
AcDbEntity
  8
0
100
AcDbLine
 10
546.232
 20
600.0
 30
0.0
 11
547.0
 21
600.1739999999999
 31
0.0
  0
LINE
  5
70B
330
1E
100
AcDbEntity
  8
0
100
AcDbLine
 10
541.0
 20
600.0
 30
0.0
 11
542.008
 21
600.0
 31
0.0
  0
LINE
  5
70C
330
1E
100
AcDbEntity
  8
0
100
AcDbLine
 10
541.0
 20
600.0
 30
0.0
 11
541.0
 21
595.0
 31
0.0
  0
LINE
  5
70D
330
1E
100
AcDbEntity
  8
0
100
AcDbLine
 10
484.92
 20
600.0
 30
0.0
 11
487.9919999999999
 21
600.0
 31
0.0
  0
LINE
  5
70E
330
1E
100
AcDbEntity
  8
0
100
AcDbLine
 10
487.9919999999999
 20
600.0
 30
0.0
 11
489.0
 21
600.0
 31
0.0
  0
LINE
  5
70F
330
1E
100
AcDbEntity
  8
0
100
AcDbLine
 10
326.232
 20
600.0
 30
0.0
 11
327.0
 21
600.1739999999999
 31
0.0
  0
LINE
  5
710
330
1E
100
AcDbEntity
  8
0
100
AcDbLine
 10
484.152
 20
600.1739999999999
 30
0.0
 11
487.2239999999999
 21
600.1739999999999
 31
0.0
  0
LINE
  5
711
330
1E
100
AcDbEntity
  8
0
100
AcDbLine
 10
487.2239999999999
 20
600.1739999999999
 30
0.0
 11
492.344
 21
600.1739999999999
 31
0.0
  0
LINE
  5
712
330
1E
100
AcDbEntity
  8
0
100
AcDbLine
 10
492.344
 20
600.1739999999999
 30
0.0
 11
499.128
 21
600.1739999999999
 31
0.0
  0
LINE
  5
713
330
1E
100
AcDbEntity
  8
0
100
AcDbLine
 10
499.128
 20
600.1739999999999
 30
0.0
 11
506.8080000000001
 21
600.1739999999999
 31
0.0
  0
LINE
  5
714
330
1E
100
AcDbEntity
  8
0
100
AcDbLine
 10
545.848
 20
600.1739999999999
 30
0.0
 11
547.0
 21
600.1739999999999
 31
0.0
  0
LINE
  5
715
330
1E
100
AcDbEntity
  8
0
100
AcDbLine
 10
542.7759999999999
 20
600.1739999999999
 30
0.0
 11
545.848
 21
600.1739999999999
 31
0.0
  0
LINE
  5
716
330
1E
100
AcDbEntity
  8
0
100
AcDbLine
 10
537.6559999999999
 20
600.1739999999999
 30
0.0
 11
542.7759999999999
 21
600.1739999999999
 31
0.0
  0
LINE
  5
717
330
1E
100
AcDbEntity
  8
0
100
AcDbLine
 10
530.872
 20
600.1739999999999
 30
0.0
 11
537.6559999999999
 21
600.1739999999999
 31
0.0
  0
LINE
  5
718
330
1E
100
AcDbEntity
  8
0
100
AcDbLine
 10
523.192
 20
600.1739999999999
 30
0.0
 11
530.872
 21
600.1739999999999
 31
0.0
  0
LINE
  5
719
330
1E
100
AcDbEntity
  8
0
100
AcDbLine
 10
515.0
 20
600.1739999999999
 30
0.0
 11
523.192
 21
600.1739999999999
 31
0.0
  0
LINE
  5
71A
330
1E
100
AcDbEntity
  8
0
100
AcDbLine
 10
506.8080000000001
 20
600.1739999999999
 30
0.0
 11
515.0
 21
600.1739999999999
 31
0.0
  0
LINE
  5
71B
330
1E
100
AcDbEntity
  8
0
100
AcDbLine
 10
547.0
 20
600.1739999999999
 30
0.0
 11
547.0
 21
602.826
 31
0.0
  0
LINE
  5
71C
330
1E
100
AcDbEntity
  8
0
100
AcDbLine
 10
483.0
 20
600.1739999999999
 30
0.0
 11
483.768
 21
600.0
 31
0.0
  0
LINE
  5
71D
330
1E
100
AcDbEntity
  8
0
100
AcDbLine
 10
483.0
 20
600.1739999999999
 30
0.0
 11
483.0
 21
602.826
 31
0.0
  0
LINE
  5
71E
330
1E
100
AcDbEntity
  8
0
100
AcDbLine
 10
483.0
 20
600.1739999999999
 30
0.0
 11
484.152
 21
600.1739999999999
 31
0.0
  0
LINE
  5
71F
330
1E
100
AcDbEntity
  8
0
100
AcDbLine
 10
325.848
 20
600.1739999999999
 30
0.0
 11
327.0
 21
600.1739999999999
 31
0.0
  0
LINE
  5
720
330
1E
100
AcDbEntity
  8
0
100
AcDbLine
 10
322.7759999999999
 20
600.1739999999999
 30
0.0
 11
325.848
 21
600.1739999999999
 31
0.0
  0
LINE
  5
721
330
1E
100
AcDbEntity
  8
0
100
AcDbLine
 10
322.0079999999999
 20
600.0
 30
0.0
 11
325.0799999999999
 21
600.0
 31
0.0
  0
LINE
  5
722
330
1E
100
AcDbEntity
  8
0
100
AcDbLine
 10
321.0
 20
600.0
 30
0.0
 11
322.0079999999999
 21
600.0
 31
0.0
  0
LINE
  5
723
330
1E
100
AcDbEntity
  8
0
100
AcDbLine
 10
321.0
 20
600.0
 30
0.0
 11
321.0
 21
595.0
 31
0.0
  0
LINE
  5
724
330
1E
100
AcDbEntity
  8
0
100
AcDbLine
 10
272.344
 20
602.826
 30
0.0
 11
279.1279999999999
 21
602.826
 31
0.0
  0
LINE
  5
725
330
1E
100
AcDbEntity
  8
0
100
AcDbLine
 10
279.1279999999999
 20
602.826
 30
0.0
 11
286.8079999999999
 21
602.826
 31
0.0
  0
LINE
  5
726
330
1E
100
AcDbEntity
  8
0
100
AcDbLine
 10
325.848
 20
602.826
 30
0.0
 11
327.0
 21
602.826
 31
0.0
  0
LINE
  5
727
330
1E
100
AcDbEntity
  8
0
100
AcDbLine
 10
392.0
 20
602.0
 30
0.0
 11
392.0
 21
607.0
 31
0.0
  0
LINE
  5
728
330
1E
100
AcDbEntity
  8
0
100
AcDbLine
 10
397.3199999999999
 20
602.0
 30
0.0
 11
405.0
 21
602.0
 31
0.0
  0
LINE
  5
729
330
1E
100
AcDbEntity
  8
0
100
AcDbLine
 10
390.12
 20
602.0
 30
0.0
 11
397.3199999999999
 21
602.0
 31
0.0
  0
LINE
  5
72A
330
1E
100
AcDbEntity
  8
0
100
AcDbLine
 10
383.76
 20
602.0
 30
0.0
 11
390.12
 21
602.0
 31
0.0
  0
LINE
  5
72B
330
1E
100
AcDbEntity
  8
0
100
AcDbLine
 10
378.96
 20
602.0
 30
0.0
 11
383.76
 21
602.0
 31
0.0
  0
LINE
  5
72C
330
1E
100
AcDbEntity
  8
0
100
AcDbLine
 10
376.0799999999999
 20
602.0
 30
0.0
 11
378.96
 21
602.0
 31
0.0
  0
LINE
  5
72D
330
1E
100
AcDbEntity
  8
0
100
AcDbLine
 10
375.0
 20
602.0
 30
0.0
 11
376.0799999999999
 21
602.0
 31
0.0
  0
LINE
  5
72E
330
1E
100
AcDbEntity
  8
0
100
AcDbLine
 10
375.0
 20
602.0
 30
0.0
 11
375.0
 21
600.0
 31
0.0
  0
LINE
  5
72F
330
1E
100
AcDbEntity
  8
0
100
AcDbLine
 10
405.0
 20
602.0
 30
0.0
 11
412.68
 21
602.0
 31
0.0
  0
LINE
  5
730
330
1E
100
AcDbEntity
  8
0
100
AcDbLine
 10
418.0
 20
602.0
 30
0.0
 11
418.0
 21
607.0
 31
0.0
  0
LINE
  5
731
330
1E
100
AcDbEntity
  8
0
100
AcDbLine
 10
412.68
 20
602.0
 30
0.0
 11
419.88
 21
602.0
 31
0.0
  0
LINE
  5
732
330
1E
100
AcDbEntity
  8
0
100
AcDbLine
 10
419.88
 20
602.0
 30
0.0
 11
426.24
 21
602.0
 31
0.0
  0
LINE
  5
733
330
1E
100
AcDbEntity
  8
0
100
AcDbLine
 10
426.24
 20
602.0
 30
0.0
 11
431.04
 21
602.0
 31
0.0
  0
LINE
  5
734
330
1E
100
AcDbEntity
  8
0
100
AcDbLine
 10
431.04
 20
602.0
 30
0.0
 11
433.9199999999999
 21
602.0
 31
0.0
  0
LINE
  5
735
330
1E
100
AcDbEntity
  8
0
100
AcDbLine
 10
433.9199999999999
 20
602.0
 30
0.0
 11
435.0
 21
602.0
 31
0.0
  0
LINE
  5
736
330
1E
100
AcDbEntity
  8
0
100
AcDbLine
 10
435.0
 20
602.0
 30
0.0
 11
435.0
 21
600.0
 31
0.0
  0
LINE
  5
737
330
1E
100
AcDbEntity
  8
0
100
AcDbLine
 10
484.152
 20
602.826
 30
0.0
 11
487.2239999999999
 21
602.826
 31
0.0
  0
LINE
  5
738
330
1E
100
AcDbEntity
  8
0
100
AcDbLine
 10
487.2239999999999
 20
602.826
 30
0.0
 11
492.344
 21
602.826
 31
0.0
  0
LINE
  5
739
330
1E
100
AcDbEntity
  8
0
100
AcDbLine
 10
492.344
 20
602.826
 30
0.0
 11
499.128
 21
602.826
 31
0.0
  0
LINE
  5
73A
330
1E
100
AcDbEntity
  8
0
100
AcDbLine
 10
499.128
 20
602.826
 30
0.0
 11
506.8080000000001
 21
602.826
 31
0.0
  0
LINE
  5
73B
330
1E
100
AcDbEntity
  8
0
100
AcDbLine
 10
545.848
 20
602.826
 30
0.0
 11
547.0
 21
602.826
 31
0.0
  0
LINE
  5
73C
330
1E
100
AcDbEntity
  8
0
100
AcDbLine
 10
547.0
 20
602.826
 30
0.0
 11
547.0
 21
600.1739999999999
 31
0.0
  0
LINE
  5
73D
330
1E
100
AcDbEntity
  8
0
100
AcDbLine
 10
542.7759999999999
 20
602.826
 30
0.0
 11
545.848
 21
602.826
 31
0.0
  0
LINE
  5
73E
330
1E
100
AcDbEntity
  8
0
100
AcDbLine
 10
537.6559999999999
 20
602.826
 30
0.0
 11
542.7759999999999
 21
602.826
 31
0.0
  0
LINE
  5
73F
330
1E
100
AcDbEntity
  8
0
100
AcDbLine
 10
530.872
 20
602.826
 30
0.0
 11
537.6559999999999
 21
602.826
 31
0.0
  0
LINE
  5
740
330
1E
100
AcDbEntity
  8
0
100
AcDbLine
 10
523.192
 20
602.826
 30
0.0
 11
530.872
 21
602.826
 31
0.0
  0
LINE
  5
741
330
1E
100
AcDbEntity
  8
0
100
AcDbLine
 10
515.0
 20
602.826
 30
0.0
 11
523.192
 21
602.826
 31
0.0
  0
LINE
  5
742
330
1E
100
AcDbEntity
  8
0
100
AcDbLine
 10
506.8080000000001
 20
602.826
 30
0.0
 11
515.0
 21
602.826
 31
0.0
  0
LINE
  5
743
330
1E
100
AcDbEntity
  8
0
100
AcDbLine
 10
483.0
 20
602.826
 30
0.0
 11
483.768
 21
603.0
 31
0.0
  0
LINE
  5
744
330
1E
100
AcDbEntity
  8
0
100
AcDbLine
 10
483.0
 20
602.826
 30
0.0
 11
483.0
 21
600.1739999999999
 31
0.0
  0
LINE
  5
745
330
1E
100
AcDbEntity
  8
0
100
AcDbLine
 10
483.0
 20
602.826
 30
0.0
 11
484.152
 21
602.826
 31
0.0
  0
LINE
  5
746
330
1E
100
AcDbEntity
  8
0
100
AcDbLine
 10
327.0
 20
602.826
 30
0.0
 11
327.0
 21
600.1739999999999
 31
0.0
  0
LINE
  5
747
330
1E
100
AcDbEntity
  8
0
100
AcDbLine
 10
322.7759999999999
 20
602.826
 30
0.0
 11
325.848
 21
602.826
 31
0.0
  0
LINE
  5
748
330
1E
100
AcDbEntity
  8
0
100
AcDbLine
 10
317.656
 20
602.826
 30
0.0
 11
322.7759999999999
 21
602.826
 31
0.0
  0
LINE
  5
749
330
1E
100
AcDbEntity
  8
0
100
AcDbLine
 10
310.872
 20
602.826
 30
0.0
 11
317.656
 21
602.826
 31
0.0
  0
LINE
  5
74A
330
1E
100
AcDbEntity
  8
0
100
AcDbLine
 10
303.1919999999999
 20
602.826
 30
0.0
 11
310.872
 21
602.826
 31
0.0
  0
LINE
  5
74B
330
1E
100
AcDbEntity
  8
0
100
AcDbLine
 10
483.768
 20
603.0
 30
0.0
 11
484.92
 21
603.0
 31
0.0
  0
LINE
  5
74C
330
1E
100
AcDbEntity
  8
0
100
AcDbLine
 10
515.0
 20
603.0
 30
0.0
 11
523.064
 21
603.0
 31
0.0
  0
LINE
  5
74D
330
1E
100
AcDbEntity
  8
0
100
AcDbLine
 10
484.92
 20
603.0
 30
0.0
 11
487.9919999999999
 21
603.0
 31
0.0
  0
LINE
  5
74E
330
1E
100
AcDbEntity
  8
0
100
AcDbLine
 10
487.9919999999999
 20
603.0
 30
0.0
 11
492.984
 21
603.0
 31
0.0
  0
LINE
  5
74F
330
1E
100
AcDbEntity
  8
0
100
AcDbLine
 10
546.232
 20
603.0
 30
0.0
 11
547.0
 21
602.826
 31
0.0
  0
LINE
  5
750
330
1E
100
AcDbEntity
  8
0
100
AcDbLine
 10
325.0799999999999
 20
603.0
 30
0.0
 11
326.232
 21
603.0
 31
0.0
  0
LINE
  5
751
330
1E
100
AcDbEntity
  8
0
100
AcDbLine
 10
322.0079999999999
 20
603.0
 30
0.0
 11
325.0799999999999
 21
603.0
 31
0.0
  0
LINE
  5
752
330
1E
100
AcDbEntity
  8
0
100
AcDbLine
 10
317.0159999999999
 20
603.0
 30
0.0
 11
322.0079999999999
 21
603.0
 31
0.0
  0
LINE
  5
753
330
1E
100
AcDbEntity
  8
0
100
AcDbLine
 10
272.984
 20
603.0
 30
0.0
 11
317.0159999999999
 21
603.0
 31
0.0
  0
LINE
  5
754
330
1E
100
AcDbEntity
  8
0
100
AcDbLine
 10
295.0
 20
602.826
 30
0.0
 11
303.1919999999999
 21
602.826
 31
0.0
  0
LINE
  5
755
330
1E
100
AcDbEntity
  8
0
100
AcDbLine
 10
286.8079999999999
 20
602.826
 30
0.0
 11
295.0
 21
602.826
 31
0.0
  0
LINE
  5
756
330
1E
100
AcDbEntity
  8
0
100
AcDbLine
 10
327.0
 20
600.1739999999999
 30
0.0
 11
327.0
 21
602.826
 31
0.0
  0
LINE
  5
757
330
1E
100
AcDbEntity
  8
0
100
AcDbLine
 10
267.992
 20
600.0
 30
0.0
 11
269.0
 21
600.0
 31
0.0
  0
LINE
  5
758
330
1E
100
AcDbEntity
  8
0
100
AcDbLine
 10
395.0
 20
607.0
 30
0.0
 11
395.0
 21
611.0
 31
0.0
  0
LINE
  5
759
330
1E
100
AcDbEntity
  8
0
100
AcDbLine
 10
401.6719999999999
 20
607.0
 30
0.0
 11
405.0
 21
607.0
 31
0.0
  0
LINE
  5
75A
330
1E
100
AcDbEntity
  8
0
100
AcDbLine
 10
398.5519999999999
 20
607.0
 30
0.0
 11
401.6719999999999
 21
607.0
 31
0.0
  0
LINE
  5
75B
330
1E
100
AcDbEntity
  8
0
100
AcDbLine
 10
395.7959999999999
 20
607.0
 30
0.0
 11
398.5519999999999
 21
607.0
 31
0.0
  0
LINE
  5
75C
330
1E
100
AcDbEntity
  8
0
100
AcDbLine
 10
393.716
 20
607.0
 30
0.0
 11
395.7959999999999
 21
607.0
 31
0.0
  0
LINE
  5
75D
330
1E
100
AcDbEntity
  8
0
100
AcDbLine
 10
392.468
 20
607.0
 30
0.0
 11
393.716
 21
607.0
 31
0.0
  0
LINE
  5
75E
330
1E
100
AcDbEntity
  8
0
100
AcDbLine
 10
392.0
 20
607.0
 30
0.0
 11
392.468
 21
607.0
 31
0.0
  0
LINE
  5
75F
330
1E
100
AcDbEntity
  8
0
100
AcDbLine
 10
392.0
 20
607.0
 30
0.0
 11
392.0
 21
602.0
 31
0.0
  0
LINE
  5
760
330
1E
100
AcDbEntity
  8
0
100
AcDbLine
 10
405.0
 20
607.0
 30
0.0
 11
408.328
 21
607.0
 31
0.0
  0
LINE
  5
761
330
1E
100
AcDbEntity
  8
0
100
AcDbLine
 10
408.328
 20
607.0
 30
0.0
 11
411.448
 21
607.0
 31
0.0
  0
LINE
  5
762
330
1E
100
AcDbEntity
  8
0
100
AcDbLine
 10
415.0
 20
607.0
 30
0.0
 11
415.0
 21
611.0
 31
0.0
  0
LINE
  5
763
330
1E
100
AcDbEntity
  8
0
100
AcDbLine
 10
411.448
 20
607.0
 30
0.0
 11
414.2039999999999
 21
607.0
 31
0.0
  0
LINE
  5
764
330
1E
100
AcDbEntity
  8
0
100
AcDbLine
 10
414.2039999999999
 20
607.0
 30
0.0
 11
416.284
 21
607.0
 31
0.0
  0
LINE
  5
765
330
1E
100
AcDbEntity
  8
0
100
AcDbLine
 10
416.284
 20
607.0
 30
0.0
 11
417.532
 21
607.0
 31
0.0
  0
LINE
  5
766
330
1E
100
AcDbEntity
  8
0
100
AcDbLine
 10
394.3959999999999
 20
611.0
 30
0.0
 11
395.0
 21
611.0
 31
0.0
  0
LINE
  5
767
330
1E
100
AcDbEntity
  8
0
100
AcDbLine
 10
394.3959999999999
 20
611.0
 30
0.0
 11
395.452
 21
611.0
 31
0.0
  0
LINE
  5
768
330
1E
100
AcDbEntity
  8
0
100
AcDbLine
 10
394.0
 20
611.0
 30
0.0
 11
394.0
 21
613.0
 31
0.0
  0
LINE
  5
769
330
1E
100
AcDbEntity
  8
0
100
AcDbLine
 10
394.0
 20
611.0
 30
0.0
 11
394.3959999999999
 21
611.0
 31
0.0
  0
LINE
  5
76A
330
1E
100
AcDbEntity
  8
0
100
AcDbLine
 10
397.2119999999999
 20
611.0
 30
0.0
 11
399.544
 21
611.0
 31
0.0
  0
LINE
  5
76B
330
1E
100
AcDbEntity
  8
0
100
AcDbLine
 10
395.452
 20
611.0
 30
0.0
 11
397.2119999999999
 21
611.0
 31
0.0
  0
LINE
  5
76C
330
1E
100
AcDbEntity
  8
0
100
AcDbLine
 10
402.184
 20
611.0
 30
0.0
 11
405.0
 21
611.0
 31
0.0
  0
LINE
  5
76D
330
1E
100
AcDbEntity
  8
0
100
AcDbLine
 10
399.544
 20
611.0
 30
0.0
 11
402.184
 21
611.0
 31
0.0
  0
LINE
  5
76E
330
1E
100
AcDbEntity
  8
0
100
AcDbLine
 10
402.4399999999999
 20
611.0
 30
0.0
 11
405.0
 21
611.0
 31
0.0
  0
LINE
  5
76F
330
1E
100
AcDbEntity
  8
0
100
AcDbLine
 10
400.0399999999999
 20
611.0
 30
0.0
 11
402.4399999999999
 21
611.0
 31
0.0
  0
LINE
  5
770
330
1E
100
AcDbEntity
  8
0
100
AcDbLine
 10
397.92
 20
611.0
 30
0.0
 11
400.0399999999999
 21
611.0
 31
0.0
  0
LINE
  5
771
330
1E
100
AcDbEntity
  8
0
100
AcDbLine
 10
396.32
 20
611.0
 30
0.0
 11
397.92
 21
611.0
 31
0.0
  0
LINE
  5
772
330
1E
100
AcDbEntity
  8
0
100
AcDbLine
 10
395.36
 20
611.0
 30
0.0
 11
396.32
 21
611.0
 31
0.0
  0
LINE
  5
773
330
1E
100
AcDbEntity
  8
0
100
AcDbLine
 10
395.0
 20
611.0
 30
0.0
 11
395.36
 21
611.0
 31
0.0
  0
LINE
  5
774
330
1E
100
AcDbEntity
  8
0
100
AcDbLine
 10
395.0
 20
611.0
 30
0.0
 11
395.0
 21
607.0
 31
0.0
  0
LINE
  5
775
330
1E
100
AcDbEntity
  8
0
100
AcDbLine
 10
407.8159999999999
 20
611.0
 30
0.0
 11
410.4559999999999
 21
611.0
 31
0.0
  0
LINE
  5
776
330
1E
100
AcDbEntity
  8
0
100
AcDbLine
 10
405.0
 20
611.0
 30
0.0
 11
407.5599999999999
 21
611.0
 31
0.0
  0
LINE
  5
777
330
1E
100
AcDbEntity
  8
0
100
AcDbLine
 10
405.0
 20
611.0
 30
0.0
 11
407.8159999999999
 21
611.0
 31
0.0
  0
LINE
  5
778
330
1E
100
AcDbEntity
  8
0
100
AcDbLine
 10
407.5599999999999
 20
611.0
 30
0.0
 11
409.9599999999999
 21
611.0
 31
0.0
  0
LINE
  5
779
330
1E
100
AcDbEntity
  8
0
100
AcDbLine
 10
410.4559999999999
 20
611.0
 30
0.0
 11
412.788
 21
611.0
 31
0.0
  0
LINE
  5
77A
330
1E
100
AcDbEntity
  8
0
100
AcDbLine
 10
412.788
 20
611.0
 30
0.0
 11
414.548
 21
611.0
 31
0.0
  0
LINE
  5
77B
330
1E
100
AcDbEntity
  8
0
100
AcDbLine
 10
409.9599999999999
 20
611.0
 30
0.0
 11
412.08
 21
611.0
 31
0.0
  0
LINE
  5
77C
330
1E
100
AcDbEntity
  8
0
100
AcDbLine
 10
412.08
 20
611.0
 30
0.0
 11
413.68
 21
611.0
 31
0.0
  0
LINE
  5
77D
330
1E
100
AcDbEntity
  8
0
100
AcDbLine
 10
414.548
 20
611.0
 30
0.0
 11
415.604
 21
611.0
 31
0.0
  0
LINE
  5
77E
330
1E
100
AcDbEntity
  8
0
100
AcDbLine
 10
413.68
 20
611.0
 30
0.0
 11
414.6399999999999
 21
611.0
 31
0.0
  0
LINE
  5
77F
330
1E
100
AcDbEntity
  8
0
100
AcDbLine
 10
395.0
 20
613.0
 30
0.0
 11
395.0
 21
615.0
 31
0.0
  0
LINE
  5
780
330
1E
100
AcDbEntity
  8
0
100
AcDbLine
 10
402.184
 20
613.0
 30
0.0
 11
405.0
 21
613.0
 31
0.0
  0
LINE
  5
781
330
1E
100
AcDbEntity
  8
0
100
AcDbLine
 10
399.544
 20
613.0
 30
0.0
 11
402.184
 21
613.0
 31
0.0
  0
LINE
  5
782
330
1E
100
AcDbEntity
  8
0
100
AcDbLine
 10
397.2119999999999
 20
613.0
 30
0.0
 11
399.544
 21
613.0
 31
0.0
  0
LINE
  5
783
330
1E
100
AcDbEntity
  8
0
100
AcDbLine
 10
395.452
 20
613.0
 30
0.0
 11
397.2119999999999
 21
613.0
 31
0.0
  0
LINE
  5
784
330
1E
100
AcDbEntity
  8
0
100
AcDbLine
 10
394.3959999999999
 20
613.0
 30
0.0
 11
395.452
 21
613.0
 31
0.0
  0
LINE
  5
785
330
1E
100
AcDbEntity
  8
0
100
AcDbLine
 10
394.0
 20
613.0
 30
0.0
 11
394.3959999999999
 21
613.0
 31
0.0
  0
LINE
  5
786
330
1E
100
AcDbEntity
  8
0
100
AcDbLine
 10
394.0
 20
613.0
 30
0.0
 11
394.0
 21
611.0
 31
0.0
  0
LINE
  5
787
330
1E
100
AcDbEntity
  8
0
100
AcDbLine
 10
405.0
 20
613.0
 30
0.0
 11
407.8159999999999
 21
613.0
 31
0.0
  0
LINE
  5
788
330
1E
100
AcDbEntity
  8
0
100
AcDbLine
 10
407.8159999999999
 20
613.0
 30
0.0
 11
410.4559999999999
 21
613.0
 31
0.0
  0
LINE
  5
789
330
1E
100
AcDbEntity
  8
0
100
AcDbLine
 10
410.4559999999999
 20
613.0
 30
0.0
 11
412.788
 21
613.0
 31
0.0
  0
LINE
  5
78A
330
1E
100
AcDbEntity
  8
0
100
AcDbLine
 10
394.0
 20
617.0
 30
0.0
 11
394.3959999999999
 21
617.0
 31
0.0
  0
LINE
  5
78B
330
1E
100
AcDbEntity
  8
0
100
AcDbLine
 10
394.0
 20
617.0
 30
0.0
 11
394.0
 21
615.0
 31
0.0
  0
LINE
  5
78C
330
1E
100
AcDbEntity
  8
0
100
AcDbLine
 10
396.32
 20
615.0
 30
0.0
 11
397.92
 21
615.0
 31
0.0
  0
LINE
  5
78D
330
1E
100
AcDbEntity
  8
0
100
AcDbLine
 10
395.36
 20
615.0
 30
0.0
 11
396.32
 21
615.0
 31
0.0
  0
LINE
  5
78E
330
1E
100
AcDbEntity
  8
0
100
AcDbLine
 10
395.0
 20
615.0
 30
0.0
 11
395.36
 21
615.0
 31
0.0
  0
LINE
  5
78F
330
1E
100
AcDbEntity
  8
0
100
AcDbLine
 10
395.0
 20
615.0
 30
0.0
 11
395.0
 21
613.0
 31
0.0
  0
LINE
  5
790
330
1E
100
AcDbEntity
  8
0
100
AcDbLine
 10
400.0399999999999
 20
615.0
 30
0.0
 11
402.4399999999999
 21
615.0
 31
0.0
  0
LINE
  5
791
330
1E
100
AcDbEntity
  8
0
100
AcDbLine
 10
397.92
 20
615.0
 30
0.0
 11
400.0399999999999
 21
615.0
 31
0.0
  0
LINE
  5
792
330
1E
100
AcDbEntity
  8
0
100
AcDbLine
 10
402.4399999999999
 20
615.0
 30
0.0
 11
405.0
 21
615.0
 31
0.0
  0
LINE
  5
793
330
1E
100
AcDbEntity
  8
0
100
AcDbLine
 10
402.184
 20
615.0
 30
0.0
 11
405.0
 21
615.0
 31
0.0
  0
LINE
  5
794
330
1E
100
AcDbEntity
  8
0
100
AcDbLine
 10
399.544
 20
615.0
 30
0.0
 11
402.184
 21
615.0
 31
0.0
  0
LINE
  5
795
330
1E
100
AcDbEntity
  8
0
100
AcDbLine
 10
397.2119999999999
 20
615.0
 30
0.0
 11
399.544
 21
615.0
 31
0.0
  0
LINE
  5
796
330
1E
100
AcDbEntity
  8
0
100
AcDbLine
 10
395.452
 20
615.0
 30
0.0
 11
397.2119999999999
 21
615.0
 31
0.0
  0
LINE
  5
797
330
1E
100
AcDbEntity
  8
0
100
AcDbLine
 10
407.5599999999999
 20
615.0
 30
0.0
 11
409.9599999999999
 21
615.0
 31
0.0
  0
LINE
  5
798
330
1E
100
AcDbEntity
  8
0
100
AcDbLine
 10
409.9599999999999
 20
615.0
 30
0.0
 11
412.08
 21
615.0
 31
0.0
  0
LINE
  5
799
330
1E
100
AcDbEntity
  8
0
100
AcDbLine
 10
405.0
 20
615.0
 30
0.0
 11
407.8159999999999
 21
615.0
 31
0.0
  0
LINE
  5
79A
330
1E
100
AcDbEntity
  8
0
100
AcDbLine
 10
405.0
 20
615.0
 30
0.0
 11
407.5599999999999
 21
615.0
 31
0.0
  0
LINE
  5
79B
330
1E
100
AcDbEntity
  8
0
100
AcDbLine
 10
407.8159999999999
 20
615.0
 30
0.0
 11
410.4559999999999
 21
615.0
 31
0.0
  0
LINE
  5
79C
330
1E
100
AcDbEntity
  8
0
100
AcDbLine
 10
412.08
 20
615.0
 30
0.0
 11
413.68
 21
615.0
 31
0.0
  0
LINE
  5
79D
330
1E
100
AcDbEntity
  8
0
100
AcDbLine
 10
413.68
 20
615.0
 30
0.0
 11
414.6399999999999
 21
615.0
 31
0.0
  0
LINE
  5
79E
330
1E
100
AcDbEntity
  8
0
100
AcDbLine
 10
410.4559999999999
 20
615.0
 30
0.0
 11
412.788
 21
615.0
 31
0.0
  0
LINE
  5
79F
330
1E
100
AcDbEntity
  8
0
100
AcDbLine
 10
412.788
 20
615.0
 30
0.0
 11
414.548
 21
615.0
 31
0.0
  0
LINE
  5
7A0
330
1E
100
AcDbEntity
  8
0
100
AcDbLine
 10
414.548
 20
615.0
 30
0.0
 11
415.604
 21
615.0
 31
0.0
  0
LINE
  5
7A1
330
1E
100
AcDbEntity
  8
0
100
AcDbLine
 10
400.0
 20
617.0
 30
0.0
 11
400.0
 21
627.0
 31
0.0
  0
LINE
  5
7A2
330
1E
100
AcDbEntity
  8
0
100
AcDbLine
 10
402.184
 20
617.0
 30
0.0
 11
405.0
 21
617.0
 31
0.0
  0
LINE
  5
7A3
330
1E
100
AcDbEntity
  8
0
100
AcDbLine
 10
399.544
 20
617.0
 30
0.0
 11
402.184
 21
617.0
 31
0.0
  0
LINE
  5
7A4
330
1E
100
AcDbEntity
  8
0
100
AcDbLine
 10
397.2119999999999
 20
617.0
 30
0.0
 11
399.544
 21
617.0
 31
0.0
  0
LINE
  5
7A5
330
1E
100
AcDbEntity
  8
0
100
AcDbLine
 10
395.452
 20
617.0
 30
0.0
 11
397.2119999999999
 21
617.0
 31
0.0
  0
LINE
  5
7A6
330
1E
100
AcDbEntity
  8
0
100
AcDbLine
 10
394.3959999999999
 20
617.0
 30
0.0
 11
395.452
 21
617.0
 31
0.0
  0
LINE
  5
7A7
330
1E
100
AcDbEntity
  8
0
100
AcDbLine
 10
410.0
 20
617.0
 30
0.0
 11
410.0
 21
627.0
 31
0.0
  0
LINE
  5
7A8
330
1E
100
AcDbEntity
  8
0
100
AcDbLine
 10
405.0
 20
617.0
 30
0.0
 11
407.8159999999999
 21
617.0
 31
0.0
  0
LINE
  5
7A9
330
1E
100
AcDbEntity
  8
0
100
AcDbLine
 10
407.8159999999999
 20
617.0
 30
0.0
 11
410.4559999999999
 21
617.0
 31
0.0
  0
LINE
  5
7AA
330
1E
100
AcDbEntity
  8
0
100
AcDbLine
 10
410.4559999999999
 20
617.0
 30
0.0
 11
412.788
 21
617.0
 31
0.0
  0
LINE
  5
7AB
330
1E
100
AcDbEntity
  8
0
100
AcDbLine
 10
402.0
 20
627.0
 30
0.0
 11
402.0
 21
630.0
 31
0.0
  0
LINE
  5
7AC
330
1E
100
AcDbEntity
  8
0
100
AcDbLine
 10
403.72
 20
627.0
 30
0.0
 11
405.0
 21
627.0
 31
0.0
  0
LINE
  5
7AD
330
1E
100
AcDbEntity
  8
0
100
AcDbLine
 10
402.5199999999999
 20
627.0
 30
0.0
 11
403.72
 21
627.0
 31
0.0
  0
LINE
  5
7AE
330
1E
100
AcDbEntity
  8
0
100
AcDbLine
 10
401.4599999999999
 20
627.0
 30
0.0
 11
402.5199999999999
 21
627.0
 31
0.0
  0
LINE
  5
7AF
330
1E
100
AcDbEntity
  8
0
100
AcDbLine
 10
400.66
 20
627.0
 30
0.0
 11
401.4599999999999
 21
627.0
 31
0.0
  0
LINE
  5
7B0
330
1E
100
AcDbEntity
  8
0
100
AcDbLine
 10
400.18
 20
627.0
 30
0.0
 11
400.66
 21
627.0
 31
0.0
  0
LINE
  5
7B1
330
1E
100
AcDbEntity
  8
0
100
AcDbLine
 10
400.0
 20
627.0
 30
0.0
 11
400.18
 21
627.0
 31
0.0
  0
LINE
  5
7B2
330
1E
100
AcDbEntity
  8
0
100
AcDbLine
 10
400.0
 20
627.0
 30
0.0
 11
400.0
 21
617.0
 31
0.0
  0
LINE
  5
7B3
330
1E
100
AcDbEntity
  8
0
100
AcDbLine
 10
405.0
 20
627.0
 30
0.0
 11
406.28
 21
627.0
 31
0.0
  0
LINE
  5
7B4
330
1E
100
AcDbEntity
  8
0
100
AcDbLine
 10
406.28
 20
627.0
 30
0.0
 11
407.48
 21
627.0
 31
0.0
  0
LINE
  5
7B5
330
1E
100
AcDbEntity
  8
0
100
AcDbLine
 10
408.0
 20
627.0
 30
0.0
 11
408.0
 21
630.0
 31
0.0
  0
LINE
  5
7B6
330
1E
100
AcDbEntity
  8
0
100
AcDbLine
 10
407.48
 20
627.0
 30
0.0
 11
408.5399999999999
 21
627.0
 31
0.0
  0
LINE
  5
7B7
330
1E
100
AcDbEntity
  8
0
100
AcDbLine
 10
408.5399999999999
 20
627.0
 30
0.0
 11
409.3399999999999
 21
627.0
 31
0.0
  0
LINE
  5
7B8
330
1E
100
AcDbEntity
  8
0
100
AcDbLine
 10
409.3399999999999
 20
627.0
 30
0.0
 11
409.82
 21
627.0
 31
0.0
  0
LINE
  5
7B9
330
1E
100
AcDbEntity
  8
0
100
AcDbLine
 10
400.0
 20
632.0
 30
0.0
 11
400.18
 21
632.0
 31
0.0
  0
LINE
  5
7BA
330
1E
100
AcDbEntity
  8
0
100
AcDbLine
 10
400.0
 20
632.0
 30
0.0
 11
400.0
 21
630.0
 31
0.0
  0
LINE
  5
7BB
330
1E
100
AcDbEntity
  8
0
100
AcDbLine
 10
403.5119999999999
 20
630.0
 30
0.0
 11
404.232
 21
630.0
 31
0.0
  0
LINE
  5
7BC
330
1E
100
AcDbEntity
  8
0
100
AcDbLine
 10
402.876
 20
630.0
 30
0.0
 11
403.5119999999999
 21
630.0
 31
0.0
  0
LINE
  5
7BD
330
1E
100
AcDbEntity
  8
0
100
AcDbLine
 10
402.3959999999999
 20
630.0
 30
0.0
 11
402.876
 21
630.0
 31
0.0
  0
LINE
  5
7BE
330
1E
100
AcDbEntity
  8
0
100
AcDbLine
 10
402.108
 20
630.0
 30
0.0
 11
402.3959999999999
 21
630.0
 31
0.0
  0
LINE
  5
7BF
330
1E
100
AcDbEntity
  8
0
100
AcDbLine
 10
402.0
 20
630.0
 30
0.0
 11
402.108
 21
630.0
 31
0.0
  0
LINE
  5
7C0
330
1E
100
AcDbEntity
  8
0
100
AcDbLine
 10
402.0
 20
630.0
 30
0.0
 11
402.0
 21
627.0
 31
0.0
  0
LINE
  5
7C1
330
1E
100
AcDbEntity
  8
0
100
AcDbLine
 10
404.232
 20
630.0
 30
0.0
 11
405.0
 21
630.0
 31
0.0
  0
LINE
  5
7C2
330
1E
100
AcDbEntity
  8
0
100
AcDbLine
 10
403.72
 20
630.0
 30
0.0
 11
405.0
 21
630.0
 31
0.0
  0
LINE
  5
7C3
330
1E
100
AcDbEntity
  8
0
100
AcDbLine
 10
402.5199999999999
 20
630.0
 30
0.0
 11
403.72
 21
630.0
 31
0.0
  0
LINE
  5
7C4
330
1E
100
AcDbEntity
  8
0
100
AcDbLine
 10
405.768
 20
630.0
 30
0.0
 11
406.488
 21
630.0
 31
0.0
  0
LINE
  5
7C5
330
1E
100
AcDbEntity
  8
0
100
AcDbLine
 10
406.488
 20
630.0
 30
0.0
 11
407.124
 21
630.0
 31
0.0
  0
LINE
  5
7C6
330
1E
100
AcDbEntity
  8
0
100
AcDbLine
 10
407.124
 20
630.0
 30
0.0
 11
407.604
 21
630.0
 31
0.0
  0
LINE
  5
7C7
330
1E
100
AcDbEntity
  8
0
100
AcDbLine
 10
405.0
 20
630.0
 30
0.0
 11
406.28
 21
630.0
 31
0.0
  0
LINE
  5
7C8
330
1E
100
AcDbEntity
  8
0
100
AcDbLine
 10
405.0
 20
630.0
 30
0.0
 11
405.768
 21
630.0
 31
0.0
  0
LINE
  5
7C9
330
1E
100
AcDbEntity
  8
0
100
AcDbLine
 10
406.28
 20
630.0
 30
0.0
 11
407.48
 21
630.0
 31
0.0
  0
LINE
  5
7CA
330
1E
100
AcDbEntity
  8
0
100
AcDbLine
 10
407.604
 20
630.0
 30
0.0
 11
407.892
 21
630.0
 31
0.0
  0
LINE
  5
7CB
330
1E
100
AcDbEntity
  8
0
100
AcDbLine
 10
407.892
 20
630.0
 30
0.0
 11
408.0
 21
630.0
 31
0.0
  0
LINE
  5
7CC
330
1E
100
AcDbEntity
  8
0
100
AcDbLine
 10
407.48
 20
630.0
 30
0.0
 11
408.5399999999999
 21
630.0
 31
0.0
  0
LINE
  5
7CD
330
1E
100
AcDbEntity
  8
0
100
AcDbLine
 10
408.0
 20
630.0
 30
0.0
 11
408.5399999999999
 21
630.0
 31
0.0
  0
LINE
  5
7CE
330
1E
100
AcDbEntity
  8
0
100
AcDbLine
 10
408.0
 20
630.0
 30
0.0
 11
408.0
 21
627.0
 31
0.0
  0
LINE
  5
7CF
330
1E
100
AcDbEntity
  8
0
100
AcDbLine
 10
408.5399999999999
 20
630.0
 30
0.0
 11
409.3399999999999
 21
630.0
 31
0.0
  0
LINE
  5
7D0
330
1E
100
AcDbEntity
  8
0
100
AcDbLine
 10
409.3399999999999
 20
630.0
 30
0.0
 11
409.82
 21
630.0
 31
0.0
  0
LINE
  5
7D1
330
1E
100
AcDbEntity
  8
0
100
AcDbLine
 10
410.0
 20
630.0
 30
0.0
 11
410.0
 21
632.0
 31
0.0
  0
LINE
  5
7D2
330
1E
100
AcDbEntity
  8
0
100
AcDbLine
 10
409.82
 20
630.0
 30
0.0
 11
410.0
 21
630.0
 31
0.0
  0
LINE
  5
7D3
330
1E
100
AcDbEntity
  8
0
100
AcDbLine
 10
401.4599999999999
 20
630.0
 30
0.0
 11
402.0
 21
630.0
 31
0.0
  0
LINE
  5
7D4
330
1E
100
AcDbEntity
  8
0
100
AcDbLine
 10
401.4599999999999
 20
630.0
 30
0.0
 11
402.5199999999999
 21
630.0
 31
0.0
  0
LINE
  5
7D5
330
1E
100
AcDbEntity
  8
0
100
AcDbLine
 10
400.66
 20
630.0
 30
0.0
 11
401.4599999999999
 21
630.0
 31
0.0
  0
LINE
  5
7D6
330
1E
100
AcDbEntity
  8
0
100
AcDbLine
 10
403.72
 20
632.0
 30
0.0
 11
405.0
 21
632.0
 31
0.0
  0
LINE
  5
7D7
330
1E
100
AcDbEntity
  8
0
100
AcDbLine
 10
402.5199999999999
 20
632.0
 30
0.0
 11
403.72
 21
632.0
 31
0.0
  0
LINE
  5
7D8
330
1E
100
AcDbEntity
  8
0
100
AcDbLine
 10
401.4599999999999
 20
632.0
 30
0.0
 11
402.5199999999999
 21
632.0
 31
0.0
  0
LINE
  5
7D9
330
1E
100
AcDbEntity
  8
0
100
AcDbLine
 10
400.66
 20
632.0
 30
0.0
 11
401.4599999999999
 21
632.0
 31
0.0
  0
LINE
  5
7DA
330
1E
100
AcDbEntity
  8
0
100
AcDbLine
 10
400.18
 20
632.0
 30
0.0
 11
400.66
 21
632.0
 31
0.0
  0
LINE
  5
7DB
330
1E
100
AcDbEntity
  8
0
100
AcDbLine
 10
405.0
 20
632.0
 30
0.0
 11
406.28
 21
632.0
 31
0.0
  0
LINE
  5
7DC
330
1E
100
AcDbEntity
  8
0
100
AcDbLine
 10
406.28
 20
632.0
 30
0.0
 11
407.48
 21
632.0
 31
0.0
  0
LINE
  5
7DD
330
1E
100
AcDbEntity
  8
0
100
AcDbLine
 10
407.48
 20
632.0
 30
0.0
 11
408.5399999999999
 21
632.0
 31
0.0
  0
LINE
  5
7DE
330
1E
100
AcDbEntity
  8
0
100
AcDbLine
 10
408.5399999999999
 20
632.0
 30
0.0
 11
409.3399999999999
 21
632.0
 31
0.0
  0
LINE
  5
7DF
330
1E
100
AcDbEntity
  8
0
100
AcDbLine
 10
409.3399999999999
 20
632.0
 30
0.0
 11
409.82
 21
632.0
 31
0.0
  0
LINE
  5
7E0
330
1E
100
AcDbEntity
  8
0
100
AcDbLine
 10
409.82
 20
632.0
 30
0.0
 11
410.0
 21
632.0
 31
0.0
  0
LINE
  5
7E1
330
1E
100
AcDbEntity
  8
0
100
AcDbLine
 10
410.0
 20
632.0
 30
0.0
 11
410.0
 21
630.0
 31
0.0
  0
LINE
  5
7E2
330
1E
100
AcDbEntity
  8
0
100
AcDbLine
 10
400.18
 20
630.0
 30
0.0
 11
400.66
 21
630.0
 31
0.0
  0
LINE
  5
7E3
330
1E
100
AcDbEntity
  8
0
100
AcDbLine
 10
400.0
 20
630.0
 30
0.0
 11
400.0
 21
632.0
 31
0.0
  0
LINE
  5
7E4
330
1E
100
AcDbEntity
  8
0
100
AcDbLine
 10
400.0
 20
630.0
 30
0.0
 11
400.18
 21
630.0
 31
0.0
  0
LINE
  5
7E5
330
1E
100
AcDbEntity
  8
0
100
AcDbLine
 10
409.82
 20
627.0
 30
0.0
 11
410.0
 21
627.0
 31
0.0
  0
LINE
  5
7E6
330
1E
100
AcDbEntity
  8
0
100
AcDbLine
 10
410.0
 20
627.0
 30
0.0
 11
410.0
 21
617.0
 31
0.0
  0
LINE
  5
7E7
330
1E
100
AcDbEntity
  8
0
100
AcDbLine
 10
412.788
 20
617.0
 30
0.0
 11
414.548
 21
617.0
 31
0.0
  0
LINE
  5
7E8
330
1E
100
AcDbEntity
  8
0
100
AcDbLine
 10
414.548
 20
617.0
 30
0.0
 11
415.604
 21
617.0
 31
0.0
  0
LINE
  5
7E9
330
1E
100
AcDbEntity
  8
0
100
AcDbLine
 10
394.3959999999999
 20
615.0
 30
0.0
 11
395.0
 21
615.0
 31
0.0
  0
LINE
  5
7EA
330
1E
100
AcDbEntity
  8
0
100
AcDbLine
 10
394.3959999999999
 20
615.0
 30
0.0
 11
395.452
 21
615.0
 31
0.0
  0
LINE
  5
7EB
330
1E
100
AcDbEntity
  8
0
100
AcDbLine
 10
394.0
 20
615.0
 30
0.0
 11
394.0
 21
617.0
 31
0.0
  0
LINE
  5
7EC
330
1E
100
AcDbEntity
  8
0
100
AcDbLine
 10
394.0
 20
615.0
 30
0.0
 11
394.3959999999999
 21
615.0
 31
0.0
  0
LINE
  5
7ED
330
1E
100
AcDbEntity
  8
0
100
AcDbLine
 10
412.788
 20
613.0
 30
0.0
 11
414.548
 21
613.0
 31
0.0
  0
LINE
  5
7EE
330
1E
100
AcDbEntity
  8
0
100
AcDbLine
 10
415.0
 20
613.0
 30
0.0
 11
415.0
 21
615.0
 31
0.0
  0
LINE
  5
7EF
330
1E
100
AcDbEntity
  8
0
100
AcDbLine
 10
414.6399999999999
 20
615.0
 30
0.0
 11
415.0
 21
615.0
 31
0.0
  0
LINE
  5
7F0
330
1E
100
AcDbEntity
  8
0
100
AcDbLine
 10
415.0
 20
615.0
 30
0.0
 11
415.604
 21
615.0
 31
0.0
  0
LINE
  5
7F1
330
1E
100
AcDbEntity
  8
0
100
AcDbLine
 10
415.0
 20
615.0
 30
0.0
 11
415.0
 21
613.0
 31
0.0
  0
LINE
  5
7F2
330
1E
100
AcDbEntity
  8
0
100
AcDbLine
 10
414.548
 20
613.0
 30
0.0
 11
415.604
 21
613.0
 31
0.0
  0
LINE
  5
7F3
330
1E
100
AcDbEntity
  8
0
100
AcDbLine
 10
414.6399999999999
 20
611.0
 30
0.0
 11
415.0
 21
611.0
 31
0.0
  0
LINE
  5
7F4
330
1E
100
AcDbEntity
  8
0
100
AcDbLine
 10
416.0
 20
611.0
 30
0.0
 11
416.0
 21
613.0
 31
0.0
  0
LINE
  5
7F5
330
1E
100
AcDbEntity
  8
0
100
AcDbLine
 10
415.604
 20
617.0
 30
0.0
 11
416.0
 21
617.0
 31
0.0
  0
LINE
  5
7F6
330
1E
100
AcDbEntity
  8
0
100
AcDbLine
 10
416.0
 20
615.0
 30
0.0
 11
416.0
 21
617.0
 31
0.0
  0
LINE
  5
7F7
330
1E
100
AcDbEntity
  8
0
100
AcDbLine
 10
416.0
 20
617.0
 30
0.0
 11
416.0
 21
615.0
 31
0.0
  0
LINE
  5
7F8
330
1E
100
AcDbEntity
  8
0
100
AcDbLine
 10
415.604
 20
615.0
 30
0.0
 11
416.0
 21
615.0
 31
0.0
  0
LINE
  5
7F9
330
1E
100
AcDbEntity
  8
0
100
AcDbLine
 10
415.604
 20
613.0
 30
0.0
 11
416.0
 21
613.0
 31
0.0
  0
LINE
  5
7FA
330
1E
100
AcDbEntity
  8
0
100
AcDbLine
 10
416.0
 20
613.0
 30
0.0
 11
416.0
 21
611.0
 31
0.0
  0
LINE
  5
7FB
330
1E
100
AcDbEntity
  8
0
100
AcDbLine
 10
415.604
 20
611.0
 30
0.0
 11
416.0
 21
611.0
 31
0.0
  0
LINE
  5
7FC
330
1E
100
AcDbEntity
  8
0
100
AcDbLine
 10
415.0
 20
611.0
 30
0.0
 11
415.0
 21
607.0
 31
0.0
  0
LINE
  5
7FD
330
1E
100
AcDbEntity
  8
0
100
AcDbLine
 10
415.0
 20
611.0
 30
0.0
 11
415.604
 21
611.0
 31
0.0
  0
LINE
  5
7FE
330
1E
100
AcDbEntity
  8
0
100
AcDbLine
 10
417.532
 20
607.0
 30
0.0
 11
418.0
 21
607.0
 31
0.0
  0
LINE
  5
7FF
330
1E
100
AcDbEntity
  8
0
100
AcDbLine
 10
418.0
 20
607.0
 30
0.0
 11
418.0
 21
602.0
 31
0.0
  0
LINE
  5
800
330
1E
100
AcDbEntity
  8
0
100
AcDbLine
 10
326.232
 20
603.0
 30
0.0
 11
327.0
 21
602.826
 31
0.0
  0
LINE
  5
801
330
1E
100
AcDbEntity
  8
0
100
AcDbLine
 10
263.0
 20
602.826
 30
0.0
 11
263.7679999999999
 21
603.0
 31
0.0
  0
LINE
  5
802
330
1E
100
AcDbEntity
  8
0
100
AcDbLine
 10
263.0
 20
602.826
 30
0.0
 11
263.0
 21
600.1739999999999
 31
0.0
  0
LINE
  5
803
330
1E
100
AcDbEntity
  8
0
100
AcDbLine
 10
263.0
 20
602.826
 30
0.0
 11
264.1519999999999
 21
602.826
 31
0.0
  0
LINE
  5
804
330
1E
100
AcDbEntity
  8
0
100
AcDbLine
 10
545.0
 20
550.0
 30
0.0
 11
551.0
 21
550.0
 31
0.0
  0
LINE
  5
805
330
1E
100
AcDbEntity
  8
0
100
AcDbLine
 10
149.0
 20
550.0
 30
0.0
 11
155.0
 21
550.0
 31
0.0
  0
LINE
  5
806
330
1E
100
AcDbEntity
  8
0
100
AcDbLine
 10
149.0
 20
550.0
 30
0.0
 11
149.0
 21
250.0
 31
0.0
  0
LINE
  5
807
330
1E
100
AcDbEntity
  8
0
100
AcDbLine
 10
149.0
 20
450.0
 30
0.0
 11
149.0
 21
250.0
 31
0.0
  0
LINE
  5
808
330
1E
100
AcDbEntity
  8
0
100
AcDbLine
 10
149.0
 20
450.0
 30
0.0
 11
551.0
 21
450.0
 31
0.0
  0
LINE
  5
809
330
1E
100
AcDbEntity
  8
0
100
AcDbLine
 10
700.0
 20
50.0
 30
0.0
 11
700.0
 21
0.0000000000000088
 31
0.0
  0
LINE
  5
80A
330
1E
100
AcDbEntity
  8
0
100
AcDbLine
 10
700.0
 20
0.0000000000000059
 30
0.0
 11
700.0
 21
50.0
 31
0.0
  0
LINE
  5
80B
330
1E
100
AcDbEntity
  8
0
100
AcDbLine
 10
0.0000000000000003
 20
0.0000000000000059
 30
0.0
 11
700.0
 21
0.0000000000000059
 31
0.0
  0
LINE
  5
80C
330
1E
100
AcDbEntity
  8
0
100
AcDbLine
 10
0.0000000000000003
 20
0.0000000000000059
 30
0.0
 11
0.0000000000000003
 21
50.0
 31
0.0
  0
LINE
  5
811
330
1E
100
AcDbEntity
  8
0
100
AcDbLine
 10
149.0
 20
250.0
 30
0.0
 11
551.0
 21
250.0
 31
0.0
  0
LINE
  5
812
330
1E
100
AcDbEntity
  8
0
100
AcDbLine
 10
0.0000000000000003
 20
50.0
 30
0.0
 11
700.0
 21
50.0
 31
0.0
  0
ENDSEC
  0
SECTION
  2
OBJECTS
  0
DICTIONARY
  5
C
330
0
100
AcDbDictionary
281
     1
  3
ACAD_GROUP
350
D
  3
ACAD_LAYOUT
350
19
  3
ACAD_MLINESTYLE
350
16
  3
ACAD_PLOTSETTINGS
350
18
  3
ACAD_PLOTSTYLENAME
350
E
  3
AcDbVariableDictionary
350
813
  0
DICTIONARY
  5
D
102
{ACAD_REACTORS
330
C
102
}
330
C
100
AcDbDictionary
281
     1
  0
DICTIONARY
  5
19
102
{ACAD_REACTORS
330
C
102
}
330
C
100
AcDbDictionary
281
     1
  3
Layout1
350
1D
  3
Model
350
21
  0
DICTIONARY
  5
16
102
{ACAD_REACTORS
330
C
102
}
330
C
100
AcDbDictionary
281
     1
  3
Standard
350
17
  0
DICTIONARY
  5
18
102
{ACAD_REACTORS
330
C
102
}
330
C
100
AcDbDictionary
281
     1
  0
ACDBDICTIONARYWDFLT
  5
E
102
{ACAD_REACTORS
330
C
102
}
330
C
100
AcDbDictionary
281
     1
  3
Normal
350
F
100
AcDbDictionaryWithDefault
340
F
  0
DICTIONARY
  5
813
102
{ACAD_REACTORS
330
C
102
}
330
C
100
AcDbDictionary
281
     1
  3
DIMASSOC
350
814
  0
LAYOUT
  5
1D
102
{ACAD_REACTORS
330
19
102
}
330
19
100
AcDbPlotSettings
  1

  2
hp deskjet 980c series
  4

  6

 40
0.0
 41
0.0
 42
0.0
 43
0.0
 44
0.0
 45
0.0
 46
0.0
 47
0.0
 48
0.0
 49
0.0
140
0.0
141
0.0
142
1.0
143
1.0
 70
   688
 72
     0
 73
     0
 74
     5
  7

 75
    16
147
1.0
148
0.0
149
0.0
100
AcDbLayout
  1
Layout1
 70
     1
 71
     1
 10
0.0
 20
0.0
 11
12.0
 21
9.0
 12
0.0
 22
0.0
 32
0.0
 14
1.000000000000000E+20
 24
1.000000000000000E+20
 34
1.000000000000000E+20
 15
-1.000000000000000E+20
 25
-1.000000000000000E+20
 35
-1.000000000000000E+20
146
0.0
 13
0.0
 23
0.0
 33
0.0
 16
1.0
 26
0.0
 36
0.0
 17
0.0
 27
1.0
 37
0.0
 76
     0
330
1A
  0
LAYOUT
  5
21
102
{ACAD_REACTORS
330
19
102
}
330
19
100
AcDbPlotSettings
  1

  2
hp deskjet 980c series
  4

  6

 40
0.0
 41
0.0
 42
0.0
 43
0.0
 44
0.0
 45
0.0
 46
0.0
 47
0.0
 48
0.0
 49
0.0
140
0.0
141
0.0
142
1.0
143
1.0
 70
  1712
 72
     0
 73
     0
 74
     0
  7

 75
     0
147
1.0
148
0.0
149
0.0
100
AcDbLayout
  1
Model
 70
     1
 71
     0
 10
0.0
 20
0.0
 11
12.0
 21
9.0
 12
0.0
 22
0.0
 32
0.0
 14
0.0
 24
0.0
 34
0.0
 15
0.0
 25
0.0
 35
0.0
146
0.0
 13
0.0
 23
0.0
 33
0.0
 16
1.0
 26
0.0
 36
0.0
 17
0.0
 27
1.0
 37
0.0
 76
     0
330
1E
  0
MLINESTYLE
  5
17
102
{ACAD_REACTORS
330
16
102
}
330
16
100
AcDbMlineStyle
  2
STANDARD
 70
     0
  3

 62
   256
 51
90.0
 52
90.0
 71
     2
 49
0.5
 62
   256
  6
BYLAYER
 49
-0.5
 62
   256
  6
BYLAYER
  0
ACDBPLACEHOLDER
  5
F
102
{ACAD_REACTORS
330
E
102
}
330
E
  0
DICTIONARYVAR
  5
814
102
{ACAD_REACTORS
330
813
102
}
330
813
100
DictionaryVariables
280
     0
  1
1
  0
ENDSEC
  0
EOF
