  0
SECTION
  2
HEADER
  9
$ACADVER
  1
AC1015
  9
$ACADMAINTVER
 70
    13
  9
$DWGCODEPAGE
  3
ANSI_1252
  9
$INSBASE
 10
0.0
 20
0.0
 30
0.0
  9
$EXTMIN
 10
-0.0000000000000026
 20
-0.0000000000000078
 30
0.0
  9
$EXTMAX
 10
250.0
 20
75.0
 30
0.0
  9
$LIMMIN
 10
0.0
 20
0.0
  9
$LIMMAX
 10
12.0
 20
9.0
  9
$ORTHOMODE
 70
     0
  9
$REGENMODE
 70
     1
  9
$FILLMODE
 70
     1
  9
$QTEXTMODE
 70
     0
  9
$MIRRTEXT
 70
     1
  9
$LTSCALE
 40
1.0
  9
$ATTMODE
 70
     1
  9
$TEXTSIZE
 40
0.2
  9
$TRACEWID
 40
0.05
  9
$TEXTSTYLE
  7
Standard
  9
$CLAYER
  8
0
  9
$CELTYPE
  6
Continuous
  9
$CECOLOR
 62
   256
  9
$CELTSCALE
 40
1.0
  9
$DISPSILH
 70
     0
  9
$DIMSCALE
 40
1.0
  9
$DIMASZ
 40
0.18
  9
$DIMEXO
 40
0.0625
  9
$DIMDLI
 40
0.38
  9
$DIMRND
 40
0.0
  9
$DIMDLE
 40
0.0
  9
$DIMEXE
 40
0.18
  9
$DIMTP
 40
0.0
  9
$DIMTM
 40
0.0
  9
$DIMTXT
 40
0.18
  9
$DIMCEN
 40
0.09
  9
$DIMTSZ
 40
0.0
  9
$DIMTOL
 70
     0
  9
$DIMLIM
 70
     0
  9
$DIMTIH
 70
     1
  9
$DIMTOH
 70
     1
  9
$DIMSE1
 70
     0
  9
$DIMSE2
 70
     0
  9
$DIMTAD
 70
     0
  9
$DIMZIN
 70
     0
  9
$DIMBLK
  1

  9
$DIMASO
 70
     1
  9
$DIMSHO
 70
     1
  9
$DIMPOST
  1

  9
$DIMAPOST
  1

  9
$DIMALT
 70
     0
  9
$DIMALTD
 70
     2
  9
$DIMALTF
 40
25.4
  9
$DIMLFAC
 40
1.0
  9
$DIMTOFL
 70
     0
  9
$DIMTVP
 40
0.0
  9
$DIMTIX
 70
     0
  9
$DIMSOXD
 70
     0
  9
$DIMSAH
 70
     0
  9
$DIMBLK1
  1

  9
$DIMBLK2
  1

  9
$DIMSTYLE
  2
Standard
  9
$DIMCLRD
 70
     0
  9
$DIMCLRE
 70
     0
  9
$DIMCLRT
 70
     0
  9
$DIMTFAC
 40
1.0
  9
$DIMGAP
 40
0.09
  9
$DIMJUST
 70
     0
  9
$DIMSD1
 70
     0
  9
$DIMSD2
 70
     0
  9
$DIMTOLJ
 70
     1
  9
$DIMTZIN
 70
     0
  9
$DIMALTZ
 70
     0
  9
$DIMALTTZ
 70
     0
  9
$DIMUPT
 70
     0
  9
$DIMDEC
 70
     4
  9
$DIMTDEC
 70
     4
  9
$DIMALTU
 70
     2
  9
$DIMALTTD
 70
     2
  9
$DIMTXSTY
  7
Standard
  9
$DIMAUNIT
 70
     0
  9
$DIMADEC
 70
     0
  9
$DIMALTRND
 40
0.0
  9
$DIMAZIN
 70
     0
  9
$DIMDSEP
 70
    46
  9
$DIMATFIT
 70
     3
  9
$DIMFRAC
 70
     0
  9
$DIMLDRBLK
  1

  9
$DIMLUNIT
 70
     2
  9
$DIMLWD
 70
    -2
  9
$DIMLWE
 70
    -2
  9
$DIMTMOVE
 70
     0
  9
$LUNITS
 70
     2
  9
$LUPREC
 70
     4
  9
$SKETCHINC
 40
0.1
  9
$FILLETRAD
 40
0.0
  9
$AUNITS
 70
     0
  9
$AUPREC
 70
     0
  9
$MENU
  1
.
  9
$ELEVATION
 40
0.0
  9
$PELEVATION
 40
0.0
  9
$THICKNESS
 40
0.0
  9
$LIMCHECK
 70
     0
  9
$CHAMFERA
 40
0.0
  9
$CHAMFERB
 40
0.0
  9
$CHAMFERC
 40
0.0
  9
$CHAMFERD
 40
0.0
  9
$SKPOLY
 70
     0
  9
$TDCREATE
 40
2454779.618060070
  9
$TDUCREATE
 40
2454779.576393402
  9
$TDUPDATE
 40
2454779.619661990
  9
$TDUUPDATE
 40
2454779.577995324
  9
$TDINDWG
 40
0.0016019213
  9
$TDUSRTIMER
 40
0.0016019213
  9
$USRTIMER
 70
     1
  9
$ANGBASE
 50
0.0
  9
$ANGDIR
 70
     0
  9
$PDMODE
 70
     0
  9
$PDSIZE
 40
0.0
  9
$PLINEWID
 40
0.0
  9
$SPLFRAME
 70
     0
  9
$SPLINETYPE
 70
     6
  9
$SPLINESEGS
 70
     8
  9
$HANDSEED
  5
6C6
  9
$SURFTAB1
 70
     6
  9
$SURFTAB2
 70
     6
  9
$SURFTYPE
 70
     6
  9
$SURFU
 70
     6
  9
$SURFV
 70
     6
  9
$UCSBASE
  2

  9
$UCSNAME
  2

  9
$UCSORG
 10
0.0
 20
0.0
 30
0.0
  9
$UCSXDIR
 10
1.0
 20
0.0
 30
0.0
  9
$UCSYDIR
 10
0.0
 20
1.0
 30
0.0
  9
$UCSORTHOREF
  2

  9
$UCSORTHOVIEW
 70
     1
  9
$UCSORGTOP
 10
0.0
 20
0.0
 30
0.0
  9
$UCSORGBOTTOM
 10
0.0
 20
0.0
 30
0.0
  9
$UCSORGLEFT
 10
0.0
 20
0.0
 30
0.0
  9
$UCSORGRIGHT
 10
0.0
 20
0.0
 30
0.0
  9
$UCSORGFRONT
 10
0.0
 20
0.0
 30
0.0
  9
$UCSORGBACK
 10
0.0
 20
0.0
 30
0.0
  9
$PUCSBASE
  2

  9
$PUCSNAME
  2

  9
$PUCSORG
 10
0.0
 20
0.0
 30
0.0
  9
$PUCSXDIR
 10
1.0
 20
0.0
 30
0.0
  9
$PUCSYDIR
 10
0.0
 20
1.0
 30
0.0
  9
$PUCSORTHOREF
  2

  9
$PUCSORTHOVIEW
 70
     0
  9
$PUCSORGTOP
 10
0.0
 20
0.0
 30
0.0
  9
$PUCSORGBOTTOM
 10
0.0
 20
0.0
 30
0.0
  9
$PUCSORGLEFT
 10
0.0
 20
0.0
 30
0.0
  9
$PUCSORGRIGHT
 10
0.0
 20
0.0
 30
0.0
  9
$PUCSORGFRONT
 10
0.0
 20
0.0
 30
0.0
  9
$PUCSORGBACK
 10
0.0
 20
0.0
 30
0.0
  9
$USERI1
 70
     0
  9
$USERI2
 70
     0
  9
$USERI3
 70
     0
  9
$USERI4
 70
     0
  9
$USERI5
 70
     0
  9
$USERR1
 40
0.0
  9
$USERR2
 40
0.0
  9
$USERR3
 40
0.0
  9
$USERR4
 40
0.0
  9
$USERR5
 40
0.0
  9
$WORLDVIEW
 70
     1
  9
$SHADEDGE
 70
     3
  9
$SHADEDIF
 70
    70
  9
$TILEMODE
 70
     1
  9
$MAXACTVP
 70
    64
  9
$PINSBASE
 10
0.0
 20
0.0
 30
0.0
  9
$PLIMCHECK
 70
     0
  9
$PEXTMIN
 10
1.000000000000000E+20
 20
1.000000000000000E+20
 30
1.000000000000000E+20
  9
$PEXTMAX
 10
-1.000000000000000E+20
 20
-1.000000000000000E+20
 30
-1.000000000000000E+20
  9
$PLIMMIN
 10
0.0
 20
0.0
  9
$PLIMMAX
 10
12.0
 20
9.0
  9
$UNITMODE
 70
     0
  9
$VISRETAIN
 70
     1
  9
$PLINEGEN
 70
     0
  9
$PSLTSCALE
 70
     1
  9
$TREEDEPTH
 70
  3020
  9
$CMLSTYLE
  2
Standard
  9
$CMLJUST
 70
     0
  9
$CMLSCALE
 40
1.0
  9
$PROXYGRAPHICS
 70
     1
  9
$MEASUREMENT
 70
     0
  9
$CELWEIGHT
370
    -1
  9
$ENDCAPS
280
     0
  9
$JOINSTYLE
280
     0
  9
$LWDISPLAY
290
     0
  9
$INSUNITS
 70
     0
  9
$HYPERLINKBASE
  1

  9
$STYLESHEET
  1

  9
$XEDIT
290
     1
  9
$CEPSNTYPE
380
     0
  9
$PSTYLEMODE
290
     1
  9
$FINGERPRINTGUID
  2
{E80399C6-E938-426A-9D09-8947C325CE42}
  9
$VERSIONGUID
  2
{6EFCAA96-05C2-4792-B8F8-6C8DC3A0EDAE}
  9
$EXTNAMES
290
     1
  9
$PSVPSCALE
 40
0.0
  9
$OLESTARTUP
290
     0
  0
ENDSEC
  0
SECTION
  2
CLASSES
  0
CLASS
  1
ACDBDICTIONARYWDFLT
  2
AcDbDictionaryWithDefault
  3
AutoCAD 2000
 90
        0
280
     0
281
     0
  0
CLASS
  1
ACDBPLACEHOLDER
  2
AcDbPlaceHolder
  3
AutoCAD 2000
 90
        0
280
     0
281
     0
  0
CLASS
  1
LAYOUT
  2
AcDbLayout
  3
AutoCAD 2000
 90
        0
280
     0
281
     0
  0
CLASS
  1
DICTIONARYVAR
  2
AcDbDictionaryVar
  3
AutoCAD 2000
 90
        0
280
     0
281
     0
  0
ENDSEC
  0
SECTION
  2
TABLES
  0
TABLE
  2
VPORT
  5
8
330
0
100
AcDbSymbolTable
 70
     2
  0
VPORT
  5
6C5
330
8
100
AcDbSymbolTableRecord
100
AcDbViewportTableRecord
  2
*Active
 70
     0
 10
0.0
 20
0.0
 11
1.0
 21
1.0
 12
125.0
 22
37.5
 13
0.0
 23
0.0
 14
1.0
 24
1.0
 15
0.0
 25
0.0
 16
0.0
 26
0.0
 36
1.0
 17
0.0
 27
0.0
 37
0.0
 40
120.7463752280184
 41
2.078104993597951
 42
50.0
 43
0.0
 44
0.0
 50
0.0
 51
0.0
 71
     0
 72
   100
 73
     1
 74
     3
 75
     0
 76
     0
 77
     0
 78
     0
281
     0
 65
     1
110
0.0
120
0.0
130
0.0
111
1.0
121
0.0
131
0.0
112
0.0
122
1.0
132
0.0
 79
     1
146
0.0
  0
ENDTAB
  0
TABLE
  2
LTYPE
  5
5
330
0
100
AcDbSymbolTable
 70
     1
  0
LTYPE
  5
13
330
5
100
AcDbSymbolTableRecord
100
AcDbLinetypeTableRecord
  2
ByBlock
 70
     0
  3

 72
    65
 73
     0
 40
0.0
  0
LTYPE
  5
14
330
5
100
AcDbSymbolTableRecord
100
AcDbLinetypeTableRecord
  2
ByLayer
 70
     0
  3

 72
    65
 73
     0
 40
0.0
  0
LTYPE
  5
15
330
5
100
AcDbSymbolTableRecord
100
AcDbLinetypeTableRecord
  2
Continuous
 70
     0
  3
Solid line
 72
    65
 73
     0
 40
0.0
  0
ENDTAB
  0
TABLE
  2
LAYER
  5
2
330
0
100
AcDbSymbolTable
 70
     1
  0
LAYER
  5
10
330
2
100
AcDbSymbolTableRecord
100
AcDbLayerTableRecord
  2
0
 70
     0
 62
     7
  6
Continuous
370
    -3
390
F
  0
ENDTAB
  0
TABLE
  2
STYLE
  5
3
330
0
100
AcDbSymbolTable
 70
     1
  0
STYLE
  5
11
330
3
100
AcDbSymbolTableRecord
100
AcDbTextStyleTableRecord
  2
Standard
 70
     0
 40
0.0
 41
1.0
 50
0.0
 71
     0
 42
0.2
  3
txt
  4

  0
ENDTAB
  0
TABLE
  2
VIEW
  5
6
330
0
100
AcDbSymbolTable
 70
     0
  0
ENDTAB
  0
TABLE
  2
UCS
  5
7
330
0
100
AcDbSymbolTable
 70
     0
  0
ENDTAB
  0
TABLE
  2
APPID
  5
9
330
0
100
AcDbSymbolTable
 70
     1
  0
APPID
  5
12
330
9
100
AcDbSymbolTableRecord
100
AcDbRegAppTableRecord
  2
ACAD
 70
     0
  0
ENDTAB
  0
TABLE
  2
DIMSTYLE
  5
A
330
0
100
AcDbSymbolTable
 70
     1
100
AcDbDimStyleTable
 71
     0
  0
DIMSTYLE
105
508
330
A
100
AcDbSymbolTableRecord
100
AcDbDimStyleTableRecord
  2
Standard
 70
     0
340
11
  0
ENDTAB
  0
TABLE
  2
BLOCK_RECORD
  5
1
330
0
100
AcDbSymbolTable
 70
     0
  0
BLOCK_RECORD
  5
1E
330
1
100
AcDbSymbolTableRecord
100
AcDbBlockTableRecord
  2
*Model_Space
340
21
  0
BLOCK_RECORD
  5
1A
330
1
100
AcDbSymbolTableRecord
100
AcDbBlockTableRecord
  2
*Paper_Space
340
1D
  0
ENDTAB
  0
ENDSEC
  0
SECTION
  2
BLOCKS
  0
BLOCK
  5
1F
330
1E
100
AcDbEntity
  8
0
100
AcDbBlockBegin
  2
*Model_Space
 70
     0
 10
0.0
 20
0.0
 30
0.0
  3
*Model_Space
  1

  0
ENDBLK
  5
20
330
1E
100
AcDbEntity
  8
0
100
AcDbBlockEnd
  0
BLOCK
  5
1B
330
1A
100
AcDbEntity
 67
     1
  8
0
100
AcDbBlockBegin
  2
*Paper_Space
 70
     0
 10
0.0
 20
0.0
 30
0.0
  3
*Paper_Space
  1

  0
ENDBLK
  5
1C
330
1A
100
AcDbEntity
 67
     1
  8
0
100
AcDbBlockEnd
  0
ENDSEC
  0
SECTION
  2
ENTITIES
  0
LINE
  5
22
330
1E
100
AcDbEntity
  8
0
100
AcDbLine
 10
13.288
 20
33.0
 30
0.0
 11
13.72
 21
33.0
 31
0.0
  0
LINE
  5
23
330
1E
100
AcDbEntity
  8
0
100
AcDbLine
 10
13.0
 20
33.3
 30
0.0
 11
13.0
 21
35.0
 31
0.0
  0
LINE
  5
24
330
1E
100
AcDbEntity
  8
0
100
AcDbLine
 10
13.0
 20
33.3
 30
0.0
 11
13.432
 21
33.3
 31
0.0
  0
LINE
  5
25
330
1E
100
AcDbEntity
  8
0
100
AcDbLine
 10
13.0
 20
33.3
 30
0.0
 11
13.288
 21
33.0
 31
0.0
  0
LINE
  5
26
330
1E
100
AcDbEntity
  8
0
100
AcDbLine
 10
15.36
 20
31.0
 30
0.0
 11
16.0
 21
31.0
 31
0.0
  0
LINE
  5
27
330
1E
100
AcDbEntity
  8
0
100
AcDbLine
 10
15.36
 20
31.0
 30
0.0
 11
16.32
 21
31.0
 31
0.0
  0
LINE
  5
28
330
1E
100
AcDbEntity
  8
0
100
AcDbLine
 10
15.36
 20
33.0
 30
0.0
 11
16.32
 21
33.0
 31
0.0
  0
LINE
  5
29
330
1E
100
AcDbEntity
  8
0
100
AcDbLine
 10
15.0
 20
33.0
 30
0.0
 11
15.0
 21
31.0
 31
0.0
  0
LINE
  5
2A
330
1E
100
AcDbEntity
  8
0
100
AcDbLine
 10
15.0
 20
33.0
 30
0.0
 11
15.36
 21
33.0
 31
0.0
  0
LINE
  5
2B
330
1E
100
AcDbEntity
  8
0
100
AcDbLine
 10
15.0
 20
31.0
 30
0.0
 11
15.36
 21
31.0
 31
0.0
  0
LINE
  5
2C
330
1E
100
AcDbEntity
  8
0
100
AcDbLine
 10
15.0
 20
31.0
 30
0.0
 11
15.0
 21
33.0
 31
0.0
  0
LINE
  5
2D
330
1E
100
AcDbEntity
  8
0
100
AcDbLine
 10
13.72
 20
33.0
 30
0.0
 11
14.872
 21
33.0
 31
0.0
  0
LINE
  5
2E
330
1E
100
AcDbEntity
  8
0
100
AcDbLine
 10
14.872
 20
33.0
 30
0.0
 11
16.744
 21
33.0
 31
0.0
  0
LINE
  5
2F
330
1E
100
AcDbEntity
  8
0
100
AcDbLine
 10
14.872
 20
33.0
 30
0.0
 11
15.0
 21
33.0
 31
0.0
  0
LINE
  5
30
330
1E
100
AcDbEntity
  8
0
100
AcDbLine
 10
13.432
 20
33.3
 30
0.0
 11
14.584
 21
33.3
 31
0.0
  0
LINE
  5
31
330
1E
100
AcDbEntity
  8
0
100
AcDbLine
 10
13.0
 20
35.0
 30
0.0
 11
13.432
 21
35.0
 31
0.0
  0
LINE
  5
32
330
1E
100
AcDbEntity
  8
0
100
AcDbLine
 10
13.0
 20
35.0
 30
0.0
 11
13.0
 21
33.3
 31
0.0
  0
LINE
  5
33
330
1E
100
AcDbEntity
  8
0
100
AcDbLine
 10
13.432
 20
35.0
 30
0.0
 11
14.584
 21
35.0
 31
0.0
  0
LINE
  5
34
330
1E
100
AcDbEntity
  8
0
100
AcDbLine
 10
14.584
 20
35.0
 30
0.0
 11
16.504
 21
35.0
 31
0.0
  0
LINE
  5
35
330
1E
100
AcDbEntity
  8
0
100
AcDbLine
 10
14.584
 20
33.3
 30
0.0
 11
16.504
 21
33.3
 31
0.0
  0
LINE
  5
36
330
1E
100
AcDbEntity
  8
0
100
AcDbLine
 10
16.0
 20
28.5714
 30
0.0
 11
16.0
 21
26.4286
 31
0.0
  0
LINE
  5
37
330
1E
100
AcDbEntity
  8
0
100
AcDbLine
 10
16.0
 20
28.5714
 30
0.0
 11
16.0
 21
28.78569999999999
 31
0.0
  0
LINE
  5
38
330
1E
100
AcDbEntity
  8
0
100
AcDbLine
 10
16.0
 20
26.2143
 30
0.0
 11
16.0
 21
26.0214
 31
0.0
  0
LINE
  5
39
330
1E
100
AcDbEntity
  8
0
100
AcDbLine
 10
16.0
 20
26.2143
 30
0.0
 11
16.0
 21
26.4286
 31
0.0
  0
LINE
  5
3A
330
1E
100
AcDbEntity
  8
0
100
AcDbLine
 10
16.0
 20
26.4286
 30
0.0
 11
16.0
 21
28.5714
 31
0.0
  0
LINE
  5
3D
330
1E
100
AcDbEntity
  8
0
100
AcDbLine
 10
16.0
 20
26.4286
 30
0.0
 11
16.0
 21
26.2143
 31
0.0
  0
LINE
  5
3E
330
1E
100
AcDbEntity
  8
0
100
AcDbLine
 10
16.0
 20
26.4286
 30
0.0
 11
16.7714
 21
26.2143
 31
0.0
  0
LINE
  5
3F
330
1E
100
AcDbEntity
  8
0
100
AcDbLine
 10
16.0
 20
26.4286
 30
0.0
 11
16.0
 21
26.2143
 31
0.0
  0
LINE
  5
40
330
1E
100
AcDbEntity
  8
0
100
AcDbLine
 10
16.0
 20
26.4286
 30
0.0
 11
16.0
 21
28.5714
 31
0.0
  0
LINE
  5
41
330
1E
100
AcDbEntity
  8
0
100
AcDbLine
 10
16.0
 20
28.5714
 30
0.0
 11
16.0
 21
28.78569999999999
 31
0.0
  0
LINE
  5
42
330
1E
100
AcDbEntity
  8
0
100
AcDbLine
 10
16.0
 20
28.5714
 30
0.0
 11
16.0
 21
26.4286
 31
0.0
  0
LINE
  5
45
330
1E
100
AcDbEntity
  8
0
100
AcDbLine
 10
16.0
 20
28.5714
 30
0.0
 11
16.7714
 21
28.78569999999999
 31
0.0
  0
LINE
  5
46
330
1E
100
AcDbEntity
  8
0
100
AcDbLine
 10
16.0
 20
26.2143
 30
0.0
 11
16.0
 21
26.4286
 31
0.0
  0
LINE
  5
48
330
1E
100
AcDbEntity
  8
0
100
AcDbLine
 10
16.0
 20
26.2143
 30
0.0
 11
16.0
 21
26.0214
 31
0.0
  0
LINE
  5
49
330
1E
100
AcDbEntity
  8
0
100
AcDbLine
 10
16.0
 20
28.78569999999999
 30
0.0
 11
16.0
 21
29.0
 31
0.0
  0
LINE
  5
4A
330
1E
100
AcDbEntity
  8
0
100
AcDbLine
 10
16.0
 20
28.78569999999999
 30
0.0
 11
16.0
 21
28.5714
 31
0.0
  0
LINE
  5
4B
330
1E
100
AcDbEntity
  8
0
100
AcDbLine
 10
16.0
 20
28.78569999999999
 30
0.0
 11
16.0
 21
28.5714
 31
0.0
  0
LINE
  5
4C
330
1E
100
AcDbEntity
  8
0
100
AcDbLine
 10
16.0
 20
26.0214
 30
0.0
 11
16.0
 21
26.2143
 31
0.0
  0
LINE
  5
4D
330
1E
100
AcDbEntity
  8
0
100
AcDbLine
 10
16.0
 20
26.0214
 30
0.0
 11
16.0
 21
26.2143
 31
0.0
  0
LINE
  5
52
330
1E
100
AcDbEntity
  8
0
100
AcDbLine
 10
16.0
 20
29.0
 30
0.0
 11
16.0
 21
28.78569999999999
 31
0.0
  0
LINE
  5
53
330
1E
100
AcDbEntity
  8
0
100
AcDbLine
 10
16.0
 20
26.0214
 30
0.0
 11
16.2368
 21
26.0
 31
0.0
  0
LINE
  5
54
330
1E
100
AcDbEntity
  8
0
100
AcDbLine
 10
16.0
 20
31.0
 30
0.0
 11
16.0
 21
29.0
 31
0.0
  0
LINE
  5
55
330
1E
100
AcDbEntity
  8
0
100
AcDbLine
 10
16.0
 20
31.0
 30
0.0
 11
16.324
 21
31.0
 31
0.0
  0
LINE
  5
56
330
1E
100
AcDbEntity
  8
0
100
AcDbLine
 10
16.2368
 20
26.0
 30
0.0
 11
16.5684
 21
26.0
 31
0.0
  0
LINE
  5
5F
330
1E
100
AcDbEntity
  8
0
100
AcDbLine
 10
16.2368
 20
29.0
 30
0.0
 11
16.5684
 21
29.0
 31
0.0
  0
LINE
  5
60
330
1E
100
AcDbEntity
  8
0
100
AcDbLine
 10
16.324
 20
31.0
 30
0.0
 11
17.18799999999999
 21
31.0
 31
0.0
  0
LINE
  5
61
330
1E
100
AcDbEntity
  8
0
100
AcDbLine
 10
16.324
 20
29.0
 30
0.0
 11
17.18799999999999
 21
29.0
 31
0.0
  0
LINE
  5
62
330
1E
100
AcDbEntity
  8
0
100
AcDbLine
 10
16.0
 20
29.0
 30
0.0
 11
16.2368
 21
29.0
 31
0.0
  0
LINE
  5
63
330
1E
100
AcDbEntity
  8
0
100
AcDbLine
 10
16.0
 20
29.0
 30
0.0
 11
16.0
 21
31.0
 31
0.0
  0
LINE
  5
64
330
1E
100
AcDbEntity
  8
0
100
AcDbLine
 10
16.0
 20
29.0
 30
0.0
 11
16.324
 21
29.0
 31
0.0
  0
LINE
  5
65
330
1E
100
AcDbEntity
  8
0
100
AcDbLine
 10
16.32
 20
33.0
 30
0.0
 11
17.92
 21
33.0
 31
0.0
  0
LINE
  5
66
330
1E
100
AcDbEntity
  8
0
100
AcDbLine
 10
16.32
 20
31.0
 30
0.0
 11
17.92
 21
31.0
 31
0.0
  0
LINE
  5
67
330
1E
100
AcDbEntity
  8
0
100
AcDbLine
 10
16.5684
 20
26.0
 30
0.0
 11
17.42099999999999
 21
26.0
 31
0.0
  0
LINE
  5
68
330
1E
100
AcDbEntity
  8
0
100
AcDbLine
 10
16.5684
 20
29.0
 30
0.0
 11
17.42099999999999
 21
29.0
 31
0.0
  0
LINE
  5
69
330
1E
100
AcDbEntity
  8
0
100
AcDbLine
 10
17.42099999999999
 20
26.0
 30
0.0
 11
18.79469999999999
 21
26.0
 31
0.0
  0
LINE
  5
6A
330
1E
100
AcDbEntity
  8
0
100
AcDbLine
 10
18.16379999999999
 20
26.0
 30
0.0
 11
18.77819999999999
 21
26.0
 31
0.0
  0
LINE
  5
6B
330
1E
100
AcDbEntity
  8
0
100
AcDbLine
 10
18.108
 20
26.0
 30
0.0
 11
18.6683
 21
26.0
 31
0.0
  0
LINE
  5
6C
330
1E
100
AcDbEntity
  8
0
100
AcDbLine
 10
16.7714
 20
28.78569999999999
 30
0.0
 11
18.2737
 21
28.9221
 31
0.0
  0
LINE
  5
6D
330
1E
100
AcDbEntity
  8
0
100
AcDbLine
 10
17.42099999999999
 20
29.0
 30
0.0
 11
18.79469999999999
 21
29.0
 31
0.0
  0
LINE
  5
70
330
1E
100
AcDbEntity
  8
0
100
AcDbLine
 10
18.2737
 20
28.9221
 30
0.0
 11
20.4187
 21
28.9567
 31
0.0
  0
LINE
  5
72
330
1E
100
AcDbEntity
  8
0
100
AcDbLine
 10
18.2737
 20
26.0779
 30
0.0
 11
20.4187
 21
26.0433
 31
0.0
  0
LINE
  5
73
330
1E
100
AcDbEntity
  8
0
100
AcDbLine
 10
16.7714
 20
26.2143
 30
0.0
 11
18.2737
 21
26.0779
 31
0.0
  0
LINE
  5
75
330
1E
100
AcDbEntity
  8
0
100
AcDbLine
 10
17.9218
 20
26.0
 30
0.0
 11
18.108
 21
26.0
 31
0.0
  0
LINE
  5
76
330
1E
100
AcDbEntity
  8
0
100
AcDbLine
 10
17.9218
 20
26.0
 30
0.0
 11
18.16379999999999
 21
26.0
 31
0.0
  0
LINE
  5
77
330
1E
100
AcDbEntity
  8
0
100
AcDbLine
 10
18.79469999999999
 20
26.0
 30
0.0
 11
20.6421
 21
26.0
 31
0.0
  0
LINE
  5
78
330
1E
100
AcDbEntity
  8
0
100
AcDbLine
 10
19.89709999999999
 20
26.0
 30
0.0
 11
21.461
 21
26.0
 31
0.0
  0
LINE
  5
79
330
1E
100
AcDbEntity
  8
0
100
AcDbLine
 10
18.77819999999999
 20
26.0
 30
0.0
 11
19.89709999999999
 21
26.0
 31
0.0
  0
LINE
  5
7A
330
1E
100
AcDbEntity
  8
0
100
AcDbLine
 10
18.6683
 20
26.0
 30
0.0
 11
19.76679999999999
 21
26.0
 31
0.0
  0
LINE
  5
7B
330
1E
100
AcDbEntity
  8
0
100
AcDbLine
 10
18.79469999999999
 20
29.0
 30
0.0
 11
20.6421
 21
29.0
 31
0.0
  0
LINE
  5
7D
330
1E
100
AcDbEntity
  8
0
100
AcDbLine
 10
19.76679999999999
 20
26.0
 30
0.0
 11
21.2935
 21
26.0
 31
0.0
  0
LINE
  5
7E
330
1E
100
AcDbEntity
  8
0
100
AcDbLine
 10
18.628
 20
29.0
 30
0.0
 11
20.53599999999999
 21
29.0
 31
0.0
  0
LINE
  5
7F
330
1E
100
AcDbEntity
  8
0
100
AcDbLine
 10
18.628
 20
31.0
 30
0.0
 11
20.53599999999999
 21
31.0
 31
0.0
  0
LINE
  5
80
330
1E
100
AcDbEntity
  8
0
100
AcDbLine
 10
17.18799999999999
 20
31.0
 30
0.0
 11
18.628
 21
31.0
 31
0.0
  0
LINE
  5
81
330
1E
100
AcDbEntity
  8
0
100
AcDbLine
 10
17.18799999999999
 20
29.0
 30
0.0
 11
18.628
 21
29.0
 31
0.0
  0
LINE
  5
82
330
1E
100
AcDbEntity
  8
0
100
AcDbLine
 10
20.6421
 20
26.0
 30
0.0
 11
22.0
 21
26.0
 31
0.0
  0
LINE
  5
83
330
1E
100
AcDbEntity
  8
0
100
AcDbLine
 10
20.4187
 20
26.0433
 30
0.0
 11
22.55209999999999
 21
26.0897
 31
0.0
  0
LINE
  5
86
330
1E
100
AcDbEntity
  8
0
100
AcDbLine
 10
20.4187
 20
28.9567
 30
0.0
 11
22.55209999999999
 21
28.9103
 31
0.0
  0
LINE
  5
87
330
1E
100
AcDbEntity
  8
0
100
AcDbLine
 10
21.461
 20
26.0
 30
0.0
 11
22.0
 21
26.0
 31
0.0
  0
LINE
  5
88
330
1E
100
AcDbEntity
  8
0
100
AcDbLine
 10
21.2935
 20
26.0
 30
0.0
 11
22.94859999999999
 21
26.0
 31
0.0
  0
LINE
  5
89
330
1E
100
AcDbEntity
  8
0
100
AcDbLine
 10
20.6421
 20
29.0
 30
0.0
 11
22.72629999999999
 21
29.0
 31
0.0
  0
LINE
  5
8B
330
1E
100
AcDbEntity
  8
0
100
AcDbLine
 10
20.53599999999999
 20
31.0
 30
0.0
 11
22.696
 21
31.0
 31
0.0
  0
LINE
  5
8C
330
1E
100
AcDbEntity
  8
0
100
AcDbLine
 10
20.53599999999999
 20
29.0
 30
0.0
 11
22.696
 21
29.0
 31
0.0
  0
LINE
  5
8D
330
1E
100
AcDbEntity
  8
0
100
AcDbLine
 10
20.04
 20
31.0
 30
0.0
 11
22.44
 21
31.0
 31
0.0
  0
LINE
  5
8E
330
1E
100
AcDbEntity
  8
0
100
AcDbLine
 10
20.04
 20
33.0
 30
0.0
 11
22.44
 21
33.0
 31
0.0
  0
LINE
  5
8F
330
1E
100
AcDbEntity
  8
0
100
AcDbLine
 10
17.92
 20
33.0
 30
0.0
 11
20.04
 21
33.0
 31
0.0
  0
LINE
  5
90
330
1E
100
AcDbEntity
  8
0
100
AcDbLine
 10
17.92
 20
31.0
 30
0.0
 11
20.04
 21
31.0
 31
0.0
  0
LINE
  5
91
330
1E
100
AcDbEntity
  8
0
100
AcDbLine
 10
16.744
 20
33.0
 30
0.0
 11
19.192
 21
33.0
 31
0.0
  0
LINE
  5
92
330
1E
100
AcDbEntity
  8
0
100
AcDbLine
 10
19.192
 20
33.0
 30
0.0
 11
21.97599999999999
 21
33.0
 31
0.0
  0
LINE
  5
93
330
1E
100
AcDbEntity
  8
0
100
AcDbLine
 10
16.504
 20
33.3
 30
0.0
 11
19.04799999999999
 21
33.3
 31
0.0
  0
LINE
  5
94
330
1E
100
AcDbEntity
  8
0
100
AcDbLine
 10
16.504
 20
35.0
 30
0.0
 11
19.04799999999999
 21
35.0
 31
0.0
  0
LINE
  5
95
330
1E
100
AcDbEntity
  8
0
100
AcDbLine
 10
19.04799999999999
 20
35.0
 30
0.0
 11
21.928
 21
35.0
 31
0.0
  0
LINE
  5
96
330
1E
100
AcDbEntity
  8
0
100
AcDbLine
 10
19.04799999999999
 20
33.3
 30
0.0
 11
21.928
 21
33.3
 31
0.0
  0
LINE
  5
97
330
1E
100
AcDbEntity
  8
0
100
AcDbLine
 10
22.17999999999999
 20
-0.0000000000000076
 30
0.0
 11
22.468
 21
-0.0000000000000076
 31
0.0
  0
LINE
  5
98
330
1E
100
AcDbEntity
  8
0
100
AcDbLine
 10
22.07199999999999
 20
-0.0000000000000077
 30
0.0
 11
22.17999999999999
 21
-0.0000000000000077
 31
0.0
  0
LINE
  5
99
330
1E
100
AcDbEntity
  8
0
100
AcDbLine
 10
22.07199999999999
 20
-0.0000000000000077
 30
0.0
 11
22.17999999999999
 21
-0.0000000000000076
 31
0.0
  0
LINE
  5
9A
330
1E
100
AcDbEntity
  8
0
100
AcDbLine
 10
22.17999999999999
 20
-0.0000000000000077
 30
0.0
 11
22.468
 21
-0.0000000000000078
 31
0.0
  0
LINE
  5
9B
330
1E
100
AcDbEntity
  8
0
100
AcDbLine
 10
22.0
 20
0.384599999999991
 30
0.0
 11
22.0
 21
9.61539999999999
 31
0.0
  0
LINE
  5
9C
330
1E
100
AcDbEntity
  8
0
100
AcDbLine
 10
22.0
 20
0.384599999999991
 30
0.0
 11
22.07199999999999
 21
-0.0000000000000077
 31
0.0
  0
LINE
  5
9D
330
1E
100
AcDbEntity
  8
0
100
AcDbLine
 10
22.0
 20
0.384599999999991
 30
0.0
 11
22.07199999999999
 21
-0.0000000000000077
 31
0.0
  0
LINE
  5
9E
330
1E
100
AcDbEntity
  8
0
100
AcDbLine
 10
22.108
 20
9.999999999999991
 30
0.0
 11
22.396
 21
9.999999999999991
 31
0.0
  0
LINE
  5
9F
330
1E
100
AcDbEntity
  8
0
100
AcDbLine
 10
22.0
 20
9.999999999999991
 30
0.0
 11
22.07199999999999
 21
9.999999999999991
 31
0.0
  0
LINE
  5
A0
330
1E
100
AcDbEntity
  8
0
100
AcDbLine
 10
22.0
 20
9.999999999999991
 30
0.0
 11
22.0
 21
26.0
 31
0.0
  0
LINE
  5
A1
330
1E
100
AcDbEntity
  8
0
100
AcDbLine
 10
22.0
 20
9.999999999999991
 30
0.0
 11
22.108
 21
9.999999999999991
 31
0.0
  0
LINE
  5
A2
330
1E
100
AcDbEntity
  8
0
100
AcDbLine
 10
22.108
 20
26.0
 30
0.0
 11
22.396
 21
26.0
 31
0.0
  0
LINE
  5
A3
330
1E
100
AcDbEntity
  8
0
100
AcDbLine
 10
22.0
 20
26.0
 30
0.0
 11
22.0
 21
9.999999999999991
 31
0.0
  0
LINE
  5
A4
330
1E
100
AcDbEntity
  8
0
100
AcDbLine
 10
22.0
 20
26.0
 30
0.0
 11
22.108
 21
26.0
 31
0.0
  0
LINE
  5
A5
330
1E
100
AcDbEntity
  8
0
100
AcDbLine
 10
22.07199999999999
 20
9.999999999999991
 30
0.0
 11
22.17999999999999
 21
9.999999999999991
 31
0.0
  0
LINE
  5
A6
330
1E
100
AcDbEntity
  8
0
100
AcDbLine
 10
22.396
 20
26.0
 30
0.0
 11
22.87599999999999
 21
26.0
 31
0.0
  0
LINE
  5
A7
330
1E
100
AcDbEntity
  8
0
100
AcDbLine
 10
22.396
 20
9.999999999999991
 30
0.0
 11
22.87599999999999
 21
9.999999999999991
 31
0.0
  0
LINE
  5
A8
330
1E
100
AcDbEntity
  8
0
100
AcDbLine
 10
22.17999999999999
 20
9.999999999999991
 30
0.0
 11
22.468
 21
9.999999999999991
 31
0.0
  0
LINE
  5
A9
330
1E
100
AcDbEntity
  8
0
100
AcDbLine
 10
22.0
 20
9.61539999999999
 30
0.0
 11
22.07199999999999
 21
9.999999999999991
 31
0.0
  0
LINE
  5
AA
330
1E
100
AcDbEntity
  8
0
100
AcDbLine
 10
22.0
 20
9.61539999999999
 30
0.0
 11
22.0
 21
0.384599999999991
 31
0.0
  0
LINE
  5
AB
330
1E
100
AcDbEntity
  8
0
100
AcDbLine
 10
22.468
 20
9.999999999999991
 30
0.0
 11
22.936
 21
9.999999999999991
 31
0.0
  0
LINE
  5
AC
330
1E
100
AcDbEntity
  8
0
100
AcDbLine
 10
22.468
 20
-0.0000000000000076
 30
0.0
 11
22.936
 21
-0.0000000000000075
 31
0.0
  0
LINE
  5
AD
330
1E
100
AcDbEntity
  8
0
100
AcDbLine
 10
22.468
 20
-0.0000000000000078
 30
0.0
 11
22.936
 21
-0.0000000000000078
 31
0.0
  0
LINE
  5
AF
330
1E
100
AcDbEntity
  8
0
100
AcDbLine
 10
22.55209999999999
 20
26.0897
 30
0.0
 11
23.8877
 21
26.2143
 31
0.0
  0
LINE
  5
B1
330
1E
100
AcDbEntity
  8
0
100
AcDbLine
 10
22.55209999999999
 20
28.9103
 30
0.0
 11
23.8877
 21
28.78569999999999
 31
0.0
  0
LINE
  5
B4
330
1E
100
AcDbEntity
  8
0
100
AcDbLine
 10
22.87599999999999
 20
9.999999999999991
 30
0.0
 11
23.51199999999999
 21
9.999999999999991
 31
0.0
  0
LINE
  5
B5
330
1E
100
AcDbEntity
  8
0
100
AcDbLine
 10
22.87599999999999
 20
26.0
 30
0.0
 11
23.51199999999999
 21
26.0
 31
0.0
  0
LINE
  5
B6
330
1E
100
AcDbEntity
  8
0
100
AcDbLine
 10
22.936
 20
9.999999999999991
 30
0.0
 11
23.548
 21
9.999999999999991
 31
0.0
  0
LINE
  5
B7
330
1E
100
AcDbEntity
  8
0
100
AcDbLine
 10
22.936
 20
-0.0000000000000075
 30
0.0
 11
23.548
 21
-0.0000000000000075
 31
0.0
  0
LINE
  5
B8
330
1E
100
AcDbEntity
  8
0
100
AcDbLine
 10
22.936
 20
-0.0000000000000078
 30
0.0
 11
23.548
 21
-0.0000000000000078
 31
0.0
  0
LINE
  5
B9
330
1E
100
AcDbEntity
  8
0
100
AcDbLine
 10
23.51199999999999
 20
26.0
 30
0.0
 11
24.232
 21
26.0
 31
0.0
  0
LINE
  5
BA
330
1E
100
AcDbEntity
  8
0
100
AcDbLine
 10
23.51199999999999
 20
9.999999999999991
 30
0.0
 11
24.232
 21
9.999999999999991
 31
0.0
  0
LINE
  5
BB
330
1E
100
AcDbEntity
  8
0
100
AcDbLine
 10
23.548
 20
9.999999999999991
 30
0.0
 11
24.244
 21
9.999999999999991
 31
0.0
  0
LINE
  5
BC
330
1E
100
AcDbEntity
  8
0
100
AcDbLine
 10
23.548
 20
-0.0000000000000075
 30
0.0
 11
24.244
 21
-0.0000000000000075
 31
0.0
  0
LINE
  5
BD
330
1E
100
AcDbEntity
  8
0
100
AcDbLine
 10
24.232
 20
9.999999999999991
 30
0.0
 11
25.0
 21
9.999999999999991
 31
0.0
  0
LINE
  5
BE
330
1E
100
AcDbEntity
  8
0
100
AcDbLine
 10
24.232
 20
26.0
 30
0.0
 11
25.0
 21
26.0
 31
0.0
  0
LINE
  5
BF
330
1E
100
AcDbEntity
  8
0
100
AcDbLine
 10
24.244
 20
9.999999999999991
 30
0.0
 11
25.0
 21
9.999999999999991
 31
0.0
  0
LINE
  5
C0
330
1E
100
AcDbEntity
  8
0
100
AcDbLine
 10
24.244
 20
-0.0000000000000075
 30
0.0
 11
25.0
 21
-0.0000000000000075
 31
0.0
  0
LINE
  5
C1
330
1E
100
AcDbEntity
  8
0
100
AcDbLine
 10
23.548
 20
-0.0000000000000078
 30
0.0
 11
24.244
 21
-0.0000000000000078
 31
0.0
  0
LINE
  5
C2
330
1E
100
AcDbEntity
  8
0
100
AcDbLine
 10
24.244
 20
-0.0000000000000078
 30
0.0
 11
25.0
 21
-0.0000000000000078
 31
0.0
  0
LINE
  5
C3
330
1E
100
AcDbEntity
  8
0
100
AcDbLine
 10
25.0
 20
9.999999999999991
 30
0.0
 11
25.756
 21
9.999999999999991
 31
0.0
  0
LINE
  5
C4
330
1E
100
AcDbEntity
  8
0
100
AcDbLine
 10
25.0
 20
9.999999999999991
 30
0.0
 11
25.768
 21
9.999999999999991
 31
0.0
  0
LINE
  5
C5
330
1E
100
AcDbEntity
  8
0
100
AcDbLine
 10
25.0
 20
-0.0000000000000075
 30
0.0
 11
25.756
 21
-0.0000000000000075
 31
0.0
  0
LINE
  5
C6
330
1E
100
AcDbEntity
  8
0
100
AcDbLine
 10
25.0
 20
-0.0000000000000078
 30
0.0
 11
25.756
 21
-0.0000000000000078
 31
0.0
  0
LINE
  5
C7
330
1E
100
AcDbEntity
  8
0
100
AcDbLine
 10
25.0
 20
26.0
 30
0.0
 11
27.2737
 21
26.0
 31
0.0
  0
LINE
  5
C8
330
1E
100
AcDbEntity
  8
0
100
AcDbLine
 10
25.0
 20
26.0
 30
0.0
 11
25.768
 21
26.0
 31
0.0
  0
LINE
  5
C9
330
1E
100
AcDbEntity
  8
0
100
AcDbLine
 10
24.9407
 20
26.0
 30
0.0
 11
26.8211
 21
26.0
 31
0.0
  0
LINE
  5
CF
330
1E
100
AcDbEntity
  8
0
100
AcDbLine
 10
22.94859999999999
 20
26.0
 30
0.0
 11
24.9407
 21
26.0
 31
0.0
  0
LINE
  5
D0
330
1E
100
AcDbEntity
  8
0
100
AcDbLine
 10
22.72629999999999
 20
29.0
 30
0.0
 11
25.0
 21
29.0
 31
0.0
  0
LINE
  5
D2
330
1E
100
AcDbEntity
  8
0
100
AcDbLine
 10
25.0
 20
26.4286
 30
0.0
 11
25.5203
 21
26.4286
 31
0.0
  0
LINE
  5
D3
330
1E
100
AcDbEntity
  8
0
100
AcDbLine
 10
25.0
 20
28.5714
 30
0.0
 11
25.5203
 21
28.5714
 31
0.0
  0
LINE
  5
D9
330
1E
100
AcDbEntity
  8
0
100
AcDbLine
 10
24.4797
 20
28.5714
 30
0.0
 11
25.0
 21
28.5714
 31
0.0
  0
LINE
  5
DA
330
1E
100
AcDbEntity
  8
0
100
AcDbLine
 10
24.4797
 20
26.4286
 30
0.0
 11
25.0
 21
26.4286
 31
0.0
  0
LINE
  5
DB
330
1E
100
AcDbEntity
  8
0
100
AcDbLine
 10
23.8877
 20
28.78569999999999
 30
0.0
 11
24.4797
 21
28.5714
 31
0.0
  0
LINE
  5
DC
330
1E
100
AcDbEntity
  8
0
100
AcDbLine
 10
23.8877
 20
26.2143
 30
0.0
 11
24.4797
 21
26.4286
 31
0.0
  0
LINE
  5
DF
330
1E
100
AcDbEntity
  8
0
100
AcDbLine
 10
22.696
 20
29.0
 30
0.0
 11
25.0
 21
29.0
 31
0.0
  0
LINE
  5
E0
330
1E
100
AcDbEntity
  8
0
100
AcDbLine
 10
22.696
 20
31.0
 30
0.0
 11
25.0
 21
31.0
 31
0.0
  0
LINE
  5
E1
330
1E
100
AcDbEntity
  8
0
100
AcDbLine
 10
25.0
 20
29.0
 30
0.0
 11
27.304
 21
29.0
 31
0.0
  0
LINE
  5
E2
330
1E
100
AcDbEntity
  8
0
100
AcDbLine
 10
25.0
 20
29.0
 30
0.0
 11
27.2737
 21
29.0
 31
0.0
  0
LINE
  5
E4
330
1E
100
AcDbEntity
  8
0
100
AcDbLine
 10
22.44
 20
31.0
 30
0.0
 11
25.0
 21
31.0
 31
0.0
  0
LINE
  5
E5
330
1E
100
AcDbEntity
  8
0
100
AcDbLine
 10
22.44
 20
33.0
 30
0.0
 11
25.0
 21
33.0
 31
0.0
  0
LINE
  5
E6
330
1E
100
AcDbEntity
  8
0
100
AcDbLine
 10
25.0
 20
31.0
 30
0.0
 11
27.56
 21
31.0
 31
0.0
  0
LINE
  5
E7
330
1E
100
AcDbEntity
  8
0
100
AcDbLine
 10
25.0
 20
31.0
 30
0.0
 11
27.304
 21
31.0
 31
0.0
  0
LINE
  5
E8
330
1E
100
AcDbEntity
  8
0
100
AcDbLine
 10
21.97599999999999
 20
33.0
 30
0.0
 11
25.0
 21
33.0
 31
0.0
  0
LINE
  5
E9
330
1E
100
AcDbEntity
  8
0
100
AcDbLine
 10
21.928
 20
33.3
 30
0.0
 11
25.0
 21
33.3
 31
0.0
  0
LINE
  5
EA
330
1E
100
AcDbEntity
  8
0
100
AcDbLine
 10
21.928
 20
35.0
 30
0.0
 11
25.0
 21
35.0
 31
0.0
  0
LINE
  5
EB
330
1E
100
AcDbEntity
  8
0
100
AcDbLine
 10
25.0
 20
33.0
 30
0.0
 11
28.024
 21
33.0
 31
0.0
  0
LINE
  5
EC
330
1E
100
AcDbEntity
  8
0
100
AcDbLine
 10
25.0
 20
33.0
 30
0.0
 11
27.56
 21
33.0
 31
0.0
  0
LINE
  5
ED
330
1E
100
AcDbEntity
  8
0
100
AcDbLine
 10
25.5203
 20
28.5714
 30
0.0
 11
26.1123
 21
28.78569999999999
 31
0.0
  0
LINE
  5
EE
330
1E
100
AcDbEntity
  8
0
100
AcDbLine
 10
25.756
 20
9.999999999999991
 30
0.0
 11
26.45199999999999
 21
9.999999999999991
 31
0.0
  0
LINE
  5
EF
330
1E
100
AcDbEntity
  8
0
100
AcDbLine
 10
25.768
 20
26.0
 30
0.0
 11
26.488
 21
26.0
 31
0.0
  0
LINE
  5
F0
330
1E
100
AcDbEntity
  8
0
100
AcDbLine
 10
25.768
 20
9.999999999999991
 30
0.0
 11
26.488
 21
9.999999999999991
 31
0.0
  0
LINE
  5
F1
330
1E
100
AcDbEntity
  8
0
100
AcDbLine
 10
25.756
 20
-0.0000000000000075
 30
0.0
 11
26.45199999999999
 21
-0.0000000000000075
 31
0.0
  0
LINE
  5
F2
330
1E
100
AcDbEntity
  8
0
100
AcDbLine
 10
25.756
 20
-0.0000000000000078
 30
0.0
 11
26.45199999999999
 21
-0.0000000000000078
 31
0.0
  0
LINE
  5
F3
330
1E
100
AcDbEntity
  8
0
100
AcDbLine
 10
25.5203
 20
26.4286
 30
0.0
 11
26.1123
 21
26.2143
 31
0.0
  0
LINE
  5
F4
330
1E
100
AcDbEntity
  8
0
100
AcDbLine
 10
26.1123
 20
28.78569999999999
 30
0.0
 11
27.4479
 21
28.9103
 31
0.0
  0
LINE
  5
F5
330
1E
100
AcDbEntity
  8
0
100
AcDbLine
 10
26.45199999999999
 20
9.999999999999991
 30
0.0
 11
27.064
 21
9.999999999999991
 31
0.0
  0
LINE
  5
F6
330
1E
100
AcDbEntity
  8
0
100
AcDbLine
 10
26.488
 20
26.0
 30
0.0
 11
27.124
 21
26.0
 31
0.0
  0
LINE
  5
F7
330
1E
100
AcDbEntity
  8
0
100
AcDbLine
 10
26.488
 20
9.999999999999991
 30
0.0
 11
27.124
 21
9.999999999999991
 31
0.0
  0
LINE
  5
F8
330
1E
100
AcDbEntity
  8
0
100
AcDbLine
 10
26.45199999999999
 20
-0.0000000000000075
 30
0.0
 11
27.064
 21
-0.0000000000000075
 31
0.0
  0
LINE
  5
F9
330
1E
100
AcDbEntity
  8
0
100
AcDbLine
 10
26.45199999999999
 20
-0.0000000000000078
 30
0.0
 11
27.064
 21
-0.0000000000000078
 31
0.0
  0
LINE
  5
FA
330
1E
100
AcDbEntity
  8
0
100
AcDbLine
 10
27.064
 20
9.999999999999991
 30
0.0
 11
27.53199999999999
 21
9.999999999999991
 31
0.0
  0
LINE
  5
FB
330
1E
100
AcDbEntity
  8
0
100
AcDbLine
 10
27.124
 20
26.0
 30
0.0
 11
27.604
 21
26.0
 31
0.0
  0
LINE
  5
FC
330
1E
100
AcDbEntity
  8
0
100
AcDbLine
 10
27.124
 20
9.999999999999991
 30
0.0
 11
27.604
 21
9.999999999999991
 31
0.0
  0
LINE
  5
FD
330
1E
100
AcDbEntity
  8
0
100
AcDbLine
 10
27.064
 20
-0.0000000000000075
 30
0.0
 11
27.53199999999999
 21
-0.0000000000000076
 31
0.0
  0
LINE
  5
FE
330
1E
100
AcDbEntity
  8
0
100
AcDbLine
 10
27.064
 20
-0.0000000000000078
 30
0.0
 11
27.53199999999999
 21
-0.0000000000000078
 31
0.0
  0
LINE
  5
FF
330
1E
100
AcDbEntity
  8
0
100
AcDbLine
 10
26.8211
 20
26.0
 30
0.0
 11
28.5898
 21
26.0
 31
0.0
  0
LINE
  5
101
330
1E
100
AcDbEntity
  8
0
100
AcDbLine
 10
27.2737
 20
29.0
 30
0.0
 11
29.3579
 21
29.0
 31
0.0
  0
LINE
  5
103
330
1E
100
AcDbEntity
  8
0
100
AcDbLine
 10
27.2737
 20
26.0
 30
0.0
 11
29.3579
 21
26.0
 31
0.0
  0
LINE
  5
105
330
1E
100
AcDbEntity
  8
0
100
AcDbLine
 10
26.1123
 20
26.2143
 30
0.0
 11
27.4479
 21
26.0897
 31
0.0
  0
LINE
  5
106
330
1E
100
AcDbEntity
  8
0
100
AcDbLine
 10
27.304
 20
31.0
 30
0.0
 11
29.464
 21
31.0
 31
0.0
  0
LINE
  5
107
330
1E
100
AcDbEntity
  8
0
100
AcDbLine
 10
27.82
 20
-0.0000000000000076
 30
0.0
 11
27.928
 21
-0.0000000000000077
 31
0.0
  0
LINE
  5
108
330
1E
100
AcDbEntity
  8
0
100
AcDbLine
 10
27.604
 20
9.999999999999991
 30
0.0
 11
27.892
 21
9.999999999999991
 31
0.0
  0
LINE
  5
109
330
1E
100
AcDbEntity
  8
0
100
AcDbLine
 10
27.82
 20
9.999999999999991
 30
0.0
 11
27.928
 21
9.999999999999991
 31
0.0
  0
LINE
  5
10A
330
1E
100
AcDbEntity
  8
0
100
AcDbLine
 10
27.53199999999999
 20
9.999999999999991
 30
0.0
 11
27.82
 21
9.999999999999991
 31
0.0
  0
LINE
  5
10B
330
1E
100
AcDbEntity
  8
0
100
AcDbLine
 10
27.53199999999999
 20
-0.0000000000000076
 30
0.0
 11
27.82
 21
-0.0000000000000076
 31
0.0
  0
LINE
  5
10C
330
1E
100
AcDbEntity
  8
0
100
AcDbLine
 10
27.892
 20
9.999999999999991
 30
0.0
 11
28.0
 21
9.999999999999991
 31
0.0
  0
LINE
  5
10D
330
1E
100
AcDbEntity
  8
0
100
AcDbLine
 10
28.0
 20
9.999999999999991
 30
0.0
 11
28.0
 21
26.0
 31
0.0
  0
LINE
  5
10E
330
1E
100
AcDbEntity
  8
0
100
AcDbLine
 10
27.928
 20
-0.0000000000000077
 30
0.0
 11
28.0
 21
0.384599999999991
 31
0.0
  0
LINE
  5
10F
330
1E
100
AcDbEntity
  8
0
100
AcDbLine
 10
28.0
 20
0.384599999999991
 30
0.0
 11
28.0
 21
9.61539999999999
 31
0.0
  0
LINE
  5
110
330
1E
100
AcDbEntity
  8
0
100
AcDbLine
 10
27.928
 20
-0.0000000000000077
 30
0.0
 11
28.0
 21
0.384599999999991
 31
0.0
  0
LINE
  5
111
330
1E
100
AcDbEntity
  8
0
100
AcDbLine
 10
27.82
 20
-0.0000000000000077
 30
0.0
 11
27.928
 21
-0.0000000000000077
 31
0.0
  0
LINE
  5
112
330
1E
100
AcDbEntity
  8
0
100
AcDbLine
 10
27.53199999999999
 20
-0.0000000000000078
 30
0.0
 11
27.82
 21
-0.0000000000000077
 31
0.0
  0
LINE
  5
113
330
1E
100
AcDbEntity
  8
0
100
AcDbLine
 10
28.0
 20
9.61539999999999
 30
0.0
 11
28.0
 21
0.384599999999991
 31
0.0
  0
LINE
  5
114
330
1E
100
AcDbEntity
  8
0
100
AcDbLine
 10
27.604
 20
26.0
 30
0.0
 11
27.892
 21
26.0
 31
0.0
  0
LINE
  5
115
330
1E
100
AcDbEntity
  8
0
100
AcDbLine
 10
27.892
 20
26.0
 30
0.0
 11
28.0
 21
26.0
 31
0.0
  0
LINE
  5
116
330
1E
100
AcDbEntity
  8
0
100
AcDbLine
 10
27.928
 20
9.999999999999991
 30
0.0
 11
28.0
 21
9.61539999999999
 31
0.0
  0
LINE
  5
117
330
1E
100
AcDbEntity
  8
0
100
AcDbLine
 10
27.928
 20
9.999999999999991
 30
0.0
 11
28.0
 21
9.999999999999991
 31
0.0
  0
LINE
  5
118
330
1E
100
AcDbEntity
  8
0
100
AcDbLine
 10
28.0
 20
26.0
 30
0.0
 11
29.3579
 21
26.0
 31
0.0
  0
LINE
  5
119
330
1E
100
AcDbEntity
  8
0
100
AcDbLine
 10
28.0
 20
26.0
 30
0.0
 11
28.5767
 21
26.0
 31
0.0
  0
LINE
  5
11A
330
1E
100
AcDbEntity
  8
0
100
AcDbLine
 10
28.0
 20
26.0
 30
0.0
 11
28.0
 21
9.999999999999991
 31
0.0
  0
LINE
  5
11B
330
1E
100
AcDbEntity
  8
0
100
AcDbLine
 10
27.4479
 20
28.9103
 30
0.0
 11
29.5813
 21
28.9567
 31
0.0
  0
LINE
  5
11D
330
1E
100
AcDbEntity
  8
0
100
AcDbLine
 10
27.4479
 20
26.0897
 30
0.0
 11
29.5813
 21
26.0433
 31
0.0
  0
LINE
  5
11E
330
1E
100
AcDbEntity
  8
0
100
AcDbLine
 10
27.304
 20
29.0
 30
0.0
 11
29.464
 21
29.0
 31
0.0
  0
LINE
  5
11F
330
1E
100
AcDbEntity
  8
0
100
AcDbLine
 10
27.56
 20
33.0
 30
0.0
 11
29.96
 21
33.0
 31
0.0
  0
LINE
  5
120
330
1E
100
AcDbEntity
  8
0
100
AcDbLine
 10
27.56
 20
31.0
 30
0.0
 11
29.96
 21
31.0
 31
0.0
  0
LINE
  5
121
330
1E
100
AcDbEntity
  8
0
100
AcDbLine
 10
28.024
 20
33.0
 30
0.0
 11
30.808
 21
33.0
 31
0.0
  0
LINE
  5
122
330
1E
100
AcDbEntity
  8
0
100
AcDbLine
 10
28.07199999999999
 20
35.0
 30
0.0
 11
30.952
 21
35.0
 31
0.0
  0
LINE
  5
123
330
1E
100
AcDbEntity
  8
0
100
AcDbLine
 10
28.07199999999999
 20
33.3
 30
0.0
 11
30.952
 21
33.3
 31
0.0
  0
LINE
  5
124
330
1E
100
AcDbEntity
  8
0
100
AcDbLine
 10
25.0
 20
33.3
 30
0.0
 11
28.07199999999999
 21
33.3
 31
0.0
  0
LINE
  5
125
330
1E
100
AcDbEntity
  8
0
100
AcDbLine
 10
25.0
 20
35.0
 30
0.0
 11
28.328
 21
35.0
 31
0.0
  0
LINE
  5
126
330
1E
100
AcDbEntity
  8
0
100
AcDbLine
 10
25.0
 20
35.0
 30
0.0
 11
28.07199999999999
 21
35.0
 31
0.0
  0
LINE
  5
127
330
1E
100
AcDbEntity
  8
0
100
AcDbLine
 10
28.5898
 20
26.0
 30
0.0
 11
30.23369999999999
 21
26.0
 31
0.0
  0
LINE
  5
128
330
1E
100
AcDbEntity
  8
0
100
AcDbLine
 10
29.3579
 20
29.0
 30
0.0
 11
31.2052
 21
29.0
 31
0.0
  0
LINE
  5
12A
330
1E
100
AcDbEntity
  8
0
100
AcDbLine
 10
29.3579
 20
26.0
 30
0.0
 11
31.2052
 21
26.0
 31
0.0
  0
LINE
  5
12C
330
1E
100
AcDbEntity
  8
0
100
AcDbLine
 10
28.5767
 20
26.0
 30
0.0
 11
30.1406
 21
26.0
 31
0.0
  0
LINE
  5
12D
330
1E
100
AcDbEntity
  8
0
100
AcDbLine
 10
29.464
 20
31.0
 30
0.0
 11
31.37199999999999
 21
31.0
 31
0.0
  0
LINE
  5
12E
330
1E
100
AcDbEntity
  8
0
100
AcDbLine
 10
29.5813
 20
28.9567
 30
0.0
 11
31.72629999999999
 21
28.9221
 31
0.0
  0
LINE
  5
130
330
1E
100
AcDbEntity
  8
0
100
AcDbLine
 10
29.5813
 20
26.0433
 30
0.0
 11
31.72629999999999
 21
26.0779
 31
0.0
  0
LINE
  5
132
330
1E
100
AcDbEntity
  8
0
100
AcDbLine
 10
29.464
 20
29.0
 30
0.0
 11
31.37199999999999
 21
29.0
 31
0.0
  0
LINE
  5
133
330
1E
100
AcDbEntity
  8
0
100
AcDbLine
 10
29.96
 20
33.0
 30
0.0
 11
32.08
 21
33.0
 31
0.0
  0
LINE
  5
134
330
1E
100
AcDbEntity
  8
0
100
AcDbLine
 10
30.23369999999999
 20
26.0
 30
0.0
 11
31.3322
 21
26.0
 31
0.0
  0
LINE
  5
135
330
1E
100
AcDbEntity
  8
0
100
AcDbLine
 10
30.1406
 20
26.0
 30
0.0
 11
31.20179999999999
 21
26.0
 31
0.0
  0
LINE
  5
136
330
1E
100
AcDbEntity
  8
0
100
AcDbLine
 10
29.96
 20
31.0
 30
0.0
 11
32.08
 21
31.0
 31
0.0
  0
LINE
  5
137
330
1E
100
AcDbEntity
  8
0
100
AcDbLine
 10
30.808
 20
33.0
 30
0.0
 11
33.256
 21
33.0
 31
0.0
  0
LINE
  5
138
330
1E
100
AcDbEntity
  8
0
100
AcDbLine
 10
31.20179999999999
 20
26.0
 30
0.0
 11
31.8535
 21
26.0
 31
0.0
  0
LINE
  5
139
330
1E
100
AcDbEntity
  8
0
100
AcDbLine
 10
31.2052
 20
29.0
 30
0.0
 11
32.579
 21
29.0
 31
0.0
  0
LINE
  5
13B
330
1E
100
AcDbEntity
  8
0
100
AcDbLine
 10
31.3322
 20
26.0
 30
0.0
 11
31.8535
 21
26.0
 31
0.0
  0
LINE
  5
13C
330
1E
100
AcDbEntity
  8
0
100
AcDbLine
 10
31.2052
 20
26.0
 30
0.0
 11
32.579
 21
26.0
 31
0.0
  0
LINE
  5
13D
330
1E
100
AcDbEntity
  8
0
100
AcDbLine
 10
31.37199999999999
 20
31.0
 30
0.0
 11
32.812
 21
31.0
 31
0.0
  0
LINE
  5
13E
330
1E
100
AcDbEntity
  8
0
100
AcDbLine
 10
32.579
 20
26.0
 30
0.0
 11
33.4316
 21
26.0
 31
0.0
  0
LINE
  5
13F
330
1E
100
AcDbEntity
  8
0
100
AcDbLine
 10
31.8535
 20
26.0
 30
0.0
 11
32.0582
 21
26.0
 31
0.0
  0
LINE
  5
140
330
1E
100
AcDbEntity
  8
0
100
AcDbLine
 10
32.579
 20
29.0
 30
0.0
 11
33.4316
 21
29.0
 31
0.0
  0
LINE
  5
143
330
1E
100
AcDbEntity
  8
0
100
AcDbLine
 10
31.72629999999999
 20
28.9221
 30
0.0
 11
33.2286
 21
28.78569999999999
 31
0.0
  0
LINE
  5
146
330
1E
100
AcDbEntity
  8
0
100
AcDbLine
 10
31.72629999999999
 20
26.0779
 30
0.0
 11
33.2286
 21
26.2143
 31
0.0
  0
LINE
  5
147
330
1E
100
AcDbEntity
  8
0
100
AcDbLine
 10
31.37199999999999
 20
29.0
 30
0.0
 11
32.812
 21
29.0
 31
0.0
  0
LINE
  5
148
330
1E
100
AcDbEntity
  8
0
100
AcDbLine
 10
32.812
 20
31.0
 30
0.0
 11
33.676
 21
31.0
 31
0.0
  0
LINE
  5
14F
330
1E
100
AcDbEntity
  8
0
100
AcDbLine
 10
33.2286
 20
28.78569999999999
 30
0.0
 11
34.0
 21
28.5714
 31
0.0
  0
LINE
  5
150
330
1E
100
AcDbEntity
  8
0
100
AcDbLine
 10
33.2286
 20
26.2143
 30
0.0
 11
33.7684
 21
26.4286
 31
0.0
  0
LINE
  5
153
330
1E
100
AcDbEntity
  8
0
100
AcDbLine
 10
32.812
 20
29.0
 30
0.0
 11
33.676
 21
29.0
 31
0.0
  0
LINE
  5
154
330
1E
100
AcDbEntity
  8
0
100
AcDbLine
 10
32.08
 20
33.0
 30
0.0
 11
33.68
 21
33.0
 31
0.0
  0
LINE
  5
155
330
1E
100
AcDbEntity
  8
0
100
AcDbLine
 10
32.08
 20
31.0
 30
0.0
 11
33.68
 21
31.0
 31
0.0
  0
LINE
  5
156
330
1E
100
AcDbEntity
  8
0
100
AcDbLine
 10
33.4316
 20
26.0
 30
0.0
 11
33.76319999999999
 21
26.0
 31
0.0
  0
LINE
  5
158
330
1E
100
AcDbEntity
  8
0
100
AcDbLine
 10
33.4316
 20
29.0
 30
0.0
 11
33.76319999999999
 21
29.0
 31
0.0
  0
LINE
  5
159
330
1E
100
AcDbEntity
  8
0
100
AcDbLine
 10
33.676
 20
31.0
 30
0.0
 11
34.0
 21
31.0
 31
0.0
  0
LINE
  5
15A
330
1E
100
AcDbEntity
  8
0
100
AcDbLine
 10
33.676
 20
29.0
 30
0.0
 11
34.0
 21
29.0
 31
0.0
  0
LINE
  5
15B
330
1E
100
AcDbEntity
  8
0
100
AcDbLine
 10
33.76319999999999
 20
26.0
 30
0.0
 11
34.0
 21
26.0214
 31
0.0
  0
LINE
  5
15E
330
1E
100
AcDbEntity
  8
0
100
AcDbLine
 10
33.7684
 20
26.4286
 30
0.0
 11
34.0
 21
26.4286
 31
0.0
  0
LINE
  5
162
330
1E
100
AcDbEntity
  8
0
100
AcDbLine
 10
34.0
 20
28.78569999999999
 30
0.0
 11
34.0
 21
28.5714
 31
0.0
  0
LINE
  5
163
330
1E
100
AcDbEntity
  8
0
100
AcDbLine
 10
34.0
 20
28.78569999999999
 30
0.0
 11
34.0
 21
29.0
 31
0.0
  0
LINE
  5
164
330
1E
100
AcDbEntity
  8
0
100
AcDbLine
 10
34.0
 20
28.5714
 30
0.0
 11
34.0
 21
26.4286
 31
0.0
  0
LINE
  5
165
330
1E
100
AcDbEntity
  8
0
100
AcDbLine
 10
34.0
 20
28.5714
 30
0.0
 11
34.0
 21
28.78569999999999
 31
0.0
  0
LINE
  5
166
330
1E
100
AcDbEntity
  8
0
100
AcDbLine
 10
34.0
 20
26.4286
 30
0.0
 11
34.0
 21
26.2143
 31
0.0
  0
LINE
  5
167
330
1E
100
AcDbEntity
  8
0
100
AcDbLine
 10
34.0
 20
26.4286
 30
0.0
 11
34.0
 21
28.5714
 31
0.0
  0
LINE
  5
168
330
1E
100
AcDbEntity
  8
0
100
AcDbLine
 10
34.0
 20
29.0
 30
0.0
 11
34.0
 21
28.78569999999999
 31
0.0
  0
LINE
  5
169
330
1E
100
AcDbEntity
  8
0
100
AcDbLine
 10
34.0
 20
26.2143
 30
0.0
 11
34.0
 21
26.0214
 31
0.0
  0
LINE
  5
16A
330
1E
100
AcDbEntity
  8
0
100
AcDbLine
 10
34.0
 20
26.2143
 30
0.0
 11
34.0
 21
26.4286
 31
0.0
  0
LINE
  5
16B
330
1E
100
AcDbEntity
  8
0
100
AcDbLine
 10
34.0
 20
26.0214
 30
0.0
 11
34.0
 21
26.2143
 31
0.0
  0
LINE
  5
16C
330
1E
100
AcDbEntity
  8
0
100
AcDbLine
 10
33.76319999999999
 20
29.0
 30
0.0
 11
34.0
 21
29.0
 31
0.0
  0
LINE
  5
16E
330
1E
100
AcDbEntity
  8
0
100
AcDbLine
 10
34.0
 20
29.0
 30
0.0
 11
34.0
 21
31.0
 31
0.0
  0
LINE
  5
16F
330
1E
100
AcDbEntity
  8
0
100
AcDbLine
 10
33.68
 20
31.0
 30
0.0
 11
34.64
 21
31.0
 31
0.0
  0
LINE
  5
170
330
1E
100
AcDbEntity
  8
0
100
AcDbLine
 10
33.68
 20
33.0
 30
0.0
 11
34.64
 21
33.0
 31
0.0
  0
LINE
  5
171
330
1E
100
AcDbEntity
  8
0
100
AcDbLine
 10
34.0
 20
31.0
 30
0.0
 11
34.64
 21
31.0
 31
0.0
  0
LINE
  5
172
330
1E
100
AcDbEntity
  8
0
100
AcDbLine
 10
34.0
 20
31.0
 30
0.0
 11
34.0
 21
29.0
 31
0.0
  0
LINE
  5
173
330
1E
100
AcDbEntity
  8
0
100
AcDbLine
 10
33.256
 20
33.0
 30
0.0
 11
35.128
 21
33.0
 31
0.0
  0
LINE
  5
174
330
1E
100
AcDbEntity
  8
0
100
AcDbLine
 10
33.496
 20
33.3
 30
0.0
 11
35.41599999999999
 21
33.3
 31
0.0
  0
LINE
  5
175
330
1E
100
AcDbEntity
  8
0
100
AcDbLine
 10
30.952
 20
33.3
 30
0.0
 11
33.496
 21
33.3
 31
0.0
  0
LINE
  5
176
330
1E
100
AcDbEntity
  8
0
100
AcDbLine
 10
33.496
 20
35.0
 30
0.0
 11
35.41599999999999
 21
35.0
 31
0.0
  0
LINE
  5
177
330
1E
100
AcDbEntity
  8
0
100
AcDbLine
 10
30.952
 20
35.0
 30
0.0
 11
33.496
 21
35.0
 31
0.0
  0
LINE
  5
178
330
1E
100
AcDbEntity
  8
0
100
AcDbLine
 10
28.328
 20
35.0
 30
0.0
 11
31.448
 21
35.0
 31
0.0
  0
LINE
  5
179
330
1E
100
AcDbEntity
  8
0
100
AcDbLine
 10
31.448
 20
35.0
 30
0.0
 11
34.204
 21
35.0
 31
0.0
  0
LINE
  5
17A
330
1E
100
AcDbEntity
  8
0
100
AcDbLine
 10
34.64
 20
31.0
 30
0.0
 11
35.0
 21
31.0
 31
0.0
  0
LINE
  5
17B
330
1E
100
AcDbEntity
  8
0
100
AcDbLine
 10
34.64
 20
33.0
 30
0.0
 11
35.0
 21
33.0
 31
0.0
  0
LINE
  5
17C
330
1E
100
AcDbEntity
  8
0
100
AcDbLine
 10
35.0
 20
31.0
 30
0.0
 11
35.0
 21
33.0
 31
0.0
  0
LINE
  5
17D
330
1E
100
AcDbEntity
  8
0
100
AcDbLine
 10
36.28
 20
33.0
 30
0.0
 11
36.71199999999999
 21
33.0
 31
0.0
  0
LINE
  5
17E
330
1E
100
AcDbEntity
  8
0
100
AcDbLine
 10
36.71199999999999
 20
33.0
 30
0.0
 11
37.0
 21
33.3
 31
0.0
  0
LINE
  5
17F
330
1E
100
AcDbEntity
  8
0
100
AcDbLine
 10
35.128
 20
33.0
 30
0.0
 11
36.28
 21
33.0
 31
0.0
  0
LINE
  5
180
330
1E
100
AcDbEntity
  8
0
100
AcDbLine
 10
36.568
 20
33.3
 30
0.0
 11
37.0
 21
33.3
 31
0.0
  0
LINE
  5
181
330
1E
100
AcDbEntity
  8
0
100
AcDbLine
 10
35.41599999999999
 20
33.3
 30
0.0
 11
36.568
 21
33.3
 31
0.0
  0
LINE
  5
182
330
1E
100
AcDbEntity
  8
0
100
AcDbLine
 10
35.0
 20
33.0
 30
0.0
 11
35.128
 21
33.0
 31
0.0
  0
LINE
  5
183
330
1E
100
AcDbEntity
  8
0
100
AcDbLine
 10
35.0
 20
33.0
 30
0.0
 11
35.0
 21
31.0
 31
0.0
  0
LINE
  5
184
330
1E
100
AcDbEntity
  8
0
100
AcDbLine
 10
37.0
 20
33.3
 30
0.0
 11
37.0
 21
35.0
 31
0.0
  0
LINE
  5
185
330
1E
100
AcDbEntity
  8
0
100
AcDbLine
 10
36.568
 20
35.0
 30
0.0
 11
37.0
 21
35.0
 31
0.0
  0
LINE
  5
186
330
1E
100
AcDbEntity
  8
0
100
AcDbLine
 10
35.41599999999999
 20
35.0
 30
0.0
 11
36.568
 21
35.0
 31
0.0
  0
LINE
  5
187
330
1E
100
AcDbEntity
  8
0
100
AcDbLine
 10
34.204
 20
35.0
 30
0.0
 11
36.284
 21
35.0
 31
0.0
  0
LINE
  5
188
330
1E
100
AcDbEntity
  8
0
100
AcDbLine
 10
36.284
 20
35.0
 30
0.0
 11
37.53199999999999
 21
35.0
 31
0.0
  0
LINE
  5
189
330
1E
100
AcDbEntity
  8
0
100
AcDbLine
 10
21.67199999999999
 20
35.0
 30
0.0
 11
25.0
 21
35.0
 31
0.0
  0
LINE
  5
18A
330
1E
100
AcDbEntity
  8
0
100
AcDbLine
 10
18.55199999999999
 20
35.0
 30
0.0
 11
21.67199999999999
 21
35.0
 31
0.0
  0
LINE
  5
18B
330
1E
100
AcDbEntity
  8
0
100
AcDbLine
 10
15.796
 20
35.0
 30
0.0
 11
18.55199999999999
 21
35.0
 31
0.0
  0
LINE
  5
18C
330
1E
100
AcDbEntity
  8
0
100
AcDbLine
 10
13.71599999999999
 20
35.0
 30
0.0
 11
15.796
 21
35.0
 31
0.0
  0
LINE
  5
18D
330
1E
100
AcDbEntity
  8
0
100
AcDbLine
 10
12.468
 20
35.0
 30
0.0
 11
13.0
 21
35.0
 31
0.0
  0
LINE
  5
18E
330
1E
100
AcDbEntity
  8
0
100
AcDbLine
 10
12.468
 20
35.0
 30
0.0
 11
13.71599999999999
 21
35.0
 31
0.0
  0
LINE
  5
18F
330
1E
100
AcDbEntity
  8
0
100
AcDbLine
 10
12.0
 20
35.0
 30
0.0
 11
12.468
 21
35.0
 31
0.0
  0
LINE
  5
190
330
1E
100
AcDbEntity
  8
0
100
AcDbLine
 10
12.0
 20
35.0
 30
0.0
 11
12.0
 21
60.0
 31
0.0
  0
LINE
  5
191
330
1E
100
AcDbEntity
  8
0
100
AcDbLine
 10
38.0
 20
35.0
 30
0.0
 11
38.0
 21
49.0
 31
0.0
  0
LINE
  5
192
330
1E
100
AcDbEntity
  8
0
100
AcDbLine
 10
37.0
 20
35.0
 30
0.0
 11
37.53199999999999
 21
35.0
 31
0.0
  0
LINE
  5
193
330
1E
100
AcDbEntity
  8
0
100
AcDbLine
 10
37.0
 20
35.0
 30
0.0
 11
37.0
 21
33.3
 31
0.0
  0
LINE
  5
194
330
1E
100
AcDbEntity
  8
0
100
AcDbLine
 10
17.134
 20
50.3756
 30
0.0
 11
18.86599999999999
 21
49.3756
 31
0.0
  0
LINE
  5
195
330
1E
100
AcDbEntity
  8
0
100
AcDbLine
 10
17.134
 20
50.3756
 30
0.0
 11
18.86599999999999
 21
49.3756
 31
0.0
  0
LINE
  5
196
330
1E
100
AcDbEntity
  8
0
100
AcDbLine
 10
17.134
 20
50.3756
 30
0.0
 11
18.134
 21
52.1077
 31
0.0
  0
LINE
  5
197
330
1E
100
AcDbEntity
  8
0
100
AcDbLine
 10
17.134
 20
50.3756
 30
0.0
 11
17.7012265751552
 21
51.3580931508263
 31
0.0
  0
LINE
  5
198
330
1E
100
AcDbEntity
  8
0
100
AcDbLine
 10
18.86599999999999
 20
49.3756
 30
0.0
 11
19.866
 21
51.1077
 31
0.0
  0
LINE
  5
199
330
1E
100
AcDbEntity
  8
0
100
AcDbLine
 10
18.86599999999999
 20
49.3756
 30
0.0
 11
19.435766896487
 21
50.3624932414052
 31
0.0
  0
LINE
  5
19A
330
1E
100
AcDbEntity
  8
0
100
AcDbLine
 10
31.134
 20
49.3756
 30
0.0
 11
32.86599999999999
 21
50.3756
 31
0.0
  0
LINE
  5
19B
330
1E
100
AcDbEntity
  8
0
100
AcDbLine
 10
31.134
 20
49.3756
 30
0.0
 11
32.86599999999999
 21
50.3756
 31
0.0
  0
LINE
  5
19C
330
1E
100
AcDbEntity
  8
0
100
AcDbLine
 10
25.0
 20
49.0
 30
0.0
 11
28.328
 21
49.468
 31
0.0
  0
LINE
  5
19D
330
1E
100
AcDbEntity
  8
0
100
AcDbLine
 10
30.56423310351299
 20
50.3624932414052
 30
0.0
 11
31.134
 21
49.3756
 31
0.0
  0
LINE
  5
19E
330
1E
100
AcDbEntity
  8
0
100
AcDbLine
 10
28.328
 20
49.468
 30
0.0
 11
30.56423310351299
 21
50.3624932414052
 31
0.0
  0
LINE
  5
19F
330
1E
100
AcDbEntity
  8
0
100
AcDbLine
 10
28.328
 20
49.468
 30
0.0
 11
30.56423310351299
 21
50.3624932414052
 31
0.0
  0
LINE
  5
1A0
330
1E
100
AcDbEntity
  8
0
100
AcDbLine
 10
21.67199999999999
 20
49.468
 30
0.0
 11
25.0
 21
49.0
 31
0.0
  0
LINE
  5
1A1
330
1E
100
AcDbEntity
  8
0
100
AcDbLine
 10
32.29877342484482
 20
51.35809315082628
 30
0.0
 11
34.204
 21
52.79600000000001
 31
0.0
  0
LINE
  5
1A2
330
1E
100
AcDbEntity
  8
0
100
AcDbLine
 10
25.0
 20
50.8571
 30
0.0
 11
27.8526
 21
51.2583
 31
0.0
  0
LINE
  5
1A3
330
1E
100
AcDbEntity
  8
0
100
AcDbLine
 10
19.435766896487
 20
50.3624932414052
 30
0.0
 11
21.67199999999999
 21
49.468
 31
0.0
  0
LINE
  5
1A4
330
1E
100
AcDbEntity
  8
0
100
AcDbLine
 10
19.435766896487
 20
50.3624932414052
 30
0.0
 11
21.67199999999999
 21
49.468
 31
0.0
  0
LINE
  5
1A5
330
1E
100
AcDbEntity
  8
0
100
AcDbLine
 10
37.53199999999999
 20
35.0
 30
0.0
 11
38.0
 21
35.0
 31
0.0
  0
LINE
  5
1A6
330
1E
100
AcDbEntity
  8
0
100
AcDbLine
 10
57.0
 20
49.0
 30
0.0
 11
57.0
 21
49.468
 31
0.0
  0
LINE
  5
1A7
330
1E
100
AcDbEntity
  8
0
100
AcDbLine
 10
57.0
 20
50.716
 30
0.0
 11
57.0
 21
49.468
 31
0.0
  0
LINE
  5
1A8
330
1E
100
AcDbEntity
  8
0
100
AcDbLine
 10
57.0
 20
50.716
 30
0.0
 11
57.0
 21
52.79600000000001
 31
0.0
  0
LINE
  5
1A9
330
1E
100
AcDbEntity
  8
0
100
AcDbLine
 10
57.0
 20
49.468
 30
0.0
 11
57.0
 21
49.0
 31
0.0
  0
LINE
  5
1AA
330
1E
100
AcDbEntity
  8
0
100
AcDbLine
 10
57.0
 20
49.468
 30
0.0
 11
57.0
 21
50.716
 31
0.0
  0
LINE
  5
1AB
330
1E
100
AcDbEntity
  8
0
100
AcDbLine
 10
38.0
 20
49.0
 30
0.0
 11
57.0
 21
49.0
 31
0.0
  0
LINE
  5
1AC
330
1E
100
AcDbEntity
  8
0
100
AcDbLine
 10
38.0
 20
49.0
 30
0.0
 11
38.0
 21
35.0
 31
0.0
  0
LINE
  5
1AD
330
1E
100
AcDbEntity
  8
0
100
AcDbLine
 10
-0.0000000000000026
 20
60.0
 30
0.0
 11
0.199999999999997
 21
60.0
 31
0.0
  0
LINE
  5
1AE
330
1E
100
AcDbEntity
  8
0
100
AcDbLine
 10
-0.0000000000000026
 20
60.0
 30
0.0
 11
-0.0000000000000026
 21
64.0
 31
0.0
  0
LINE
  5
1AF
330
1E
100
AcDbEntity
  8
0
100
AcDbLine
 10
0.199999999999997
 20
60.0
 30
0.0
 11
0.699999999999998
 21
60.0
 31
0.0
  0
LINE
  5
1B0
330
1E
100
AcDbEntity
  8
0
100
AcDbLine
 10
0.199999999999997
 20
60.0
 30
0.0
 11
0.699999999999998
 21
60.0
 31
0.0
  0
LINE
  5
1B1
330
1E
100
AcDbEntity
  8
0
100
AcDbLine
 10
0.199999999999997
 20
64.0
 30
0.0
 11
0.699999999999998
 21
64.0
 31
0.0
  0
LINE
  5
1B2
330
1E
100
AcDbEntity
  8
0
100
AcDbLine
 10
-0.0000000000000026
 20
64.0
 30
0.0
 11
0.199999999999997
 21
64.0
 31
0.0
  0
LINE
  5
1B3
330
1E
100
AcDbEntity
  8
0
100
AcDbLine
 10
-0.0000000000000026
 20
64.0
 30
0.0
 11
-0.0000000000000026
 21
60.0
 31
0.0
  0
LINE
  5
1B4
330
1E
100
AcDbEntity
  8
0
100
AcDbLine
 10
0.199999999999997
 20
64.0
 30
0.0
 11
0.699999999999998
 21
64.0
 31
0.0
  0
LINE
  5
1B5
330
1E
100
AcDbEntity
  8
0
100
AcDbLine
 10
0.699999999999998
 20
64.0
 30
0.0
 11
1.5
 21
64.0
 31
0.0
  0
LINE
  5
1B6
330
1E
100
AcDbEntity
  8
0
100
AcDbLine
 10
0.699999999999998
 20
60.0
 30
0.0
 11
1.5
 21
60.0
 31
0.0
  0
LINE
  5
1B7
330
1E
100
AcDbEntity
  8
0
100
AcDbLine
 10
2.5
 20
64.0
 30
0.0
 11
12.28125
 21
64.0
 31
0.0
  0
LINE
  5
1B8
330
1E
100
AcDbEntity
  8
0
100
AcDbLine
 10
1.5
 20
60.0
 30
0.0
 11
2.5
 21
60.0
 31
0.0
  0
LINE
  5
1B9
330
1E
100
AcDbEntity
  8
0
100
AcDbLine
 10
1.5
 20
64.0
 30
0.0
 11
2.5
 21
64.0
 31
0.0
  0
LINE
  5
1BA
330
1E
100
AcDbEntity
  8
0
100
AcDbLine
 10
11.0
 20
63.0
 30
0.0
 11
11.0
 21
61.0
 31
0.0
  0
LINE
  5
1BB
330
1E
100
AcDbEntity
  8
0
100
AcDbLine
 10
11.0
 20
63.0
 30
0.0
 11
13.0
 21
63.0
 31
0.0
  0
LINE
  5
1BC
330
1E
100
AcDbEntity
  8
0
100
AcDbLine
 10
11.0
 20
61.0
 30
0.0
 11
13.0
 21
61.0
 31
0.0
  0
LINE
  5
1BD
330
1E
100
AcDbEntity
  8
0
100
AcDbLine
 10
11.0
 20
61.0
 30
0.0
 11
12.140625
 21
61.0
 31
0.0
  0
LINE
  5
1BE
330
1E
100
AcDbEntity
  8
0
100
AcDbLine
 10
11.0
 20
61.0
 30
0.0
 11
11.0
 21
63.0
 31
0.0
  0
LINE
  5
1BF
330
1E
100
AcDbEntity
  8
0
100
AcDbLine
 10
12.140625
 20
61.0
 30
0.0
 11
12.468
 21
58.672
 31
0.0
  0
LINE
  5
1C0
330
1E
100
AcDbEntity
  8
0
100
AcDbLine
 10
12.140625
 20
63.0
 30
0.0
 11
12.468
 21
65.328
 31
0.0
  0
LINE
  5
1C1
330
1E
100
AcDbEntity
  8
0
100
AcDbLine
 10
2.5
 20
60.0
 30
0.0
 11
12.28125
 21
60.0
 31
0.0
  0
LINE
  5
1C2
330
1E
100
AcDbEntity
  8
0
100
AcDbLine
 10
2.5
 20
60.0
 30
0.0
 11
12.0
 21
60.0
 31
0.0
  0
LINE
  5
1C3
330
1E
100
AcDbEntity
  8
0
100
AcDbLine
 10
2.5
 20
60.0
 30
0.0
 11
12.28125
 21
60.0
 31
0.0
  0
LINE
  5
1C4
330
1E
100
AcDbEntity
  8
0
100
AcDbLine
 10
2.5
 20
60.0
 30
0.0
 11
12.0
 21
60.0
 31
0.0
  0
LINE
  5
1C5
330
1E
100
AcDbEntity
  8
0
100
AcDbLine
 10
2.5
 20
64.0
 30
0.0
 11
12.28125
 21
64.0
 31
0.0
  0
LINE
  5
1C6
330
1E
100
AcDbEntity
  8
0
100
AcDbLine
 10
18.134
 20
52.1077
 30
0.0
 11
19.866
 21
51.1077
 31
0.0
  0
LINE
  5
1C7
330
1E
100
AcDbEntity
  8
0
100
AcDbLine
 10
22.1474
 20
51.2583
 30
0.0
 11
25.0
 21
50.8571
 31
0.0
  0
LINE
  5
1C8
330
1E
100
AcDbEntity
  8
0
100
AcDbLine
 10
19.47309999999999
 20
52.32800000000001
 30
0.0
 11
22.1474
 21
51.2583
 31
0.0
  0
LINE
  5
1C9
330
1E
100
AcDbEntity
  8
0
100
AcDbLine
 10
17.1109
 20
54.1109
 30
0.0
 11
19.47309999999999
 21
52.32800000000001
 31
0.0
  0
LINE
  5
1CA
330
1E
100
AcDbEntity
  8
0
100
AcDbLine
 10
15.32799999999999
 20
56.4731
 30
0.0
 11
17.1109
 21
54.1109
 31
0.0
  0
LINE
  5
1CB
330
1E
100
AcDbEntity
  8
0
100
AcDbLine
 10
15.796
 20
52.79600000000001
 30
0.0
 11
17.70122657515518
 21
51.35809315082628
 31
0.0
  0
LINE
  5
1CC
330
1E
100
AcDbEntity
  8
0
100
AcDbLine
 10
13.71599999999999
 20
55.552
 30
0.0
 11
15.796
 21
52.79600000000001
 31
0.0
  0
LINE
  5
1CD
330
1E
100
AcDbEntity
  8
0
100
AcDbLine
 10
13.0
 20
61.0
 30
0.0
 11
13.0
 21
63.0
 31
0.0
  0
LINE
  5
1CE
330
1E
100
AcDbEntity
  8
0
100
AcDbLine
 10
13.0
 20
63.0
 30
0.0
 11
13.0
 21
61.0
 31
0.0
  0
LINE
  5
1CF
330
1E
100
AcDbEntity
  8
0
100
AcDbLine
 10
13.71599999999999
 20
68.44800000000001
 30
0.0
 11
15.796
 21
71.204
 31
0.0
  0
LINE
  5
1D0
330
1E
100
AcDbEntity
  8
0
100
AcDbLine
 10
12.468
 20
65.328
 30
0.0
 11
13.71599999999999
 21
68.44800000000001
 31
0.0
  0
LINE
  5
1D1
330
1E
100
AcDbEntity
  8
0
100
AcDbLine
 10
14.2583
 20
64.8526
 30
0.0
 11
15.32799999999999
 21
67.5269
 31
0.0
  0
LINE
  5
1D2
330
1E
100
AcDbEntity
  8
0
100
AcDbLine
 10
17.1109
 20
69.8891
 30
0.0
 11
19.47309999999999
 21
71.672
 31
0.0
  0
LINE
  5
1D3
330
1E
100
AcDbEntity
  8
0
100
AcDbLine
 10
17.134
 20
73.62439999999999
 30
0.0
 11
17.7012265751552
 21
72.6419068491737
 31
0.0
  0
LINE
  5
1D4
330
1E
100
AcDbEntity
  8
0
100
AcDbLine
 10
18.134
 20
71.89230000000001
 30
0.0
 11
19.866
 21
72.8923
 31
0.0
  0
LINE
  5
1D5
330
1E
100
AcDbEntity
  8
0
100
AcDbLine
 10
17.134
 20
73.62439999999999
 30
0.0
 11
18.86599999999999
 21
74.62439999999999
 31
0.0
  0
LINE
  5
1D6
330
1E
100
AcDbEntity
  8
0
100
AcDbLine
 10
17.134
 20
73.62439999999999
 30
0.0
 11
17.7012265751552
 21
72.6419068491737
 31
0.0
  0
LINE
  5
1D7
330
1E
100
AcDbEntity
  8
0
100
AcDbLine
 10
17.134
 20
73.62439999999999
 30
0.0
 11
18.134
 21
71.89230000000001
 31
0.0
  0
LINE
  5
1D8
330
1E
100
AcDbEntity
  8
0
100
AcDbLine
 10
18.86599999999999
 20
74.62439999999999
 30
0.0
 11
19.866
 21
72.8923
 31
0.0
  0
LINE
  5
1D9
330
1E
100
AcDbEntity
  8
0
100
AcDbLine
 10
18.86599999999999
 20
74.62439999999999
 30
0.0
 11
19.435766896487
 21
73.63750675859479
 31
0.0
  0
LINE
  5
1DA
330
1E
100
AcDbEntity
  8
0
100
AcDbLine
 10
19.435766896487
 20
73.63750675859479
 30
0.0
 11
21.67199999999999
 21
74.53199999999999
 31
0.0
  0
LINE
  5
1DB
330
1E
100
AcDbEntity
  8
0
100
AcDbLine
 10
15.796
 20
71.204
 30
0.0
 11
17.70122657515518
 21
72.64190684917372
 31
0.0
  0
LINE
  5
1DC
330
1E
100
AcDbEntity
  8
0
100
AcDbLine
 10
21.67199999999999
 20
74.53199999999999
 30
0.0
 11
25.0
 21
75.0
 31
0.0
  0
LINE
  5
1DD
330
1E
100
AcDbEntity
  8
0
100
AcDbLine
 10
22.1474
 20
72.74169999999999
 30
0.0
 11
25.0
 21
73.14289999999999
 31
0.0
  0
LINE
  5
1DE
330
1E
100
AcDbEntity
  8
0
100
AcDbLine
 10
19.47309999999999
 20
71.672
 30
0.0
 11
22.1474
 21
72.74169999999999
 31
0.0
  0
LINE
  5
1DF
330
1E
100
AcDbEntity
  8
0
100
AcDbLine
 10
15.32799999999999
 20
67.5269
 30
0.0
 11
17.1109
 21
69.8891
 31
0.0
  0
LINE
  5
1E0
330
1E
100
AcDbEntity
  8
0
100
AcDbLine
 10
25.0
 20
73.14289999999999
 30
0.0
 11
27.8526
 21
72.74169999999999
 31
0.0
  0
LINE
  5
1E1
330
1E
100
AcDbEntity
  8
0
100
AcDbLine
 10
14.2583
 20
59.1474
 30
0.0
 11
15.32799999999999
 21
56.4731
 31
0.0
  0
LINE
  5
1E2
330
1E
100
AcDbEntity
  8
0
100
AcDbLine
 10
13.8571
 20
62.0
 30
0.0
 11
14.2583
 21
59.1474
 31
0.0
  0
LINE
  5
1E3
330
1E
100
AcDbEntity
  8
0
100
AcDbLine
 10
13.8571
 20
62.0
 30
0.0
 11
14.2583
 21
64.8526
 31
0.0
  0
LINE
  5
1E4
330
1E
100
AcDbEntity
  8
0
100
AcDbLine
 10
12.468
 20
58.672
 30
0.0
 11
13.71599999999999
 21
55.552
 31
0.0
  0
LINE
  5
1E5
330
1E
100
AcDbEntity
  8
0
100
AcDbLine
 10
12.0
 20
60.0
 30
0.0
 11
12.0
 21
35.0
 31
0.0
  0
LINE
  5
1E6
330
1E
100
AcDbEntity
  8
0
100
AcDbLine
 10
25.0
 20
75.0
 30
0.0
 11
57.0
 21
75.0
 31
0.0
  0
LINE
  5
1E7
330
1E
100
AcDbEntity
  8
0
100
AcDbLine
 10
30.134
 20
51.1077
 30
0.0
 11
31.134
 21
49.3756
 31
0.0
  0
LINE
  5
1E8
330
1E
100
AcDbEntity
  8
0
100
AcDbLine
 10
30.134
 20
51.1077
 30
0.0
 11
31.866
 21
52.1077
 31
0.0
  0
LINE
  5
1E9
330
1E
100
AcDbEntity
  8
0
100
AcDbLine
 10
31.866
 20
52.1077
 30
0.0
 11
32.86599999999999
 21
50.3756
 31
0.0
  0
LINE
  5
1EA
330
1E
100
AcDbEntity
  8
0
100
AcDbLine
 10
30.5269
 20
52.32800000000001
 30
0.0
 11
32.8891
 21
54.1109
 31
0.0
  0
LINE
  5
1EB
330
1E
100
AcDbEntity
  8
0
100
AcDbLine
 10
34.204
 20
52.79600000000001
 30
0.0
 11
36.284
 21
55.552
 31
0.0
  0
LINE
  5
1EC
330
1E
100
AcDbEntity
  8
0
100
AcDbLine
 10
27.8526
 20
51.2583
 30
0.0
 11
30.5269
 21
52.32800000000001
 31
0.0
  0
LINE
  5
1ED
330
1E
100
AcDbEntity
  8
0
100
AcDbLine
 10
32.8891
 20
54.1109
 30
0.0
 11
34.672
 21
56.4731
 31
0.0
  0
LINE
  5
1EE
330
1E
100
AcDbEntity
  8
0
100
AcDbLine
 10
36.284
 20
55.552
 30
0.0
 11
37.53199999999999
 21
58.672
 31
0.0
  0
LINE
  5
1EF
330
1E
100
AcDbEntity
  8
0
100
AcDbLine
 10
37.53199999999999
 20
58.672
 30
0.0
 11
37.859375
 21
61.0
 31
0.0
  0
LINE
  5
1F0
330
1E
100
AcDbEntity
  8
0
100
AcDbLine
 10
34.672
 20
56.4731
 30
0.0
 11
35.7417
 21
59.1474
 31
0.0
  0
LINE
  5
1F1
330
1E
100
AcDbEntity
  8
0
100
AcDbLine
 10
34.672
 20
67.5269
 30
0.0
 11
35.7417
 21
64.8526
 31
0.0
  0
LINE
  5
1F2
330
1E
100
AcDbEntity
  8
0
100
AcDbLine
 10
37.0
 20
61.0
 30
0.0
 11
39.0
 21
61.0
 31
0.0
  0
LINE
  5
1F3
330
1E
100
AcDbEntity
  8
0
100
AcDbLine
 10
37.0
 20
61.0
 30
0.0
 11
37.0
 21
63.0
 31
0.0
  0
LINE
  5
1F4
330
1E
100
AcDbEntity
  8
0
100
AcDbLine
 10
37.0
 20
63.0
 30
0.0
 11
39.0
 21
63.0
 31
0.0
  0
LINE
  5
1F5
330
1E
100
AcDbEntity
  8
0
100
AcDbLine
 10
37.0
 20
63.0
 30
0.0
 11
37.0
 21
61.0
 31
0.0
  0
LINE
  5
1F6
330
1E
100
AcDbEntity
  8
0
100
AcDbLine
 10
35.7417
 20
64.8526
 30
0.0
 11
36.1429
 21
62.0
 31
0.0
  0
LINE
  5
1F7
330
1E
100
AcDbEntity
  8
0
100
AcDbLine
 10
36.284
 20
68.44800000000001
 30
0.0
 11
37.53199999999999
 21
65.328
 31
0.0
  0
LINE
  5
1F8
330
1E
100
AcDbEntity
  8
0
100
AcDbLine
 10
37.859375
 20
61.0
 30
0.0
 11
39.0
 21
61.0
 31
0.0
  0
LINE
  5
1F9
330
1E
100
AcDbEntity
  8
0
100
AcDbLine
 10
39.0
 20
63.0
 30
0.0
 11
39.0
 21
61.0
 31
0.0
  0
LINE
  5
1FA
330
1E
100
AcDbEntity
  8
0
100
AcDbLine
 10
39.0
 20
61.0
 30
0.0
 11
39.0
 21
63.0
 31
0.0
  0
LINE
  5
1FB
330
1E
100
AcDbEntity
  8
0
100
AcDbLine
 10
37.53199999999999
 20
65.328
 30
0.0
 11
37.859375
 21
63.0
 31
0.0
  0
LINE
  5
1FC
330
1E
100
AcDbEntity
  8
0
100
AcDbLine
 10
35.7417
 20
59.1474
 30
0.0
 11
36.1429
 21
62.0
 31
0.0
  0
LINE
  5
1FD
330
1E
100
AcDbEntity
  8
0
100
AcDbLine
 10
57.0
 20
65.328
 30
0.0
 11
57.0
 21
62.0
 31
0.0
  0
LINE
  5
1FE
330
1E
100
AcDbEntity
  8
0
100
AcDbLine
 10
57.0
 20
65.328
 30
0.0
 11
57.0
 21
68.44800000000001
 31
0.0
  0
LINE
  5
1FF
330
1E
100
AcDbEntity
  8
0
100
AcDbLine
 10
30.134
 20
72.8923
 30
0.0
 11
31.134
 21
74.62439999999999
 31
0.0
  0
LINE
  5
200
330
1E
100
AcDbEntity
  8
0
100
AcDbLine
 10
30.134
 20
72.8923
 30
0.0
 11
31.866
 21
71.89230000000001
 31
0.0
  0
LINE
  5
201
330
1E
100
AcDbEntity
  8
0
100
AcDbLine
 10
32.29877342484479
 20
72.6419068491737
 30
0.0
 11
32.86599999999999
 21
73.62439999999999
 31
0.0
  0
LINE
  5
202
330
1E
100
AcDbEntity
  8
0
100
AcDbLine
 10
31.866
 20
71.89230000000001
 30
0.0
 11
32.86599999999999
 21
73.62439999999999
 31
0.0
  0
LINE
  5
203
330
1E
100
AcDbEntity
  8
0
100
AcDbLine
 10
27.8526
 20
72.74169999999999
 30
0.0
 11
30.5269
 21
71.672
 31
0.0
  0
LINE
  5
204
330
1E
100
AcDbEntity
  8
0
100
AcDbLine
 10
30.5269
 20
71.672
 30
0.0
 11
32.8891
 21
69.8891
 31
0.0
  0
LINE
  5
205
330
1E
100
AcDbEntity
  8
0
100
AcDbLine
 10
32.8891
 20
69.8891
 30
0.0
 11
34.672
 21
67.5269
 31
0.0
  0
LINE
  5
206
330
1E
100
AcDbEntity
  8
0
100
AcDbLine
 10
32.29877342484479
 20
72.6419068491737
 30
0.0
 11
34.204
 21
71.204
 31
0.0
  0
LINE
  5
207
330
1E
100
AcDbEntity
  8
0
100
AcDbLine
 10
34.204
 20
71.204
 30
0.0
 11
36.284
 21
68.44800000000001
 31
0.0
  0
LINE
  5
208
330
1E
100
AcDbEntity
  8
0
100
AcDbLine
 10
57.0
 20
68.44800000000001
 30
0.0
 11
57.0
 21
65.328
 31
0.0
  0
LINE
  5
209
330
1E
100
AcDbEntity
  8
0
100
AcDbLine
 10
57.0
 20
68.44800000000001
 30
0.0
 11
57.0
 21
71.204
 31
0.0
  0
LINE
  5
20A
330
1E
100
AcDbEntity
  8
0
100
AcDbLine
 10
57.0
 20
71.204
 30
0.0
 11
57.0
 21
68.44800000000001
 31
0.0
  0
LINE
  5
20B
330
1E
100
AcDbEntity
  8
0
100
AcDbLine
 10
57.0
 20
71.204
 30
0.0
 11
57.0
 21
73.28399999999999
 31
0.0
  0
LINE
  5
20C
330
1E
100
AcDbEntity
  8
0
100
AcDbLine
 10
30.56423310351299
 20
73.63750675859479
 30
0.0
 11
31.134
 21
74.62439999999999
 31
0.0
  0
LINE
  5
20D
330
1E
100
AcDbEntity
  8
0
100
AcDbLine
 10
31.134
 20
74.62439999999999
 30
0.0
 11
32.86599999999999
 21
73.62439999999999
 31
0.0
  0
LINE
  5
20E
330
1E
100
AcDbEntity
  8
0
100
AcDbLine
 10
28.328
 20
74.53199999999999
 30
0.0
 11
30.56423310351299
 21
73.63750675859479
 31
0.0
  0
LINE
  5
20F
330
1E
100
AcDbEntity
  8
0
100
AcDbLine
 10
57.0
 20
73.28399999999999
 30
0.0
 11
57.0
 21
71.204
 31
0.0
  0
LINE
  5
210
330
1E
100
AcDbEntity
  8
0
100
AcDbLine
 10
57.0
 20
73.28399999999999
 30
0.0
 11
57.0
 21
74.53199999999999
 31
0.0
  0
LINE
  5
211
330
1E
100
AcDbEntity
  8
0
100
AcDbLine
 10
57.0
 20
74.53199999999999
 30
0.0
 11
57.0
 21
73.28399999999999
 31
0.0
  0
LINE
  5
212
330
1E
100
AcDbEntity
  8
0
100
AcDbLine
 10
57.0
 20
74.53199999999999
 30
0.0
 11
57.0
 21
75.0
 31
0.0
  0
LINE
  5
213
330
1E
100
AcDbEntity
  8
0
100
AcDbLine
 10
57.0
 20
75.0
 30
0.0
 11
57.0
 21
74.53199999999999
 31
0.0
  0
LINE
  5
214
330
1E
100
AcDbEntity
  8
0
100
AcDbLine
 10
57.0
 20
62.0
 30
0.0
 11
57.0
 21
58.672
 31
0.0
  0
LINE
  5
215
330
1E
100
AcDbEntity
  8
0
100
AcDbLine
 10
57.0
 20
62.0
 30
0.0
 11
57.0
 21
65.328
 31
0.0
  0
LINE
  5
216
330
1E
100
AcDbEntity
  8
0
100
AcDbLine
 10
57.0
 20
58.672
 30
0.0
 11
57.0
 21
55.552
 31
0.0
  0
LINE
  5
217
330
1E
100
AcDbEntity
  8
0
100
AcDbLine
 10
57.0
 20
58.672
 30
0.0
 11
57.0
 21
62.0
 31
0.0
  0
LINE
  5
218
330
1E
100
AcDbEntity
  8
0
100
AcDbLine
 10
57.0
 20
55.552
 30
0.0
 11
57.0
 21
52.79600000000001
 31
0.0
  0
LINE
  5
219
330
1E
100
AcDbEntity
  8
0
100
AcDbLine
 10
57.0
 20
55.552
 30
0.0
 11
57.0
 21
58.672
 31
0.0
  0
LINE
  5
21A
330
1E
100
AcDbEntity
  8
0
100
AcDbLine
 10
57.0
 20
52.79600000000001
 30
0.0
 11
57.0
 21
50.716
 31
0.0
  0
LINE
  5
21B
330
1E
100
AcDbEntity
  8
0
100
AcDbLine
 10
57.0
 20
52.79600000000001
 30
0.0
 11
57.0
 21
55.552
 31
0.0
  0
LINE
  5
21C
330
1E
100
AcDbEntity
  8
0
100
AcDbLine
 10
25.0
 20
75.0
 30
0.0
 11
57.0
 21
75.0
 31
0.0
  0
LINE
  5
21D
330
1E
100
AcDbEntity
  8
0
100
AcDbLine
 10
25.0
 20
75.0
 30
0.0
 11
28.328
 21
74.53199999999999
 31
0.0
  0
LINE
  5
21E
330
1E
100
AcDbEntity
  8
0
100
AcDbLine
 10
57.0
 20
51.0
 30
0.0
 11
97.0
 21
51.0
 31
0.0
  0
LINE
  5
21F
330
1E
100
AcDbEntity
  8
0
100
AcDbLine
 10
97.0
 20
50.716
 30
0.0
 11
97.0
 21
51.0
 31
0.0
  0
LINE
  5
220
330
1E
100
AcDbEntity
  8
0
100
AcDbLine
 10
97.0
 20
50.716
 30
0.0
 11
97.0
 21
49.468
 31
0.0
  0
LINE
  5
221
330
1E
100
AcDbEntity
  8
0
100
AcDbLine
 10
97.0
 20
50.716
 30
0.0
 11
97.0
 21
52.79600000000001
 31
0.0
  0
LINE
  5
222
330
1E
100
AcDbEntity
  8
0
100
AcDbLine
 10
97.0
 20
49.468
 30
0.0
 11
97.0
 21
50.716
 31
0.0
  0
LINE
  5
223
330
1E
100
AcDbEntity
  8
0
100
AcDbLine
 10
97.0
 20
49.468
 30
0.0
 11
97.0
 21
49.0
 31
0.0
  0
LINE
  5
224
330
1E
100
AcDbEntity
  8
0
100
AcDbLine
 10
115.263
 20
27.0
 30
0.0
 11
115.632
 21
27.0
 31
0.0
  0
LINE
  5
225
330
1E
100
AcDbEntity
  8
0
100
AcDbLine
 10
115.632
 20
27.0
 30
0.0
 11
116.5789999999999
 21
27.0
 31
0.0
  0
LINE
  5
226
330
1E
100
AcDbEntity
  8
0
100
AcDbLine
 10
113.0
 20
35.0
 30
0.0
 11
113.0
 21
33.3
 31
0.0
  0
LINE
  5
227
330
1E
100
AcDbEntity
  8
0
100
AcDbLine
 10
113.0
 20
35.0
 30
0.0
 11
113.4319999999999
 21
35.0
 31
0.0
  0
LINE
  5
228
330
1E
100
AcDbEntity
  8
0
100
AcDbLine
 10
113.2879999999999
 20
33.0
 30
0.0
 11
113.7199999999999
 21
33.0
 31
0.0
  0
LINE
  5
229
330
1E
100
AcDbEntity
  8
0
100
AcDbLine
 10
113.0
 20
33.3
 30
0.0
 11
113.4319999999999
 21
33.3
 31
0.0
  0
LINE
  5
22A
330
1E
100
AcDbEntity
  8
0
100
AcDbLine
 10
113.0
 20
33.3
 30
0.0
 11
113.2879999999999
 21
33.0
 31
0.0
  0
LINE
  5
22B
330
1E
100
AcDbEntity
  8
0
100
AcDbLine
 10
113.0
 20
33.3
 30
0.0
 11
113.0
 21
35.0
 31
0.0
  0
LINE
  5
22C
330
1E
100
AcDbEntity
  8
0
100
AcDbLine
 10
113.4319999999999
 20
35.0
 30
0.0
 11
114.5839999999999
 21
35.0
 31
0.0
  0
LINE
  5
22D
330
1E
100
AcDbEntity
  8
0
100
AcDbLine
 10
113.7199999999999
 20
33.0
 30
0.0
 11
114.872
 21
33.0
 31
0.0
  0
LINE
  5
22E
330
1E
100
AcDbEntity
  8
0
100
AcDbLine
 10
113.4319999999999
 20
33.3
 30
0.0
 11
114.5839999999999
 21
33.3
 31
0.0
  0
LINE
  5
22F
330
1E
100
AcDbEntity
  8
0
100
AcDbLine
 10
114.5839999999999
 20
35.0
 30
0.0
 11
116.5039999999999
 21
35.0
 31
0.0
  0
LINE
  5
230
330
1E
100
AcDbEntity
  8
0
100
AcDbLine
 10
114.872
 20
33.0
 30
0.0
 11
116.744
 21
33.0
 31
0.0
  0
LINE
  5
231
330
1E
100
AcDbEntity
  8
0
100
AcDbLine
 10
114.872
 20
33.0
 30
0.0
 11
115.0
 21
33.0
 31
0.0
  0
LINE
  5
232
330
1E
100
AcDbEntity
  8
0
100
AcDbLine
 10
114.5839999999999
 20
33.3
 30
0.0
 11
116.5039999999999
 21
33.3
 31
0.0
  0
LINE
  5
233
330
1E
100
AcDbEntity
  8
0
100
AcDbLine
 10
115.0
 20
27.61225
 30
0.0
 11
115.0
 21
27.14694
 31
0.0
  0
LINE
  5
234
330
1E
100
AcDbEntity
  8
0
100
AcDbLine
 10
115.0
 20
27.61225
 30
0.0
 11
115.2109999999999
 21
27.61225
 31
0.0
  0
LINE
  5
235
330
1E
100
AcDbEntity
  8
0
100
AcDbLine
 10
115.0
 20
27.61225
 30
0.0
 11
115.0
 21
33.0
 31
0.0
  0
LINE
  5
236
330
1E
100
AcDbEntity
  8
0
100
AcDbLine
 10
115.0
 20
27.14694
 30
0.0
 11
115.0
 21
27.61225
 31
0.0
  0
LINE
  5
237
330
1E
100
AcDbEntity
  8
0
100
AcDbLine
 10
115.0
 20
27.14694
 30
0.0
 11
115.0
 21
27.06122
 31
0.0
  0
LINE
  5
239
330
1E
100
AcDbEntity
  8
0
100
AcDbLine
 10
115.2109999999999
 20
27.61225
 30
0.0
 11
115.857
 21
27.61225
 31
0.0
  0
LINE
  5
23A
330
1E
100
AcDbEntity
  8
0
100
AcDbLine
 10
115.257
 20
33.0
 30
0.0
 11
115.857
 21
33.0
 31
0.0
  0
LINE
  5
23B
330
1E
100
AcDbEntity
  8
0
100
AcDbLine
 10
115.0
 20
33.0
 30
0.0
 11
115.0
 21
27.61225
 31
0.0
  0
LINE
  5
23C
330
1E
100
AcDbEntity
  8
0
100
AcDbLine
 10
115.0
 20
33.0
 30
0.0
 11
115.257
 21
33.0
 31
0.0
  0
LINE
  5
23D
330
1E
100
AcDbEntity
  8
0
100
AcDbLine
 10
115.0
 20
27.06122
 30
0.0
 11
115.0
 21
27.14694
 31
0.0
  0
LINE
  5
23E
330
1E
100
AcDbEntity
  8
0
100
AcDbLine
 10
115.0
 20
27.06122
 30
0.0
 11
115.263
 21
27.0
 31
0.0
  0
LINE
  5
23F
330
1E
100
AcDbEntity
  8
0
100
AcDbLine
 10
116.5789999999999
 20
27.0
 30
0.0
 11
118.105
 21
27.0
 31
0.0
  0
LINE
  5
240
330
1E
100
AcDbEntity
  8
0
100
AcDbLine
 10
117.4039999999999
 20
27.0
 30
0.0
 11
118.087
 21
27.0
 31
0.0
  0
LINE
  5
241
330
1E
100
AcDbEntity
  8
0
100
AcDbLine
 10
117.342
 20
27.0
 30
0.0
 11
117.965
 21
27.0
 31
0.0
  0
LINE
  5
242
330
1E
100
AcDbEntity
  8
0
100
AcDbLine
 10
118.105
 20
27.0
 30
0.0
 11
120.1579999999999
 21
27.0
 31
0.0
  0
LINE
  5
243
330
1E
100
AcDbEntity
  8
0
100
AcDbLine
 10
119.33
 20
27.0
 30
0.0
 11
121.0679999999999
 21
27.0
 31
0.0
  0
LINE
  5
244
330
1E
100
AcDbEntity
  8
0
100
AcDbLine
 10
120.1579999999999
 20
27.0
 30
0.0
 11
122.4739999999999
 21
27.0
 31
0.0
  0
LINE
  5
245
330
1E
100
AcDbEntity
  8
0
100
AcDbLine
 10
118.087
 20
27.0
 30
0.0
 11
119.33
 21
27.0
 31
0.0
  0
LINE
  5
246
330
1E
100
AcDbEntity
  8
0
100
AcDbLine
 10
117.965
 20
27.0
 30
0.0
 11
119.185
 21
27.0
 31
0.0
  0
LINE
  5
247
330
1E
100
AcDbEntity
  8
0
100
AcDbLine
 10
119.185
 20
27.0
 30
0.0
 11
120.882
 21
27.0
 31
0.0
  0
LINE
  5
248
330
1E
100
AcDbEntity
  8
0
100
AcDbLine
 10
121.0679999999999
 20
27.0
 30
0.0
 11
123.0329999999999
 21
27.0
 31
0.0
  0
LINE
  5
249
330
1E
100
AcDbEntity
  8
0
100
AcDbLine
 10
120.882
 20
27.0
 30
0.0
 11
122.721
 21
27.0
 31
0.0
  0
LINE
  5
24A
330
1E
100
AcDbEntity
  8
0
100
AcDbLine
 10
117.526
 20
27.22262999999999
 30
0.0
 11
119.91
 21
27.12375
 31
0.0
  0
LINE
  5
24B
330
1E
100
AcDbEntity
  8
0
100
AcDbLine
 10
116.744
 20
33.0
 30
0.0
 11
119.192
 21
33.0
 31
0.0
  0
LINE
  5
24C
330
1E
100
AcDbEntity
  8
0
100
AcDbLine
 10
119.192
 20
33.0
 30
0.0
 11
121.9759999999999
 21
33.0
 31
0.0
  0
LINE
  5
24D
330
1E
100
AcDbEntity
  8
0
100
AcDbLine
 10
119.91
 20
33.0
 30
0.0
 11
122.28
 21
33.0
 31
0.0
  0
LINE
  5
24E
330
1E
100
AcDbEntity
  8
0
100
AcDbLine
 10
116.5039999999999
 20
35.0
 30
0.0
 11
119.0479999999999
 21
35.0
 31
0.0
  0
LINE
  5
24F
330
1E
100
AcDbEntity
  8
0
100
AcDbLine
 10
116.5039999999999
 20
33.3
 30
0.0
 11
119.0479999999999
 21
33.3
 31
0.0
  0
LINE
  5
250
330
1E
100
AcDbEntity
  8
0
100
AcDbLine
 10
119.0479999999999
 20
35.0
 30
0.0
 11
121.9279999999999
 21
35.0
 31
0.0
  0
LINE
  5
251
330
1E
100
AcDbEntity
  8
0
100
AcDbLine
 10
119.0479999999999
 20
33.3
 30
0.0
 11
121.9279999999999
 21
33.3
 31
0.0
  0
LINE
  5
252
330
1E
100
AcDbEntity
  8
0
100
AcDbLine
 10
117.526
 20
33.0
 30
0.0
 11
119.91
 21
33.0
 31
0.0
  0
LINE
  5
253
330
1E
100
AcDbEntity
  8
0
100
AcDbLine
 10
115.857
 20
33.0
 30
0.0
 11
117.526
 21
33.0
 31
0.0
  0
LINE
  5
254
330
1E
100
AcDbEntity
  8
0
100
AcDbLine
 10
115.857
 20
27.61225
 30
0.0
 11
117.526
 21
27.22262999999999
 31
0.0
  0
LINE
  5
256
330
1E
100
AcDbEntity
  8
0
100
AcDbLine
 10
119.91
 20
27.12375
 30
0.0
 11
122.28
 21
27.25629
 31
0.0
  0
LINE
  5
258
330
1E
100
AcDbEntity
  8
0
100
AcDbLine
 10
117.135
 20
27.0
 30
0.0
 11
117.342
 21
27.0
 31
0.0
  0
LINE
  5
259
330
1E
100
AcDbEntity
  8
0
100
AcDbLine
 10
117.135
 20
27.0
 30
0.0
 11
117.4039999999999
 21
27.0
 31
0.0
  0
LINE
  5
25A
330
1E
100
AcDbEntity
  8
0
100
AcDbLine
 10
121.9759999999999
 20
33.0
 30
0.0
 11
125.0
 21
33.0
 31
0.0
  0
LINE
  5
25B
330
1E
100
AcDbEntity
  8
0
100
AcDbLine
 10
121.9279999999999
 20
35.0
 30
0.0
 11
125.0
 21
35.0
 31
0.0
  0
LINE
  5
25C
330
1E
100
AcDbEntity
  8
0
100
AcDbLine
 10
121.9279999999999
 20
33.3
 30
0.0
 11
125.0
 21
33.3
 31
0.0
  0
LINE
  5
25D
330
1E
100
AcDbEntity
  8
0
100
AcDbLine
 10
122.28
 20
33.0
 30
0.0
 11
123.764
 21
33.0
 31
0.0
  0
LINE
  5
25E
330
1E
100
AcDbEntity
  8
0
100
AcDbLine
 10
122.4739999999999
 20
27.0
 30
0.0
 11
125.0
 21
27.0
 31
0.0
  0
LINE
  5
25F
330
1E
100
AcDbEntity
  8
0
100
AcDbLine
 10
123.0329999999999
 20
27.0
 30
0.0
 11
125.04
 21
27.0
 31
0.0
  0
LINE
  5
261
330
1E
100
AcDbEntity
  8
0
100
AcDbLine
 10
123.764
 20
27.61225
 30
0.0
 11
125.0
 21
27.61225
 31
0.0
  0
LINE
  5
262
330
1E
100
AcDbEntity
  8
0
100
AcDbLine
 10
122.721
 20
27.0
 30
0.0
 11
124.9339999999999
 21
27.0
 31
0.0
  0
LINE
  5
263
330
1E
100
AcDbEntity
  8
0
100
AcDbLine
 10
124.9339999999999
 20
27.0
 30
0.0
 11
127.0229999999999
 21
27.0
 31
0.0
  0
LINE
  5
264
330
1E
100
AcDbEntity
  8
0
100
AcDbLine
 10
127.0299999999999
 20
27.0
 30
0.0
 11
128.9739999999999
 21
27.0
 31
0.0
  0
LINE
  5
265
330
1E
100
AcDbEntity
  8
0
100
AcDbLine
 10
127.0229999999999
 20
27.0
 30
0.0
 11
128.9889999999999
 21
27.0
 31
0.0
  0
LINE
  5
267
330
1E
100
AcDbEntity
  8
0
100
AcDbLine
 10
127.526
 20
27.0
 30
0.0
 11
129.842
 21
27.0
 31
0.0
  0
LINE
  5
269
330
1E
100
AcDbEntity
  8
0
100
AcDbLine
 10
125.04
 20
27.0
 30
0.0
 11
127.0299999999999
 21
27.0
 31
0.0
  0
LINE
  5
26A
330
1E
100
AcDbEntity
  8
0
100
AcDbLine
 10
125.0
 20
27.0
 30
0.0
 11
127.526
 21
27.0
 31
0.0
  0
LINE
  5
26B
330
1E
100
AcDbEntity
  8
0
100
AcDbLine
 10
125.0
 20
33.0
 30
0.0
 11
125.5779999999999
 21
33.0
 31
0.0
  0
LINE
  5
26C
330
1E
100
AcDbEntity
  8
0
100
AcDbLine
 10
125.0
 20
33.0
 30
0.0
 11
128.024
 21
33.0
 31
0.0
  0
LINE
  5
26E
330
1E
100
AcDbEntity
  8
0
100
AcDbLine
 10
125.0
 20
27.61225
 30
0.0
 11
126.236
 21
27.61225
 31
0.0
  0
LINE
  5
26F
330
1E
100
AcDbEntity
  8
0
100
AcDbLine
 10
125.5779999999999
 20
33.0
 30
0.0
 11
126.236
 21
33.0
 31
0.0
  0
LINE
  5
270
330
1E
100
AcDbEntity
  8
0
100
AcDbLine
 10
126.236
 20
33.0
 30
0.0
 11
127.72
 21
33.0
 31
0.0
  0
LINE
  5
271
330
1E
100
AcDbEntity
  8
0
100
AcDbLine
 10
126.236
 20
27.61225
 30
0.0
 11
127.72
 21
27.25629
 31
0.0
  0
LINE
  5
272
330
1E
100
AcDbEntity
  8
0
100
AcDbLine
 10
127.72
 20
33.0
 30
0.0
 11
130.09
 21
33.0
 31
0.0
  0
LINE
  5
273
330
1E
100
AcDbEntity
  8
0
100
AcDbLine
 10
128.024
 20
33.0
 30
0.0
 11
130.8079999999999
 21
33.0
 31
0.0
  0
LINE
  5
274
330
1E
100
AcDbEntity
  8
0
100
AcDbLine
 10
127.72
 20
27.25629
 30
0.0
 11
130.09
 21
27.12375
 31
0.0
  0
LINE
  5
277
330
1E
100
AcDbEntity
  8
0
100
AcDbLine
 10
124.422
 20
33.0
 30
0.0
 11
125.0
 21
33.0
 31
0.0
  0
LINE
  5
278
330
1E
100
AcDbEntity
  8
0
100
AcDbLine
 10
125.0
 20
33.3
 30
0.0
 11
128.072
 21
33.3
 31
0.0
  0
LINE
  5
279
330
1E
100
AcDbEntity
  8
0
100
AcDbLine
 10
128.072
 20
35.0
 30
0.0
 11
130.952
 21
35.0
 31
0.0
  0
LINE
  5
27A
330
1E
100
AcDbEntity
  8
0
100
AcDbLine
 10
128.072
 20
33.3
 30
0.0
 11
130.952
 21
33.3
 31
0.0
  0
LINE
  5
27B
330
1E
100
AcDbEntity
  8
0
100
AcDbLine
 10
123.764
 20
33.0
 30
0.0
 11
124.422
 21
33.0
 31
0.0
  0
LINE
  5
27D
330
1E
100
AcDbEntity
  8
0
100
AcDbLine
 10
122.28
 20
27.25629
 30
0.0
 11
123.764
 21
27.61225
 31
0.0
  0
LINE
  5
27E
330
1E
100
AcDbEntity
  8
0
100
AcDbLine
 10
125.0
 20
35.0
 30
0.0
 11
128.3279999999999
 21
35.0
 31
0.0
  0
LINE
  5
27F
330
1E
100
AcDbEntity
  8
0
100
AcDbLine
 10
125.0
 20
35.0
 30
0.0
 11
128.072
 21
35.0
 31
0.0
  0
LINE
  5
280
330
1E
100
AcDbEntity
  8
0
100
AcDbLine
 10
128.9889999999999
 20
27.0
 30
0.0
 11
130.8149999999999
 21
27.0
 31
0.0
  0
LINE
  5
281
330
1E
100
AcDbEntity
  8
0
100
AcDbLine
 10
129.842
 20
27.0
 30
0.0
 11
131.895
 21
27.0
 31
0.0
  0
LINE
  5
283
330
1E
100
AcDbEntity
  8
0
100
AcDbLine
 10
128.9739999999999
 20
27.0
 30
0.0
 11
130.712
 21
27.0
 31
0.0
  0
LINE
  5
284
330
1E
100
AcDbEntity
  8
0
100
AcDbLine
 10
130.09
 20
33.0
 30
0.0
 11
132.474
 21
33.0
 31
0.0
  0
LINE
  5
285
330
1E
100
AcDbEntity
  8
0
100
AcDbLine
 10
131.891
 20
27.0
 30
0.0
 11
132.615
 21
27.0
 31
0.0
  0
LINE
  5
286
330
1E
100
AcDbEntity
  8
0
100
AcDbLine
 10
130.8149999999999
 20
27.0
 30
0.0
 11
132.0359999999999
 21
27.0
 31
0.0
  0
LINE
  5
287
330
1E
100
AcDbEntity
  8
0
100
AcDbLine
 10
132.0359999999999
 20
27.0
 30
0.0
 11
132.615
 21
27.0
 31
0.0
  0
LINE
  5
288
330
1E
100
AcDbEntity
  8
0
100
AcDbLine
 10
130.712
 20
27.0
 30
0.0
 11
131.891
 21
27.0
 31
0.0
  0
LINE
  5
289
330
1E
100
AcDbEntity
  8
0
100
AcDbLine
 10
130.8079999999999
 20
33.0
 30
0.0
 11
133.2559999999999
 21
33.0
 31
0.0
  0
LINE
  5
28A
330
1E
100
AcDbEntity
  8
0
100
AcDbLine
 10
131.895
 20
27.0
 30
0.0
 11
133.4209999999999
 21
27.0
 31
0.0
  0
LINE
  5
28B
330
1E
100
AcDbEntity
  8
0
100
AcDbLine
 10
130.09
 20
27.12375
 30
0.0
 11
132.474
 21
27.22262999999999
 31
0.0
  0
LINE
  5
28D
330
1E
100
AcDbEntity
  8
0
100
AcDbLine
 10
132.474
 20
33.0
 30
0.0
 11
134.143
 21
33.0
 31
0.0
  0
LINE
  5
28E
330
1E
100
AcDbEntity
  8
0
100
AcDbLine
 10
133.4209999999999
 20
27.0
 30
0.0
 11
134.3679999999999
 21
27.0
 31
0.0
  0
LINE
  5
28F
330
1E
100
AcDbEntity
  8
0
100
AcDbLine
 10
132.615
 20
27.0
 30
0.0
 11
132.842
 21
27.0
 31
0.0
  0
LINE
  5
290
330
1E
100
AcDbEntity
  8
0
100
AcDbLine
 10
133.2559999999999
 20
33.0
 30
0.0
 11
135.1279999999999
 21
33.0
 31
0.0
  0
LINE
  5
291
330
1E
100
AcDbEntity
  8
0
100
AcDbLine
 10
134.143
 20
27.61225
 30
0.0
 11
134.7899999999999
 21
27.61225
 31
0.0
  0
LINE
  5
294
330
1E
100
AcDbEntity
  8
0
100
AcDbLine
 10
132.474
 20
27.22262999999999
 30
0.0
 11
134.143
 21
27.61225
 31
0.0
  0
LINE
  5
295
330
1E
100
AcDbEntity
  8
0
100
AcDbLine
 10
130.952
 20
35.0
 30
0.0
 11
133.496
 21
35.0
 31
0.0
  0
LINE
  5
296
330
1E
100
AcDbEntity
  8
0
100
AcDbLine
 10
133.496
 20
35.0
 30
0.0
 11
135.416
 21
35.0
 31
0.0
  0
LINE
  5
297
330
1E
100
AcDbEntity
  8
0
100
AcDbLine
 10
133.496
 20
33.3
 30
0.0
 11
135.416
 21
33.3
 31
0.0
  0
LINE
  5
298
330
1E
100
AcDbEntity
  8
0
100
AcDbLine
 10
130.952
 20
33.3
 30
0.0
 11
133.496
 21
33.3
 31
0.0
  0
LINE
  5
299
330
1E
100
AcDbEntity
  8
0
100
AcDbLine
 10
134.143
 20
33.0
 30
0.0
 11
134.7429999999999
 21
33.0
 31
0.0
  0
LINE
  5
29A
330
1E
100
AcDbEntity
  8
0
100
AcDbLine
 10
128.3279999999999
 20
35.0
 30
0.0
 11
131.4479999999999
 21
35.0
 31
0.0
  0
LINE
  5
29B
330
1E
100
AcDbEntity
  8
0
100
AcDbLine
 10
131.4479999999999
 20
35.0
 30
0.0
 11
134.204
 21
35.0
 31
0.0
  0
LINE
  5
29C
330
1E
100
AcDbEntity
  8
0
100
AcDbLine
 10
135.0
 20
27.06122
 30
0.0
 11
135.0
 21
27.14694
 31
0.0
  0
LINE
  5
29D
330
1E
100
AcDbEntity
  8
0
100
AcDbLine
 10
134.7369999999999
 20
27.0
 30
0.0
 11
135.0
 21
27.06122
 31
0.0
  0
LINE
  5
29E
330
1E
100
AcDbEntity
  8
0
100
AcDbLine
 10
134.3679999999999
 20
27.0
 30
0.0
 11
134.7369999999999
 21
27.0
 31
0.0
  0
LINE
  5
29F
330
1E
100
AcDbEntity
  8
0
100
AcDbLine
 10
134.7899999999999
 20
27.61225
 30
0.0
 11
135.0
 21
27.61225
 31
0.0
  0
LINE
  5
2A0
330
1E
100
AcDbEntity
  8
0
100
AcDbLine
 10
134.7429999999999
 20
33.0
 30
0.0
 11
135.0
 21
33.0
 31
0.0
  0
LINE
  5
2A1
330
1E
100
AcDbEntity
  8
0
100
AcDbLine
 10
135.0
 20
33.0
 30
0.0
 11
135.0
 21
28.22449
 31
0.0
  0
LINE
  5
2A2
330
1E
100
AcDbEntity
  8
0
100
AcDbLine
 10
135.0
 20
33.0
 30
0.0
 11
135.1279999999999
 21
33.0
 31
0.0
  0
LINE
  5
2A3
330
1E
100
AcDbEntity
  8
0
100
AcDbLine
 10
135.0
 20
28.22449
 30
0.0
 11
135.0
 21
27.61225
 31
0.0
  0
LINE
  5
2A4
330
1E
100
AcDbEntity
  8
0
100
AcDbLine
 10
135.0
 20
28.22449
 30
0.0
 11
135.0
 21
33.0
 31
0.0
  0
LINE
  5
2A5
330
1E
100
AcDbEntity
  8
0
100
AcDbLine
 10
136.712
 20
33.0
 30
0.0
 11
137.0
 21
33.3
 31
0.0
  0
LINE
  5
2A6
330
1E
100
AcDbEntity
  8
0
100
AcDbLine
 10
136.28
 20
33.0
 30
0.0
 11
136.712
 21
33.0
 31
0.0
  0
LINE
  5
2A7
330
1E
100
AcDbEntity
  8
0
100
AcDbLine
 10
135.416
 20
35.0
 30
0.0
 11
136.5679999999999
 21
35.0
 31
0.0
  0
LINE
  5
2A8
330
1E
100
AcDbEntity
  8
0
100
AcDbLine
 10
136.5679999999999
 20
33.3
 30
0.0
 11
137.0
 21
33.3
 31
0.0
  0
LINE
  5
2A9
330
1E
100
AcDbEntity
  8
0
100
AcDbLine
 10
136.5679999999999
 20
35.0
 30
0.0
 11
137.0
 21
35.0
 31
0.0
  0
LINE
  5
2AA
330
1E
100
AcDbEntity
  8
0
100
AcDbLine
 10
137.0
 20
33.3
 30
0.0
 11
137.0
 21
35.0
 31
0.0
  0
LINE
  5
2AB
330
1E
100
AcDbEntity
  8
0
100
AcDbLine
 10
135.416
 20
33.3
 30
0.0
 11
136.5679999999999
 21
33.3
 31
0.0
  0
LINE
  5
2AC
330
1E
100
AcDbEntity
  8
0
100
AcDbLine
 10
135.1279999999999
 20
33.0
 30
0.0
 11
136.28
 21
33.0
 31
0.0
  0
LINE
  5
2AD
330
1E
100
AcDbEntity
  8
0
100
AcDbLine
 10
135.0
 20
27.61225
 30
0.0
 11
135.0
 21
27.14694
 31
0.0
  0
LINE
  5
2AE
330
1E
100
AcDbEntity
  8
0
100
AcDbLine
 10
135.0
 20
27.61225
 30
0.0
 11
135.0
 21
28.22449
 31
0.0
  0
LINE
  5
2AF
330
1E
100
AcDbEntity
  8
0
100
AcDbLine
 10
135.0
 20
27.14694
 30
0.0
 11
135.0
 21
27.06122
 31
0.0
  0
LINE
  5
2B0
330
1E
100
AcDbEntity
  8
0
100
AcDbLine
 10
135.0
 20
27.14694
 30
0.0
 11
135.0
 21
27.61225
 31
0.0
  0
LINE
  5
2B1
330
1E
100
AcDbEntity
  8
0
100
AcDbLine
 10
134.204
 20
35.0
 30
0.0
 11
136.284
 21
35.0
 31
0.0
  0
LINE
  5
2B2
330
1E
100
AcDbEntity
  8
0
100
AcDbLine
 10
136.284
 20
35.0
 30
0.0
 11
137.532
 21
35.0
 31
0.0
  0
LINE
  5
2B3
330
1E
100
AcDbEntity
  8
0
100
AcDbLine
 10
121.672
 20
35.0
 30
0.0
 11
125.0
 21
35.0
 31
0.0
  0
LINE
  5
2B4
330
1E
100
AcDbEntity
  8
0
100
AcDbLine
 10
118.552
 20
35.0
 30
0.0
 11
121.672
 21
35.0
 31
0.0
  0
LINE
  5
2B5
330
1E
100
AcDbEntity
  8
0
100
AcDbLine
 10
115.796
 20
35.0
 30
0.0
 11
118.552
 21
35.0
 31
0.0
  0
LINE
  5
2B6
330
1E
100
AcDbEntity
  8
0
100
AcDbLine
 10
113.716
 20
35.0
 30
0.0
 11
115.796
 21
35.0
 31
0.0
  0
LINE
  5
2B7
330
1E
100
AcDbEntity
  8
0
100
AcDbLine
 10
112.4679999999999
 20
35.0
 30
0.0
 11
113.0
 21
35.0
 31
0.0
  0
LINE
  5
2B8
330
1E
100
AcDbEntity
  8
0
100
AcDbLine
 10
112.4679999999999
 20
35.0
 30
0.0
 11
113.716
 21
35.0
 31
0.0
  0
LINE
  5
2B9
330
1E
100
AcDbEntity
  8
0
100
AcDbLine
 10
112.0
 20
35.0
 30
0.0
 11
112.4679999999999
 21
35.0
 31
0.0
  0
LINE
  5
2BA
330
1E
100
AcDbEntity
  8
0
100
AcDbLine
 10
112.0
 20
35.0
 30
0.0
 11
112.0
 21
49.0
 31
0.0
  0
LINE
  5
2BB
330
1E
100
AcDbEntity
  8
0
100
AcDbLine
 10
138.0
 20
35.0
 30
0.0
 11
138.0
 21
49.0
 31
0.0
  0
LINE
  5
2BC
330
1E
100
AcDbEntity
  8
0
100
AcDbLine
 10
137.0
 20
35.0
 30
0.0
 11
137.532
 21
35.0
 31
0.0
  0
LINE
  5
2BD
330
1E
100
AcDbEntity
  8
0
100
AcDbLine
 10
137.0
 20
35.0
 30
0.0
 11
137.0
 21
33.3
 31
0.0
  0
LINE
  5
2BE
330
1E
100
AcDbEntity
  8
0
100
AcDbLine
 10
112.0
 20
49.0
 30
0.0
 11
112.0
 21
35.0
 31
0.0
  0
LINE
  5
2BF
330
1E
100
AcDbEntity
  8
0
100
AcDbLine
 10
137.532
 20
35.0
 30
0.0
 11
138.0
 21
35.0
 31
0.0
  0
LINE
  5
436
330
1E
100
AcDbEntity
  8
0
100
AcDbLine
 10
153.0
 20
49.0
 30
0.0
 11
153.0
 21
49.468
 31
0.0
  0
LINE
  5
438
330
1E
100
AcDbEntity
  8
0
100
AcDbLine
 10
153.0
 20
50.716
 30
0.0
 11
153.0
 21
49.468
 31
0.0
  0
LINE
  5
439
330
1E
100
AcDbEntity
  8
0
100
AcDbLine
 10
153.0
 20
50.716
 30
0.0
 11
153.0
 21
52.79600000000001
 31
0.0
  0
LINE
  5
44E
330
1E
100
AcDbEntity
  8
0
100
AcDbLine
 10
153.0
 20
49.468
 30
0.0
 11
153.0
 21
49.0
 31
0.0
  0
LINE
  5
44F
330
1E
100
AcDbEntity
  8
0
100
AcDbLine
 10
153.0
 20
49.468
 30
0.0
 11
153.0
 21
50.716
 31
0.0
  0
LINE
  5
450
330
1E
100
AcDbEntity
  8
0
100
AcDbLine
 10
138.0
 20
49.0
 30
0.0
 11
153.0
 21
49.0
 31
0.0
  0
LINE
  5
451
330
1E
100
AcDbEntity
  8
0
100
AcDbLine
 10
138.0
 20
49.0
 30
0.0
 11
138.0
 21
35.0
 31
0.0
  0
LINE
  5
452
330
1E
100
AcDbEntity
  8
0
100
AcDbLine
 10
97.0
 20
49.0
 30
0.0
 11
97.0
 21
49.468
 31
0.0
  0
LINE
  5
453
330
1E
100
AcDbEntity
  8
0
100
AcDbLine
 10
97.0
 20
49.0
 30
0.0
 11
112.0
 21
49.0
 31
0.0
  0
LINE
  5
454
330
1E
100
AcDbEntity
  8
0
100
AcDbLine
 10
97.0
 20
55.552
 30
0.0
 11
97.0
 21
52.79600000000001
 31
0.0
  0
LINE
  5
455
330
1E
100
AcDbEntity
  8
0
100
AcDbLine
 10
97.0
 20
55.552
 30
0.0
 11
97.0
 21
58.672
 31
0.0
  0
LINE
  5
456
330
1E
100
AcDbEntity
  8
0
100
AcDbLine
 10
97.0
 20
52.79600000000001
 30
0.0
 11
97.0
 21
50.716
 31
0.0
  0
LINE
  5
457
330
1E
100
AcDbEntity
  8
0
100
AcDbLine
 10
97.0
 20
52.79600000000001
 30
0.0
 11
97.0
 21
55.552
 31
0.0
  0
LINE
  5
458
330
1E
100
AcDbEntity
  8
0
100
AcDbLine
 10
97.0
 20
58.672
 30
0.0
 11
97.0
 21
55.552
 31
0.0
  0
LINE
  5
459
330
1E
100
AcDbEntity
  8
0
100
AcDbLine
 10
97.0
 20
58.672
 30
0.0
 11
97.0
 21
62.0
 31
0.0
  0
LINE
  5
45A
330
1E
100
AcDbEntity
  8
0
100
AcDbLine
 10
97.0
 20
62.0
 30
0.0
 11
97.0
 21
64.816
 31
0.0
  0
LINE
  5
45B
330
1E
100
AcDbEntity
  8
0
100
AcDbLine
 10
97.0
 20
62.0
 30
0.0
 11
97.0
 21
58.672
 31
0.0
  0
LINE
  5
45C
330
1E
100
AcDbEntity
  8
0
100
AcDbLine
 10
97.0
 20
62.0
 30
0.0
 11
97.0
 21
65.328
 31
0.0
  0
LINE
  5
45D
330
1E
100
AcDbEntity
  8
0
100
AcDbLine
 10
97.0
 20
65.328
 30
0.0
 11
97.0
 21
62.0
 31
0.0
  0
LINE
  5
45E
330
1E
100
AcDbEntity
  8
0
100
AcDbLine
 10
97.0
 20
65.328
 30
0.0
 11
97.0
 21
68.44800000000001
 31
0.0
  0
LINE
  5
45F
330
1E
100
AcDbEntity
  8
0
100
AcDbLine
 10
97.0
 20
68.44800000000001
 30
0.0
 11
97.0
 21
65.328
 31
0.0
  0
LINE
  5
460
330
1E
100
AcDbEntity
  8
0
100
AcDbLine
 10
97.0
 20
68.44800000000001
 30
0.0
 11
97.0
 21
71.204
 31
0.0
  0
LINE
  5
461
330
1E
100
AcDbEntity
  8
0
100
AcDbLine
 10
97.0
 20
64.816
 30
0.0
 11
97.0
 21
67.456
 31
0.0
  0
LINE
  5
462
330
1E
100
AcDbEntity
  8
0
100
AcDbLine
 10
97.0
 20
67.456
 30
0.0
 11
97.0
 21
69.78799999999999
 31
0.0
  0
LINE
  5
463
330
1E
100
AcDbEntity
  8
0
100
AcDbLine
 10
97.0
 20
71.204
 30
0.0
 11
97.0
 21
68.44800000000001
 31
0.0
  0
LINE
  5
464
330
1E
100
AcDbEntity
  8
0
100
AcDbLine
 10
97.0
 20
71.204
 30
0.0
 11
97.0
 21
73.28399999999999
 31
0.0
  0
LINE
  5
465
330
1E
100
AcDbEntity
  8
0
100
AcDbLine
 10
97.0
 20
69.78799999999999
 30
0.0
 11
97.0
 21
71.548
 31
0.0
  0
LINE
  5
466
330
1E
100
AcDbEntity
  8
0
100
AcDbLine
 10
97.0
 20
71.548
 30
0.0
 11
97.0
 21
72.604
 31
0.0
  0
LINE
  5
467
330
1E
100
AcDbEntity
  8
0
100
AcDbLine
 10
97.0
 20
73.0
 30
0.0
 11
97.0
 21
73.28399999999999
 31
0.0
  0
LINE
  5
468
330
1E
100
AcDbEntity
  8
0
100
AcDbLine
 10
97.0
 20
73.28399999999999
 30
0.0
 11
97.0
 21
74.53199999999999
 31
0.0
  0
LINE
  5
469
330
1E
100
AcDbEntity
  8
0
100
AcDbLine
 10
97.0
 20
73.28399999999999
 30
0.0
 11
97.0
 21
73.0
 31
0.0
  0
LINE
  5
46A
330
1E
100
AcDbEntity
  8
0
100
AcDbLine
 10
97.0
 20
73.28399999999999
 30
0.0
 11
97.0
 21
71.204
 31
0.0
  0
LINE
  5
46B
330
1E
100
AcDbEntity
  8
0
100
AcDbLine
 10
97.0
 20
74.53199999999999
 30
0.0
 11
97.0
 21
75.0
 31
0.0
  0
LINE
  5
46C
330
1E
100
AcDbEntity
  8
0
100
AcDbLine
 10
97.0
 20
74.53199999999999
 30
0.0
 11
97.0
 21
73.28399999999999
 31
0.0
  0
LINE
  5
46D
330
1E
100
AcDbEntity
  8
0
100
AcDbLine
 10
97.0
 20
75.0
 30
0.0
 11
153.0
 21
75.0
 31
0.0
  0
LINE
  5
46E
330
1E
100
AcDbEntity
  8
0
100
AcDbLine
 10
97.0
 20
75.0
 30
0.0
 11
97.0
 21
74.53199999999999
 31
0.0
  0
LINE
  5
46F
330
1E
100
AcDbEntity
  8
0
100
AcDbLine
 10
97.0
 20
72.604
 30
0.0
 11
97.0
 21
73.0
 31
0.0
  0
LINE
  5
470
330
1E
100
AcDbEntity
  8
0
100
AcDbLine
 10
97.0
 20
59.184
 30
0.0
 11
97.0
 21
62.0
 31
0.0
  0
LINE
  5
471
330
1E
100
AcDbEntity
  8
0
100
AcDbLine
 10
97.0
 20
56.54399999999999
 30
0.0
 11
97.0
 21
59.184
 31
0.0
  0
LINE
  5
472
330
1E
100
AcDbEntity
  8
0
100
AcDbLine
 10
97.0
 20
54.21199999999999
 30
0.0
 11
97.0
 21
56.54399999999999
 31
0.0
  0
LINE
  5
473
330
1E
100
AcDbEntity
  8
0
100
AcDbLine
 10
97.0
 20
52.452
 30
0.0
 11
97.0
 21
54.21199999999999
 31
0.0
  0
LINE
  5
482
330
1E
100
AcDbEntity
  8
0
100
AcDbLine
 10
153.0
 20
65.328
 30
0.0
 11
153.0
 21
62.0
 31
0.0
  0
LINE
  5
483
330
1E
100
AcDbEntity
  8
0
100
AcDbLine
 10
153.0
 20
65.328
 30
0.0
 11
153.0
 21
68.44800000000001
 31
0.0
  0
LINE
  5
485
330
1E
100
AcDbEntity
  8
0
100
AcDbLine
 10
153.0
 20
68.44800000000001
 30
0.0
 11
153.0
 21
65.328
 31
0.0
  0
LINE
  5
486
330
1E
100
AcDbEntity
  8
0
100
AcDbLine
 10
153.0
 20
68.44800000000001
 30
0.0
 11
153.0
 21
71.204
 31
0.0
  0
LINE
  5
487
330
1E
100
AcDbEntity
  8
0
100
AcDbLine
 10
153.0
 20
71.204
 30
0.0
 11
153.0
 21
68.44800000000001
 31
0.0
  0
LINE
  5
488
330
1E
100
AcDbEntity
  8
0
100
AcDbLine
 10
153.0
 20
71.204
 30
0.0
 11
153.0
 21
73.28399999999999
 31
0.0
  0
LINE
  5
489
330
1E
100
AcDbEntity
  8
0
100
AcDbLine
 10
153.0
 20
73.28399999999999
 30
0.0
 11
153.0
 21
71.204
 31
0.0
  0
LINE
  5
48A
330
1E
100
AcDbEntity
  8
0
100
AcDbLine
 10
153.0
 20
73.28399999999999
 30
0.0
 11
153.0
 21
74.53199999999999
 31
0.0
  0
LINE
  5
48B
330
1E
100
AcDbEntity
  8
0
100
AcDbLine
 10
153.0
 20
74.53199999999999
 30
0.0
 11
153.0
 21
73.28399999999999
 31
0.0
  0
LINE
  5
48C
330
1E
100
AcDbEntity
  8
0
100
AcDbLine
 10
153.0
 20
74.53199999999999
 30
0.0
 11
153.0
 21
75.0
 31
0.0
  0
LINE
  5
48D
330
1E
100
AcDbEntity
  8
0
100
AcDbLine
 10
153.0
 20
75.0
 30
0.0
 11
153.0
 21
74.53199999999999
 31
0.0
  0
LINE
  5
48E
330
1E
100
AcDbEntity
  8
0
100
AcDbLine
 10
153.0
 20
62.0
 30
0.0
 11
153.0
 21
58.672
 31
0.0
  0
LINE
  5
48F
330
1E
100
AcDbEntity
  8
0
100
AcDbLine
 10
153.0
 20
62.0
 30
0.0
 11
153.0
 21
65.328
 31
0.0
  0
LINE
  5
490
330
1E
100
AcDbEntity
  8
0
100
AcDbLine
 10
153.0
 20
58.672
 30
0.0
 11
153.0
 21
55.552
 31
0.0
  0
LINE
  5
491
330
1E
100
AcDbEntity
  8
0
100
AcDbLine
 10
153.0
 20
58.672
 30
0.0
 11
153.0
 21
62.0
 31
0.0
  0
LINE
  5
500
330
1E
100
AcDbEntity
  8
0
100
AcDbLine
 10
153.0
 20
55.552
 30
0.0
 11
153.0
 21
52.79600000000001
 31
0.0
  0
LINE
  5
501
330
1E
100
AcDbEntity
  8
0
100
AcDbLine
 10
153.0
 20
55.552
 30
0.0
 11
153.0
 21
58.672
 31
0.0
  0
LINE
  5
502
330
1E
100
AcDbEntity
  8
0
100
AcDbLine
 10
153.0
 20
52.79600000000001
 30
0.0
 11
153.0
 21
50.716
 31
0.0
  0
LINE
  5
503
330
1E
100
AcDbEntity
  8
0
100
AcDbLine
 10
153.0
 20
52.79600000000001
 30
0.0
 11
153.0
 21
55.552
 31
0.0
  0
LINE
  5
504
330
1E
100
AcDbEntity
  8
0
100
AcDbLine
 10
97.0
 20
51.396
 30
0.0
 11
97.0
 21
52.452
 31
0.0
  0
LINE
  5
505
330
1E
100
AcDbEntity
  8
0
100
AcDbLine
 10
97.0
 20
51.0
 30
0.0
 11
97.0
 21
51.396
 31
0.0
  0
LINE
  5
506
330
1E
100
AcDbEntity
  8
0
100
AcDbLine
 10
97.0
 20
51.0
 30
0.0
 11
97.0
 21
50.716
 31
0.0
  0
LINE
  5
507
330
1E
100
AcDbEntity
  8
0
100
AcDbLine
 10
57.0
 20
73.0
 30
0.0
 11
97.0
 21
73.0
 31
0.0
  0
LINE
  5
50C
330
1E
100
AcDbEntity
  8
0
100
AcDbLine
 10
238.0
 20
60.0
 30
0.0
 11
238.0
 21
35.0
 31
0.0
  0
LINE
  5
50D
330
1E
100
AcDbEntity
  8
0
100
AcDbLine
 10
212.0
 20
49.0
 30
0.0
 11
212.0
 21
35.0
 31
0.0
  0
LINE
  5
50E
330
1E
100
AcDbEntity
  8
0
100
AcDbLine
 10
212.0
 20
35.0
 30
0.0
 11
212.0
 21
49.0
 31
0.0
  0
LINE
  5
50F
330
1E
100
AcDbEntity
  8
0
100
AcDbLine
 10
238.0
 20
35.0
 30
0.0
 11
238.0
 21
60.0
 31
0.0
  0
LINE
  5
510
330
1E
100
AcDbEntity
  8
0
100
AcDbLine
 10
222.0
 20
26.0
 30
0.0
 11
222.0
 21
9.999999999999991
 31
0.0
  0
LINE
  5
511
330
1E
100
AcDbEntity
  8
0
100
AcDbLine
 10
222.0
 20
9.999999999999991
 30
0.0
 11
222.0
 21
26.0
 31
0.0
  0
LINE
  5
512
330
1E
100
AcDbEntity
  8
0
100
AcDbLine
 10
228.0
 20
26.0
 30
0.0
 11
228.0
 21
9.999999999999991
 31
0.0
  0
LINE
  5
513
330
1E
100
AcDbEntity
  8
0
100
AcDbLine
 10
228.0
 20
9.999999999999991
 30
0.0
 11
228.0
 21
26.0
 31
0.0
  0
LINE
  5
514
330
1E
100
AcDbEntity
  8
0
100
AcDbLine
 10
222.0
 20
9.61539999999999
 30
0.0
 11
222.0
 21
0.384599999999991
 31
0.0
  0
LINE
  5
515
330
1E
100
AcDbEntity
  8
0
100
AcDbLine
 10
222.0
 20
0.384599999999991
 30
0.0
 11
222.0
 21
9.61539999999999
 31
0.0
  0
LINE
  5
516
330
1E
100
AcDbEntity
  8
0
100
AcDbLine
 10
228.0
 20
9.61539999999999
 30
0.0
 11
228.0
 21
0.384599999999991
 31
0.0
  0
LINE
  5
517
330
1E
100
AcDbEntity
  8
0
100
AcDbLine
 10
228.0
 20
0.384599999999991
 30
0.0
 11
228.0
 21
9.61539999999999
 31
0.0
  0
LINE
  5
518
330
1E
100
AcDbEntity
  8
0
100
AcDbLine
 10
222.936
 20
-0.0000000000000078
 30
0.0
 11
222.468
 21
-0.0000000000000078
 31
0.0
  0
LINE
  5
519
330
1E
100
AcDbEntity
  8
0
100
AcDbLine
 10
222.936
 20
-0.0000000000000075
 30
0.0
 11
222.468
 21
-0.0000000000000076
 31
0.0
  0
LINE
  5
51A
330
1E
100
AcDbEntity
  8
0
100
AcDbLine
 10
227.82
 20
-0.0000000000000077
 30
0.0
 11
227.5319999999999
 21
-0.0000000000000078
 31
0.0
  0
LINE
  5
51B
330
1E
100
AcDbEntity
  8
0
100
AcDbLine
 10
227.82
 20
-0.0000000000000076
 30
0.0
 11
227.5319999999999
 21
-0.0000000000000076
 31
0.0
  0
LINE
  5
51C
330
1E
100
AcDbEntity
  8
0
100
AcDbLine
 10
227.9279999999999
 20
-0.0000000000000077
 30
0.0
 11
227.82
 21
-0.0000000000000076
 31
0.0
  0
LINE
  5
51D
330
1E
100
AcDbEntity
  8
0
100
AcDbLine
 10
227.9279999999999
 20
-0.0000000000000077
 30
0.0
 11
227.82
 21
-0.0000000000000077
 31
0.0
  0
LINE
  5
51E
330
1E
100
AcDbEntity
  8
0
100
AcDbLine
 10
228.0
 20
0.384599999999991
 30
0.0
 11
227.9279999999999
 21
-0.0000000000000077
 31
0.0
  0
LINE
  5
51F
330
1E
100
AcDbEntity
  8
0
100
AcDbLine
 10
228.0
 20
0.384599999999991
 30
0.0
 11
227.9279999999999
 21
-0.0000000000000077
 31
0.0
  0
LINE
  5
520
330
1E
100
AcDbEntity
  8
0
100
AcDbLine
 10
225.756
 20
-0.0000000000000078
 30
0.0
 11
225.0
 21
-0.0000000000000078
 31
0.0
  0
LINE
  5
521
330
1E
100
AcDbEntity
  8
0
100
AcDbLine
 10
225.756
 20
-0.0000000000000075
 30
0.0
 11
225.0
 21
-0.0000000000000075
 31
0.0
  0
LINE
  5
522
330
1E
100
AcDbEntity
  8
0
100
AcDbLine
 10
227.0639999999999
 20
-0.0000000000000078
 30
0.0
 11
226.452
 21
-0.0000000000000078
 31
0.0
  0
LINE
  5
523
330
1E
100
AcDbEntity
  8
0
100
AcDbLine
 10
227.0639999999999
 20
-0.0000000000000075
 30
0.0
 11
226.452
 21
-0.0000000000000075
 31
0.0
  0
LINE
  5
524
330
1E
100
AcDbEntity
  8
0
100
AcDbLine
 10
226.452
 20
-0.0000000000000078
 30
0.0
 11
225.756
 21
-0.0000000000000078
 31
0.0
  0
LINE
  5
525
330
1E
100
AcDbEntity
  8
0
100
AcDbLine
 10
226.452
 20
-0.0000000000000075
 30
0.0
 11
225.756
 21
-0.0000000000000075
 31
0.0
  0
LINE
  5
526
330
1E
100
AcDbEntity
  8
0
100
AcDbLine
 10
227.5319999999999
 20
-0.0000000000000078
 30
0.0
 11
227.0639999999999
 21
-0.0000000000000078
 31
0.0
  0
LINE
  5
527
330
1E
100
AcDbEntity
  8
0
100
AcDbLine
 10
227.5319999999999
 20
-0.0000000000000076
 30
0.0
 11
227.0639999999999
 21
-0.0000000000000075
 31
0.0
  0
LINE
  5
528
330
1E
100
AcDbEntity
  8
0
100
AcDbLine
 10
224.244
 20
-0.0000000000000078
 30
0.0
 11
223.5479999999999
 21
-0.0000000000000078
 31
0.0
  0
LINE
  5
529
330
1E
100
AcDbEntity
  8
0
100
AcDbLine
 10
224.244
 20
-0.0000000000000075
 30
0.0
 11
223.5479999999999
 21
-0.0000000000000075
 31
0.0
  0
LINE
  5
52A
330
1E
100
AcDbEntity
  8
0
100
AcDbLine
 10
225.0
 20
-0.0000000000000078
 30
0.0
 11
224.244
 21
-0.0000000000000078
 31
0.0
  0
LINE
  5
52B
330
1E
100
AcDbEntity
  8
0
100
AcDbLine
 10
225.0
 20
-0.0000000000000075
 30
0.0
 11
224.244
 21
-0.0000000000000075
 31
0.0
  0
LINE
  5
52C
330
1E
100
AcDbEntity
  8
0
100
AcDbLine
 10
223.5479999999999
 20
-0.0000000000000078
 30
0.0
 11
222.936
 21
-0.0000000000000078
 31
0.0
  0
LINE
  5
52D
330
1E
100
AcDbEntity
  8
0
100
AcDbLine
 10
223.5479999999999
 20
-0.0000000000000075
 30
0.0
 11
222.936
 21
-0.0000000000000075
 31
0.0
  0
LINE
  5
52E
330
1E
100
AcDbEntity
  8
0
100
AcDbLine
 10
222.1799999999999
 20
-0.0000000000000077
 30
0.0
 11
222.072
 21
-0.0000000000000077
 31
0.0
  0
LINE
  5
52F
330
1E
100
AcDbEntity
  8
0
100
AcDbLine
 10
222.1799999999999
 20
-0.0000000000000076
 30
0.0
 11
222.072
 21
-0.0000000000000077
 31
0.0
  0
LINE
  5
530
330
1E
100
AcDbEntity
  8
0
100
AcDbLine
 10
222.468
 20
-0.0000000000000078
 30
0.0
 11
222.1799999999999
 21
-0.0000000000000077
 31
0.0
  0
LINE
  5
531
330
1E
100
AcDbEntity
  8
0
100
AcDbLine
 10
222.468
 20
-0.0000000000000076
 30
0.0
 11
222.1799999999999
 21
-0.0000000000000076
 31
0.0
  0
LINE
  5
532
330
1E
100
AcDbEntity
  8
0
100
AcDbLine
 10
222.072
 20
-0.0000000000000077
 30
0.0
 11
222.0
 21
0.384599999999991
 31
0.0
  0
LINE
  5
533
330
1E
100
AcDbEntity
  8
0
100
AcDbLine
 10
222.072
 20
-0.0000000000000077
 30
0.0
 11
222.0
 21
0.384599999999991
 31
0.0
  0
LINE
  5
534
330
1E
100
AcDbEntity
  8
0
100
AcDbLine
 10
222.936
 20
9.999999999999991
 30
0.0
 11
222.468
 21
9.999999999999991
 31
0.0
  0
LINE
  5
535
330
1E
100
AcDbEntity
  8
0
100
AcDbLine
 10
222.876
 20
9.999999999999991
 30
0.0
 11
222.396
 21
9.999999999999991
 31
0.0
  0
LINE
  5
536
330
1E
100
AcDbEntity
  8
0
100
AcDbLine
 10
227.82
 20
9.999999999999991
 30
0.0
 11
227.5319999999999
 21
9.999999999999991
 31
0.0
  0
LINE
  5
537
330
1E
100
AcDbEntity
  8
0
100
AcDbLine
 10
227.604
 20
9.999999999999991
 30
0.0
 11
227.124
 21
9.999999999999991
 31
0.0
  0
LINE
  5
538
330
1E
100
AcDbEntity
  8
0
100
AcDbLine
 10
228.0
 20
9.61539999999999
 30
0.0
 11
227.9279999999999
 21
9.999999999999991
 31
0.0
  0
LINE
  5
539
330
1E
100
AcDbEntity
  8
0
100
AcDbLine
 10
228.0
 20
9.999999999999991
 30
0.0
 11
227.8919999999999
 21
9.999999999999991
 31
0.0
  0
LINE
  5
53A
330
1E
100
AcDbEntity
  8
0
100
AcDbLine
 10
228.0
 20
9.999999999999991
 30
0.0
 11
227.9279999999999
 21
9.999999999999991
 31
0.0
  0
LINE
  5
53B
330
1E
100
AcDbEntity
  8
0
100
AcDbLine
 10
227.9279999999999
 20
9.999999999999991
 30
0.0
 11
227.82
 21
9.999999999999991
 31
0.0
  0
LINE
  5
53C
330
1E
100
AcDbEntity
  8
0
100
AcDbLine
 10
227.8919999999999
 20
9.999999999999991
 30
0.0
 11
227.604
 21
9.999999999999991
 31
0.0
  0
LINE
  5
53D
330
1E
100
AcDbEntity
  8
0
100
AcDbLine
 10
225.756
 20
9.999999999999991
 30
0.0
 11
225.0
 21
9.999999999999991
 31
0.0
  0
LINE
  5
53E
330
1E
100
AcDbEntity
  8
0
100
AcDbLine
 10
225.768
 20
9.999999999999991
 30
0.0
 11
225.0
 21
9.999999999999991
 31
0.0
  0
LINE
  5
53F
330
1E
100
AcDbEntity
  8
0
100
AcDbLine
 10
227.0639999999999
 20
9.999999999999991
 30
0.0
 11
226.452
 21
9.999999999999991
 31
0.0
  0
LINE
  5
540
330
1E
100
AcDbEntity
  8
0
100
AcDbLine
 10
227.124
 20
9.999999999999991
 30
0.0
 11
226.488
 21
9.999999999999991
 31
0.0
  0
LINE
  5
541
330
1E
100
AcDbEntity
  8
0
100
AcDbLine
 10
226.452
 20
9.999999999999991
 30
0.0
 11
225.756
 21
9.999999999999991
 31
0.0
  0
LINE
  5
542
330
1E
100
AcDbEntity
  8
0
100
AcDbLine
 10
226.488
 20
9.999999999999991
 30
0.0
 11
225.768
 21
9.999999999999991
 31
0.0
  0
LINE
  5
543
330
1E
100
AcDbEntity
  8
0
100
AcDbLine
 10
227.5319999999999
 20
9.999999999999991
 30
0.0
 11
227.0639999999999
 21
9.999999999999991
 31
0.0
  0
LINE
  5
544
330
1E
100
AcDbEntity
  8
0
100
AcDbLine
 10
224.2319999999999
 20
9.999999999999991
 30
0.0
 11
223.512
 21
9.999999999999991
 31
0.0
  0
LINE
  5
545
330
1E
100
AcDbEntity
  8
0
100
AcDbLine
 10
224.244
 20
9.999999999999991
 30
0.0
 11
223.5479999999999
 21
9.999999999999991
 31
0.0
  0
LINE
  5
546
330
1E
100
AcDbEntity
  8
0
100
AcDbLine
 10
225.0
 20
9.999999999999991
 30
0.0
 11
224.2319999999999
 21
9.999999999999991
 31
0.0
  0
LINE
  5
547
330
1E
100
AcDbEntity
  8
0
100
AcDbLine
 10
225.0
 20
9.999999999999991
 30
0.0
 11
224.244
 21
9.999999999999991
 31
0.0
  0
LINE
  5
548
330
1E
100
AcDbEntity
  8
0
100
AcDbLine
 10
223.512
 20
9.999999999999991
 30
0.0
 11
222.876
 21
9.999999999999991
 31
0.0
  0
LINE
  5
549
330
1E
100
AcDbEntity
  8
0
100
AcDbLine
 10
223.5479999999999
 20
9.999999999999991
 30
0.0
 11
222.936
 21
9.999999999999991
 31
0.0
  0
LINE
  5
54A
330
1E
100
AcDbEntity
  8
0
100
AcDbLine
 10
222.072
 20
9.999999999999991
 30
0.0
 11
222.0
 21
9.61539999999999
 31
0.0
  0
LINE
  5
54B
330
1E
100
AcDbEntity
  8
0
100
AcDbLine
 10
222.072
 20
9.999999999999991
 30
0.0
 11
222.0
 21
9.999999999999991
 31
0.0
  0
LINE
  5
54C
330
1E
100
AcDbEntity
  8
0
100
AcDbLine
 10
222.108
 20
9.999999999999991
 30
0.0
 11
222.0
 21
9.999999999999991
 31
0.0
  0
LINE
  5
54D
330
1E
100
AcDbEntity
  8
0
100
AcDbLine
 10
222.1799999999999
 20
9.999999999999991
 30
0.0
 11
222.072
 21
9.999999999999991
 31
0.0
  0
LINE
  5
54E
330
1E
100
AcDbEntity
  8
0
100
AcDbLine
 10
222.396
 20
9.999999999999991
 30
0.0
 11
222.108
 21
9.999999999999991
 31
0.0
  0
LINE
  5
54F
330
1E
100
AcDbEntity
  8
0
100
AcDbLine
 10
222.468
 20
9.999999999999991
 30
0.0
 11
222.1799999999999
 21
9.999999999999991
 31
0.0
  0
LINE
  5
550
330
1E
100
AcDbEntity
  8
0
100
AcDbLine
 10
222.876
 20
26.0
 30
0.0
 11
222.396
 21
26.0
 31
0.0
  0
LINE
  5
551
330
1E
100
AcDbEntity
  8
0
100
AcDbLine
 10
223.8877
 20
26.2143
 30
0.0
 11
222.5521
 21
26.0897
 31
0.0
  0
LINE
  5
552
330
1E
100
AcDbEntity
  8
0
100
AcDbLine
 10
222.7263
 20
26.0
 30
0.0
 11
220.6421
 21
26.0
 31
0.0
  0
LINE
  5
553
330
1E
100
AcDbEntity
  8
0
100
AcDbLine
 10
223.1789
 20
26.0
 30
0.0
 11
221.4102
 21
26.0
 31
0.0
  0
LINE
  5
554
330
1E
100
AcDbEntity
  8
0
100
AcDbLine
 10
225.0
 20
35.0
 30
0.0
 11
221.9279999999999
 21
35.0
 31
0.0
  0
LINE
  5
555
330
1E
100
AcDbEntity
  8
0
100
AcDbLine
 10
225.0
 20
35.0
 30
0.0
 11
221.672
 21
35.0
 31
0.0
  0
LINE
  5
556
330
1E
100
AcDbEntity
  8
0
100
AcDbLine
 10
225.0
 20
33.3
 30
0.0
 11
221.9279999999999
 21
33.3
 31
0.0
  0
LINE
  5
557
330
1E
100
AcDbEntity
  8
0
100
AcDbLine
 10
222.696
 20
29.0
 30
0.0
 11
220.536
 21
29.0
 31
0.0
  0
LINE
  5
558
330
1E
100
AcDbEntity
  8
0
100
AcDbLine
 10
222.696
 20
31.0
 30
0.0
 11
220.536
 21
31.0
 31
0.0
  0
LINE
  5
559
330
1E
100
AcDbEntity
  8
0
100
AcDbLine
 10
222.7263
 20
29.0
 30
0.0
 11
220.6421
 21
29.0
 31
0.0
  0
LINE
  5
55A
330
1E
100
AcDbEntity
  8
0
100
AcDbLine
 10
223.8877
 20
28.78569999999999
 30
0.0
 11
222.5521
 21
28.9103
 31
0.0
  0
LINE
  5
55B
330
1E
100
AcDbEntity
  8
0
100
AcDbLine
 10
225.0
 20
33.0
 30
0.0
 11
222.44
 21
33.0
 31
0.0
  0
LINE
  5
55C
330
1E
100
AcDbEntity
  8
0
100
AcDbLine
 10
225.0
 20
33.0
 30
0.0
 11
221.9759999999999
 21
33.0
 31
0.0
  0
LINE
  5
55D
330
1E
100
AcDbEntity
  8
0
100
AcDbLine
 10
225.0
 20
31.0
 30
0.0
 11
222.44
 21
31.0
 31
0.0
  0
LINE
  5
55E
330
1E
100
AcDbEntity
  8
0
100
AcDbLine
 10
235.0
 20
31.0
 30
0.0
 11
235.0
 21
33.0
 31
0.0
  0
LINE
  5
55F
330
1E
100
AcDbEntity
  8
0
100
AcDbLine
 10
235.0
 20
33.0
 30
0.0
 11
235.0
 21
31.0
 31
0.0
  0
LINE
  5
560
330
1E
100
AcDbEntity
  8
0
100
AcDbLine
 10
232.579
 20
26.0
 30
0.0
 11
231.2053
 21
26.0
 31
0.0
  0
LINE
  5
561
330
1E
100
AcDbEntity
  8
0
100
AcDbLine
 10
233.2285999999999
 20
26.2143
 30
0.0
 11
231.7263
 21
26.0779
 31
0.0
  0
LINE
  5
562
330
1E
100
AcDbEntity
  8
0
100
AcDbLine
 10
232.812
 20
29.0
 30
0.0
 11
231.3719999999999
 21
29.0
 31
0.0
  0
LINE
  5
563
330
1E
100
AcDbEntity
  8
0
100
AcDbLine
 10
232.812
 20
31.0
 30
0.0
 11
231.3719999999999
 21
31.0
 31
0.0
  0
LINE
  5
564
330
1E
100
AcDbEntity
  8
0
100
AcDbLine
 10
232.579
 20
29.0
 30
0.0
 11
231.2053
 21
29.0
 31
0.0
  0
LINE
  5
565
330
1E
100
AcDbEntity
  8
0
100
AcDbLine
 10
233.2285999999999
 20
28.78569999999999
 30
0.0
 11
231.7263
 21
28.9221
 31
0.0
  0
LINE
  5
566
330
1E
100
AcDbEntity
  8
0
100
AcDbLine
 10
233.68
 20
31.0
 30
0.0
 11
232.0799999999999
 21
31.0
 31
0.0
  0
LINE
  5
567
330
1E
100
AcDbEntity
  8
0
100
AcDbLine
 10
234.0
 20
28.78569999999999
 30
0.0
 11
234.0
 21
28.5714
 31
0.0
  0
LINE
  5
568
330
1E
100
AcDbEntity
  8
0
100
AcDbLine
 10
234.0
 20
28.78569999999999
 30
0.0
 11
234.0
 21
28.5714
 31
0.0
  0
LINE
  5
569
330
1E
100
AcDbEntity
  8
0
100
AcDbLine
 10
234.0
 20
28.5714
 30
0.0
 11
233.2285999999999
 21
28.78569999999999
 31
0.0
  0
LINE
  5
56A
330
1E
100
AcDbEntity
  8
0
100
AcDbLine
 10
234.0
 20
28.5714
 30
0.0
 11
234.0
 21
28.78569999999999
 31
0.0
  0
LINE
  5
56B
330
1E
100
AcDbEntity
  8
0
100
AcDbLine
 10
234.0
 20
28.5714
 30
0.0
 11
234.0
 21
28.78569999999999
 31
0.0
  0
LINE
  5
56C
330
1E
100
AcDbEntity
  8
0
100
AcDbLine
 10
234.0
 20
28.5714
 30
0.0
 11
234.0
 21
26.4286
 31
0.0
  0
LINE
  5
56D
330
1E
100
AcDbEntity
  8
0
100
AcDbLine
 10
234.0
 20
26.4286
 30
0.0
 11
234.0
 21
28.5714
 31
0.0
  0
LINE
  5
56E
330
1E
100
AcDbEntity
  8
0
100
AcDbLine
 10
234.0
 20
26.4286
 30
0.0
 11
234.0
 21
28.5714
 31
0.0
  0
LINE
  5
56F
330
1E
100
AcDbEntity
  8
0
100
AcDbLine
 10
234.0
 20
28.5714
 30
0.0
 11
234.0
 21
26.4286
 31
0.0
  0
LINE
  5
570
330
1E
100
AcDbEntity
  8
0
100
AcDbLine
 10
234.0
 20
26.2143
 30
0.0
 11
234.0
 21
26.0214
 31
0.0
  0
LINE
  5
571
330
1E
100
AcDbEntity
  8
0
100
AcDbLine
 10
234.0
 20
26.2143
 30
0.0
 11
234.0
 21
26.0214
 31
0.0
  0
LINE
  5
572
330
1E
100
AcDbEntity
  8
0
100
AcDbLine
 10
234.0
 20
26.0214
 30
0.0
 11
234.0
 21
26.2143
 31
0.0
  0
LINE
  5
573
330
1E
100
AcDbEntity
  8
0
100
AcDbLine
 10
234.0
 20
26.0214
 30
0.0
 11
234.0
 21
26.2143
 31
0.0
  0
LINE
  5
574
330
1E
100
AcDbEntity
  8
0
100
AcDbLine
 10
234.0
 20
26.0214
 30
0.0
 11
233.7632
 21
26.0
 31
0.0
  0
LINE
  5
575
330
1E
100
AcDbEntity
  8
0
100
AcDbLine
 10
234.0
 20
26.2143
 30
0.0
 11
234.0
 21
26.4286
 31
0.0
  0
LINE
  5
576
330
1E
100
AcDbEntity
  8
0
100
AcDbLine
 10
234.0
 20
26.4286
 30
0.0
 11
234.0
 21
26.2143
 31
0.0
  0
LINE
  5
577
330
1E
100
AcDbEntity
  8
0
100
AcDbLine
 10
234.0
 20
26.4286
 30
0.0
 11
234.0
 21
26.2143
 31
0.0
  0
LINE
  5
578
330
1E
100
AcDbEntity
  8
0
100
AcDbLine
 10
234.0
 20
26.2143
 30
0.0
 11
234.0
 21
26.4286
 31
0.0
  0
LINE
  5
579
330
1E
100
AcDbEntity
  8
0
100
AcDbLine
 10
233.7632
 20
26.0
 30
0.0
 11
233.4316
 21
26.0
 31
0.0
  0
LINE
  5
57A
330
1E
100
AcDbEntity
  8
0
100
AcDbLine
 10
234.0
 20
26.4286
 30
0.0
 11
233.2285999999999
 21
26.2143
 31
0.0
  0
LINE
  5
57B
330
1E
100
AcDbEntity
  8
0
100
AcDbLine
 10
233.4316
 20
26.0
 30
0.0
 11
232.579
 21
26.0
 31
0.0
  0
LINE
  5
57C
330
1E
100
AcDbEntity
  8
0
100
AcDbLine
 10
234.0
 20
29.0
 30
0.0
 11
234.0
 21
31.0
 31
0.0
  0
LINE
  5
57D
330
1E
100
AcDbEntity
  8
0
100
AcDbLine
 10
234.0
 20
31.0
 30
0.0
 11
234.0
 21
29.0
 31
0.0
  0
LINE
  5
57E
330
1E
100
AcDbEntity
  8
0
100
AcDbLine
 10
234.0
 20
29.0
 30
0.0
 11
234.0
 21
28.78569999999999
 31
0.0
  0
LINE
  5
57F
330
1E
100
AcDbEntity
  8
0
100
AcDbLine
 10
234.0
 20
28.78569999999999
 30
0.0
 11
234.0
 21
29.0
 31
0.0
  0
LINE
  5
580
330
1E
100
AcDbEntity
  8
0
100
AcDbLine
 10
233.4316
 20
29.0
 30
0.0
 11
232.579
 21
29.0
 31
0.0
  0
LINE
  5
581
330
1E
100
AcDbEntity
  8
0
100
AcDbLine
 10
234.0
 20
29.0
 30
0.0
 11
233.6759999999999
 21
29.0
 31
0.0
  0
LINE
  5
582
330
1E
100
AcDbEntity
  8
0
100
AcDbLine
 10
234.0
 20
29.0
 30
0.0
 11
233.7632
 21
29.0
 31
0.0
  0
LINE
  5
583
330
1E
100
AcDbEntity
  8
0
100
AcDbLine
 10
233.6759999999999
 20
29.0
 30
0.0
 11
232.812
 21
29.0
 31
0.0
  0
LINE
  5
584
330
1E
100
AcDbEntity
  8
0
100
AcDbLine
 10
233.7632
 20
29.0
 30
0.0
 11
233.4316
 21
29.0
 31
0.0
  0
LINE
  5
585
330
1E
100
AcDbEntity
  8
0
100
AcDbLine
 10
235.0
 20
31.0
 30
0.0
 11
234.64
 21
31.0
 31
0.0
  0
LINE
  5
586
330
1E
100
AcDbEntity
  8
0
100
AcDbLine
 10
233.6759999999999
 20
31.0
 30
0.0
 11
232.812
 21
31.0
 31
0.0
  0
LINE
  5
587
330
1E
100
AcDbEntity
  8
0
100
AcDbLine
 10
234.0
 20
31.0
 30
0.0
 11
233.6759999999999
 21
31.0
 31
0.0
  0
LINE
  5
588
330
1E
100
AcDbEntity
  8
0
100
AcDbLine
 10
234.64
 20
31.0
 30
0.0
 11
233.68
 21
31.0
 31
0.0
  0
LINE
  5
589
330
1E
100
AcDbEntity
  8
0
100
AcDbLine
 10
234.64
 20
31.0
 30
0.0
 11
234.0
 21
31.0
 31
0.0
  0
LINE
  5
58A
330
1E
100
AcDbEntity
  8
0
100
AcDbLine
 10
224.4797
 20
28.5714
 30
0.0
 11
223.8877
 21
28.78569999999999
 31
0.0
  0
LINE
  5
58B
330
1E
100
AcDbEntity
  8
0
100
AcDbLine
 10
226.1122999999999
 20
28.78569999999999
 30
0.0
 11
225.5202999999999
 21
28.5714
 31
0.0
  0
LINE
  5
58C
330
1E
100
AcDbEntity
  8
0
100
AcDbLine
 10
227.604
 20
26.0
 30
0.0
 11
227.124
 21
26.0
 31
0.0
  0
LINE
  5
58D
330
1E
100
AcDbEntity
  8
0
100
AcDbLine
 10
228.7065
 20
26.0
 30
0.0
 11
227.0513999999999
 21
26.0
 31
0.0
  0
LINE
  5
58E
330
1E
100
AcDbEntity
  8
0
100
AcDbLine
 10
229.5812999999999
 20
26.0433
 30
0.0
 11
227.4478999999999
 21
26.0897
 31
0.0
  0
LINE
  5
58F
330
1E
100
AcDbEntity
  8
0
100
AcDbLine
 10
231.2053
 20
26.0
 30
0.0
 11
229.3579
 21
26.0
 31
0.0
  0
LINE
  5
590
330
1E
100
AcDbEntity
  8
0
100
AcDbLine
 10
231.7263
 20
26.0779
 30
0.0
 11
229.5812999999999
 21
26.0433
 31
0.0
  0
LINE
  5
591
330
1E
100
AcDbEntity
  8
0
100
AcDbLine
 10
230.2332
 20
26.0
 30
0.0
 11
228.7065
 21
26.0
 31
0.0
  0
LINE
  5
592
330
1E
100
AcDbEntity
  8
0
100
AcDbLine
 10
230.1029
 20
26.0
 30
0.0
 11
228.539
 21
26.0
 31
0.0
  0
LINE
  5
593
330
1E
100
AcDbEntity
  8
0
100
AcDbLine
 10
232.0782
 20
26.0
 30
0.0
 11
231.8362
 21
26.0
 31
0.0
  0
LINE
  5
594
330
1E
100
AcDbEntity
  8
0
100
AcDbLine
 10
232.0782
 20
26.0
 30
0.0
 11
231.8919999999999
 21
26.0
 31
0.0
  0
LINE
  5
595
330
1E
100
AcDbEntity
  8
0
100
AcDbLine
 10
231.8919999999999
 20
26.0
 30
0.0
 11
231.3317
 21
26.0
 31
0.0
  0
LINE
  5
596
330
1E
100
AcDbEntity
  8
0
100
AcDbLine
 10
231.8362
 20
26.0
 30
0.0
 11
231.2218
 21
26.0
 31
0.0
  0
LINE
  5
597
330
1E
100
AcDbEntity
  8
0
100
AcDbLine
 10
231.3317
 20
26.0
 30
0.0
 11
230.2332
 21
26.0
 31
0.0
  0
LINE
  5
598
330
1E
100
AcDbEntity
  8
0
100
AcDbLine
 10
231.2218
 20
26.0
 30
0.0
 11
230.1029
 21
26.0
 31
0.0
  0
LINE
  5
599
330
1E
100
AcDbEntity
  8
0
100
AcDbLine
 10
228.0
 20
26.0
 30
0.0
 11
227.8919999999999
 21
26.0
 31
0.0
  0
LINE
  5
59A
330
1E
100
AcDbEntity
  8
0
100
AcDbLine
 10
227.8919999999999
 20
26.0
 30
0.0
 11
227.604
 21
26.0
 31
0.0
  0
LINE
  5
59B
330
1E
100
AcDbEntity
  8
0
100
AcDbLine
 10
228.539
 20
26.0
 30
0.0
 11
228.0
 21
26.0
 31
0.0
  0
LINE
  5
59C
330
1E
100
AcDbEntity
  8
0
100
AcDbLine
 10
229.3579
 20
26.0
 30
0.0
 11
228.0
 21
26.0
 31
0.0
  0
LINE
  5
59D
330
1E
100
AcDbEntity
  8
0
100
AcDbLine
 10
225.5202999999999
 20
26.4286
 30
0.0
 11
225.0
 21
26.4286
 31
0.0
  0
LINE
  5
59E
330
1E
100
AcDbEntity
  8
0
100
AcDbLine
 10
227.0513999999999
 20
26.0
 30
0.0
 11
225.0593
 21
26.0
 31
0.0
  0
LINE
  5
59F
330
1E
100
AcDbEntity
  8
0
100
AcDbLine
 10
225.768
 20
26.0
 30
0.0
 11
225.0
 21
26.0
 31
0.0
  0
LINE
  5
5A0
330
1E
100
AcDbEntity
  8
0
100
AcDbLine
 10
226.1122999999999
 20
26.2143
 30
0.0
 11
225.5202999999999
 21
26.4286
 31
0.0
  0
LINE
  5
5A1
330
1E
100
AcDbEntity
  8
0
100
AcDbLine
 10
227.124
 20
26.0
 30
0.0
 11
226.488
 21
26.0
 31
0.0
  0
LINE
  5
5A2
330
1E
100
AcDbEntity
  8
0
100
AcDbLine
 10
226.488
 20
26.0
 30
0.0
 11
225.768
 21
26.0
 31
0.0
  0
LINE
  5
5A3
330
1E
100
AcDbEntity
  8
0
100
AcDbLine
 10
227.4478999999999
 20
26.0897
 30
0.0
 11
226.1122999999999
 21
26.2143
 31
0.0
  0
LINE
  5
5A4
330
1E
100
AcDbEntity
  8
0
100
AcDbLine
 10
224.2319999999999
 20
26.0
 30
0.0
 11
223.512
 21
26.0
 31
0.0
  0
LINE
  5
5A5
330
1E
100
AcDbEntity
  8
0
100
AcDbLine
 10
225.0
 20
26.4286
 30
0.0
 11
224.4797
 21
26.4286
 31
0.0
  0
LINE
  5
5A6
330
1E
100
AcDbEntity
  8
0
100
AcDbLine
 10
224.4797
 20
26.4286
 30
0.0
 11
223.8877
 21
26.2143
 31
0.0
  0
LINE
  5
5A7
330
1E
100
AcDbEntity
  8
0
100
AcDbLine
 10
225.0
 20
26.0
 30
0.0
 11
224.2319999999999
 21
26.0
 31
0.0
  0
LINE
  5
5A8
330
1E
100
AcDbEntity
  8
0
100
AcDbLine
 10
223.512
 20
26.0
 30
0.0
 11
222.876
 21
26.0
 31
0.0
  0
LINE
  5
5A9
330
1E
100
AcDbEntity
  8
0
100
AcDbLine
 10
225.0593
 20
26.0
 30
0.0
 11
223.1789
 21
26.0
 31
0.0
  0
LINE
  5
5AA
330
1E
100
AcDbEntity
  8
0
100
AcDbLine
 10
225.0
 20
26.0
 30
0.0
 11
222.7263
 21
26.0
 31
0.0
  0
LINE
  5
5AB
330
1E
100
AcDbEntity
  8
0
100
AcDbLine
 10
225.5202999999999
 20
28.5714
 30
0.0
 11
225.0
 21
28.5714
 31
0.0
  0
LINE
  5
5AC
330
1E
100
AcDbEntity
  8
0
100
AcDbLine
 10
225.0
 20
28.5714
 30
0.0
 11
224.4797
 21
28.5714
 31
0.0
  0
LINE
  5
5AD
330
1E
100
AcDbEntity
  8
0
100
AcDbLine
 10
227.56
 20
31.0
 30
0.0
 11
225.0
 21
31.0
 31
0.0
  0
LINE
  5
5AE
330
1E
100
AcDbEntity
  8
0
100
AcDbLine
 10
229.464
 20
29.0
 30
0.0
 11
227.3039999999999
 21
29.0
 31
0.0
  0
LINE
  5
5AF
330
1E
100
AcDbEntity
  8
0
100
AcDbLine
 10
229.464
 20
31.0
 30
0.0
 11
227.3039999999999
 21
31.0
 31
0.0
  0
LINE
  5
5B0
330
1E
100
AcDbEntity
  8
0
100
AcDbLine
 10
229.3579
 20
29.0
 30
0.0
 11
227.2736999999999
 21
29.0
 31
0.0
  0
LINE
  5
5B1
330
1E
100
AcDbEntity
  8
0
100
AcDbLine
 10
229.5812999999999
 20
28.9567
 30
0.0
 11
227.4478999999999
 21
28.9103
 31
0.0
  0
LINE
  5
5B2
330
1E
100
AcDbEntity
  8
0
100
AcDbLine
 10
231.3719999999999
 20
29.0
 30
0.0
 11
229.464
 21
29.0
 31
0.0
  0
LINE
  5
5B3
330
1E
100
AcDbEntity
  8
0
100
AcDbLine
 10
231.2053
 20
29.0
 30
0.0
 11
229.3579
 21
29.0
 31
0.0
  0
LINE
  5
5B4
330
1E
100
AcDbEntity
  8
0
100
AcDbLine
 10
231.7263
 20
28.9221
 30
0.0
 11
229.5812999999999
 21
28.9567
 31
0.0
  0
LINE
  5
5B5
330
1E
100
AcDbEntity
  8
0
100
AcDbLine
 10
232.0799999999999
 20
31.0
 30
0.0
 11
229.96
 21
31.0
 31
0.0
  0
LINE
  5
5B6
330
1E
100
AcDbEntity
  8
0
100
AcDbLine
 10
231.3719999999999
 20
31.0
 30
0.0
 11
229.464
 21
31.0
 31
0.0
  0
LINE
  5
5B7
330
1E
100
AcDbEntity
  8
0
100
AcDbLine
 10
229.96
 20
31.0
 30
0.0
 11
227.56
 21
31.0
 31
0.0
  0
LINE
  5
5B8
330
1E
100
AcDbEntity
  8
0
100
AcDbLine
 10
227.3039999999999
 20
29.0
 30
0.0
 11
225.0
 21
29.0
 31
0.0
  0
LINE
  5
5B9
330
1E
100
AcDbEntity
  8
0
100
AcDbLine
 10
227.2736999999999
 20
29.0
 30
0.0
 11
225.0
 21
29.0
 31
0.0
  0
LINE
  5
5BA
330
1E
100
AcDbEntity
  8
0
100
AcDbLine
 10
227.4478999999999
 20
28.9103
 30
0.0
 11
226.1122999999999
 21
28.78569999999999
 31
0.0
  0
LINE
  5
5BB
330
1E
100
AcDbEntity
  8
0
100
AcDbLine
 10
225.0
 20
29.0
 30
0.0
 11
222.7263
 21
29.0
 31
0.0
  0
LINE
  5
5BC
330
1E
100
AcDbEntity
  8
0
100
AcDbLine
 10
225.0
 20
29.0
 30
0.0
 11
222.696
 21
29.0
 31
0.0
  0
LINE
  5
5BD
330
1E
100
AcDbEntity
  8
0
100
AcDbLine
 10
227.3039999999999
 20
31.0
 30
0.0
 11
225.0
 21
31.0
 31
0.0
  0
LINE
  5
5BE
330
1E
100
AcDbEntity
  8
0
100
AcDbLine
 10
225.0
 20
31.0
 30
0.0
 11
222.696
 21
31.0
 31
0.0
  0
LINE
  5
5BF
330
1E
100
AcDbEntity
  8
0
100
AcDbLine
 10
234.204
 20
35.0
 30
0.0
 11
231.448
 21
35.0
 31
0.0
  0
LINE
  5
5C0
330
1E
100
AcDbEntity
  8
0
100
AcDbLine
 10
233.496
 20
35.0
 30
0.0
 11
230.952
 21
35.0
 31
0.0
  0
LINE
  5
5C1
330
1E
100
AcDbEntity
  8
0
100
AcDbLine
 10
233.496
 20
33.3
 30
0.0
 11
230.952
 21
33.3
 31
0.0
  0
LINE
  5
5C2
330
1E
100
AcDbEntity
  8
0
100
AcDbLine
 10
233.2559999999999
 20
33.0
 30
0.0
 11
230.8079999999999
 21
33.0
 31
0.0
  0
LINE
  5
5C3
330
1E
100
AcDbEntity
  8
0
100
AcDbLine
 10
233.68
 20
33.0
 30
0.0
 11
232.0799999999999
 21
33.0
 31
0.0
  0
LINE
  5
5C4
330
1E
100
AcDbEntity
  8
0
100
AcDbLine
 10
237.0
 20
35.0
 30
0.0
 11
237.0
 21
33.3
 31
0.0
  0
LINE
  5
5C5
330
1E
100
AcDbEntity
  8
0
100
AcDbLine
 10
237.0
 20
33.3
 30
0.0
 11
237.0
 21
35.0
 31
0.0
  0
LINE
  5
5C6
330
1E
100
AcDbEntity
  8
0
100
AcDbLine
 10
237.0
 20
33.3
 30
0.0
 11
236.7119999999999
 21
33.0
 31
0.0
  0
LINE
  5
5C7
330
1E
100
AcDbEntity
  8
0
100
AcDbLine
 10
235.128
 20
33.0
 30
0.0
 11
233.2559999999999
 21
33.0
 31
0.0
  0
LINE
  5
5C8
330
1E
100
AcDbEntity
  8
0
100
AcDbLine
 10
235.0
 20
33.0
 30
0.0
 11
234.64
 21
33.0
 31
0.0
  0
LINE
  5
5C9
330
1E
100
AcDbEntity
  8
0
100
AcDbLine
 10
235.128
 20
33.0
 30
0.0
 11
235.0
 21
33.0
 31
0.0
  0
LINE
  5
5CA
330
1E
100
AcDbEntity
  8
0
100
AcDbLine
 10
236.28
 20
33.0
 30
0.0
 11
235.128
 21
33.0
 31
0.0
  0
LINE
  5
5CB
330
1E
100
AcDbEntity
  8
0
100
AcDbLine
 10
236.7119999999999
 20
33.0
 30
0.0
 11
236.28
 21
33.0
 31
0.0
  0
LINE
  5
5CC
330
1E
100
AcDbEntity
  8
0
100
AcDbLine
 10
234.64
 20
33.0
 30
0.0
 11
233.68
 21
33.0
 31
0.0
  0
LINE
  5
5CD
330
1E
100
AcDbEntity
  8
0
100
AcDbLine
 10
235.4159999999999
 20
33.3
 30
0.0
 11
233.496
 21
33.3
 31
0.0
  0
LINE
  5
5CE
330
1E
100
AcDbEntity
  8
0
100
AcDbLine
 10
236.568
 20
33.3
 30
0.0
 11
235.4159999999999
 21
33.3
 31
0.0
  0
LINE
  5
5CF
330
1E
100
AcDbEntity
  8
0
100
AcDbLine
 10
237.0
 20
33.3
 30
0.0
 11
236.568
 21
33.3
 31
0.0
  0
LINE
  5
5D0
330
1E
100
AcDbEntity
  8
0
100
AcDbLine
 10
237.532
 20
35.0
 30
0.0
 11
236.2839999999999
 21
35.0
 31
0.0
  0
LINE
  5
5D1
330
1E
100
AcDbEntity
  8
0
100
AcDbLine
 10
237.532
 20
35.0
 30
0.0
 11
237.0
 21
35.0
 31
0.0
  0
LINE
  5
5D2
330
1E
100
AcDbEntity
  8
0
100
AcDbLine
 10
238.0
 20
35.0
 30
0.0
 11
237.532
 21
35.0
 31
0.0
  0
LINE
  5
5D3
330
1E
100
AcDbEntity
  8
0
100
AcDbLine
 10
236.2839999999999
 20
35.0
 30
0.0
 11
234.204
 21
35.0
 31
0.0
  0
LINE
  5
5D4
330
1E
100
AcDbEntity
  8
0
100
AcDbLine
 10
235.4159999999999
 20
35.0
 30
0.0
 11
233.496
 21
35.0
 31
0.0
  0
LINE
  5
5D5
330
1E
100
AcDbEntity
  8
0
100
AcDbLine
 10
236.568
 20
35.0
 30
0.0
 11
235.4159999999999
 21
35.0
 31
0.0
  0
LINE
  5
5D6
330
1E
100
AcDbEntity
  8
0
100
AcDbLine
 10
237.0
 20
35.0
 30
0.0
 11
236.568
 21
35.0
 31
0.0
  0
LINE
  5
5D7
330
1E
100
AcDbEntity
  8
0
100
AcDbLine
 10
228.072
 20
33.3
 30
0.0
 11
225.0
 21
33.3
 31
0.0
  0
LINE
  5
5D8
330
1E
100
AcDbEntity
  8
0
100
AcDbLine
 10
228.024
 20
33.0
 30
0.0
 11
225.0
 21
33.0
 31
0.0
  0
LINE
  5
5D9
330
1E
100
AcDbEntity
  8
0
100
AcDbLine
 10
227.56
 20
33.0
 30
0.0
 11
225.0
 21
33.0
 31
0.0
  0
LINE
  5
5DA
330
1E
100
AcDbEntity
  8
0
100
AcDbLine
 10
230.8079999999999
 20
33.0
 30
0.0
 11
228.024
 21
33.0
 31
0.0
  0
LINE
  5
5DB
330
1E
100
AcDbEntity
  8
0
100
AcDbLine
 10
232.0799999999999
 20
33.0
 30
0.0
 11
229.96
 21
33.0
 31
0.0
  0
LINE
  5
5DC
330
1E
100
AcDbEntity
  8
0
100
AcDbLine
 10
229.96
 20
33.0
 30
0.0
 11
227.56
 21
33.0
 31
0.0
  0
LINE
  5
5DD
330
1E
100
AcDbEntity
  8
0
100
AcDbLine
 10
230.952
 20
33.3
 30
0.0
 11
228.072
 21
33.3
 31
0.0
  0
LINE
  5
5DE
330
1E
100
AcDbEntity
  8
0
100
AcDbLine
 10
228.3279999999999
 20
35.0
 30
0.0
 11
225.0
 21
35.0
 31
0.0
  0
LINE
  5
5DF
330
1E
100
AcDbEntity
  8
0
100
AcDbLine
 10
228.072
 20
35.0
 30
0.0
 11
225.0
 21
35.0
 31
0.0
  0
LINE
  5
5E0
330
1E
100
AcDbEntity
  8
0
100
AcDbLine
 10
231.448
 20
35.0
 30
0.0
 11
228.3279999999999
 21
35.0
 31
0.0
  0
LINE
  5
5E1
330
1E
100
AcDbEntity
  8
0
100
AcDbLine
 10
230.952
 20
35.0
 30
0.0
 11
228.072
 21
35.0
 31
0.0
  0
LINE
  5
5E2
330
1E
100
AcDbEntity
  8
0
100
AcDbLine
 10
215.0
 20
33.0
 30
0.0
 11
215.0
 21
31.0
 31
0.0
  0
LINE
  5
5E3
330
1E
100
AcDbEntity
  8
0
100
AcDbLine
 10
215.0
 20
31.0
 30
0.0
 11
215.0
 21
33.0
 31
0.0
  0
LINE
  5
5E4
330
1E
100
AcDbEntity
  8
0
100
AcDbLine
 10
216.0
 20
28.5714
 30
0.0
 11
216.0
 21
28.78569999999999
 31
0.0
  0
LINE
  5
5E5
330
1E
100
AcDbEntity
  8
0
100
AcDbLine
 10
216.0
 20
28.78569999999999
 30
0.0
 11
216.0
 21
28.5714
 31
0.0
  0
LINE
  5
5E6
330
1E
100
AcDbEntity
  8
0
100
AcDbLine
 10
216.7714
 20
28.78569999999999
 30
0.0
 11
216.0
 21
28.5714
 31
0.0
  0
LINE
  5
5E7
330
1E
100
AcDbEntity
  8
0
100
AcDbLine
 10
218.2736999999999
 20
26.0779
 30
0.0
 11
216.7714
 21
26.2143
 31
0.0
  0
LINE
  5
5E8
330
1E
100
AcDbEntity
  8
0
100
AcDbLine
 10
218.7948
 20
26.0
 30
0.0
 11
217.4209999999999
 21
26.0
 31
0.0
  0
LINE
  5
5E9
330
1E
100
AcDbEntity
  8
0
100
AcDbLine
 10
221.4233
 20
26.0
 30
0.0
 11
219.8593999999999
 21
26.0
 31
0.0
  0
LINE
  5
5EA
330
1E
100
AcDbEntity
  8
0
100
AcDbLine
 10
221.4102
 20
26.0
 30
0.0
 11
219.7662999999999
 21
26.0
 31
0.0
  0
LINE
  5
5EB
330
1E
100
AcDbEntity
  8
0
100
AcDbLine
 10
220.4187
 20
26.0433
 30
0.0
 11
218.2736999999999
 21
26.0779
 31
0.0
  0
LINE
  5
5EC
330
1E
100
AcDbEntity
  8
0
100
AcDbLine
 10
220.6421
 20
26.0
 30
0.0
 11
218.7948
 21
26.0
 31
0.0
  0
LINE
  5
5ED
330
1E
100
AcDbEntity
  8
0
100
AcDbLine
 10
222.108
 20
26.0
 30
0.0
 11
222.0
 21
26.0
 31
0.0
  0
LINE
  5
5EE
330
1E
100
AcDbEntity
  8
0
100
AcDbLine
 10
222.396
 20
26.0
 30
0.0
 11
222.108
 21
26.0
 31
0.0
  0
LINE
  5
5EF
330
1E
100
AcDbEntity
  8
0
100
AcDbLine
 10
222.5521
 20
26.0897
 30
0.0
 11
220.4187
 21
26.0433
 31
0.0
  0
LINE
  5
5F0
330
1E
100
AcDbEntity
  8
0
100
AcDbLine
 10
222.0
 20
26.0
 30
0.0
 11
221.4233
 21
26.0
 31
0.0
  0
LINE
  5
5F1
330
1E
100
AcDbEntity
  8
0
100
AcDbLine
 10
222.0
 20
26.0
 30
0.0
 11
220.6421
 21
26.0
 31
0.0
  0
LINE
  5
5F2
330
1E
100
AcDbEntity
  8
0
100
AcDbLine
 10
218.1465
 20
26.0
 30
0.0
 11
217.9418
 21
26.0
 31
0.0
  0
LINE
  5
5F3
330
1E
100
AcDbEntity
  8
0
100
AcDbLine
 10
218.6678
 20
26.0
 30
0.0
 11
218.1465
 21
26.0
 31
0.0
  0
LINE
  5
5F4
330
1E
100
AcDbEntity
  8
0
100
AcDbLine
 10
218.7982
 20
26.0
 30
0.0
 11
218.1465
 21
26.0
 31
0.0
  0
LINE
  5
5F5
330
1E
100
AcDbEntity
  8
0
100
AcDbLine
 10
219.8593999999999
 20
26.0
 30
0.0
 11
218.7982
 21
26.0
 31
0.0
  0
LINE
  5
5F6
330
1E
100
AcDbEntity
  8
0
100
AcDbLine
 10
219.7662999999999
 20
26.0
 30
0.0
 11
218.6678
 21
26.0
 31
0.0
  0
LINE
  5
5F7
330
1E
100
AcDbEntity
  8
0
100
AcDbLine
 10
216.0
 20
26.4286
 30
0.0
 11
216.0
 21
28.5714
 31
0.0
  0
LINE
  5
5F8
330
1E
100
AcDbEntity
  8
0
100
AcDbLine
 10
216.0
 20
28.5714
 30
0.0
 11
216.0
 21
26.4286
 31
0.0
  0
LINE
  5
5F9
330
1E
100
AcDbEntity
  8
0
100
AcDbLine
 10
216.0
 20
26.0214
 30
0.0
 11
216.0
 21
26.2143
 31
0.0
  0
LINE
  5
5FA
330
1E
100
AcDbEntity
  8
0
100
AcDbLine
 10
216.0
 20
26.2143
 30
0.0
 11
216.0
 21
26.0214
 31
0.0
  0
LINE
  5
5FB
330
1E
100
AcDbEntity
  8
0
100
AcDbLine
 10
216.2316
 20
26.4286
 30
0.0
 11
216.0
 21
26.4286
 31
0.0
  0
LINE
  5
5FC
330
1E
100
AcDbEntity
  8
0
100
AcDbLine
 10
216.2368
 20
26.0
 30
0.0
 11
216.0
 21
26.0214
 31
0.0
  0
LINE
  5
5FD
330
1E
100
AcDbEntity
  8
0
100
AcDbLine
 10
216.5684
 20
26.0
 30
0.0
 11
216.2368
 21
26.0
 31
0.0
  0
LINE
  5
5FE
330
1E
100
AcDbEntity
  8
0
100
AcDbLine
 10
216.0
 20
26.2143
 30
0.0
 11
216.0
 21
26.4286
 31
0.0
  0
LINE
  5
5FF
330
1E
100
AcDbEntity
  8
0
100
AcDbLine
 10
216.0
 20
26.4286
 30
0.0
 11
216.0
 21
26.2143
 31
0.0
  0
LINE
  5
600
330
1E
100
AcDbEntity
  8
0
100
AcDbLine
 10
216.7714
 20
26.2143
 30
0.0
 11
216.2316
 21
26.4286
 31
0.0
  0
LINE
  5
601
330
1E
100
AcDbEntity
  8
0
100
AcDbLine
 10
217.4209999999999
 20
26.0
 30
0.0
 11
216.5684
 21
26.0
 31
0.0
  0
LINE
  5
602
330
1E
100
AcDbEntity
  8
0
100
AcDbLine
 10
217.92
 20
31.0
 30
0.0
 11
216.3199999999999
 21
31.0
 31
0.0
  0
LINE
  5
603
330
1E
100
AcDbEntity
  8
0
100
AcDbLine
 10
218.628
 20
29.0
 30
0.0
 11
217.1879999999999
 21
29.0
 31
0.0
  0
LINE
  5
604
330
1E
100
AcDbEntity
  8
0
100
AcDbLine
 10
218.2736999999999
 20
28.9221
 30
0.0
 11
216.7714
 21
28.78569999999999
 31
0.0
  0
LINE
  5
605
330
1E
100
AcDbEntity
  8
0
100
AcDbLine
 10
218.628
 20
31.0
 30
0.0
 11
217.1879999999999
 21
31.0
 31
0.0
  0
LINE
  5
606
330
1E
100
AcDbEntity
  8
0
100
AcDbLine
 10
218.7948
 20
29.0
 30
0.0
 11
217.4209999999999
 21
29.0
 31
0.0
  0
LINE
  5
607
330
1E
100
AcDbEntity
  8
0
100
AcDbLine
 10
220.536
 20
29.0
 30
0.0
 11
218.628
 21
29.0
 31
0.0
  0
LINE
  5
608
330
1E
100
AcDbEntity
  8
0
100
AcDbLine
 10
220.4187
 20
28.9567
 30
0.0
 11
218.2736999999999
 21
28.9221
 31
0.0
  0
LINE
  5
609
330
1E
100
AcDbEntity
  8
0
100
AcDbLine
 10
220.6421
 20
29.0
 30
0.0
 11
218.7948
 21
29.0
 31
0.0
  0
LINE
  5
60A
330
1E
100
AcDbEntity
  8
0
100
AcDbLine
 10
222.5521
 20
28.9103
 30
0.0
 11
220.4187
 21
28.9567
 31
0.0
  0
LINE
  5
60B
330
1E
100
AcDbEntity
  8
0
100
AcDbLine
 10
220.536
 20
31.0
 30
0.0
 11
218.628
 21
31.0
 31
0.0
  0
LINE
  5
60C
330
1E
100
AcDbEntity
  8
0
100
AcDbLine
 10
222.44
 20
31.0
 30
0.0
 11
220.04
 21
31.0
 31
0.0
  0
LINE
  5
60D
330
1E
100
AcDbEntity
  8
0
100
AcDbLine
 10
220.04
 20
31.0
 30
0.0
 11
217.92
 21
31.0
 31
0.0
  0
LINE
  5
60E
330
1E
100
AcDbEntity
  8
0
100
AcDbLine
 10
216.0
 20
31.0
 30
0.0
 11
216.0
 21
29.0
 31
0.0
  0
LINE
  5
60F
330
1E
100
AcDbEntity
  8
0
100
AcDbLine
 10
216.0
 20
29.0
 30
0.0
 11
216.0
 21
31.0
 31
0.0
  0
LINE
  5
610
330
1E
100
AcDbEntity
  8
0
100
AcDbLine
 10
216.0
 20
29.0
 30
0.0
 11
216.0
 21
28.78569999999999
 31
0.0
  0
LINE
  5
611
330
1E
100
AcDbEntity
  8
0
100
AcDbLine
 10
216.0
 20
28.78569999999999
 30
0.0
 11
216.0
 21
29.0
 31
0.0
  0
LINE
  5
612
330
1E
100
AcDbEntity
  8
0
100
AcDbLine
 10
216.2368
 20
29.0
 30
0.0
 11
216.0
 21
29.0
 31
0.0
  0
LINE
  5
613
330
1E
100
AcDbEntity
  8
0
100
AcDbLine
 10
216.324
 20
29.0
 30
0.0
 11
216.0
 21
29.0
 31
0.0
  0
LINE
  5
614
330
1E
100
AcDbEntity
  8
0
100
AcDbLine
 10
216.5684
 20
29.0
 30
0.0
 11
216.2368
 21
29.0
 31
0.0
  0
LINE
  5
615
330
1E
100
AcDbEntity
  8
0
100
AcDbLine
 10
217.1879999999999
 20
29.0
 30
0.0
 11
216.324
 21
29.0
 31
0.0
  0
LINE
  5
616
330
1E
100
AcDbEntity
  8
0
100
AcDbLine
 10
217.4209999999999
 20
29.0
 30
0.0
 11
216.5684
 21
29.0
 31
0.0
  0
LINE
  5
617
330
1E
100
AcDbEntity
  8
0
100
AcDbLine
 10
215.36
 20
31.0
 30
0.0
 11
215.0
 21
31.0
 31
0.0
  0
LINE
  5
618
330
1E
100
AcDbEntity
  8
0
100
AcDbLine
 10
216.0
 20
31.0
 30
0.0
 11
215.36
 21
31.0
 31
0.0
  0
LINE
  5
619
330
1E
100
AcDbEntity
  8
0
100
AcDbLine
 10
216.3199999999999
 20
31.0
 30
0.0
 11
215.36
 21
31.0
 31
0.0
  0
LINE
  5
61A
330
1E
100
AcDbEntity
  8
0
100
AcDbLine
 10
216.324
 20
31.0
 30
0.0
 11
216.0
 21
31.0
 31
0.0
  0
LINE
  5
61B
330
1E
100
AcDbEntity
  8
0
100
AcDbLine
 10
217.1879999999999
 20
31.0
 30
0.0
 11
216.324
 21
31.0
 31
0.0
  0
LINE
  5
61C
330
1E
100
AcDbEntity
  8
0
100
AcDbLine
 10
213.0
 20
35.0
 30
0.0
 11
212.468
 21
35.0
 31
0.0
  0
LINE
  5
61D
330
1E
100
AcDbEntity
  8
0
100
AcDbLine
 10
213.716
 20
35.0
 30
0.0
 11
212.468
 21
35.0
 31
0.0
  0
LINE
  5
61E
330
1E
100
AcDbEntity
  8
0
100
AcDbLine
 10
213.0
 20
35.0
 30
0.0
 11
213.0
 21
33.3
 31
0.0
  0
LINE
  5
61F
330
1E
100
AcDbEntity
  8
0
100
AcDbLine
 10
213.0
 20
33.3
 30
0.0
 11
213.0
 21
35.0
 31
0.0
  0
LINE
  5
620
330
1E
100
AcDbEntity
  8
0
100
AcDbLine
 10
219.0479999999999
 20
33.3
 30
0.0
 11
216.5039999999999
 21
33.3
 31
0.0
  0
LINE
  5
621
330
1E
100
AcDbEntity
  8
0
100
AcDbLine
 10
217.92
 20
33.0
 30
0.0
 11
216.3199999999999
 21
33.0
 31
0.0
  0
LINE
  5
622
330
1E
100
AcDbEntity
  8
0
100
AcDbLine
 10
219.192
 20
33.0
 30
0.0
 11
216.744
 21
33.0
 31
0.0
  0
LINE
  5
623
330
1E
100
AcDbEntity
  8
0
100
AcDbLine
 10
221.9759999999999
 20
33.0
 30
0.0
 11
219.192
 21
33.0
 31
0.0
  0
LINE
  5
624
330
1E
100
AcDbEntity
  8
0
100
AcDbLine
 10
222.44
 20
33.0
 30
0.0
 11
220.04
 21
33.0
 31
0.0
  0
LINE
  5
625
330
1E
100
AcDbEntity
  8
0
100
AcDbLine
 10
220.04
 20
33.0
 30
0.0
 11
217.92
 21
33.0
 31
0.0
  0
LINE
  5
626
330
1E
100
AcDbEntity
  8
0
100
AcDbLine
 10
221.9279999999999
 20
33.3
 30
0.0
 11
219.0479999999999
 21
33.3
 31
0.0
  0
LINE
  5
627
330
1E
100
AcDbEntity
  8
0
100
AcDbLine
 10
213.288
 20
33.0
 30
0.0
 11
213.0
 21
33.3
 31
0.0
  0
LINE
  5
628
330
1E
100
AcDbEntity
  8
0
100
AcDbLine
 10
215.36
 20
33.0
 30
0.0
 11
215.0
 21
33.0
 31
0.0
  0
LINE
  5
629
330
1E
100
AcDbEntity
  8
0
100
AcDbLine
 10
216.744
 20
33.0
 30
0.0
 11
214.872
 21
33.0
 31
0.0
  0
LINE
  5
62A
330
1E
100
AcDbEntity
  8
0
100
AcDbLine
 10
216.3199999999999
 20
33.0
 30
0.0
 11
215.36
 21
33.0
 31
0.0
  0
LINE
  5
62B
330
1E
100
AcDbEntity
  8
0
100
AcDbLine
 10
215.0
 20
33.0
 30
0.0
 11
214.872
 21
33.0
 31
0.0
  0
LINE
  5
62C
330
1E
100
AcDbEntity
  8
0
100
AcDbLine
 10
214.872
 20
33.0
 30
0.0
 11
213.7199999999999
 21
33.0
 31
0.0
  0
LINE
  5
62D
330
1E
100
AcDbEntity
  8
0
100
AcDbLine
 10
213.7199999999999
 20
33.0
 30
0.0
 11
213.288
 21
33.0
 31
0.0
  0
LINE
  5
62E
330
1E
100
AcDbEntity
  8
0
100
AcDbLine
 10
216.5039999999999
 20
33.3
 30
0.0
 11
214.584
 21
33.3
 31
0.0
  0
LINE
  5
62F
330
1E
100
AcDbEntity
  8
0
100
AcDbLine
 10
214.584
 20
33.3
 30
0.0
 11
213.4319999999999
 21
33.3
 31
0.0
  0
LINE
  5
630
330
1E
100
AcDbEntity
  8
0
100
AcDbLine
 10
213.4319999999999
 20
33.3
 30
0.0
 11
213.0
 21
33.3
 31
0.0
  0
LINE
  5
631
330
1E
100
AcDbEntity
  8
0
100
AcDbLine
 10
218.5519999999999
 20
35.0
 30
0.0
 11
215.796
 21
35.0
 31
0.0
  0
LINE
  5
632
330
1E
100
AcDbEntity
  8
0
100
AcDbLine
 10
219.0479999999999
 20
35.0
 30
0.0
 11
216.5039999999999
 21
35.0
 31
0.0
  0
LINE
  5
633
330
1E
100
AcDbEntity
  8
0
100
AcDbLine
 10
221.672
 20
35.0
 30
0.0
 11
218.5519999999999
 21
35.0
 31
0.0
  0
LINE
  5
634
330
1E
100
AcDbEntity
  8
0
100
AcDbLine
 10
221.9279999999999
 20
35.0
 30
0.0
 11
219.0479999999999
 21
35.0
 31
0.0
  0
LINE
  5
635
330
1E
100
AcDbEntity
  8
0
100
AcDbLine
 10
215.796
 20
35.0
 30
0.0
 11
213.716
 21
35.0
 31
0.0
  0
LINE
  5
636
330
1E
100
AcDbEntity
  8
0
100
AcDbLine
 10
216.5039999999999
 20
35.0
 30
0.0
 11
214.584
 21
35.0
 31
0.0
  0
LINE
  5
637
330
1E
100
AcDbEntity
  8
0
100
AcDbLine
 10
214.584
 20
35.0
 30
0.0
 11
213.4319999999999
 21
35.0
 31
0.0
  0
LINE
  5
638
330
1E
100
AcDbEntity
  8
0
100
AcDbLine
 10
213.4319999999999
 20
35.0
 30
0.0
 11
213.0
 21
35.0
 31
0.0
  0
LINE
  5
639
330
1E
100
AcDbEntity
  8
0
100
AcDbLine
 10
212.468
 20
35.0
 30
0.0
 11
212.0
 21
35.0
 31
0.0
  0
LINE
  5
63A
330
1E
100
AcDbEntity
  8
0
100
AcDbLine
 10
225.0
 20
75.0
 30
0.0
 11
193.0
 21
75.0
 31
0.0
  0
LINE
  5
63B
330
1E
100
AcDbEntity
  8
0
100
AcDbLine
 10
225.0
 20
75.0
 30
0.0
 11
193.0
 21
75.0
 31
0.0
  0
LINE
  5
63C
330
1E
100
AcDbEntity
  8
0
100
AcDbLine
 10
212.0
 20
49.0
 30
0.0
 11
193.0
 21
49.0
 31
0.0
  0
LINE
  5
63D
330
1E
100
AcDbEntity
  8
0
100
AcDbLine
 10
212.468
 20
58.672
 30
0.0
 11
212.140625
 21
61.0
 31
0.0
  0
LINE
  5
63E
330
1E
100
AcDbEntity
  8
0
100
AcDbLine
 10
237.8593749999999
 20
61.0
 30
0.0
 11
237.532
 21
58.672
 31
0.0
  0
LINE
  5
63F
330
1E
100
AcDbEntity
  8
0
100
AcDbLine
 10
214.2583
 20
59.1474
 30
0.0
 11
213.8571
 21
62.0
 31
0.0
  0
LINE
  5
640
330
1E
100
AcDbEntity
  8
0
100
AcDbLine
 10
236.1429
 20
62.0
 30
0.0
 11
235.7417
 21
59.1474
 31
0.0
  0
LINE
  5
641
330
1E
100
AcDbEntity
  8
0
100
AcDbLine
 10
250.0
 20
64.0
 30
0.0
 11
250.0
 21
60.0
 31
0.0
  0
LINE
  5
642
330
1E
100
AcDbEntity
  8
0
100
AcDbLine
 10
250.0
 20
60.0
 30
0.0
 11
250.0
 21
64.0
 31
0.0
  0
LINE
  5
643
330
1E
100
AcDbEntity
  8
0
100
AcDbLine
 10
247.5
 20
60.0
 30
0.0
 11
238.0
 21
60.0
 31
0.0
  0
LINE
  5
644
330
1E
100
AcDbEntity
  8
0
100
AcDbLine
 10
247.5
 20
60.0
 30
0.0
 11
237.71875
 21
60.0
 31
0.0
  0
LINE
  5
645
330
1E
100
AcDbEntity
  8
0
100
AcDbLine
 10
247.5
 20
60.0
 30
0.0
 11
238.0
 21
60.0
 31
0.0
  0
LINE
  5
646
330
1E
100
AcDbEntity
  8
0
100
AcDbLine
 10
247.5
 20
60.0
 30
0.0
 11
237.71875
 21
60.0
 31
0.0
  0
LINE
  5
647
330
1E
100
AcDbEntity
  8
0
100
AcDbLine
 10
249.8
 20
60.0
 30
0.0
 11
249.3
 21
60.0
 31
0.0
  0
LINE
  5
648
330
1E
100
AcDbEntity
  8
0
100
AcDbLine
 10
249.8
 20
60.0
 30
0.0
 11
249.3
 21
60.0
 31
0.0
  0
LINE
  5
649
330
1E
100
AcDbEntity
  8
0
100
AcDbLine
 10
250.0
 20
60.0
 30
0.0
 11
249.8
 21
60.0
 31
0.0
  0
LINE
  5
64A
330
1E
100
AcDbEntity
  8
0
100
AcDbLine
 10
248.4999999999999
 20
60.0
 30
0.0
 11
247.5
 21
60.0
 31
0.0
  0
LINE
  5
64B
330
1E
100
AcDbEntity
  8
0
100
AcDbLine
 10
249.3
 20
60.0
 30
0.0
 11
248.4999999999999
 21
60.0
 31
0.0
  0
LINE
  5
64C
330
1E
100
AcDbEntity
  8
0
100
AcDbLine
 10
228.3279999999999
 20
49.468
 30
0.0
 11
225.0
 21
49.0
 31
0.0
  0
LINE
  5
64D
330
1E
100
AcDbEntity
  8
0
100
AcDbLine
 10
225.0
 20
49.0
 30
0.0
 11
221.672
 21
49.468
 31
0.0
  0
LINE
  5
64E
330
1E
100
AcDbEntity
  8
0
100
AcDbLine
 10
225.0
 20
50.8571
 30
0.0
 11
222.1474
 21
51.2583
 31
0.0
  0
LINE
  5
64F
330
1E
100
AcDbEntity
  8
0
100
AcDbLine
 10
236.2839999999999
 20
55.552
 30
0.0
 11
234.204
 21
52.79600000000001
 31
0.0
  0
LINE
  5
650
330
1E
100
AcDbEntity
  8
0
100
AcDbLine
 10
234.6719999999999
 20
56.4731
 30
0.0
 11
232.8891
 21
54.1109
 31
0.0
  0
LINE
  5
651
330
1E
100
AcDbEntity
  8
0
100
AcDbLine
 10
234.204
 20
52.79600000000001
 30
0.0
 11
232.2987734248448
 21
51.35809315082628
 31
0.0
  0
LINE
  5
652
330
1E
100
AcDbEntity
  8
0
100
AcDbLine
 10
232.8891
 20
54.1109
 30
0.0
 11
230.5269
 21
52.32800000000001
 31
0.0
  0
LINE
  5
653
330
1E
100
AcDbEntity
  8
0
100
AcDbLine
 10
232.8659999999999
 20
50.3756
 30
0.0
 11
232.2987734248448
 21
51.3580931508263
 31
0.0
  0
LINE
  5
654
330
1E
100
AcDbEntity
  8
0
100
AcDbLine
 10
232.8659999999999
 20
50.3756
 30
0.0
 11
231.8659999999999
 21
52.1077
 31
0.0
  0
LINE
  5
655
330
1E
100
AcDbEntity
  8
0
100
AcDbLine
 10
232.8659999999999
 20
50.3756
 30
0.0
 11
231.134
 21
49.3756
 31
0.0
  0
LINE
  5
656
330
1E
100
AcDbEntity
  8
0
100
AcDbLine
 10
232.8659999999999
 20
50.3756
 30
0.0
 11
231.134
 21
49.3756
 31
0.0
  0
LINE
  5
657
330
1E
100
AcDbEntity
  8
0
100
AcDbLine
 10
230.5269
 20
52.32800000000001
 30
0.0
 11
227.8525999999999
 21
51.2583
 31
0.0
  0
LINE
  5
658
330
1E
100
AcDbEntity
  8
0
100
AcDbLine
 10
227.8525999999999
 20
51.2583
 30
0.0
 11
225.0
 21
50.8571
 31
0.0
  0
LINE
  5
659
330
1E
100
AcDbEntity
  8
0
100
AcDbLine
 10
231.134
 20
49.3756
 30
0.0
 11
230.134
 21
51.1077
 31
0.0
  0
LINE
  5
65A
330
1E
100
AcDbEntity
  8
0
100
AcDbLine
 10
230.564233103513
 20
50.3624932414052
 30
0.0
 11
228.3279999999999
 21
49.468
 31
0.0
  0
LINE
  5
65B
330
1E
100
AcDbEntity
  8
0
100
AcDbLine
 10
230.564233103513
 20
50.3624932414052
 30
0.0
 11
228.3279999999999
 21
49.468
 31
0.0
  0
LINE
  5
65C
330
1E
100
AcDbEntity
  8
0
100
AcDbLine
 10
231.134
 20
49.3756
 30
0.0
 11
230.564233103513
 21
50.3624932414052
 31
0.0
  0
LINE
  5
65D
330
1E
100
AcDbEntity
  8
0
100
AcDbLine
 10
231.8659999999999
 20
52.1077
 30
0.0
 11
230.134
 21
51.1077
 31
0.0
  0
LINE
  5
65E
330
1E
100
AcDbEntity
  8
0
100
AcDbLine
 10
237.532
 20
58.672
 30
0.0
 11
236.2839999999999
 21
55.552
 31
0.0
  0
LINE
  5
65F
330
1E
100
AcDbEntity
  8
0
100
AcDbLine
 10
235.7417
 20
59.1474
 30
0.0
 11
234.6719999999999
 21
56.4731
 31
0.0
  0
LINE
  5
660
330
1E
100
AcDbEntity
  8
0
100
AcDbLine
 10
217.1109
 20
54.1109
 30
0.0
 11
215.328
 21
56.4731
 31
0.0
  0
LINE
  5
661
330
1E
100
AcDbEntity
  8
0
100
AcDbLine
 10
215.796
 20
52.79600000000001
 30
0.0
 11
213.716
 21
55.552
 31
0.0
  0
LINE
  5
662
330
1E
100
AcDbEntity
  8
0
100
AcDbLine
 10
217.7012265751551
 20
51.35809315082628
 30
0.0
 11
215.796
 21
52.79600000000001
 31
0.0
  0
LINE
  5
663
330
1E
100
AcDbEntity
  8
0
100
AcDbLine
 10
222.1474
 20
51.2583
 30
0.0
 11
219.4730999999999
 21
52.32800000000001
 31
0.0
  0
LINE
  5
664
330
1E
100
AcDbEntity
  8
0
100
AcDbLine
 10
218.134
 20
52.1077
 30
0.0
 11
217.134
 21
50.3756
 31
0.0
  0
LINE
  5
665
330
1E
100
AcDbEntity
  8
0
100
AcDbLine
 10
218.866
 20
49.3756
 30
0.0
 11
217.134
 21
50.3756
 31
0.0
  0
LINE
  5
666
330
1E
100
AcDbEntity
  8
0
100
AcDbLine
 10
218.866
 20
49.3756
 30
0.0
 11
217.134
 21
50.3756
 31
0.0
  0
LINE
  5
667
330
1E
100
AcDbEntity
  8
0
100
AcDbLine
 10
219.8659999999999
 20
51.1077
 30
0.0
 11
218.866
 21
49.3756
 31
0.0
  0
LINE
  5
668
330
1E
100
AcDbEntity
  8
0
100
AcDbLine
 10
221.672
 20
49.468
 30
0.0
 11
219.4357668964869
 21
50.3624932414052
 31
0.0
  0
LINE
  5
669
330
1E
100
AcDbEntity
  8
0
100
AcDbLine
 10
221.672
 20
49.468
 30
0.0
 11
219.4357668964869
 21
50.3624932414052
 31
0.0
  0
LINE
  5
66A
330
1E
100
AcDbEntity
  8
0
100
AcDbLine
 10
219.4357668964869
 20
50.3624932414052
 30
0.0
 11
218.866
 21
49.3756
 31
0.0
  0
LINE
  5
66B
330
1E
100
AcDbEntity
  8
0
100
AcDbLine
 10
219.8659999999999
 20
51.1077
 30
0.0
 11
218.134
 21
52.1077
 31
0.0
  0
LINE
  5
66C
330
1E
100
AcDbEntity
  8
0
100
AcDbLine
 10
219.4730999999999
 20
52.32800000000001
 30
0.0
 11
217.1109
 21
54.1109
 31
0.0
  0
LINE
  5
66D
330
1E
100
AcDbEntity
  8
0
100
AcDbLine
 10
213.716
 20
55.552
 30
0.0
 11
212.468
 21
58.672
 31
0.0
  0
LINE
  5
66E
330
1E
100
AcDbEntity
  8
0
100
AcDbLine
 10
215.328
 20
56.4731
 30
0.0
 11
214.2583
 21
59.1474
 31
0.0
  0
LINE
  5
66F
330
1E
100
AcDbEntity
  8
0
100
AcDbLine
 10
247.5
 20
64.0
 30
0.0
 11
237.71875
 21
64.0
 31
0.0
  0
LINE
  5
670
330
1E
100
AcDbEntity
  8
0
100
AcDbLine
 10
247.5
 20
64.0
 30
0.0
 11
237.71875
 21
64.0
 31
0.0
  0
LINE
  5
671
330
1E
100
AcDbEntity
  8
0
100
AcDbLine
 10
249.8
 20
64.0
 30
0.0
 11
249.3
 21
64.0
 31
0.0
  0
LINE
  5
672
330
1E
100
AcDbEntity
  8
0
100
AcDbLine
 10
249.8
 20
64.0
 30
0.0
 11
249.3
 21
64.0
 31
0.0
  0
LINE
  5
673
330
1E
100
AcDbEntity
  8
0
100
AcDbLine
 10
250.0
 20
64.0
 30
0.0
 11
249.8
 21
64.0
 31
0.0
  0
LINE
  5
674
330
1E
100
AcDbEntity
  8
0
100
AcDbLine
 10
248.4999999999999
 20
64.0
 30
0.0
 11
247.5
 21
64.0
 31
0.0
  0
LINE
  5
675
330
1E
100
AcDbEntity
  8
0
100
AcDbLine
 10
249.3
 20
64.0
 30
0.0
 11
248.4999999999999
 21
64.0
 31
0.0
  0
LINE
  5
676
330
1E
100
AcDbEntity
  8
0
100
AcDbLine
 10
222.1474
 20
72.74169999999999
 30
0.0
 11
219.4730999999999
 21
71.672
 31
0.0
  0
LINE
  5
677
330
1E
100
AcDbEntity
  8
0
100
AcDbLine
 10
218.134
 20
71.89230000000001
 30
0.0
 11
217.134
 21
73.62439999999999
 31
0.0
  0
LINE
  5
678
330
1E
100
AcDbEntity
  8
0
100
AcDbLine
 10
217.7012265751552
 20
72.6419068491737
 30
0.0
 11
217.134
 21
73.62439999999999
 31
0.0
  0
LINE
  5
679
330
1E
100
AcDbEntity
  8
0
100
AcDbLine
 10
219.8659999999999
 20
72.8923
 30
0.0
 11
218.134
 21
71.89230000000001
 31
0.0
  0
LINE
  5
67A
330
1E
100
AcDbEntity
  8
0
100
AcDbLine
 10
230.5269
 20
71.672
 30
0.0
 11
227.8525999999999
 21
72.74169999999999
 31
0.0
  0
LINE
  5
67B
330
1E
100
AcDbEntity
  8
0
100
AcDbLine
 10
232.8659999999999
 20
73.62439999999999
 30
0.0
 11
231.8659999999999
 21
71.89230000000001
 31
0.0
  0
LINE
  5
67C
330
1E
100
AcDbEntity
  8
0
100
AcDbLine
 10
232.8659999999999
 20
73.62439999999999
 30
0.0
 11
232.2987734248448
 21
72.6419068491737
 31
0.0
  0
LINE
  5
67D
330
1E
100
AcDbEntity
  8
0
100
AcDbLine
 10
231.8659999999999
 20
71.89230000000001
 30
0.0
 11
230.134
 21
72.8923
 31
0.0
  0
LINE
  5
67E
330
1E
100
AcDbEntity
  8
0
100
AcDbLine
 10
232.8659999999999
 20
73.62439999999999
 30
0.0
 11
232.2987734248448
 21
72.6419068491737
 31
0.0
  0
LINE
  5
67F
330
1E
100
AcDbEntity
  8
0
100
AcDbLine
 10
235.7417
 20
64.8526
 30
0.0
 11
234.6719999999999
 21
67.5269
 31
0.0
  0
LINE
  5
680
330
1E
100
AcDbEntity
  8
0
100
AcDbLine
 10
237.532
 20
65.328
 30
0.0
 11
236.2839999999999
 21
68.44800000000001
 31
0.0
  0
LINE
  5
681
330
1E
100
AcDbEntity
  8
0
100
AcDbLine
 10
237.8593749999999
 20
63.0
 30
0.0
 11
237.532
 21
65.328
 31
0.0
  0
LINE
  5
682
330
1E
100
AcDbEntity
  8
0
100
AcDbLine
 10
236.1429
 20
62.0
 30
0.0
 11
235.7417
 21
64.8526
 31
0.0
  0
LINE
  5
683
330
1E
100
AcDbEntity
  8
0
100
AcDbLine
 10
239.0
 20
61.0
 30
0.0
 11
237.0
 21
61.0
 31
0.0
  0
LINE
  5
684
330
1E
100
AcDbEntity
  8
0
100
AcDbLine
 10
239.0
 20
63.0
 30
0.0
 11
237.0
 21
63.0
 31
0.0
  0
LINE
  5
685
330
1E
100
AcDbEntity
  8
0
100
AcDbLine
 10
239.0
 20
61.0
 30
0.0
 11
239.0
 21
63.0
 31
0.0
  0
LINE
  5
686
330
1E
100
AcDbEntity
  8
0
100
AcDbLine
 10
239.0
 20
63.0
 30
0.0
 11
239.0
 21
61.0
 31
0.0
  0
LINE
  5
687
330
1E
100
AcDbEntity
  8
0
100
AcDbLine
 10
239.0
 20
61.0
 30
0.0
 11
237.8593749999999
 21
61.0
 31
0.0
  0
LINE
  5
688
330
1E
100
AcDbEntity
  8
0
100
AcDbLine
 10
237.0
 20
63.0
 30
0.0
 11
237.0
 21
61.0
 31
0.0
  0
LINE
  5
689
330
1E
100
AcDbEntity
  8
0
100
AcDbLine
 10
237.0
 20
61.0
 30
0.0
 11
237.0
 21
63.0
 31
0.0
  0
LINE
  5
68A
330
1E
100
AcDbEntity
  8
0
100
AcDbLine
 10
234.204
 20
71.204
 30
0.0
 11
232.2987734248448
 21
72.64190684917372
 31
0.0
  0
LINE
  5
68B
330
1E
100
AcDbEntity
  8
0
100
AcDbLine
 10
232.8891
 20
69.8891
 30
0.0
 11
230.5269
 21
71.672
 31
0.0
  0
LINE
  5
68C
330
1E
100
AcDbEntity
  8
0
100
AcDbLine
 10
234.6719999999999
 20
67.5269
 30
0.0
 11
232.8891
 21
69.8891
 31
0.0
  0
LINE
  5
68D
330
1E
100
AcDbEntity
  8
0
100
AcDbLine
 10
236.2839999999999
 20
68.44800000000001
 30
0.0
 11
234.204
 21
71.204
 31
0.0
  0
LINE
  5
68E
330
1E
100
AcDbEntity
  8
0
100
AcDbLine
 10
213.716
 20
68.44800000000001
 30
0.0
 11
212.468
 21
65.328
 31
0.0
  0
LINE
  5
68F
330
1E
100
AcDbEntity
  8
0
100
AcDbLine
 10
215.328
 20
67.5269
 30
0.0
 11
214.2583
 21
64.8526
 31
0.0
  0
LINE
  5
690
330
1E
100
AcDbEntity
  8
0
100
AcDbLine
 10
213.0
 20
63.0
 30
0.0
 11
211.0
 21
63.0
 31
0.0
  0
LINE
  5
691
330
1E
100
AcDbEntity
  8
0
100
AcDbLine
 10
213.0
 20
61.0
 30
0.0
 11
211.0
 21
61.0
 31
0.0
  0
LINE
  5
692
330
1E
100
AcDbEntity
  8
0
100
AcDbLine
 10
214.2583
 20
64.8526
 30
0.0
 11
213.8571
 21
62.0
 31
0.0
  0
LINE
  5
693
330
1E
100
AcDbEntity
  8
0
100
AcDbLine
 10
213.0
 20
63.0
 30
0.0
 11
213.0
 21
61.0
 31
0.0
  0
LINE
  5
694
330
1E
100
AcDbEntity
  8
0
100
AcDbLine
 10
213.0
 20
61.0
 30
0.0
 11
213.0
 21
63.0
 31
0.0
  0
LINE
  5
695
330
1E
100
AcDbEntity
  8
0
100
AcDbLine
 10
212.468
 20
65.328
 30
0.0
 11
212.140625
 21
63.0
 31
0.0
  0
LINE
  5
696
330
1E
100
AcDbEntity
  8
0
100
AcDbLine
 10
211.0
 20
61.0
 30
0.0
 11
211.0
 21
63.0
 31
0.0
  0
LINE
  5
697
330
1E
100
AcDbEntity
  8
0
100
AcDbLine
 10
211.0
 20
63.0
 30
0.0
 11
211.0
 21
61.0
 31
0.0
  0
LINE
  5
698
330
1E
100
AcDbEntity
  8
0
100
AcDbLine
 10
212.140625
 20
61.0
 30
0.0
 11
211.0
 21
61.0
 31
0.0
  0
LINE
  5
699
330
1E
100
AcDbEntity
  8
0
100
AcDbLine
 10
215.796
 20
71.204
 30
0.0
 11
213.716
 21
68.44800000000001
 31
0.0
  0
LINE
  5
69A
330
1E
100
AcDbEntity
  8
0
100
AcDbLine
 10
217.1109
 20
69.8891
 30
0.0
 11
215.328
 21
67.5269
 31
0.0
  0
LINE
  5
69B
330
1E
100
AcDbEntity
  8
0
100
AcDbLine
 10
219.4730999999999
 20
71.672
 30
0.0
 11
217.1109
 21
69.8891
 31
0.0
  0
LINE
  5
69C
330
1E
100
AcDbEntity
  8
0
100
AcDbLine
 10
217.7012265751552
 20
72.6419068491737
 30
0.0
 11
215.796
 21
71.204
 31
0.0
  0
LINE
  5
69D
330
1E
100
AcDbEntity
  8
0
100
AcDbLine
 10
225.0
 20
75.0
 30
0.0
 11
221.672
 21
74.53199999999999
 31
0.0
  0
LINE
  5
69E
330
1E
100
AcDbEntity
  8
0
100
AcDbLine
 10
225.0
 20
73.14289999999999
 30
0.0
 11
222.1474
 21
72.74169999999999
 31
0.0
  0
LINE
  5
69F
330
1E
100
AcDbEntity
  8
0
100
AcDbLine
 10
232.8659999999999
 20
73.62439999999999
 30
0.0
 11
231.134
 21
74.62439999999999
 31
0.0
  0
LINE
  5
6A0
330
1E
100
AcDbEntity
  8
0
100
AcDbLine
 10
227.8525999999999
 20
72.74169999999999
 30
0.0
 11
225.0
 21
73.14289999999999
 31
0.0
  0
LINE
  5
6A1
330
1E
100
AcDbEntity
  8
0
100
AcDbLine
 10
228.3279999999999
 20
74.53199999999999
 30
0.0
 11
225.0
 21
75.0
 31
0.0
  0
LINE
  5
6A2
330
1E
100
AcDbEntity
  8
0
100
AcDbLine
 10
230.564233103513
 20
73.63750675859479
 30
0.0
 11
228.3279999999999
 21
74.53199999999999
 31
0.0
  0
LINE
  5
6A3
330
1E
100
AcDbEntity
  8
0
100
AcDbLine
 10
231.134
 20
74.62439999999999
 30
0.0
 11
230.564233103513
 21
73.63750675859479
 31
0.0
  0
LINE
  5
6A4
330
1E
100
AcDbEntity
  8
0
100
AcDbLine
 10
231.134
 20
74.62439999999999
 30
0.0
 11
230.134
 21
72.8923
 31
0.0
  0
LINE
  5
6A5
330
1E
100
AcDbEntity
  8
0
100
AcDbLine
 10
218.866
 20
74.62439999999999
 30
0.0
 11
217.134
 21
73.62439999999999
 31
0.0
  0
LINE
  5
6A6
330
1E
100
AcDbEntity
  8
0
100
AcDbLine
 10
221.672
 20
74.53199999999999
 30
0.0
 11
219.4357668964869
 21
73.63750675859479
 31
0.0
  0
LINE
  5
6A7
330
1E
100
AcDbEntity
  8
0
100
AcDbLine
 10
219.4357668964869
 20
73.63750675859479
 30
0.0
 11
218.866
 21
74.62439999999999
 31
0.0
  0
LINE
  5
6A8
330
1E
100
AcDbEntity
  8
0
100
AcDbLine
 10
219.8659999999999
 20
72.8923
 30
0.0
 11
218.866
 21
74.62439999999999
 31
0.0
  0
LINE
  5
6A9
330
1E
100
AcDbEntity
  8
0
100
AcDbLine
 10
193.0
 20
58.672
 30
0.0
 11
193.0
 21
62.0
 31
0.0
  0
LINE
  5
6AA
330
1E
100
AcDbEntity
  8
0
100
AcDbLine
 10
193.0
 20
62.0
 30
0.0
 11
193.0
 21
58.672
 31
0.0
  0
LINE
  5
6AB
330
1E
100
AcDbEntity
  8
0
100
AcDbLine
 10
193.0
 20
51.0
 30
0.0
 11
153.0
 21
51.0
 31
0.0
  0
LINE
  5
6AC
330
1E
100
AcDbEntity
  8
0
100
AcDbLine
 10
193.0
 20
49.468
 30
0.0
 11
193.0
 21
49.0
 31
0.0
  0
LINE
  5
6AD
330
1E
100
AcDbEntity
  8
0
100
AcDbLine
 10
193.0
 20
49.0
 30
0.0
 11
193.0
 21
49.468
 31
0.0
  0
LINE
  5
6AE
330
1E
100
AcDbEntity
  8
0
100
AcDbLine
 10
193.0
 20
52.79600000000001
 30
0.0
 11
193.0
 21
55.552
 31
0.0
  0
LINE
  5
6AF
330
1E
100
AcDbEntity
  8
0
100
AcDbLine
 10
193.0
 20
55.552
 30
0.0
 11
193.0
 21
52.79600000000001
 31
0.0
  0
LINE
  5
6B0
330
1E
100
AcDbEntity
  8
0
100
AcDbLine
 10
193.0
 20
52.79600000000001
 30
0.0
 11
193.0
 21
50.716
 31
0.0
  0
LINE
  5
6B1
330
1E
100
AcDbEntity
  8
0
100
AcDbLine
 10
193.0
 20
50.716
 30
0.0
 11
193.0
 21
52.79600000000001
 31
0.0
  0
LINE
  5
6B2
330
1E
100
AcDbEntity
  8
0
100
AcDbLine
 10
193.0
 20
49.468
 30
0.0
 11
193.0
 21
50.716
 31
0.0
  0
LINE
  5
6B3
330
1E
100
AcDbEntity
  8
0
100
AcDbLine
 10
193.0
 20
50.716
 30
0.0
 11
193.0
 21
49.468
 31
0.0
  0
LINE
  5
6B4
330
1E
100
AcDbEntity
  8
0
100
AcDbLine
 10
193.0
 20
55.552
 30
0.0
 11
193.0
 21
58.672
 31
0.0
  0
LINE
  5
6B5
330
1E
100
AcDbEntity
  8
0
100
AcDbLine
 10
193.0
 20
58.672
 30
0.0
 11
193.0
 21
55.552
 31
0.0
  0
LINE
  5
6B6
330
1E
100
AcDbEntity
  8
0
100
AcDbLine
 10
193.0
 20
73.0
 30
0.0
 11
153.0
 21
73.0
 31
0.0
  0
LINE
  5
6B7
330
1E
100
AcDbEntity
  8
0
100
AcDbLine
 10
193.0
 20
73.28399999999999
 30
0.0
 11
193.0
 21
71.204
 31
0.0
  0
LINE
  5
6B8
330
1E
100
AcDbEntity
  8
0
100
AcDbLine
 10
193.0
 20
71.204
 30
0.0
 11
193.0
 21
73.28399999999999
 31
0.0
  0
LINE
  5
6B9
330
1E
100
AcDbEntity
  8
0
100
AcDbLine
 10
193.0
 20
68.44800000000001
 30
0.0
 11
193.0
 21
65.328
 31
0.0
  0
LINE
  5
6BA
330
1E
100
AcDbEntity
  8
0
100
AcDbLine
 10
193.0
 20
65.328
 30
0.0
 11
193.0
 21
68.44800000000001
 31
0.0
  0
LINE
  5
6BB
330
1E
100
AcDbEntity
  8
0
100
AcDbLine
 10
193.0
 20
62.0
 30
0.0
 11
193.0
 21
65.328
 31
0.0
  0
LINE
  5
6BC
330
1E
100
AcDbEntity
  8
0
100
AcDbLine
 10
193.0
 20
65.328
 30
0.0
 11
193.0
 21
62.0
 31
0.0
  0
LINE
  5
6BD
330
1E
100
AcDbEntity
  8
0
100
AcDbLine
 10
193.0
 20
71.204
 30
0.0
 11
193.0
 21
68.44800000000001
 31
0.0
  0
LINE
  5
6BE
330
1E
100
AcDbEntity
  8
0
100
AcDbLine
 10
193.0
 20
68.44800000000001
 30
0.0
 11
193.0
 21
71.204
 31
0.0
  0
LINE
  5
6BF
330
1E
100
AcDbEntity
  8
0
100
AcDbLine
 10
193.0
 20
74.53199999999999
 30
0.0
 11
193.0
 21
73.28399999999999
 31
0.0
  0
LINE
  5
6C0
330
1E
100
AcDbEntity
  8
0
100
AcDbLine
 10
193.0
 20
73.28399999999999
 30
0.0
 11
193.0
 21
74.53199999999999
 31
0.0
  0
LINE
  5
6C1
330
1E
100
AcDbEntity
  8
0
100
AcDbLine
 10
193.0
 20
75.0
 30
0.0
 11
193.0
 21
74.53199999999999
 31
0.0
  0
LINE
  5
6C2
330
1E
100
AcDbEntity
  8
0
100
AcDbLine
 10
193.0
 20
74.53199999999999
 30
0.0
 11
193.0
 21
75.0
 31
0.0
  0
ENDSEC
  0
SECTION
  2
OBJECTS
  0
DICTIONARY
  5
C
330
0
100
AcDbDictionary
281
     1
  3
ACAD_GROUP
350
D
  3
ACAD_LAYOUT
350
19
  3
ACAD_MLINESTYLE
350
16
  3
ACAD_PLOTSETTINGS
350
18
  3
ACAD_PLOTSTYLENAME
350
E
  3
AcDbVariableDictionary
350
6C3
  0
DICTIONARY
  5
D
102
{ACAD_REACTORS
330
C
102
}
330
C
100
AcDbDictionary
281
     1
  0
DICTIONARY
  5
19
102
{ACAD_REACTORS
330
C
102
}
330
C
100
AcDbDictionary
281
     1
  3
Layout1
350
1D
  3
Model
350
21
  0
DICTIONARY
  5
16
102
{ACAD_REACTORS
330
C
102
}
330
C
100
AcDbDictionary
281
     1
  3
Standard
350
17
  0
DICTIONARY
  5
18
102
{ACAD_REACTORS
330
C
102
}
330
C
100
AcDbDictionary
281
     1
  0
ACDBDICTIONARYWDFLT
  5
E
102
{ACAD_REACTORS
330
C
102
}
330
C
100
AcDbDictionary
281
     1
  3
Normal
350
F
100
AcDbDictionaryWithDefault
340
F
  0
DICTIONARY
  5
6C3
102
{ACAD_REACTORS
330
C
102
}
330
C
100
AcDbDictionary
281
     1
  3
DIMASSOC
350
6C4
  0
LAYOUT
  5
1D
102
{ACAD_REACTORS
330
19
102
}
330
19
100
AcDbPlotSettings
  1

  2
hp deskjet 980c series
  4

  6

 40
0.0
 41
0.0
 42
0.0
 43
0.0
 44
0.0
 45
0.0
 46
0.0
 47
0.0
 48
0.0
 49
0.0
140
0.0
141
0.0
142
1.0
143
1.0
 70
   688
 72
     0
 73
     0
 74
     5
  7

 75
    16
147
1.0
148
0.0
149
0.0
100
AcDbLayout
  1
Layout1
 70
     1
 71
     1
 10
0.0
 20
0.0
 11
12.0
 21
9.0
 12
0.0
 22
0.0
 32
0.0
 14
1.000000000000000E+20
 24
1.000000000000000E+20
 34
1.000000000000000E+20
 15
-1.000000000000000E+20
 25
-1.000000000000000E+20
 35
-1.000000000000000E+20
146
0.0
 13
0.0
 23
0.0
 33
0.0
 16
1.0
 26
0.0
 36
0.0
 17
0.0
 27
1.0
 37
0.0
 76
     0
330
1A
  0
LAYOUT
  5
21
102
{ACAD_REACTORS
330
19
102
}
330
19
100
AcDbPlotSettings
  1

  2
hp deskjet 980c series
  4

  6

 40
0.0
 41
0.0
 42
0.0
 43
0.0
 44
0.0
 45
0.0
 46
0.0
 47
0.0
 48
0.0
 49
0.0
140
0.0
141
0.0
142
1.0
143
1.0
 70
  1712
 72
     0
 73
     0
 74
     0
  7

 75
     0
147
1.0
148
0.0
149
0.0
100
AcDbLayout
  1
Model
 70
     1
 71
     0
 10
0.0
 20
0.0
 11
12.0
 21
9.0
 12
0.0
 22
0.0
 32
0.0
 14
0.0
 24
0.0
 34
0.0
 15
0.0
 25
0.0
 35
0.0
146
0.0
 13
0.0
 23
0.0
 33
0.0
 16
1.0
 26
0.0
 36
0.0
 17
0.0
 27
1.0
 37
0.0
 76
     0
330
1E
  0
MLINESTYLE
  5
17
102
{ACAD_REACTORS
330
16
102
}
330
16
100
AcDbMlineStyle
  2
STANDARD
 70
     0
  3

 62
   256
 51
90.0
 52
90.0
 71
     2
 49
0.5
 62
   256
  6
BYLAYER
 49
-0.5
 62
   256
  6
BYLAYER
  0
ACDBPLACEHOLDER
  5
F
102
{ACAD_REACTORS
330
E
102
}
330
E
  0
DICTIONARYVAR
  5
6C4
102
{ACAD_REACTORS
330
6C3
102
}
330
6C3
100
DictionaryVariables
280
     0
  1
1
  0
ENDSEC
  0
EOF
