  0
SECTION
  2
HEADER
  9
$ACADVER
  1
AC1014
  9
$ACADMAINTVER
 70
     9
  9
$DWGCODEPAGE
  3
ANSI_1252
  9
$INSBASE
 10
0.0
 20
0.0
 30
0.0
  9
$EXTMIN
 10
0.0000000000000011
 20
0.243365000000009
 30
0.0
  9
$EXTMAX
 10
22.0
 20
65.756635
 30
0.0
  9
$LIMMIN
 10
0.0
 20
0.0
  9
$LIMMAX
 10
12.0
 20
9.0
  9
$ORTHOMODE
 70
     0
  9
$REGENMODE
 70
     1
  9
$FILLMODE
 70
     1
  9
$QTEXTMODE
 70
     0
  9
$MIRRTEXT
 70
     1
  9
$DRAGMODE
 70
     2
  9
$LTSCALE
 40
1.0
  9
$OSMODE
 70
    37
  9
$ATTMODE
 70
     1
  9
$TEXTSIZE
 40
0.2
  9
$TRACEWID
 40
0.05
  9
$TEXTSTYLE
  7
STANDARD
  9
$CLAYER
  8
0
  9
$CELTYPE
  6
CONTINUOUS
  9
$CECOLOR
 62
   256
  9
$CELTSCALE
 40
1.0
  9
$DELOBJ
 70
     1
  9
$DISPSILH
 70
     0
  9
$DIMSCALE
 40
1.0
  9
$DIMASZ
 40
0.18
  9
$DIMEXO
 40
0.0625
  9
$DIMDLI
 40
0.38
  9
$DIMRND
 40
0.0
  9
$DIMDLE
 40
0.0
  9
$DIMEXE
 40
0.18
  9
$DIMTP
 40
0.0
  9
$DIMTM
 40
0.0
  9
$DIMTXT
 40
0.18
  9
$DIMCEN
 40
0.09
  9
$DIMTSZ
 40
0.0
  9
$DIMTOL
 70
     0
  9
$DIMLIM
 70
     0
  9
$DIMTIH
 70
     1
  9
$DIMTOH
 70
     1
  9
$DIMSE1
 70
     0
  9
$DIMSE2
 70
     0
  9
$DIMTAD
 70
     0
  9
$DIMZIN
 70
     0
  9
$DIMBLK
  1

  9
$DIMASO
 70
     1
  9
$DIMSHO
 70
     1
  9
$DIMPOST
  1

  9
$DIMAPOST
  1

  9
$DIMALT
 70
     0
  9
$DIMALTD
 70
     2
  9
$DIMALTF
 40
25.4
  9
$DIMLFAC
 40
1.0
  9
$DIMTOFL
 70
     0
  9
$DIMTVP
 40
0.0
  9
$DIMTIX
 70
     0
  9
$DIMSOXD
 70
     0
  9
$DIMSAH
 70
     0
  9
$DIMBLK1
  1

  9
$DIMBLK2
  1

  9
$DIMSTYLE
  2
STANDARD
  9
$DIMCLRD
 70
     0
  9
$DIMCLRE
 70
     0
  9
$DIMCLRT
 70
     0
  9
$DIMTFAC
 40
1.0
  9
$DIMGAP
 40
0.09
  9
$DIMJUST
 70
     0
  9
$DIMSD1
 70
     0
  9
$DIMSD2
 70
     0
  9
$DIMTOLJ
 70
     1
  9
$DIMTZIN
 70
     0
  9
$DIMALTZ
 70
     0
  9
$DIMALTTZ
 70
     0
  9
$DIMFIT
 70
     3
  9
$DIMUPT
 70
     0
  9
$DIMUNIT
 70
     2
  9
$DIMDEC
 70
     4
  9
$DIMTDEC
 70
     4
  9
$DIMALTU
 70
     2
  9
$DIMALTTD
 70
     2
  9
$DIMTXSTY
  7
STANDARD
  9
$DIMAUNIT
 70
     0
  9
$LUNITS
 70
     2
  9
$LUPREC
 70
     4
  9
$SKETCHINC
 40
0.1
  9
$FILLETRAD
 40
0.0
  9
$AUNITS
 70
     0
  9
$AUPREC
 70
     0
  9
$MENU
  1
.
  9
$ELEVATION
 40
0.0
  9
$PELEVATION
 40
0.0
  9
$THICKNESS
 40
0.0
  9
$LIMCHECK
 70
     0
  9
$BLIPMODE
 70
     0
  9
$CHAMFERA
 40
0.0
  9
$CHAMFERB
 40
0.0
  9
$CHAMFERC
 40
0.0
  9
$CHAMFERD
 40
0.0
  9
$SKPOLY
 70
     0
  9
$TDCREATE
 40
2454697.350349745
  9
$TDUPDATE
 40
2454697.361364652
  9
$TDINDWG
 40
0.0110149074
  9
$TDUSRTIMER
 40
0.0110149074
  9
$USRTIMER
 70
     1
  9
$ANGBASE
 50
0.0
  9
$ANGDIR
 70
     0
  9
$PDMODE
 70
     0
  9
$PDSIZE
 40
0.0
  9
$PLINEWID
 40
0.0
  9
$COORDS
 70
     1
  9
$SPLFRAME
 70
     0
  9
$SPLINETYPE
 70
     6
  9
$SPLINESEGS
 70
     8
  9
$ATTDIA
 70
     0
  9
$ATTREQ
 70
     1
  9
$HANDLING
 70
 22529
  9
$HANDSEED
  5
271
  9
$SURFTAB1
 70
     6
  9
$SURFTAB2
 70
     6
  9
$SURFTYPE
 70
     6
  9
$SURFU
 70
     6
  9
$SURFV
 70
     6
  9
$UCSNAME
  2

  9
$UCSORG
 10
0.0
 20
0.0
 30
0.0
  9
$UCSXDIR
 10
1.0
 20
0.0
 30
0.0
  9
$UCSYDIR
 10
0.0
 20
1.0
 30
0.0
  9
$PUCSNAME
  2

  9
$PUCSORG
 10
0.0
 20
0.0
 30
0.0
  9
$PUCSXDIR
 10
1.0
 20
0.0
 30
0.0
  9
$PUCSYDIR
 10
0.0
 20
1.0
 30
0.0
  9
$USERI1
 70
     0
  9
$USERI2
 70
     0
  9
$USERI3
 70
     0
  9
$USERI4
 70
     0
  9
$USERI5
 70
     0
  9
$USERR1
 40
0.0
  9
$USERR2
 40
0.0
  9
$USERR3
 40
0.0
  9
$USERR4
 40
0.0
  9
$USERR5
 40
0.0
  9
$WORLDVIEW
 70
     1
  9
$SHADEDGE
 70
     3
  9
$SHADEDIF
 70
    70
  9
$TILEMODE
 70
     1
  9
$MAXACTVP
 70
    64
  9
$PINSBASE
 10
0.0
 20
0.0
 30
0.0
  9
$PLIMCHECK
 70
     0
  9
$PEXTMIN
 10
1.000000000000000E+20
 20
1.000000000000000E+20
 30
1.000000000000000E+20
  9
$PEXTMAX
 10
-1.000000000000000E+20
 20
-1.000000000000000E+20
 30
-1.000000000000000E+20
  9
$PLIMMIN
 10
0.0
 20
0.0
  9
$PLIMMAX
 10
12.0
 20
9.0
  9
$UNITMODE
 70
     0
  9
$VISRETAIN
 70
     1
  9
$PLINEGEN
 70
     0
  9
$PSLTSCALE
 70
     1
  9
$TREEDEPTH
 70
  3020
  9
$PICKSTYLE
 70
     1
  9
$CMLSTYLE
  2
STANDARD
  9
$CMLJUST
 70
     0
  9
$CMLSCALE
 40
1.0
  9
$PROXYGRAPHICS
 70
     1
  9
$MEASUREMENT
 70
     0
  0
ENDSEC
  0
SECTION
  2
CLASSES
  0
CLASS
  1
ACDBDICTIONARYWDFLT
  2
AcDbDictionaryWithDefault
  3
AutoCAD 2000
 90
        0
280
     0
281
     0
  0
CLASS
  1
ACDBPLACEHOLDER
  2
AcDbPlaceHolder
  3
AutoCAD 2000
 90
        0
280
     0
281
     0
  0
CLASS
  1
LAYOUT
  2
AcDbLayout
  3
AutoCAD 2000
 90
        0
280
     0
281
     0
  0
CLASS
  1
DICTIONARYVAR
  2
AcDbDictionaryVar
  3
AutoCAD 2000
 90
        0
280
     0
281
     0
  0
CLASS
  1
LONG_TRANSACTION
  2
AcDbLongTransaction
  3
AutoCAD 2000
 90
        0
280
     0
281
     0
  0
CLASS
  1
LWPOLYLINE
  2
AcDbPolyline
  3
AutoCAD 2000
 90
        0
280
     0
281
     1
  0
CLASS
  1
HATCH
  2
AcDbHatch
  3
AutoCAD 2000
 90
        0
280
     0
281
     1
  0
CLASS
  1
XRECORD
  2
AcDbXrecord
  3
AutoCAD 2000
 90
        0
280
     0
281
     0
  0
ENDSEC
  0
SECTION
  2
TABLES
  0
TABLE
  2
VPORT
  5
8
330
0
100
AcDbSymbolTable
 70
     2
  0
VPORT
  5
24C
330
8
100
AcDbSymbolTableRecord
100
AcDbViewportTableRecord
  2
*ACTIVE
 70
     0
 10
0.0
 20
0.0
 11
1.0
 21
1.0
 12
11.0
 22
33.0
 13
0.0
 23
0.0
 14
1.0
 24
1.0
 15
0.0
 25
0.0
 16
0.0
 26
0.0
 36
1.0
 17
0.0
 27
0.0
 37
0.0
 40
66.01592936061379
 41
2.078104993597951
 42
50.0
 43
0.0
 44
0.0
 50
0.0
 51
0.0
 71
     0
 72
   100
 73
     1
 74
     3
 75
     0
 76
     0
 77
     0
 78
     0
  0
ENDTAB
  0
TABLE
  2
LTYPE
  5
5
330
0
100
AcDbSymbolTable
 70
     1
  0
LTYPE
  5
13
330
5
100
AcDbSymbolTableRecord
100
AcDbLinetypeTableRecord
  2
BYBLOCK
 70
     0
  3

 72
    65
 73
     0
 40
0.0
  0
LTYPE
  5
14
330
5
100
AcDbSymbolTableRecord
100
AcDbLinetypeTableRecord
  2
BYLAYER
 70
     0
  3

 72
    65
 73
     0
 40
0.0
  0
LTYPE
  5
15
330
5
100
AcDbSymbolTableRecord
100
AcDbLinetypeTableRecord
  2
CONTINUOUS
 70
     0
  3
Solid line
 72
    65
 73
     0
 40
0.0
  0
ENDTAB
  0
TABLE
  2
LAYER
  5
2
330
0
100
AcDbSymbolTable
 70
     1
  0
LAYER
  5
10
330
2
100
AcDbSymbolTableRecord
100
AcDbLayerTableRecord
  2
0
 70
     0
 62
     7
  6
CONTINUOUS
  0
ENDTAB
  0
TABLE
  2
STYLE
  5
3
330
0
100
AcDbSymbolTable
 70
     1
  0
STYLE
  5
11
330
3
100
AcDbSymbolTableRecord
100
AcDbTextStyleTableRecord
  2
STANDARD
 70
     0
 40
0.0
 41
1.0
 50
0.0
 71
     0
 42
0.2
  3
txt
  4

  0
ENDTAB
  0
TABLE
  2
VIEW
  5
6
330
0
100
AcDbSymbolTable
 70
     0
  0
ENDTAB
  0
TABLE
  2
UCS
  5
7
330
0
100
AcDbSymbolTable
 70
     0
  0
ENDTAB
  0
TABLE
  2
APPID
  5
9
330
0
100
AcDbSymbolTable
 70
     1
  0
APPID
  5
12
330
9
100
AcDbSymbolTableRecord
100
AcDbRegAppTableRecord
  2
ACAD
 70
     0
  0
ENDTAB
  0
TABLE
  2
DIMSTYLE
  5
A
330
0
100
AcDbSymbolTable
 70
     1
  0
DIMSTYLE
105
245
330
A
100
AcDbSymbolTableRecord
100
AcDbDimStyleTableRecord
  2
STANDARD
 70
     0
  3

  4

  5

  6

  7

 40
1.0
 41
0.18
 42
0.0625
 43
0.38
 44
0.18
 45
0.0
 46
0.0
 47
0.0
 48
0.0
140
0.18
141
0.09
142
0.0
143
25.4
144
1.0
145
0.0
146
1.0
147
0.09
 71
     0
 72
     0
 73
     1
 74
     1
 75
     0
 76
     0
 77
     0
 78
     0
170
     0
171
     2
172
     0
173
     0
174
     0
175
     0
176
     0
177
     0
178
     0
270
     2
271
     4
272
     4
273
     2
274
     2
340
11
275
     0
280
     0
281
     0
282
     0
283
     1
284
     0
285
     0
286
     0
287
     3
288
     0
  0
ENDTAB
  0
TABLE
  2
BLOCK_RECORD
  5
1
330
0
100
AcDbSymbolTable
 70
     0
  0
BLOCK_RECORD
  5
1E
102
{ACAD_XDICTIONARY
360
26F
102
}
330
1
100
AcDbSymbolTableRecord
100
AcDbBlockTableRecord
  2
*MODEL_SPACE
  0
BLOCK_RECORD
  5
1A
102
{ACAD_XDICTIONARY
360
26D
102
}
330
1
100
AcDbSymbolTableRecord
100
AcDbBlockTableRecord
  2
*PAPER_SPACE
  0
ENDTAB
  0
ENDSEC
  0
SECTION
  2
BLOCKS
  0
BLOCK
  5
1F
330
1E
100
AcDbEntity
  8
0
100
AcDbBlockBegin
  2
*MODEL_SPACE
 70
     0
 10
0.0
 20
0.0
 30
0.0
  3
*MODEL_SPACE
  1

  0
ENDBLK
  5
20
330
1E
100
AcDbEntity
  8
0
100
AcDbBlockEnd
  0
BLOCK
  5
1B
330
1A
100
AcDbEntity
 67
     1
  8
0
100
AcDbBlockBegin
  2
*PAPER_SPACE
 70
     0
 10
0.0
 20
0.0
 30
0.0
  3
*PAPER_SPACE
  1

  0
ENDBLK
  5
1C
330
1A
100
AcDbEntity
 67
     1
  8
0
100
AcDbBlockEnd
  0
ENDSEC
  0
SECTION
  2
ENTITIES
  0
LINE
  5
22
330
1E
100
AcDbEntity
  8
0
100
AcDbLine
 10
1.399999999999999
 20
6.651945000000009
 30
0.0
 11
2.299999999999999
 21
4.573485000000009
 31
0.0
  0
LINE
  5
23
330
1E
100
AcDbEntity
  8
0
100
AcDbLine
 10
0.4000000000000011
 20
7.478745000000009
 30
0.0
 11
1.5
 21
5.140475000000009
 31
0.0
  0
LINE
  5
24
330
1E
100
AcDbEntity
  8
0
100
AcDbLine
 10
2.299999999999999
 20
4.573485000000009
 30
0.0
 11
3.9
 21
2.754835000000009
 31
0.0
  0
LINE
  5
25
330
1E
100
AcDbEntity
  8
0
100
AcDbLine
 10
1.5
 20
5.140475000000009
 30
0.0
 11
3.2
 21
3.148615000000009
 31
0.0
  0
LINE
  5
26
330
1E
100
AcDbEntity
  8
0
100
AcDbLine
 10
0.0000000000000012
 20
9.90363500000001
 30
0.0
 11
2.0
 21
23.903635
 31
0.0
  0
LINE
  5
27
330
1E
100
AcDbEntity
  8
0
100
AcDbLine
 10
1.0
 20
8.90363500000001
 30
0.0
 11
1.399999999999999
 21
6.651945000000009
 31
0.0
  0
LINE
  5
28
330
1E
100
AcDbEntity
  8
0
100
AcDbLine
 10
1.0
 20
8.90363500000001
 30
0.0
 11
1.399999999999999
 21
11.155235
 31
0.0
  0
LINE
  5
29
330
1E
100
AcDbEntity
  8
0
100
AcDbLine
 10
0.4000000000000011
 20
7.478745000000009
 30
0.0
 11
1.5
 21
5.140475000000009
 31
0.0
  0
LINE
  5
2A
330
1E
100
AcDbEntity
  8
0
100
AcDbLine
 10
0.0000000000000011
 20
9.90363500000001
 30
0.0
 11
0.4000000000000011
 21
7.478745000000009
 31
0.0
  0
LINE
  5
2B
330
1E
100
AcDbEntity
  8
0
100
AcDbLine
 10
1.034379999999999
 20
57.25663499999999
 30
0.0
 11
1.340379999999999
 21
59.432635
 31
0.0
  0
LINE
  5
2C
330
1E
100
AcDbEntity
  8
0
100
AcDbLine
 10
1.034379999999999
 20
57.25663499999999
 30
0.0
 11
1.340379999999999
 21
55.080635
 31
0.0
  0
LINE
  5
2D
330
1E
100
AcDbEntity
  8
0
100
AcDbLine
 10
1.034379999999999
 20
57.25663499999999
 30
0.0
 11
1.340379999999999
 21
55.080635
 31
0.0
  0
LINE
  5
2E
330
1E
100
AcDbEntity
  8
0
100
AcDbLine
 10
1.23838
 20
57.25663499999999
 30
0.0
 11
1.544379999999999
 21
55.114635
 31
0.0
  0
LINE
  5
2F
330
1E
100
AcDbEntity
  8
0
100
AcDbLine
 10
1.23838
 20
57.25663499999999
 30
0.0
 11
1.544379999999999
 21
59.398635
 31
0.0
  0
LINE
  5
30
330
1E
100
AcDbEntity
  8
0
100
AcDbLine
 10
1.262929999999999
 20
57.25663499999999
 30
0.0
 11
1.568929999999999
 21
55.080635
 31
0.0
  0
LINE
  5
31
330
1E
100
AcDbEntity
  8
0
100
AcDbLine
 10
1.262929999999999
 20
57.25663499999999
 30
0.0
 11
1.568929999999999
 21
59.432635
 31
0.0
  0
LINE
  5
32
330
1E
100
AcDbEntity
  8
0
100
AcDbLine
 10
1.340379999999999
 20
55.080635
 30
0.0
 11
2.033716809342519
 21
53.3472929766437
 31
0.0
  0
LINE
  5
33
330
1E
100
AcDbEntity
  8
0
100
AcDbLine
 10
1.911759999999999
 20
54.83943499999999
 30
0.0
 11
2.028429999999999
 21
54.54775999999999
 31
0.0
  0
LINE
  5
34
330
1E
100
AcDbEntity
  8
0
100
AcDbLine
 10
1.911759999999999
 20
54.83943499999999
 30
0.0
 11
2.028429999999999
 21
54.54775999999999
 31
0.0
  0
LINE
  5
35
330
1E
100
AcDbEntity
  8
0
100
AcDbLine
 10
1.683209999999999
 20
55.080635
 30
0.0
 11
2.095655771638259
 21
54.04952057090429
 31
0.0
  0
LINE
  5
36
330
1E
100
AcDbEntity
  8
0
100
AcDbLine
 10
1.37721
 20
57.25663499999999
 30
0.0
 11
1.683209999999999
 21
55.080635
 31
0.0
  0
LINE
  5
37
330
1E
100
AcDbEntity
  8
0
100
AcDbLine
 10
1.37721
 20
57.25663499999999
 30
0.0
 11
1.683209999999999
 21
59.432635
 31
0.0
  0
LINE
  5
38
330
1E
100
AcDbEntity
  8
0
100
AcDbLine
 10
1.37721
 20
57.25663499999999
 30
0.0
 11
1.683209999999999
 21
55.080635
 31
0.0
  0
LINE
  5
39
330
1E
100
AcDbEntity
  8
0
100
AcDbLine
 10
1.491479999999999
 20
57.25663499999999
 30
0.0
 11
1.79748
 21
55.080635
 31
0.0
  0
LINE
  5
3A
330
1E
100
AcDbEntity
  8
0
100
AcDbLine
 10
1.37721
 20
57.25663499999999
 30
0.0
 11
1.683209999999999
 21
55.080635
 31
0.0
  0
LINE
  5
3B
330
1E
100
AcDbEntity
  8
0
100
AcDbLine
 10
1.544379999999999
 20
59.398635
 30
0.0
 11
1.872879999999949
 21
60.1925099999998
 31
0.0
  0
LINE
  5
3C
330
1E
100
AcDbEntity
  8
0
100
AcDbLine
 10
1.544379999999999
 20
55.114635
 30
0.0
 11
1.87288000000003
 21
54.32075999999989
 31
0.0
  0
LINE
  5
3D
330
1E
100
AcDbEntity
  8
0
100
AcDbLine
 10
1.683209999999999
 20
55.080635
 30
0.0
 11
2.09565577163825
 21
54.04952057090429
 31
0.0
  0
LINE
  5
3E
330
1E
100
AcDbEntity
  8
0
100
AcDbLine
 10
1.683209999999999
 20
55.080635
 30
0.0
 11
2.09565577163825
 21
54.04952057090429
 31
0.0
  0
LINE
  5
3F
330
1E
100
AcDbEntity
  8
0
100
AcDbLine
 10
1.60576
 20
57.01543499999999
 30
0.0
 11
1.911759999999999
 21
54.83943499999999
 31
0.0
  0
LINE
  5
40
330
1E
100
AcDbEntity
  8
0
100
AcDbLine
 10
1.60576
 20
57.01543499999999
 30
0.0
 11
1.911759999999999
 21
54.83943499999999
 31
0.0
  0
LINE
  5
41
330
1E
100
AcDbEntity
  8
0
100
AcDbLine
 10
1.60576
 20
57.01543499999999
 30
0.0
 11
1.911759999999999
 21
59.191435
 31
0.0
  0
LINE
  5
42
330
1E
100
AcDbEntity
  8
0
100
AcDbLine
 10
1.60576
 20
57.07573499999999
 30
0.0
 11
1.911759999999999
 21
59.25173499999999
 31
0.0
  0
LINE
  5
43
330
1E
100
AcDbEntity
  8
0
100
AcDbLine
 10
1.922759999999999
 20
57.01543499999999
 30
0.0
 11
2.032994135108409
 21
56.2315478170068
 31
0.0
  0
LINE
  5
44
330
1E
100
AcDbEntity
  8
0
100
AcDbLine
 10
1.922759999999999
 20
57.01543499999999
 30
0.0
 11
2.228759999999999
 21
59.191435
 31
0.0
  0
LINE
  5
45
330
1E
100
AcDbEntity
  8
0
100
AcDbLine
 10
1.922759999999999
 20
57.07573499999999
 30
0.0
 11
2.228759999999999
 21
59.25173499999999
 31
0.0
  0
LINE
  5
46
330
1E
100
AcDbEntity
  8
0
100
AcDbLine
 10
1.809759999999999
 20
57.01543499999999
 30
0.0
 11
2.028429999999999
 21
55.484745
 31
0.0
  0
LINE
  5
47
330
1E
100
AcDbEntity
  8
0
100
AcDbLine
 10
1.809759999999999
 20
57.01543499999999
 30
0.0
 11
2.115759999999999
 21
59.157435
 31
0.0
  0
LINE
  5
48
330
1E
100
AcDbEntity
  8
0
100
AcDbLine
 10
1.911759999999999
 20
59.25173499999999
 30
0.0
 11
2.727759999999999
 21
61.291735
 31
0.0
  0
LINE
  5
49
330
1E
100
AcDbEntity
  8
0
100
AcDbLine
 10
1.911759999999999
 20
59.191435
 30
0.0
 11
2.727759999999999
 21
61.231435
 31
0.0
  0
LINE
  5
4A
330
1E
100
AcDbEntity
  8
0
100
AcDbLine
 10
1.60576
 20
57.25663499999999
 30
0.0
 11
1.61847953125
 21
57.166185
 31
0.0
  0
LINE
  5
4B
330
1E
100
AcDbEntity
  8
0
100
AcDbLine
 10
1.60576
 20
57.25663499999999
 30
0.0
 11
1.911759999999999
 21
59.432635
 31
0.0
  0
LINE
  5
4C
330
1E
100
AcDbEntity
  8
0
100
AcDbLine
 10
1.60576
 20
57.25663499999999
 30
0.0
 11
1.61847953125
 21
57.166185
 31
0.0
  0
LINE
  5
4D
330
1E
100
AcDbEntity
  8
0
100
AcDbLine
 10
1.79748
 20
55.080635
 30
0.0
 11
2.032761642564219
 21
54.4924308935894
 31
0.0
  0
LINE
  5
4E
330
1E
100
AcDbEntity
  8
0
100
AcDbLine
 10
1.568929999999999
 20
59.432635
 30
0.0
 11
2.384929999999999
 21
61.472635
 31
0.0
  0
LINE
  5
4F
330
1E
100
AcDbEntity
  8
0
100
AcDbLine
 10
1.568929999999999
 20
55.080635
 30
0.0
 11
2.093682083547689
 21
53.7687547911308
 31
0.0
  0
LINE
  5
50
330
1E
100
AcDbEntity
  8
0
100
AcDbLine
 10
1.340379999999999
 20
55.080635
 30
0.0
 11
2.033716809342519
 21
53.3472929766437
 31
0.0
  0
LINE
  5
51
330
1E
100
AcDbEntity
  8
0
100
AcDbLine
 10
1.340379999999999
 20
55.080635
 30
0.0
 11
2.033716809342519
 21
53.3472929766437
 31
0.0
  0
LINE
  5
52
330
1E
100
AcDbEntity
  8
0
100
AcDbLine
 10
1.911759999999999
 20
59.432635
 30
0.0
 11
2.727759999999999
 21
61.472635
 31
0.0
  0
LINE
  5
53
330
1E
100
AcDbEntity
  8
0
100
AcDbLine
 10
1.79748
 20
59.432635
 30
0.0
 11
2.61348
 21
61.472635
 31
0.0
  0
LINE
  5
54
330
1E
100
AcDbEntity
  8
0
100
AcDbLine
 10
1.683209999999999
 20
59.432635
 30
0.0
 11
2.499209999999999
 21
61.472635
 31
0.0
  0
LINE
  5
55
330
1E
100
AcDbEntity
  8
0
100
AcDbLine
 10
1.340379999999999
 20
59.432635
 30
0.0
 11
2.156379999999999
 21
61.472635
 31
0.0
  0
LINE
  5
56
330
1E
100
AcDbEntity
  8
0
100
AcDbLine
 10
1.034379999999999
 20
57.25663499999999
 30
0.0
 11
1.340379999999999
 21
55.080635
 31
0.0
  0
LINE
  5
57
330
1E
100
AcDbEntity
  8
0
100
AcDbLine
 10
1.399999999999999
 20
11.155235
 30
0.0
 11
2.299999999999999
 21
13.233735
 31
0.0
  0
LINE
  5
58
330
1E
100
AcDbEntity
  8
0
100
AcDbLine
 10
2.028429999999999
 20
24.09239124666669
 30
0.0
 11
2.028429999999999
 21
25.929735
 31
0.0
  0
LINE
  5
59
330
1E
100
AcDbEntity
  8
0
100
AcDbLine
 10
2.299999999999999
 20
13.233735
 30
0.0
 11
3.9
 21
15.052435
 31
0.0
  0
LINE
  5
5A
330
1E
100
AcDbEntity
  8
0
100
AcDbLine
 10
2.028429999999999
 20
25.929735
 30
0.0
 11
2.028429999999999
 21
24.09239124666669
 31
0.0
  0
LINE
  5
5B
330
1E
100
AcDbEntity
  8
0
100
AcDbLine
 10
2.028429999999999
 20
25.929735
 30
0.0
 11
2.334429999999999
 21
27.93983499999999
 31
0.0
  0
LINE
  5
5C
330
1E
100
AcDbEntity
  8
0
100
AcDbLine
 10
2.028429999999999
 20
30.84103499999999
 30
0.0
 11
2.028429999999999
 21
28.01243499999999
 31
0.0
  0
LINE
  5
5D
330
1E
100
AcDbEntity
  8
0
100
AcDbLine
 10
2.028429999999999
 20
30.84103499999999
 30
0.0
 11
2.334429999999999
 21
32.851135
 31
0.0
  0
LINE
  5
5E
330
1E
100
AcDbEntity
  8
0
100
AcDbLine
 10
2.028429999999999
 20
28.01243499999999
 30
0.0
 11
2.028429999999999
 21
30.84103499999999
 31
0.0
  0
LINE
  5
5F
330
1E
100
AcDbEntity
  8
0
100
AcDbLine
 10
2.028429999999999
 20
28.01243499999999
 30
0.0
 11
2.18695993706624
 21
26.9711109035845
 31
0.0
  0
LINE
  5
60
330
1E
100
AcDbEntity
  8
0
100
AcDbLine
 10
2.028429999999999
 20
41.26733499999999
 30
0.0
 11
2.028429999999999
 21
39.012135
 31
0.0
  0
LINE
  5
61
330
1E
100
AcDbEntity
  8
0
100
AcDbLine
 10
2.028429999999999
 20
41.26733499999999
 30
0.0
 11
2.334429999999999
 21
43.33933499999999
 31
0.0
  0
LINE
  5
62
330
1E
100
AcDbEntity
  8
0
100
AcDbLine
 10
2.028429999999999
 20
39.012135
 30
0.0
 11
2.028429999999999
 21
41.26733499999999
 31
0.0
  0
LINE
  5
63
330
1E
100
AcDbEntity
  8
0
100
AcDbLine
 10
2.028429999999999
 20
39.012135
 30
0.0
 11
2.249832002031049
 21
37.51289614899171
 31
0.0
  0
LINE
  5
64
330
1E
100
AcDbEntity
  8
0
100
AcDbLine
 10
2.028429999999999
 20
36.01973499999999
 30
0.0
 11
2.028429999999999
 21
33.678235
 31
0.0
  0
LINE
  5
65
330
1E
100
AcDbEntity
  8
0
100
AcDbLine
 10
2.028429999999999
 20
36.01973499999999
 30
0.0
 11
2.334429999999999
 21
38.08343499999999
 31
0.0
  0
LINE
  5
66
330
1E
100
AcDbEntity
  8
0
100
AcDbLine
 10
2.028429999999999
 20
33.678235
 30
0.0
 11
2.028429999999999
 21
36.01973499999999
 31
0.0
  0
LINE
  5
67
330
1E
100
AcDbEntity
  8
0
100
AcDbLine
 10
2.028429999999999
 20
33.678235
 30
0.0
 11
2.24154384947715
 21
32.2409701269085
 31
0.0
  0
LINE
  5
68
330
1E
100
AcDbEntity
  8
0
100
AcDbLine
 10
2.028429999999999
 20
48.168135
 30
0.0
 11
2.028429999999999
 21
46.54613499999999
 31
0.0
  0
LINE
  5
69
330
1E
100
AcDbEntity
  8
0
100
AcDbLine
 10
2.028429999999999
 20
48.168135
 30
0.0
 11
2.334429999999999
 21
50.291035
 31
0.0
  0
LINE
  5
6A
330
1E
100
AcDbEntity
  8
0
100
AcDbLine
 10
2.028429999999999
 20
46.54613499999999
 30
0.0
 11
2.1568075267118
 21
45.65554737351699
 31
0.0
  0
LINE
  5
6B
330
1E
100
AcDbEntity
  8
0
100
AcDbLine
 10
2.028429999999999
 20
46.54613499999999
 30
0.0
 11
2.028429999999999
 21
48.168135
 31
0.0
  0
LINE
  5
6C
330
1E
100
AcDbEntity
  8
0
100
AcDbLine
 10
2.028429999999999
 20
44.767435
 30
0.0
 11
2.028429999999999
 21
43.05703499999999
 31
0.0
  0
LINE
  5
6D
330
1E
100
AcDbEntity
  8
0
100
AcDbLine
 10
2.028429999999999
 20
44.767435
 30
0.0
 11
2.334429999999999
 21
46.884335
 31
0.0
  0
LINE
  5
6E
330
1E
100
AcDbEntity
  8
0
100
AcDbLine
 10
2.028429999999999
 20
43.05703499999999
 30
0.0
 11
2.028429999999999
 21
44.767435
 31
0.0
  0
LINE
  5
6F
330
1E
100
AcDbEntity
  8
0
100
AcDbLine
 10
2.028429999999999
 20
43.05703499999999
 30
0.0
 11
2.15917107142857
 21
42.1526144117647
 31
0.0
  0
LINE
  5
70
330
1E
100
AcDbEntity
  8
0
100
AcDbLine
 10
2.028429999999999
 20
50.920535
 30
0.0
 11
2.028429999999999
 21
49.709535
 31
0.0
  0
LINE
  5
71
330
1E
100
AcDbEntity
  8
0
100
AcDbLine
 10
2.028429999999999
 20
50.920535
 30
0.0
 11
2.334429999999999
 21
53.067135
 31
0.0
  0
LINE
  5
72
330
1E
100
AcDbEntity
  8
0
100
AcDbLine
 10
2.028429999999999
 20
49.709535
 30
0.0
 11
2.138903919662729
 21
48.9345568433072
 31
0.0
  0
LINE
  5
73
330
1E
100
AcDbEntity
  8
0
100
AcDbLine
 10
2.028429999999999
 20
49.709535
 30
0.0
 11
2.028429999999999
 21
50.920535
 31
0.0
  0
LINE
  5
74
330
1E
100
AcDbEntity
  8
0
100
AcDbLine
 10
2.028429999999999
 20
53.310135
 30
0.0
 11
2.028429999999999
 21
52.188735
 31
0.0
  0
LINE
  5
75
330
1E
100
AcDbEntity
  8
0
100
AcDbLine
 10
2.028429999999999
 20
53.310135
 30
0.0
 11
2.334429999999999
 21
55.46083499999999
 31
0.0
  0
LINE
  5
76
330
1E
100
AcDbEntity
  8
0
100
AcDbLine
 10
2.028429999999999
 20
52.188735
 30
0.0
 11
2.118733253129799
 21
51.55401527179229
 31
0.0
  0
LINE
  5
77
330
1E
100
AcDbEntity
  8
0
100
AcDbLine
 10
2.028429999999999
 20
52.188735
 30
0.0
 11
2.028429999999999
 21
53.310135
 31
0.0
  0
LINE
  5
78
330
1E
100
AcDbEntity
  8
0
100
AcDbLine
 10
2.028429999999999
 20
55.549435
 30
0.0
 11
2.028429999999999
 21
54.52293499999999
 31
0.0
  0
LINE
  5
79
330
1E
100
AcDbEntity
  8
0
100
AcDbLine
 10
2.028429999999999
 20
55.549435
 30
0.0
 11
2.334429999999999
 21
57.704335
 31
0.0
  0
LINE
  5
7A
330
1E
100
AcDbEntity
  8
0
100
AcDbLine
 10
2.028429999999999
 20
54.52293499999999
 30
0.0
 11
2.11462397993311
 21
53.9159434726867
 31
0.0
  0
LINE
  5
7B
330
1E
100
AcDbEntity
  8
0
100
AcDbLine
 10
2.028429999999999
 20
54.52293499999999
 30
0.0
 11
2.028429999999999
 21
55.549435
 31
0.0
  0
LINE
  5
80
330
1E
100
AcDbEntity
  8
0
100
AcDbLine
 10
2.028429999999999
 20
56.199135
 30
0.0
 11
2.028429999999999
 21
55.81793499999999
 31
0.0
  0
LINE
  5
81
330
1E
100
AcDbEntity
  8
0
100
AcDbLine
 10
2.028429999999999
 20
56.199135
 30
0.0
 11
2.334429999999999
 21
58.372235
 31
0.0
  0
LINE
  5
82
330
1E
100
AcDbEntity
  8
0
100
AcDbLine
 10
2.028429999999999
 20
55.81793499999999
 30
0.0
 11
2.04741359519409
 21
55.6831204551756
 31
0.0
  0
LINE
  5
83
330
1E
100
AcDbEntity
  8
0
100
AcDbLine
 10
2.028429999999999
 20
55.81793499999999
 30
0.0
 11
2.028429999999999
 21
56.199135
 31
0.0
  0
LINE
  5
84
330
1E
100
AcDbEntity
  8
0
100
AcDbLine
 10
2.115759999999999
 20
59.157435
 30
0.0
 11
2.931759999999999
 21
61.129435
 31
0.0
  0
LINE
  5
85
330
1E
100
AcDbEntity
  8
0
100
AcDbLine
 10
2.228759999999999
 20
59.191435
 30
0.0
 11
3.044759999999999
 21
61.231435
 31
0.0
  0
LINE
  5
86
330
1E
100
AcDbEntity
  8
0
100
AcDbLine
 10
2.232429999999999
 20
27.894635
 30
0.0
 11
2.280365166846339
 21
27.5846855845681
 31
0.0
  0
LINE
  5
87
330
1E
100
AcDbEntity
  8
0
100
AcDbLine
 10
2.232429999999999
 20
27.894635
 30
0.0
 11
2.538429999999999
 21
29.873235
 31
0.0
  0
LINE
  5
88
330
1E
100
AcDbEntity
  8
0
100
AcDbLine
 10
2.232429999999999
 20
38.91813499999999
 30
0.0
 11
2.35156002441009
 21
38.1240516314077
 31
0.0
  0
LINE
  5
89
330
1E
100
AcDbEntity
  8
0
100
AcDbLine
 10
2.232429999999999
 20
38.91813499999999
 30
0.0
 11
2.35156002441009
 21
38.1240516314077
 31
0.0
  0
LINE
  5
8A
330
1E
100
AcDbEntity
  8
0
100
AcDbLine
 10
2.232429999999999
 20
38.91813499999999
 30
0.0
 11
2.538429999999999
 21
40.95783499999999
 31
0.0
  0
LINE
  5
8B
330
1E
100
AcDbEntity
  8
0
100
AcDbLine
 10
2.232429999999999
 20
33.580635
 30
0.0
 11
2.34028241321379
 21
32.8646500581618
 31
0.0
  0
LINE
  5
8C
330
1E
100
AcDbEntity
  8
0
100
AcDbLine
 10
2.232429999999999
 20
33.580635
 30
0.0
 11
2.538429999999999
 21
35.61213499999999
 31
0.0
  0
LINE
  5
8D
330
1E
100
AcDbEntity
  8
0
100
AcDbLine
 10
2.232429999999999
 20
46.478535
 30
0.0
 11
2.25424124450256
 21
46.32959128590671
 31
0.0
  0
LINE
  5
8E
330
1E
100
AcDbEntity
  8
0
100
AcDbLine
 10
2.232429999999999
 20
46.478535
 30
0.0
 11
2.538429999999999
 21
48.56823499999999
 31
0.0
  0
LINE
  5
8F
330
1E
100
AcDbEntity
  8
0
100
AcDbLine
 10
2.232429999999999
 20
42.98573499999999
 30
0.0
 11
2.25724950092644
 21
42.81672717620779
 31
0.0
  0
LINE
  5
90
330
1E
100
AcDbEntity
  8
0
100
AcDbLine
 10
2.232429999999999
 20
42.98573499999999
 30
0.0
 11
2.538429999999999
 21
45.06953499999999
 31
0.0
  0
LINE
  5
91
330
1E
100
AcDbEntity
  8
0
100
AcDbLine
 10
2.334429999999999
 20
27.93983499999999
 30
0.0
 11
3.15043
 21
29.82423499999999
 31
0.0
  0
LINE
  5
92
330
1E
100
AcDbEntity
  8
0
100
AcDbLine
 10
2.334429999999999
 20
32.851135
 30
0.0
 11
3.15043
 21
34.73553499999999
 31
0.0
  0
LINE
  5
94
330
1E
100
AcDbEntity
  8
0
100
AcDbLine
 10
2.334429999999999
 20
43.33933499999999
 30
0.0
 11
3.15043
 21
45.28193499999999
 31
0.0
  0
LINE
  5
96
330
1E
100
AcDbEntity
  8
0
100
AcDbLine
 10
2.334429999999999
 20
38.08343499999999
 30
0.0
 11
3.15043
 21
40.01823499999999
 31
0.0
  0
LINE
  5
98
330
1E
100
AcDbEntity
  8
0
100
AcDbLine
 10
2.334429999999999
 20
50.291035
 30
0.0
 11
3.15043
 21
52.281135
 31
0.0
  0
LINE
  5
9A
330
1E
100
AcDbEntity
  8
0
100
AcDbLine
 10
2.334429999999999
 20
46.884335
 30
0.0
 11
3.15043
 21
48.86883499999999
 31
0.0
  0
LINE
  5
9C
330
1E
100
AcDbEntity
  8
0
100
AcDbLine
 10
2.232429999999999
 20
49.65903499999999
 30
0.0
 11
2.538429999999999
 21
51.772035
 31
0.0
  0
LINE
  5
9D
330
1E
100
AcDbEntity
  8
0
100
AcDbLine
 10
2.334429999999999
 20
53.067135
 30
0.0
 11
3.15043
 21
55.07943499999999
 31
0.0
  0
LINE
  5
9F
330
1E
100
AcDbEntity
  8
0
100
AcDbLine
 10
2.334429999999999
 20
55.46083499999999
 30
0.0
 11
3.15043
 21
57.477235
 31
0.0
  0
LINE
  5
A1
330
1E
100
AcDbEntity
  8
0
100
AcDbLine
 10
2.334429999999999
 20
57.704335
 30
0.0
 11
3.15043
 21
59.724535
 31
0.0
  0
LINE
  5
A2
330
1E
100
AcDbEntity
  8
0
100
AcDbLine
 10
2.38371622932472
 20
53.18867749910561
 30
0.0
 11
2.538429999999999
 21
54.259135
 31
0.0
  0
LINE
  5
A3
330
1E
100
AcDbEntity
  8
0
100
AcDbLine
 10
2.395769731145379
 20
55.6124102866195
 30
0.0
 11
2.538429999999999
 21
56.601335
 31
0.0
  0
LINE
  5
A7
330
1E
100
AcDbEntity
  8
0
100
AcDbLine
 10
2.334429999999999
 20
58.372235
 30
0.0
 11
3.15043
 21
60.409535
 31
0.0
  0
LINE
  5
A9
330
1E
100
AcDbEntity
  8
0
100
AcDbLine
 10
2.228759999999999
 20
59.25173499999999
 30
0.0
 11
3.044759999999999
 21
61.291735
 31
0.0
  0
LINE
  5
AA
330
1E
100
AcDbEntity
  8
0
100
AcDbLine
 10
2.384929999999999
 20
61.472635
 30
0.0
 11
3.74493
 21
63.274635
 31
0.0
  0
LINE
  5
AB
330
1E
100
AcDbEntity
  8
0
100
AcDbLine
 10
2.156379999999999
 20
61.472635
 30
0.0
 11
3.51638
 21
63.274635
 31
0.0
  0
LINE
  5
AC
330
1E
100
AcDbEntity
  8
0
100
AcDbLine
 10
2.299999999999999
 20
25.89543499999999
 30
0.0
 11
3.2
 21
27.80073499999999
 31
0.0
  0
LINE
  5
AD
330
1E
100
AcDbEntity
  8
0
100
AcDbLine
 10
2.0
 20
23.903635
 30
0.0
 11
2.299999999999999
 21
25.89543499999999
 31
0.0
  0
LINE
  5
AE
330
1E
100
AcDbEntity
  8
0
100
AcDbLine
 10
0.0000000000000011
 20
9.90363500000001
 30
0.0
 11
2.0
 21
23.903635
 31
0.0
  0
LINE
  5
AF
330
1E
100
AcDbEntity
  8
0
100
AcDbLine
 10
0.0000000000000011
 20
9.90363500000001
 30
0.0
 11
0.4000000000000011
 21
7.478745000000009
 31
0.0
  0
LINE
  5
B0
330
1E
100
AcDbEntity
  8
0
100
AcDbLine
 10
6.0
 20
1.36919500000001
 30
0.0
 11
8.4
 21
0.5897750000000091
 31
0.0
  0
LINE
  5
B1
330
1E
100
AcDbEntity
  8
0
100
AcDbLine
 10
3.9
 20
2.754835000000009
 30
0.0
 11
6.0
 21
1.36919500000001
 31
0.0
  0
LINE
  5
B2
330
1E
100
AcDbEntity
  8
0
100
AcDbLine
 10
5.5
 20
1.67637500000001
 30
0.0
 11
6.0
 21
1.36919500000001
 31
0.0
  0
LINE
  5
B3
330
1E
100
AcDbEntity
  8
0
100
AcDbLine
 10
11.0
 20
0.243365000000009
 30
0.0
 11
13.6
 21
0.5897750000000091
 31
0.0
  0
LINE
  5
B4
330
1E
100
AcDbEntity
  8
0
100
AcDbLine
 10
16.0
 20
1.36919500000001
 30
0.0
 11
16.5
 21
1.67637500000001
 31
0.0
  0
LINE
  5
B5
330
1E
100
AcDbEntity
  8
0
100
AcDbLine
 10
16.0
 20
1.36919500000001
 30
0.0
 11
18.1
 21
2.754835000000009
 31
0.0
  0
LINE
  5
B6
330
1E
100
AcDbEntity
  8
0
100
AcDbLine
 10
13.6
 20
0.5897750000000091
 30
0.0
 11
16.0
 21
1.36919500000001
 31
0.0
  0
LINE
  5
B7
330
1E
100
AcDbEntity
  8
0
100
AcDbLine
 10
11.0
 20
0.243365000000009
 30
0.0
 11
13.6
 21
0.5897750000000091
 31
0.0
  0
LINE
  5
B8
330
1E
100
AcDbEntity
  8
0
100
AcDbLine
 10
18.1
 20
2.754835000000009
 30
0.0
 11
19.69999999999999
 21
4.573485000000009
 31
0.0
  0
LINE
  5
B9
330
1E
100
AcDbEntity
  8
0
100
AcDbLine
 10
16.5
 20
1.67637500000001
 30
0.0
 11
18.8
 21
3.148615000000009
 31
0.0
  0
LINE
  5
BA
330
1E
100
AcDbEntity
  8
0
100
AcDbLine
 10
8.4
 20
0.5897750000000091
 30
0.0
 11
11.0
 21
0.243365000000009
 31
0.0
  0
LINE
  5
BB
330
1E
100
AcDbEntity
  8
0
100
AcDbLine
 10
8.4
 20
0.5897750000000091
 30
0.0
 11
11.0
 21
0.243365000000009
 31
0.0
  0
LINE
  5
BC
330
1E
100
AcDbEntity
  8
0
100
AcDbLine
 10
3.15043
 20
29.82423499999999
 30
0.0
 11
4.51043
 21
31.488735
 31
0.0
  0
LINE
  5
BD
330
1E
100
AcDbEntity
  8
0
100
AcDbLine
 10
2.538429999999999
 20
29.873235
 30
0.0
 11
3.35443
 21
31.694835
 31
0.0
  0
LINE
  5
BE
330
1E
100
AcDbEntity
  8
0
100
AcDbLine
 10
3.2
 20
27.80073499999999
 30
0.0
 11
4.599999999999999
 21
29.44613499999999
 31
0.0
  0
LINE
  5
BF
330
1E
100
AcDbEntity
  8
0
100
AcDbLine
 10
3.9
 20
15.052435
 30
0.0
 11
6.0
 21
16.43803499999999
 31
0.0
  0
LINE
  5
C0
330
1E
100
AcDbEntity
  8
0
100
AcDbLine
 10
6.0
 20
16.43803499999999
 30
0.0
 11
8.4
 21
17.217435
 31
0.0
  0
LINE
  5
C1
330
1E
100
AcDbEntity
  8
0
100
AcDbLine
 10
8.4
 20
17.217435
 30
0.0
 11
11.0
 21
17.563835
 31
0.0
  0
LINE
  5
C2
330
1E
100
AcDbEntity
  8
0
100
AcDbLine
 10
4.599999999999999
 20
29.44613499999999
 30
0.0
 11
6.5
 21
30.65863499999999
 31
0.0
  0
LINE
  5
C3
330
1E
100
AcDbEntity
  8
0
100
AcDbLine
 10
3.15043
 20
34.73553499999999
 30
0.0
 11
4.51043
 21
36.400135
 31
0.0
  0
LINE
  5
C5
330
1E
100
AcDbEntity
  8
0
100
AcDbLine
 10
2.538429999999999
 20
35.61213499999999
 30
0.0
 11
3.35443
 21
37.48243499999999
 31
0.0
  0
LINE
  5
C6
330
1E
100
AcDbEntity
  8
0
100
AcDbLine
 10
4.51043
 20
31.488735
 30
0.0
 11
6.312429999999999
 21
32.74503499999999
 31
0.0
  0
LINE
  5
C7
330
1E
100
AcDbEntity
  8
0
100
AcDbLine
 10
3.35443
 20
31.694835
 30
0.0
 11
4.68043
 21
33.29663499999999
 31
0.0
  0
LINE
  5
C8
330
1E
100
AcDbEntity
  8
0
100
AcDbLine
 10
4.51043
 20
36.400135
 30
0.0
 11
6.312429999999999
 21
37.65633499999999
 31
0.0
  0
LINE
  5
C9
330
1E
100
AcDbEntity
  8
0
100
AcDbLine
 10
8.35243
 20
33.498835
 30
0.0
 11
10.52839999999999
 21
33.78143499999999
 31
0.0
  0
LINE
  5
CA
330
1E
100
AcDbEntity
  8
0
100
AcDbLine
 10
6.312429999999999
 20
32.74503499999999
 30
0.0
 11
8.35243
 21
33.498835
 31
0.0
  0
LINE
  5
CB
330
1E
100
AcDbEntity
  8
0
100
AcDbLine
 10
6.41443
 20
34.521435
 30
0.0
 11
8.38643
 21
35.27523499999999
 31
0.0
  0
LINE
  5
CC
330
1E
100
AcDbEntity
  8
0
100
AcDbLine
 10
4.68043
 20
33.29663499999999
 30
0.0
 11
6.41443
 21
34.521435
 31
0.0
  0
LINE
  5
CD
330
1E
100
AcDbEntity
  8
0
100
AcDbLine
 10
8.38643
 20
35.27523499999999
 30
0.0
 11
10.52839999999999
 21
35.557935
 31
0.0
  0
LINE
  5
D0
330
1E
100
AcDbEntity
  8
0
100
AcDbLine
 10
6.312429999999999
 20
37.65633499999999
 30
0.0
 11
8.35243
 21
38.41013499999999
 31
0.0
  0
LINE
  5
D1
330
1E
100
AcDbEntity
  8
0
100
AcDbLine
 10
3.35443
 20
37.48243499999999
 30
0.0
 11
4.68043
 21
39.12693499999999
 31
0.0
  0
LINE
  5
D3
330
1E
100
AcDbEntity
  8
0
100
AcDbLine
 10
6.5
 20
30.65863499999999
 30
0.0
 11
8.699999999999999
 21
31.438035
 31
0.0
  0
LINE
  5
D4
330
1E
100
AcDbEntity
  8
0
100
AcDbLine
 10
16.0
 20
16.43803499999999
 30
0.0
 11
18.1
 21
15.052435
 31
0.0
  0
LINE
  5
D5
330
1E
100
AcDbEntity
  8
0
100
AcDbLine
 10
13.6
 20
17.217435
 30
0.0
 11
16.0
 21
16.43803499999999
 31
0.0
  0
LINE
  5
D6
330
1E
100
AcDbEntity
  8
0
100
AcDbLine
 10
11.0
 20
17.563835
 30
0.0
 11
13.6
 21
17.217435
 31
0.0
  0
LINE
  5
D7
330
1E
100
AcDbEntity
  8
0
100
AcDbLine
 10
18.1
 20
15.052435
 30
0.0
 11
19.69999999999999
 21
13.233735
 31
0.0
  0
LINE
  5
D8
330
1E
100
AcDbEntity
  8
0
100
AcDbLine
 10
10.52839999999999
 20
33.78143499999999
 30
0.0
 11
12.7044
 21
33.498835
 31
0.0
  0
LINE
  5
D9
330
1E
100
AcDbEntity
  8
0
100
AcDbLine
 10
10.52839999999999
 20
35.557935
 30
0.0
 11
12.6704
 21
35.27523499999999
 31
0.0
  0
LINE
  5
DA
330
1E
100
AcDbEntity
  8
0
100
AcDbLine
 10
17.9064
 20
29.82423499999999
 30
0.0
 11
18.7224
 21
27.93983499999999
 31
0.0
  0
LINE
  5
DB
330
1E
100
AcDbEntity
  8
0
100
AcDbLine
 10
15.5
 20
30.65863499999999
 30
0.0
 11
17.4
 21
29.44613499999999
 31
0.0
  0
LINE
  5
DC
330
1E
100
AcDbEntity
  8
0
100
AcDbLine
 10
16.54639999999999
 20
31.488735
 30
0.0
 11
17.9064
 21
29.82423499999999
 31
0.0
  0
LINE
  5
DD
330
1E
100
AcDbEntity
  8
0
100
AcDbLine
 10
12.7044
 20
33.498835
 30
0.0
 11
14.7444
 21
32.74503499999999
 31
0.0
  0
LINE
  5
DE
330
1E
100
AcDbEntity
  8
0
100
AcDbLine
 10
14.7444
 20
32.74503499999999
 30
0.0
 11
16.54639999999999
 21
31.488735
 31
0.0
  0
LINE
  5
DF
330
1E
100
AcDbEntity
  8
0
100
AcDbLine
 10
14.7444
 20
37.65633499999999
 30
0.0
 11
16.54639999999999
 21
36.400135
 31
0.0
  0
LINE
  5
E1
330
1E
100
AcDbEntity
  8
0
100
AcDbLine
 10
12.6704
 20
35.27523499999999
 30
0.0
 11
14.6424
 21
34.521435
 31
0.0
  0
LINE
  5
E3
330
1E
100
AcDbEntity
  8
0
100
AcDbLine
 10
14.6424
 20
34.521435
 30
0.0
 11
16.3764
 21
33.29663499999999
 31
0.0
  0
LINE
  5
E4
330
1E
100
AcDbEntity
  8
0
100
AcDbLine
 10
16.54639999999999
 20
36.400135
 30
0.0
 11
17.9064
 21
34.73553499999999
 31
0.0
  0
LINE
  5
E6
330
1E
100
AcDbEntity
  8
0
100
AcDbLine
 10
16.3764
 20
33.29663499999999
 30
0.0
 11
17.7024
 21
31.694835
 31
0.0
  0
LINE
  5
E7
330
1E
100
AcDbEntity
  8
0
100
AcDbLine
 10
17.7024
 20
31.694835
 30
0.0
 11
18.5184
 21
29.873235
 31
0.0
  0
LINE
  5
E8
330
1E
100
AcDbEntity
  8
0
100
AcDbLine
 10
17.9064
 20
34.73553499999999
 30
0.0
 11
18.7224
 21
32.851135
 31
0.0
  0
LINE
  5
EB
330
1E
100
AcDbEntity
  8
0
100
AcDbLine
 10
17.7024
 20
37.48243499999999
 30
0.0
 11
18.5184
 21
35.61213499999999
 31
0.0
  0
LINE
  5
EC
330
1E
100
AcDbEntity
  8
0
100
AcDbLine
 10
13.3
 20
31.438035
 30
0.0
 11
15.5
 21
30.65863499999999
 31
0.0
  0
LINE
  5
ED
330
1E
100
AcDbEntity
  8
0
100
AcDbLine
 10
11.0
 20
31.69783499999999
 30
0.0
 11
13.3
 21
31.438035
 31
0.0
  0
LINE
  5
EE
330
1E
100
AcDbEntity
  8
0
100
AcDbLine
 10
17.4
 20
29.44613499999999
 30
0.0
 11
18.8
 21
27.80073499999999
 31
0.0
  0
LINE
  5
EF
330
1E
100
AcDbEntity
  8
0
100
AcDbLine
 10
8.699999999999999
 20
31.438035
 30
0.0
 11
11.0
 21
31.69783499999999
 31
0.0
  0
LINE
  5
F0
330
1E
100
AcDbEntity
  8
0
100
AcDbLine
 10
3.2
 20
3.148615000000009
 30
0.0
 11
5.5
 21
1.67637500000001
 31
0.0
  0
LINE
  5
F1
330
1E
100
AcDbEntity
  8
0
100
AcDbLine
 10
19.69999999999999
 20
4.573485000000009
 30
0.0
 11
20.6
 21
6.651945000000009
 31
0.0
  0
LINE
  5
F2
330
1E
100
AcDbEntity
  8
0
100
AcDbLine
 10
18.8
 20
3.148615000000009
 30
0.0
 11
20.5
 21
5.140475000000009
 31
0.0
  0
LINE
  5
F3
330
1E
100
AcDbEntity
  8
0
100
AcDbLine
 10
19.69999999999999
 20
13.233735
 30
0.0
 11
20.6
 21
11.155235
 31
0.0
  0
LINE
  5
F4
330
1E
100
AcDbEntity
  8
0
100
AcDbLine
 10
20.6
 20
6.651945000000009
 30
0.0
 11
21.0
 21
8.90363500000001
 31
0.0
  0
LINE
  5
F5
330
1E
100
AcDbEntity
  8
0
100
AcDbLine
 10
20.5
 20
5.140475000000009
 30
0.0
 11
21.6
 21
7.478745000000009
 31
0.0
  0
LINE
  5
F6
330
1E
100
AcDbEntity
  8
0
100
AcDbLine
 10
21.6
 20
7.478745000000009
 30
0.0
 11
22.0
 21
9.90363500000001
 31
0.0
  0
LINE
  5
F7
330
1E
100
AcDbEntity
  8
0
100
AcDbLine
 10
20.6
 20
11.155235
 30
0.0
 11
21.0
 21
8.90363500000001
 31
0.0
  0
LINE
  5
F8
330
1E
100
AcDbEntity
  8
0
100
AcDbLine
 10
20.0
 20
23.903635
 30
0.0
 11
22.0
 21
9.90363500000001
 31
0.0
  0
LINE
  5
F9
330
1E
100
AcDbEntity
  8
0
100
AcDbLine
 10
18.7224
 20
27.93983499999999
 30
0.0
 11
18.73128038044399
 21
27.8815001871553
 31
0.0
  0
LINE
  5
FA
330
1E
100
AcDbEntity
  8
0
100
AcDbLine
 10
18.7224
 20
32.851135
 30
0.0
 11
19.0284
 21
30.84103499999999
 31
0.0
  0
LINE
  5
FB
330
1E
100
AcDbEntity
  8
0
100
AcDbLine
 10
18.5184
 20
29.873235
 30
0.0
 11
18.8244
 21
27.894635
 31
0.0
  0
LINE
  5
FC
330
1E
100
AcDbEntity
  8
0
100
AcDbLine
 10
18.70526997558989
 20
38.1240516314077
 30
0.0
 11
18.8244
 21
38.91813499999999
 31
0.0
  0
LINE
  5
FD
330
1E
100
AcDbEntity
  8
0
100
AcDbLine
 10
18.7224
 20
38.08343499999999
 30
0.0
 11
19.0284
 21
36.01973499999999
 31
0.0
  0
LINE
  5
FE
330
1E
100
AcDbEntity
  8
0
100
AcDbLine
 10
18.5184
 20
35.61213499999999
 30
0.0
 11
18.8244
 21
33.580635
 31
0.0
  0
LINE
  5
FF
330
1E
100
AcDbEntity
  8
0
100
AcDbLine
 10
18.71654758678619
 20
32.8646500581618
 30
0.0
 11
18.8244
 21
33.580635
 31
0.0
  0
LINE
  5
100
330
1E
100
AcDbEntity
  8
0
100
AcDbLine
 10
19.0284
 20
28.01243499999999
 30
0.0
 11
19.0284
 21
30.84103499999999
 31
0.0
  0
LINE
  5
101
330
1E
100
AcDbEntity
  8
0
100
AcDbLine
 10
19.0284
 20
30.84103499999999
 30
0.0
 11
19.0284
 21
28.01243499999999
 31
0.0
  0
LINE
  5
102
330
1E
100
AcDbEntity
  8
0
100
AcDbLine
 10
18.9483571010933
 20
27.4866630169855
 30
0.0
 11
19.0284
 21
28.01243499999999
 31
0.0
  0
LINE
  5
103
330
1E
100
AcDbEntity
  8
0
100
AcDbLine
 10
18.8074415264685
 20
27.7849812884661
 30
0.0
 11
18.8244
 21
27.894635
 31
0.0
  0
LINE
  5
104
330
1E
100
AcDbEntity
  8
0
100
AcDbLine
 10
18.80699799796899
 20
37.51289614899171
 30
0.0
 11
19.0284
 21
39.012135
 31
0.0
  0
LINE
  5
105
330
1E
100
AcDbEntity
  8
0
100
AcDbLine
 10
19.0284
 20
33.678235
 30
0.0
 11
19.0284
 21
36.01973499999999
 31
0.0
  0
LINE
  5
106
330
1E
100
AcDbEntity
  8
0
100
AcDbLine
 10
19.0284
 20
36.01973499999999
 30
0.0
 11
19.0284
 21
33.678235
 31
0.0
  0
LINE
  5
107
330
1E
100
AcDbEntity
  8
0
100
AcDbLine
 10
18.8152861505229
 20
32.2409701269085
 30
0.0
 11
19.0284
 21
33.678235
 31
0.0
  0
LINE
  5
108
330
1E
100
AcDbEntity
  8
0
100
AcDbLine
 10
18.8
 20
27.80073499999999
 30
0.0
 11
19.69999999999999
 21
25.89543499999999
 31
0.0
  0
LINE
  5
109
330
1E
100
AcDbEntity
  8
0
100
AcDbLine
 10
19.69999999999999
 20
25.89543499999999
 30
0.0
 11
20.0
 21
23.903635
 31
0.0
  0
LINE
  5
10A
330
1E
100
AcDbEntity
  8
0
100
AcDbLine
 10
2.538429999999999
 20
40.95783499999999
 30
0.0
 11
3.35443
 21
42.83563499999999
 31
0.0
  0
LINE
  5
10B
330
1E
100
AcDbEntity
  8
0
100
AcDbLine
 10
2.538429999999999
 20
48.56823499999999
 30
0.0
 11
3.35443
 21
50.492135
 31
0.0
  0
LINE
  5
10C
330
1E
100
AcDbEntity
  8
0
100
AcDbLine
 10
2.538429999999999
 20
45.06953499999999
 30
0.0
 11
3.35443
 21
46.98793499999999
 31
0.0
  0
LINE
  5
10D
330
1E
100
AcDbEntity
  8
0
100
AcDbLine
 10
2.538429999999999
 20
51.772035
 30
0.0
 11
3.35443
 21
53.717335
 31
0.0
  0
LINE
  5
10E
330
1E
100
AcDbEntity
  8
0
100
AcDbLine
 10
2.538429999999999
 20
54.259135
 30
0.0
 11
3.35443
 21
56.208235
 31
0.0
  0
LINE
  5
10F
330
1E
100
AcDbEntity
  8
0
100
AcDbLine
 10
2.538429999999999
 20
56.601335
 30
0.0
 11
3.35443
 21
58.554235
 31
0.0
  0
LINE
  5
110
330
1E
100
AcDbEntity
  8
0
100
AcDbLine
 10
2.538429999999999
 20
58.918235
 30
0.0
 11
2.9844329806258
 21
59.995091706408
 31
0.0
  0
LINE
  5
111
330
1E
100
AcDbEntity
  8
0
100
AcDbLine
 10
2.530274151125079
 20
58.86119736407739
 30
0.0
 11
2.538429999999999
 21
58.918235
 31
0.0
  0
LINE
  5
112
330
1E
100
AcDbEntity
  8
0
100
AcDbLine
 10
3.15043
 20
45.28193499999999
 30
0.0
 11
4.51043
 21
46.99783499999999
 31
0.0
  0
LINE
  5
114
330
1E
100
AcDbEntity
  8
0
100
AcDbLine
 10
3.15043
 20
40.01823499999999
 30
0.0
 11
4.51043
 21
41.727235
 31
0.0
  0
LINE
  5
115
330
1E
100
AcDbEntity
  8
0
100
AcDbLine
 10
3.15043
 20
52.281135
 30
0.0
 11
4.51043
 21
54.03913499999999
 31
0.0
  0
LINE
  5
117
330
1E
100
AcDbEntity
  8
0
100
AcDbLine
 10
3.15043
 20
48.86883499999999
 30
0.0
 11
4.51043
 21
50.62183499999999
 31
0.0
  0
LINE
  5
119
330
1E
100
AcDbEntity
  8
0
100
AcDbLine
 10
3.15043
 20
55.07943499999999
 30
0.0
 11
4.51043
 21
56.857135
 31
0.0
  0
LINE
  5
11B
330
1E
100
AcDbEntity
  8
0
100
AcDbLine
 10
3.15043
 20
57.477235
 30
0.0
 11
4.51043
 21
59.25833499999999
 31
0.0
  0
LINE
  5
11D
330
1E
100
AcDbEntity
  8
0
100
AcDbLine
 10
3.15043
 20
59.724535
 30
0.0
 11
4.51043
 21
61.509035
 31
0.0
  0
LINE
  5
120
330
1E
100
AcDbEntity
  8
0
100
AcDbLine
 10
3.15043
 20
60.409535
 30
0.0
 11
4.51043
 21
62.20913499999999
 31
0.0
  0
LINE
  5
121
330
1E
100
AcDbEntity
  8
0
100
AcDbLine
 10
3.35443
 20
42.83563499999999
 30
0.0
 11
4.68043
 21
44.48673499999999
 31
0.0
  0
LINE
  5
122
330
1E
100
AcDbEntity
  8
0
100
AcDbLine
 10
3.35443
 20
50.492135
 30
0.0
 11
4.68043
 21
52.183735
 31
0.0
  0
LINE
  5
123
330
1E
100
AcDbEntity
  8
0
100
AcDbLine
 10
3.35443
 20
46.98793499999999
 30
0.0
 11
4.68043
 21
48.674735
 31
0.0
  0
LINE
  5
124
330
1E
100
AcDbEntity
  8
0
100
AcDbLine
 10
3.35443
 20
53.717335
 30
0.0
 11
4.68043
 21
55.42783499999999
 31
0.0
  0
LINE
  5
125
330
1E
100
AcDbEntity
  8
0
100
AcDbLine
 10
3.35443
 20
56.208235
 30
0.0
 11
4.68043
 21
57.92213499999999
 31
0.0
  0
LINE
  5
126
330
1E
100
AcDbEntity
  8
0
100
AcDbLine
 10
3.35443
 20
58.554235
 30
0.0
 11
4.68043
 21
60.271435
 31
0.0
  0
LINE
  5
127
330
1E
100
AcDbEntity
  8
0
100
AcDbLine
 10
3.35443
 20
60.888435
 30
0.0
 11
4.68043
 21
62.62073499999999
 31
0.0
  0
LINE
  5
128
330
1E
100
AcDbEntity
  8
0
100
AcDbLine
 10
3.162938872018339
 20
60.4260871809443
 30
0.0
 11
3.35443
 21
60.888435
 31
0.0
  0
LINE
  5
12A
330
1E
100
AcDbEntity
  8
0
100
AcDbLine
 10
3.044759999999999
 20
61.231435
 30
0.0
 11
4.404759999999999
 21
63.033435
 31
0.0
  0
LINE
  5
12B
330
1E
100
AcDbEntity
  8
0
100
AcDbLine
 10
2.931759999999999
 20
61.129435
 30
0.0
 11
3.032572903225799
 21
61.2612672580645
 31
0.0
  0
LINE
  5
12C
330
1E
100
AcDbEntity
  8
0
100
AcDbLine
 10
2.727759999999999
 20
61.231435
 30
0.0
 11
4.08776
 21
63.033435
 31
0.0
  0
LINE
  5
12E
330
1E
100
AcDbEntity
  8
0
100
AcDbLine
 10
3.044759999999999
 20
61.291735
 30
0.0
 11
4.404759999999999
 21
63.09373499999999
 31
0.0
  0
LINE
  5
12F
330
1E
100
AcDbEntity
  8
0
100
AcDbLine
 10
2.727759999999999
 20
61.291735
 30
0.0
 11
4.08776
 21
63.09373499999999
 31
0.0
  0
LINE
  5
130
330
1E
100
AcDbEntity
  8
0
100
AcDbLine
 10
2.727759999999999
 20
61.472635
 30
0.0
 11
4.08776
 21
63.274635
 31
0.0
  0
LINE
  5
131
330
1E
100
AcDbEntity
  8
0
100
AcDbLine
 10
2.61348
 20
61.472635
 30
0.0
 11
3.97348
 21
63.274635
 31
0.0
  0
LINE
  5
132
330
1E
100
AcDbEntity
  8
0
100
AcDbLine
 10
2.499209999999999
 20
61.472635
 30
0.0
 11
3.85921
 21
63.274635
 31
0.0
  0
LINE
  5
133
330
1E
100
AcDbEntity
  8
0
100
AcDbLine
 10
4.51043
 20
46.99783499999999
 30
0.0
 11
6.312429999999999
 21
48.29283499999999
 31
0.0
  0
LINE
  5
135
330
1E
100
AcDbEntity
  8
0
100
AcDbLine
 10
4.51043
 20
41.727235
 30
0.0
 11
6.312429999999999
 21
43.017035
 31
0.0
  0
LINE
  5
137
330
1E
100
AcDbEntity
  8
0
100
AcDbLine
 10
4.51043
 20
54.03913499999999
 30
0.0
 11
6.312429999999999
 21
55.365935
 31
0.0
  0
LINE
  5
139
330
1E
100
AcDbEntity
  8
0
100
AcDbLine
 10
4.51043
 20
50.62183499999999
 30
0.0
 11
6.312429999999999
 21
51.944835
 31
0.0
  0
LINE
  5
13B
330
1E
100
AcDbEntity
  8
0
100
AcDbLine
 10
4.51043
 20
56.857135
 30
0.0
 11
6.312429999999999
 21
58.198635
 31
0.0
  0
LINE
  5
13D
330
1E
100
AcDbEntity
  8
0
100
AcDbLine
 10
4.51043
 20
59.25833499999999
 30
0.0
 11
6.312429999999999
 21
60.60253499999999
 31
0.0
  0
LINE
  5
13F
330
1E
100
AcDbEntity
  8
0
100
AcDbLine
 10
4.51043
 20
61.509035
 30
0.0
 11
6.312429999999999
 21
62.855835
 31
0.0
  0
LINE
  5
141
330
1E
100
AcDbEntity
  8
0
100
AcDbLine
 10
4.68043
 20
44.48673499999999
 30
0.0
 11
6.41443
 21
45.74943499999999
 31
0.0
  0
LINE
  5
142
330
1E
100
AcDbEntity
  8
0
100
AcDbLine
 10
4.68043
 20
39.12693499999999
 30
0.0
 11
6.41443
 21
40.38443499999999
 31
0.0
  0
LINE
  5
143
330
1E
100
AcDbEntity
  8
0
100
AcDbLine
 10
4.68043
 20
52.183735
 30
0.0
 11
6.41443
 21
53.47743499999999
 31
0.0
  0
LINE
  5
144
330
1E
100
AcDbEntity
  8
0
100
AcDbLine
 10
4.68043
 20
48.674735
 30
0.0
 11
6.41443
 21
49.96463499999999
 31
0.0
  0
LINE
  5
145
330
1E
100
AcDbEntity
  8
0
100
AcDbLine
 10
4.68043
 20
55.42783499999999
 30
0.0
 11
6.41443
 21
56.73593499999999
 31
0.0
  0
LINE
  5
146
330
1E
100
AcDbEntity
  8
0
100
AcDbLine
 10
4.68043
 20
57.92213499999999
 30
0.0
 11
6.41443
 21
59.232735
 31
0.0
  0
LINE
  5
147
330
1E
100
AcDbEntity
  8
0
100
AcDbLine
 10
8.35243
 20
38.41013499999999
 30
0.0
 11
10.52839999999999
 21
38.69283499999999
 31
0.0
  0
LINE
  5
148
330
1E
100
AcDbEntity
  8
0
100
AcDbLine
 10
10.52839999999999
 20
38.69283499999999
 30
0.0
 11
12.7044
 21
38.41013499999999
 31
0.0
  0
LINE
  5
149
330
1E
100
AcDbEntity
  8
0
100
AcDbLine
 10
12.7044
 20
38.41013499999999
 30
0.0
 11
14.7444
 21
37.65633499999999
 31
0.0
  0
LINE
  5
14A
330
1E
100
AcDbEntity
  8
0
100
AcDbLine
 10
6.41443
 20
40.38443499999999
 30
0.0
 11
8.38643
 21
41.15833499999999
 31
0.0
  0
LINE
  5
14B
330
1E
100
AcDbEntity
  8
0
100
AcDbLine
 10
8.38643
 20
41.15833499999999
 30
0.0
 11
10.52839999999999
 21
41.44863499999999
 31
0.0
  0
LINE
  5
14D
330
1E
100
AcDbEntity
  8
0
100
AcDbLine
 10
8.35243
 20
43.79093499999999
 30
0.0
 11
10.52839999999999
 21
44.08113499999999
 31
0.0
  0
LINE
  5
14E
330
1E
100
AcDbEntity
  8
0
100
AcDbLine
 10
6.312429999999999
 20
43.017035
 30
0.0
 11
8.35243
 21
43.79093499999999
 31
0.0
  0
LINE
  5
14F
330
1E
100
AcDbEntity
  8
0
100
AcDbLine
 10
8.38643
 20
46.52643499999999
 30
0.0
 11
10.52839999999999
 21
46.81783499999999
 31
0.0
  0
LINE
  5
150
330
1E
100
AcDbEntity
  8
0
100
AcDbLine
 10
6.41443
 20
45.74943499999999
 30
0.0
 11
8.38643
 21
46.52643499999999
 31
0.0
  0
LINE
  5
152
330
1E
100
AcDbEntity
  8
0
100
AcDbLine
 10
6.312429999999999
 20
48.29283499999999
 30
0.0
 11
8.35243
 21
49.06983499999999
 31
0.0
  0
LINE
  5
153
330
1E
100
AcDbEntity
  8
0
100
AcDbLine
 10
10.52839999999999
 20
46.81783499999999
 30
0.0
 11
12.6704
 21
46.52643499999999
 31
0.0
  0
LINE
  5
155
330
1E
100
AcDbEntity
  8
0
100
AcDbLine
 10
12.6704
 20
46.52643499999999
 30
0.0
 11
14.6424
 21
45.74943499999999
 31
0.0
  0
LINE
  5
156
330
1E
100
AcDbEntity
  8
0
100
AcDbLine
 10
10.52839999999999
 20
44.08113499999999
 30
0.0
 11
12.7044
 21
43.79093499999999
 31
0.0
  0
LINE
  5
157
330
1E
100
AcDbEntity
  8
0
100
AcDbLine
 10
12.7044
 20
43.79093499999999
 30
0.0
 11
14.7444
 21
43.017035
 31
0.0
  0
LINE
  5
158
330
1E
100
AcDbEntity
  8
0
100
AcDbLine
 10
10.52839999999999
 20
41.44863499999999
 30
0.0
 11
12.6704
 21
41.15833499999999
 31
0.0
  0
LINE
  5
159
330
1E
100
AcDbEntity
  8
0
100
AcDbLine
 10
14.7444
 20
48.29283499999999
 30
0.0
 11
16.54639999999999
 21
46.99783499999999
 31
0.0
  0
LINE
  5
15B
330
1E
100
AcDbEntity
  8
0
100
AcDbLine
 10
14.6424
 20
45.74943499999999
 30
0.0
 11
16.3764
 21
44.48673499999999
 31
0.0
  0
LINE
  5
15C
330
1E
100
AcDbEntity
  8
0
100
AcDbLine
 10
14.7444
 20
43.017035
 30
0.0
 11
16.54639999999999
 21
41.727235
 31
0.0
  0
LINE
  5
15E
330
1E
100
AcDbEntity
  8
0
100
AcDbLine
 10
12.6704
 20
41.15833499999999
 30
0.0
 11
14.6424
 21
40.38443499999999
 31
0.0
  0
LINE
  5
15F
330
1E
100
AcDbEntity
  8
0
100
AcDbLine
 10
16.3764
 20
44.48673499999999
 30
0.0
 11
17.7024
 21
42.83563499999999
 31
0.0
  0
LINE
  5
161
330
1E
100
AcDbEntity
  8
0
100
AcDbLine
 10
14.6424
 20
40.38443499999999
 30
0.0
 11
16.3764
 21
39.12693499999999
 31
0.0
  0
LINE
  5
162
330
1E
100
AcDbEntity
  8
0
100
AcDbLine
 10
16.54639999999999
 20
46.99783499999999
 30
0.0
 11
17.9064
 21
45.28193499999999
 31
0.0
  0
LINE
  5
164
330
1E
100
AcDbEntity
  8
0
100
AcDbLine
 10
17.7024
 20
42.83563499999999
 30
0.0
 11
18.5184
 21
40.95783499999999
 31
0.0
  0
LINE
  5
165
330
1E
100
AcDbEntity
  8
0
100
AcDbLine
 10
16.54639999999999
 20
41.727235
 30
0.0
 11
17.9064
 21
40.01823499999999
 31
0.0
  0
LINE
  5
167
330
1E
100
AcDbEntity
  8
0
100
AcDbLine
 10
16.3764
 20
39.12693499999999
 30
0.0
 11
17.7024
 21
37.48243499999999
 31
0.0
  0
LINE
  5
168
330
1E
100
AcDbEntity
  8
0
100
AcDbLine
 10
8.35243
 20
49.06983499999999
 30
0.0
 11
10.52839999999999
 21
49.361235
 31
0.0
  0
LINE
  5
169
330
1E
100
AcDbEntity
  8
0
100
AcDbLine
 10
10.52839999999999
 20
49.361235
 30
0.0
 11
12.7044
 21
49.06983499999999
 31
0.0
  0
LINE
  5
16A
330
1E
100
AcDbEntity
  8
0
100
AcDbLine
 10
12.7044
 20
49.06983499999999
 30
0.0
 11
14.7444
 21
48.29283499999999
 31
0.0
  0
LINE
  5
16B
330
1E
100
AcDbEntity
  8
0
100
AcDbLine
 10
6.41443
 20
49.96463499999999
 30
0.0
 11
8.38643
 21
50.758535
 31
0.0
  0
LINE
  5
16C
330
1E
100
AcDbEntity
  8
0
100
AcDbLine
 10
8.38643
 20
50.758535
 30
0.0
 11
10.52839999999999
 21
51.056135
 31
0.0
  0
LINE
  5
16E
330
1E
100
AcDbEntity
  8
0
100
AcDbLine
 10
8.35243
 20
52.738635
 30
0.0
 11
10.52839999999999
 21
53.036335
 31
0.0
  0
LINE
  5
16F
330
1E
100
AcDbEntity
  8
0
100
AcDbLine
 10
6.312429999999999
 20
51.944835
 30
0.0
 11
8.35243
 21
52.738635
 31
0.0
  0
LINE
  5
170
330
1E
100
AcDbEntity
  8
0
100
AcDbLine
 10
8.38643
 20
54.273435
 30
0.0
 11
10.52839999999999
 21
54.572035
 31
0.0
  0
LINE
  5
171
330
1E
100
AcDbEntity
  8
0
100
AcDbLine
 10
6.41443
 20
53.47743499999999
 30
0.0
 11
8.38643
 21
54.273435
 31
0.0
  0
LINE
  5
173
330
1E
100
AcDbEntity
  8
0
100
AcDbLine
 10
6.312429999999999
 20
55.365935
 30
0.0
 11
8.35243
 21
56.162035
 31
0.0
  0
LINE
  5
174
330
1E
100
AcDbEntity
  8
0
100
AcDbLine
 10
10.52839999999999
 20
54.572035
 30
0.0
 11
12.6704
 21
54.273435
 31
0.0
  0
LINE
  5
176
330
1E
100
AcDbEntity
  8
0
100
AcDbLine
 10
12.6704
 20
54.273435
 30
0.0
 11
14.6424
 21
53.47743499999999
 31
0.0
  0
LINE
  5
177
330
1E
100
AcDbEntity
  8
0
100
AcDbLine
 10
10.52839999999999
 20
53.036335
 30
0.0
 11
12.7044
 21
52.738635
 31
0.0
  0
LINE
  5
178
330
1E
100
AcDbEntity
  8
0
100
AcDbLine
 10
12.7044
 20
52.738635
 30
0.0
 11
14.7444
 21
51.944835
 31
0.0
  0
LINE
  5
179
330
1E
100
AcDbEntity
  8
0
100
AcDbLine
 10
10.52839999999999
 20
51.056135
 30
0.0
 11
12.6704
 21
50.758535
 31
0.0
  0
LINE
  5
17A
330
1E
100
AcDbEntity
  8
0
100
AcDbLine
 10
14.7444
 20
55.365935
 30
0.0
 11
16.54639999999999
 21
54.03913499999999
 31
0.0
  0
LINE
  5
17C
330
1E
100
AcDbEntity
  8
0
100
AcDbLine
 10
14.6424
 20
53.47743499999999
 30
0.0
 11
16.3764
 21
52.183735
 31
0.0
  0
LINE
  5
17D
330
1E
100
AcDbEntity
  8
0
100
AcDbLine
 10
14.7444
 20
51.944835
 30
0.0
 11
16.54639999999999
 21
50.62183499999999
 31
0.0
  0
LINE
  5
17F
330
1E
100
AcDbEntity
  8
0
100
AcDbLine
 10
12.6704
 20
50.758535
 30
0.0
 11
14.6424
 21
49.96463499999999
 31
0.0
  0
LINE
  5
180
330
1E
100
AcDbEntity
  8
0
100
AcDbLine
 10
16.54639999999999
 20
54.03913499999999
 30
0.0
 11
17.9064
 21
52.281135
 31
0.0
  0
LINE
  5
182
330
1E
100
AcDbEntity
  8
0
100
AcDbLine
 10
16.3764
 20
52.183735
 30
0.0
 11
17.7024
 21
50.492135
 31
0.0
  0
LINE
  5
183
330
1E
100
AcDbEntity
  8
0
100
AcDbLine
 10
16.54639999999999
 20
50.62183499999999
 30
0.0
 11
17.9064
 21
48.86883499999999
 31
0.0
  0
LINE
  5
185
330
1E
100
AcDbEntity
  8
0
100
AcDbLine
 10
14.6424
 20
49.96463499999999
 30
0.0
 11
16.3764
 21
48.674735
 31
0.0
  0
LINE
  5
186
330
1E
100
AcDbEntity
  8
0
100
AcDbLine
 10
17.7024
 20
50.492135
 30
0.0
 11
18.5184
 21
48.56823499999999
 31
0.0
  0
LINE
  5
188
330
1E
100
AcDbEntity
  8
0
100
AcDbLine
 10
16.3764
 20
48.674735
 30
0.0
 11
17.7024
 21
46.98793499999999
 31
0.0
  0
LINE
  5
189
330
1E
100
AcDbEntity
  8
0
100
AcDbLine
 10
17.7024
 20
46.98793499999999
 30
0.0
 11
18.5184
 21
45.06953499999999
 31
0.0
  0
LINE
  5
18A
330
1E
100
AcDbEntity
  8
0
100
AcDbLine
 10
8.35243
 20
56.162035
 30
0.0
 11
10.52839999999999
 21
56.460535
 31
0.0
  0
LINE
  5
18B
330
1E
100
AcDbEntity
  8
0
100
AcDbLine
 10
12.7044
 20
56.162035
 30
0.0
 11
14.7444
 21
55.365935
 31
0.0
  0
LINE
  5
18D
330
1E
100
AcDbEntity
  8
0
100
AcDbLine
 10
16.3764
 20
55.42783499999999
 30
0.0
 11
17.7024
 21
53.717335
 31
0.0
  0
LINE
  5
18E
330
1E
100
AcDbEntity
  8
0
100
AcDbLine
 10
17.7024
 20
53.717335
 30
0.0
 11
18.5184
 21
51.772035
 31
0.0
  0
LINE
  5
18F
330
1E
100
AcDbEntity
  8
0
100
AcDbLine
 10
6.41443
 20
56.73593499999999
 30
0.0
 11
8.38643
 21
57.540835
 31
0.0
  0
LINE
  5
190
330
1E
100
AcDbEntity
  8
0
100
AcDbLine
 10
6.312429999999999
 20
58.198635
 30
0.0
 11
8.35243
 21
59.003635
 31
0.0
  0
LINE
  5
192
330
1E
100
AcDbEntity
  8
0
100
AcDbLine
 10
10.52839999999999
 20
56.460535
 30
0.0
 11
12.7044
 21
56.162035
 31
0.0
  0
LINE
  5
193
330
1E
100
AcDbEntity
  8
0
100
AcDbLine
 10
8.38643
 20
57.540835
 30
0.0
 11
10.52839999999999
 21
57.842735
 31
0.0
  0
LINE
  5
194
330
1E
100
AcDbEntity
  8
0
100
AcDbLine
 10
8.35243
 20
59.003635
 30
0.0
 11
10.52839999999999
 21
59.30543499999999
 31
0.0
  0
LINE
  5
195
330
1E
100
AcDbEntity
  8
0
100
AcDbLine
 10
12.7044
 20
59.003635
 30
0.0
 11
14.7444
 21
58.198635
 31
0.0
  0
LINE
  5
196
330
1E
100
AcDbEntity
  8
0
100
AcDbLine
 10
10.52839999999999
 20
57.842735
 30
0.0
 11
12.6704
 21
57.540835
 31
0.0
  0
LINE
  5
197
330
1E
100
AcDbEntity
  8
0
100
AcDbLine
 10
14.7444
 20
58.198635
 30
0.0
 11
16.54639999999999
 21
56.857135
 31
0.0
  0
LINE
  5
199
330
1E
100
AcDbEntity
  8
0
100
AcDbLine
 10
12.6704
 20
57.540835
 30
0.0
 11
14.6424
 21
56.73593499999999
 31
0.0
  0
LINE
  5
19B
330
1E
100
AcDbEntity
  8
0
100
AcDbLine
 10
14.6424
 20
56.73593499999999
 30
0.0
 11
16.3764
 21
55.42783499999999
 31
0.0
  0
LINE
  5
19C
330
1E
100
AcDbEntity
  8
0
100
AcDbLine
 10
6.41443
 20
59.232735
 30
0.0
 11
8.38643
 21
60.03933499999999
 31
0.0
  0
LINE
  5
19D
330
1E
100
AcDbEntity
  8
0
100
AcDbLine
 10
10.52839999999999
 20
59.30543499999999
 30
0.0
 11
12.7044
 21
59.003635
 31
0.0
  0
LINE
  5
19E
330
1E
100
AcDbEntity
  8
0
100
AcDbLine
 10
8.38643
 20
60.03933499999999
 30
0.0
 11
10.52839999999999
 21
60.341735
 31
0.0
  0
LINE
  5
1A0
330
1E
100
AcDbEntity
  8
0
100
AcDbLine
 10
12.6704
 20
60.03933499999999
 30
0.0
 11
14.6424
 21
59.232735
 31
0.0
  0
LINE
  5
1A2
330
1E
100
AcDbEntity
  8
0
100
AcDbLine
 10
14.6424
 20
59.232735
 30
0.0
 11
16.3764
 21
57.92213499999999
 31
0.0
  0
LINE
  5
1A3
330
1E
100
AcDbEntity
  8
0
100
AcDbLine
 10
16.54639999999999
 20
56.857135
 30
0.0
 11
17.9064
 21
55.07943499999999
 31
0.0
  0
LINE
  5
1A4
330
1E
100
AcDbEntity
  8
0
100
AcDbLine
 10
16.54639999999999
 20
59.25833499999999
 30
0.0
 11
17.9064
 21
57.477235
 31
0.0
  0
LINE
  5
1A6
330
1E
100
AcDbEntity
  8
0
100
AcDbLine
 10
16.3764
 20
57.92213499999999
 30
0.0
 11
17.7024
 21
56.208235
 31
0.0
  0
LINE
  5
1A7
330
1E
100
AcDbEntity
  8
0
100
AcDbLine
 10
17.7024
 20
56.208235
 30
0.0
 11
18.5184
 21
54.259135
 31
0.0
  0
LINE
  5
1A8
330
1E
100
AcDbEntity
  8
0
100
AcDbLine
 10
4.68043
 20
60.271435
 30
0.0
 11
6.41443
 21
61.584535
 31
0.0
  0
LINE
  5
1A9
330
1E
100
AcDbEntity
  8
0
100
AcDbLine
 10
6.312429999999999
 20
60.60253499999999
 30
0.0
 11
8.35243
 21
61.409035
 31
0.0
  0
LINE
  5
1AA
330
1E
100
AcDbEntity
  8
0
100
AcDbLine
 10
14.7444
 20
60.60253499999999
 30
0.0
 11
16.54639999999999
 21
59.25833499999999
 31
0.0
  0
LINE
  5
1AB
330
1E
100
AcDbEntity
  8
0
100
AcDbLine
 10
10.52839999999999
 20
60.341735
 30
0.0
 11
12.6704
 21
60.03933499999999
 31
0.0
  0
LINE
  5
1AE
330
1E
100
AcDbEntity
  8
0
100
AcDbLine
 10
16.3764
 20
60.271435
 30
0.0
 11
17.7024
 21
58.554235
 31
0.0
  0
LINE
  5
1AF
330
1E
100
AcDbEntity
  8
0
100
AcDbLine
 10
17.9064
 20
45.28193499999999
 30
0.0
 11
18.7224
 21
43.33933499999999
 31
0.0
  0
LINE
  5
1B1
330
1E
100
AcDbEntity
  8
0
100
AcDbLine
 10
17.9064
 20
40.01823499999999
 30
0.0
 11
18.7224
 21
38.08343499999999
 31
0.0
  0
LINE
  5
1B2
330
1E
100
AcDbEntity
  8
0
100
AcDbLine
 10
17.9064
 20
52.281135
 30
0.0
 11
18.7224
 21
50.291035
 31
0.0
  0
LINE
  5
1B4
330
1E
100
AcDbEntity
  8
0
100
AcDbLine
 10
17.9064
 20
48.86883499999999
 30
0.0
 11
18.7224
 21
46.884335
 31
0.0
  0
LINE
  5
1B6
330
1E
100
AcDbEntity
  8
0
100
AcDbLine
 10
17.9064
 20
55.07943499999999
 30
0.0
 11
18.7224
 21
53.067135
 31
0.0
  0
LINE
  5
1B8
330
1E
100
AcDbEntity
  8
0
100
AcDbLine
 10
17.9064
 20
57.477235
 30
0.0
 11
18.7224
 21
55.46083499999999
 31
0.0
  0
LINE
  5
1BA
330
1E
100
AcDbEntity
  8
0
100
AcDbLine
 10
17.9064
 20
59.724535
 30
0.0
 11
18.7224
 21
57.704335
 31
0.0
  0
LINE
  5
1BC
330
1E
100
AcDbEntity
  8
0
100
AcDbLine
 10
17.7024
 20
58.554235
 30
0.0
 11
18.5184
 21
56.601335
 31
0.0
  0
LINE
  5
1BD
330
1E
100
AcDbEntity
  8
0
100
AcDbLine
 10
8.35243
 20
61.409035
 30
0.0
 11
10.52839999999999
 21
61.71153499999999
 31
0.0
  0
LINE
  5
1BE
330
1E
100
AcDbEntity
  8
0
100
AcDbLine
 10
12.7044
 20
61.409035
 30
0.0
 11
14.7444
 21
60.60253499999999
 31
0.0
  0
LINE
  5
1BF
330
1E
100
AcDbEntity
  8
0
100
AcDbLine
 10
6.41443
 20
61.584535
 30
0.0
 11
8.38643
 21
62.39263499999999
 31
0.0
  0
LINE
  5
1C0
330
1E
100
AcDbEntity
  8
0
100
AcDbLine
 10
16.54639999999999
 20
61.509035
 30
0.0
 11
17.9064
 21
59.724535
 31
0.0
  0
LINE
  5
1C1
330
1E
100
AcDbEntity
  8
0
100
AcDbLine
 10
14.6424
 20
61.584535
 30
0.0
 11
16.3764
 21
60.271435
 31
0.0
  0
LINE
  5
1C2
330
1E
100
AcDbEntity
  8
0
100
AcDbLine
 10
17.9064
 20
61.32373499999999
 30
0.0
 11
18.7224
 21
59.285635
 31
0.0
  0
LINE
  5
1C4
330
1E
100
AcDbEntity
  8
0
100
AcDbLine
 10
17.7024
 20
60.888435
 30
0.0
 11
17.89389112798169
 21
60.4260871809443
 31
0.0
  0
LINE
  5
1C6
330
1E
100
AcDbEntity
  8
0
100
AcDbLine
 10
17.9064
 20
60.409535
 30
0.0
 11
18.7224
 21
58.372235
 31
0.0
  0
LINE
  5
1C7
330
1E
100
AcDbEntity
  8
0
100
AcDbLine
 10
10.52839999999999
 20
61.71153499999999
 30
0.0
 11
12.7044
 21
61.409035
 31
0.0
  0
LINE
  5
1C9
330
1E
100
AcDbEntity
  8
0
100
AcDbLine
 10
8.38643
 20
62.39263499999999
 30
0.0
 11
10.52839999999999
 21
62.695635
 31
0.0
  0
LINE
  5
1CB
330
1E
100
AcDbEntity
  8
0
100
AcDbLine
 10
12.6704
 20
62.39263499999999
 30
0.0
 11
14.6424
 21
61.584535
 31
0.0
  0
LINE
  5
1CD
330
1E
100
AcDbEntity
  8
0
100
AcDbLine
 10
6.312429999999999
 20
62.855835
 30
0.0
 11
8.35243
 21
63.663935
 31
0.0
  0
LINE
  5
1CE
330
1E
100
AcDbEntity
  8
0
100
AcDbLine
 10
10.52839999999999
 20
62.695635
 30
0.0
 11
12.6704
 21
62.39263499999999
 31
0.0
  0
LINE
  5
1CF
330
1E
100
AcDbEntity
  8
0
100
AcDbLine
 10
14.7444
 20
62.855835
 30
0.0
 11
16.54639999999999
 21
61.509035
 31
0.0
  0
LINE
  5
1D1
330
1E
100
AcDbEntity
  8
0
100
AcDbLine
 10
4.68043
 20
62.62073499999999
 30
0.0
 11
6.41443
 21
63.945535
 31
0.0
  0
LINE
  5
1D3
330
1E
100
AcDbEntity
  8
0
100
AcDbLine
 10
16.3764
 20
62.62073499999999
 30
0.0
 11
17.7024
 21
60.888435
 31
0.0
  0
LINE
  5
1D5
330
1E
100
AcDbEntity
  8
0
100
AcDbLine
 10
4.51043
 20
62.20913499999999
 30
0.0
 11
6.312429999999999
 21
63.567335
 31
0.0
  0
LINE
  5
1D7
330
1E
100
AcDbEntity
  8
0
100
AcDbLine
 10
16.54639999999999
 20
62.20913499999999
 30
0.0
 11
17.9064
 21
60.409535
 31
0.0
  0
LINE
  5
1DA
330
1E
100
AcDbEntity
  8
0
100
AcDbLine
 10
18.0723970193742
 20
59.99509170640809
 30
0.0
 11
18.5184
 21
58.918235
 31
0.0
  0
LINE
  5
1DC
330
1E
100
AcDbEntity
  8
0
100
AcDbLine
 10
4.404759999999999
 20
63.033435
 30
0.0
 11
4.4913642230696
 21
63.0987966777884
 31
0.0
  0
LINE
  5
1DD
330
1E
100
AcDbEntity
  8
0
100
AcDbLine
 10
4.51043
 20
63.124035
 30
0.0
 11
6.312429999999999
 21
64.48273499999999
 31
0.0
  0
LINE
  5
1DF
330
1E
100
AcDbEntity
  8
0
100
AcDbLine
 10
16.54639999999999
 20
63.124035
 30
0.0
 11
17.9064
 21
61.32373499999999
 31
0.0
  0
LINE
  5
1E1
330
1E
100
AcDbEntity
  8
0
100
AcDbLine
 10
4.404759999999999
 20
63.09373499999999
 30
0.0
 11
6.20676
 21
64.45373499999999
 31
0.0
  0
LINE
  5
1E2
330
1E
100
AcDbEntity
  8
0
100
AcDbLine
 10
4.08776
 20
63.09373499999999
 30
0.0
 11
5.889759999999999
 21
64.45373499999999
 31
0.0
  0
LINE
  5
1E3
330
1E
100
AcDbEntity
  8
0
100
AcDbLine
 10
4.08776
 20
63.033435
 30
0.0
 11
5.889759999999999
 21
64.39343499999999
 31
0.0
  0
LINE
  5
1E4
330
1E
100
AcDbEntity
  8
0
100
AcDbLine
 10
3.74493
 20
63.274635
 30
0.0
 11
5.54693
 21
64.634635
 31
0.0
  0
LINE
  5
1E5
330
1E
100
AcDbEntity
  8
0
100
AcDbLine
 10
4.08776
 20
63.274635
 30
0.0
 11
5.889759999999999
 21
64.634635
 31
0.0
  0
LINE
  5
1E6
330
1E
100
AcDbEntity
  8
0
100
AcDbLine
 10
3.97348
 20
63.274635
 30
0.0
 11
5.775479999999999
 21
64.634635
 31
0.0
  0
LINE
  5
1E7
330
1E
100
AcDbEntity
  8
0
100
AcDbLine
 10
8.35243
 20
63.663935
 30
0.0
 11
10.52839999999999
 21
63.966935
 31
0.0
  0
LINE
  5
1E8
330
1E
100
AcDbEntity
  8
0
100
AcDbLine
 10
10.52839999999999
 20
63.966935
 30
0.0
 11
12.7044
 21
63.663935
 31
0.0
  0
LINE
  5
1E9
330
1E
100
AcDbEntity
  8
0
100
AcDbLine
 10
6.41443
 20
63.945535
 30
0.0
 11
8.38643
 21
64.760735
 31
0.0
  0
LINE
  5
1EB
330
1E
100
AcDbEntity
  8
0
100
AcDbLine
 10
6.312429999999999
 20
63.567335
 30
0.0
 11
8.35243
 21
64.38223499999999
 31
0.0
  0
LINE
  5
1ED
330
1E
100
AcDbEntity
  8
0
100
AcDbLine
 10
8.35243
 20
64.38223499999999
 30
0.0
 11
10.52839999999999
 21
64.68783499999999
 31
0.0
  0
LINE
  5
1EF
330
1E
100
AcDbEntity
  8
0
100
AcDbLine
 10
12.7044
 20
63.663935
 30
0.0
 11
14.7444
 21
62.855835
 31
0.0
  0
LINE
  5
1F0
330
1E
100
AcDbEntity
  8
0
100
AcDbLine
 10
14.6424
 20
63.945535
 30
0.0
 11
16.3764
 21
62.62073499999999
 31
0.0
  0
LINE
  5
1F1
330
1E
100
AcDbEntity
  8
0
100
AcDbLine
 10
14.7444
 20
63.567335
 30
0.0
 11
16.54639999999999
 21
62.20913499999999
 31
0.0
  0
LINE
  5
1F3
330
1E
100
AcDbEntity
  8
0
100
AcDbLine
 10
12.7044
 20
64.38223499999999
 30
0.0
 11
14.7444
 21
63.567335
 31
0.0
  0
LINE
  5
1F6
330
1E
100
AcDbEntity
  8
0
100
AcDbLine
 10
6.312429999999999
 20
64.48273499999999
 30
0.0
 11
8.35243
 21
65.29803499999999
 31
0.0
  0
LINE
  5
1F7
330
1E
100
AcDbEntity
  8
0
100
AcDbLine
 10
14.7444
 20
64.48273499999999
 30
0.0
 11
16.54639999999999
 21
63.124035
 31
0.0
  0
LINE
  5
1F8
330
1E
100
AcDbEntity
  8
0
100
AcDbLine
 10
6.20676
 20
64.45373499999999
 30
0.0
 11
8.24676
 21
65.269735
 31
0.0
  0
LINE
  5
1F9
330
1E
100
AcDbEntity
  8
0
100
AcDbLine
 10
5.889759999999999
 20
64.45373499999999
 30
0.0
 11
7.92976
 21
65.269735
 31
0.0
  0
LINE
  5
1FA
330
1E
100
AcDbEntity
  8
0
100
AcDbLine
 10
5.889759999999999
 20
64.39343499999999
 30
0.0
 11
7.92976
 21
65.209435
 31
0.0
  0
LINE
  5
1FB
330
1E
100
AcDbEntity
  8
0
100
AcDbLine
 10
5.54693
 20
64.634635
 30
0.0
 11
7.58693
 21
65.45063499999999
 31
0.0
  0
LINE
  5
1FC
330
1E
100
AcDbEntity
  8
0
100
AcDbLine
 10
3.85921
 20
63.274635
 30
0.0
 11
5.661209999999999
 21
64.634635
 31
0.0
  0
LINE
  5
1FD
330
1E
100
AcDbEntity
  8
0
100
AcDbLine
 10
3.51638
 20
63.274635
 30
0.0
 11
5.31838
 21
64.634635
 31
0.0
  0
LINE
  5
1FE
330
1E
100
AcDbEntity
  8
0
100
AcDbLine
 10
5.889759999999999
 20
64.634635
 30
0.0
 11
7.92976
 21
65.45063499999999
 31
0.0
  0
LINE
  5
1FF
330
1E
100
AcDbEntity
  8
0
100
AcDbLine
 10
5.775479999999999
 20
64.634635
 30
0.0
 11
7.815479999999999
 21
65.45063499999999
 31
0.0
  0
LINE
  5
200
330
1E
100
AcDbEntity
  8
0
100
AcDbLine
 10
5.661209999999999
 20
64.634635
 30
0.0
 11
7.70121
 21
65.45063499999999
 31
0.0
  0
LINE
  5
201
330
1E
100
AcDbEntity
  8
0
100
AcDbLine
 10
7.35838
 20
65.45063499999999
 30
0.0
 11
9.534399999999999
 21
65.756635
 31
0.0
  0
LINE
  5
202
330
1E
100
AcDbEntity
  8
0
100
AcDbLine
 10
7.92976
 20
65.269735
 30
0.0
 11
10.1058
 21
65.575735
 31
0.0
  0
LINE
  5
203
330
1E
100
AcDbEntity
  8
0
100
AcDbLine
 10
7.92976
 20
65.209435
 30
0.0
 11
8.18614298701666
 21
65.2454881948067
 31
0.0
  0
LINE
  5
204
330
1E
100
AcDbEntity
  8
0
100
AcDbLine
 10
8.38643
 20
64.760735
 30
0.0
 11
10.52839999999999
 21
65.066435
 31
0.0
  0
LINE
  5
205
330
1E
100
AcDbEntity
  8
0
100
AcDbLine
 10
10.52839999999999
 20
65.066435
 30
0.0
 11
12.6704
 21
64.760735
 31
0.0
  0
LINE
  5
207
330
1E
100
AcDbEntity
  8
0
100
AcDbLine
 10
12.6704
 20
64.760735
 30
0.0
 11
14.6424
 21
63.945535
 31
0.0
  0
LINE
  5
208
330
1E
100
AcDbEntity
  8
0
100
AcDbLine
 10
10.52839999999999
 20
64.68783499999999
 30
0.0
 11
12.7044
 21
64.38223499999999
 31
0.0
  0
LINE
  5
209
330
1E
100
AcDbEntity
  8
0
100
AcDbLine
 10
8.35243
 20
65.29803499999999
 30
0.0
 11
10.52839999999999
 21
65.603735
 31
0.0
  0
LINE
  5
20A
330
1E
100
AcDbEntity
  8
0
100
AcDbLine
 10
12.7044
 20
65.29803499999999
 30
0.0
 11
14.7444
 21
64.48273499999999
 31
0.0
  0
LINE
  5
20B
330
1E
100
AcDbEntity
  8
0
100
AcDbLine
 10
8.24676
 20
65.269735
 30
0.0
 11
8.300543351245769
 21
65.27729814474049
 31
0.0
  0
LINE
  5
20C
330
1E
100
AcDbEntity
  8
0
100
AcDbLine
 10
7.92976
 20
65.269735
 30
0.0
 11
10.1058
 21
65.575735
 31
0.0
  0
LINE
  5
20D
330
1E
100
AcDbEntity
  8
0
100
AcDbLine
 10
7.92976
 20
65.45063499999999
 30
0.0
 11
10.1058
 21
65.756635
 31
0.0
  0
LINE
  5
20E
330
1E
100
AcDbEntity
  8
0
100
AcDbLine
 10
10.52839999999999
 20
65.603735
 30
0.0
 11
12.7044
 21
65.29803499999999
 31
0.0
  0
LINE
  5
20F
330
1E
100
AcDbEntity
  8
0
100
AcDbLine
 10
10.1058
 20
65.575735
 30
0.0
 11
10.2173941323978
 21
65.56004207513151
 31
0.0
  0
LINE
  5
210
330
1E
100
AcDbEntity
  8
0
100
AcDbLine
 10
12.2818
 20
65.45063499999999
 30
0.0
 11
12.6410505401098
 21
65.30693478395609
 31
0.0
  0
LINE
  5
211
330
1E
100
AcDbEntity
  8
0
100
AcDbLine
 10
7.815479999999999
 20
65.45063499999999
 30
0.0
 11
9.9915
 21
65.756635
 31
0.0
  0
LINE
  5
212
330
1E
100
AcDbEntity
  8
0
100
AcDbLine
 10
9.7629
 20
65.756635
 30
0.0
 11
9.820050131319209
 21
65.7485982627832
 31
0.0
  0
LINE
  5
213
330
1E
100
AcDbEntity
  8
0
100
AcDbLine
 10
7.70121
 20
65.45063499999999
 30
0.0
 11
9.8772
 21
65.756635
 31
0.0
  0
LINE
  5
214
330
1E
100
AcDbEntity
  8
0
100
AcDbLine
 10
10.1058
 20
65.756635
 30
0.0
 11
12.2818
 21
65.45063499999999
 31
0.0
  0
LINE
  5
215
330
1E
100
AcDbEntity
  8
0
100
AcDbLine
 10
9.9915
 20
65.756635
 30
0.0
 11
10.0486494747291
 21
65.7485983551162
 31
0.0
  0
LINE
  5
216
330
1E
100
AcDbEntity
  8
0
100
AcDbLine
 10
9.8772
 20
65.756635
 30
0.0
 11
9.93434973736331
 21
65.74859831818329
 31
0.0
  0
LINE
  5
217
330
1E
100
AcDbEntity
  8
0
100
AcDbLine
 10
9.534399999999999
 20
65.756635
 30
0.0
 11
9.648650787574359
 21
65.74056848299729
 31
0.0
  0
LINE
  5
218
330
1E
100
AcDbEntity
  8
0
100
AcDbLine
 10
7.58693
 20
65.45063499999999
 30
0.0
 11
9.7629
 21
65.756635
 31
0.0
  0
LINE
  5
219
330
1E
100
AcDbEntity
  8
0
100
AcDbLine
 10
5.31838
 20
64.634635
 30
0.0
 11
7.35838
 21
65.45063499999999
 31
0.0
  0
LINE
  5
21A
330
1E
100
AcDbEntity
  8
0
100
AcDbLine
 10
18.5184
 20
40.95783499999999
 30
0.0
 11
18.8244
 21
38.91813499999999
 31
0.0
  0
LINE
  5
21B
330
1E
100
AcDbEntity
  8
0
100
AcDbLine
 10
18.5184
 20
48.56823499999999
 30
0.0
 11
18.8244
 21
46.478535
 31
0.0
  0
LINE
  5
21C
330
1E
100
AcDbEntity
  8
0
100
AcDbLine
 10
18.7224
 20
43.33933499999999
 30
0.0
 11
19.0284
 21
41.26733499999999
 31
0.0
  0
LINE
  5
21D
330
1E
100
AcDbEntity
  8
0
100
AcDbLine
 10
18.80258875549739
 20
46.32959128590679
 30
0.0
 11
18.8244
 21
46.478535
 31
0.0
  0
LINE
  5
21E
330
1E
100
AcDbEntity
  8
0
100
AcDbLine
 10
18.7224
 20
50.291035
 30
0.0
 11
19.0284
 21
48.168135
 31
0.0
  0
LINE
  5
21F
330
1E
100
AcDbEntity
  8
0
100
AcDbLine
 10
18.7224
 20
46.884335
 30
0.0
 11
19.0284
 21
44.767435
 31
0.0
  0
LINE
  5
220
330
1E
100
AcDbEntity
  8
0
100
AcDbLine
 10
18.5184
 20
45.06953499999999
 30
0.0
 11
18.8244
 21
42.98573499999999
 31
0.0
  0
LINE
  5
221
330
1E
100
AcDbEntity
  8
0
100
AcDbLine
 10
18.7995804990736
 20
42.81672717620779
 30
0.0
 11
18.8244
 21
42.98573499999999
 31
0.0
  0
LINE
  5
222
330
1E
100
AcDbEntity
  8
0
100
AcDbLine
 10
18.90002247328819
 20
45.65554737351699
 30
0.0
 11
19.0284
 21
46.54613499999999
 31
0.0
  0
LINE
  5
223
330
1E
100
AcDbEntity
  8
0
100
AcDbLine
 10
18.89765892857139
 20
42.1526144117647
 30
0.0
 11
19.0284
 21
43.05703499999999
 31
0.0
  0
LINE
  5
224
330
1E
100
AcDbEntity
  8
0
100
AcDbLine
 10
18.91792608033729
 20
48.9345568433072
 30
0.0
 11
19.0284
 21
49.709535
 31
0.0
  0
LINE
  5
225
330
1E
100
AcDbEntity
  8
0
100
AcDbLine
 10
18.5184
 20
51.772035
 30
0.0
 11
18.8244
 21
49.65903499999999
 31
0.0
  0
LINE
  5
226
330
1E
100
AcDbEntity
  8
0
100
AcDbLine
 10
18.7224
 20
53.067135
 30
0.0
 11
19.0284
 21
50.920535
 31
0.0
  0
LINE
  5
227
330
1E
100
AcDbEntity
  8
0
100
AcDbLine
 10
18.7224
 20
55.46083499999999
 30
0.0
 11
19.0284
 21
53.310135
 31
0.0
  0
LINE
  5
228
330
1E
100
AcDbEntity
  8
0
100
AcDbLine
 10
18.5184
 20
54.259135
 30
0.0
 11
18.6731137706753
 21
53.18867749910561
 31
0.0
  0
LINE
  5
229
330
1E
100
AcDbEntity
  8
0
100
AcDbLine
 10
18.93809674687019
 20
51.55401527179229
 30
0.0
 11
19.0284
 21
52.188735
 31
0.0
  0
LINE
  5
22A
330
1E
100
AcDbEntity
  8
0
100
AcDbLine
 10
19.0284
 20
39.012135
 30
0.0
 11
19.0284
 21
41.26733499999999
 31
0.0
  0
LINE
  5
22B
330
1E
100
AcDbEntity
  8
0
100
AcDbLine
 10
19.0284
 20
41.26733499999999
 30
0.0
 11
19.0284
 21
39.012135
 31
0.0
  0
LINE
  5
22C
330
1E
100
AcDbEntity
  8
0
100
AcDbLine
 10
19.0284
 20
43.05703499999999
 30
0.0
 11
19.0284
 21
44.767435
 31
0.0
  0
LINE
  5
22D
330
1E
100
AcDbEntity
  8
0
100
AcDbLine
 10
19.0284
 20
46.54613499999999
 30
0.0
 11
19.0284
 21
48.168135
 31
0.0
  0
LINE
  5
22E
330
1E
100
AcDbEntity
  8
0
100
AcDbLine
 10
19.0284
 20
48.168135
 30
0.0
 11
19.0284
 21
46.54613499999999
 31
0.0
  0
LINE
  5
22F
330
1E
100
AcDbEntity
  8
0
100
AcDbLine
 10
19.0284
 20
44.767435
 30
0.0
 11
19.0284
 21
43.05703499999999
 31
0.0
  0
LINE
  5
230
330
1E
100
AcDbEntity
  8
0
100
AcDbLine
 10
19.0284
 20
49.709535
 30
0.0
 11
19.0284
 21
50.920535
 31
0.0
  0
LINE
  5
231
330
1E
100
AcDbEntity
  8
0
100
AcDbLine
 10
19.0284
 20
50.920535
 30
0.0
 11
19.0284
 21
49.709535
 31
0.0
  0
LINE
  5
232
330
1E
100
AcDbEntity
  8
0
100
AcDbLine
 10
19.0284
 20
52.188735
 30
0.0
 11
19.0284
 21
53.310135
 31
0.0
  0
LINE
  5
233
330
1E
100
AcDbEntity
  8
0
100
AcDbLine
 10
19.0284
 20
53.310135
 30
0.0
 11
19.0284
 21
52.188735
 31
0.0
  0
LINE
  5
234
330
1E
100
AcDbEntity
  8
0
100
AcDbLine
 10
19.0284
 20
54.52293499999999
 30
0.0
 11
19.0284
 21
55.549435
 31
0.0
  0
LINE
  5
235
330
1E
100
AcDbEntity
  8
0
100
AcDbLine
 10
19.0284
 20
55.549435
 30
0.0
 11
19.0284
 21
54.52293499999999
 31
0.0
  0
LINE
  5
236
330
1E
100
AcDbEntity
  8
0
100
AcDbLine
 10
18.94220602006689
 20
53.9159434726867
 30
0.0
 11
19.0284
 21
54.52293499999999
 31
0.0
  0
LINE
  5
237
330
1E
100
AcDbEntity
  8
0
100
AcDbLine
 10
18.7224
 20
57.704335
 30
0.0
 11
19.0284
 21
55.549435
 31
0.0
  0
LINE
  5
238
330
1E
100
AcDbEntity
  8
0
100
AcDbLine
 10
18.5184
 20
56.601335
 30
0.0
 11
18.6610602688546
 21
55.6124102866196
 31
0.0
  0
LINE
  5
239
330
1E
100
AcDbEntity
  8
0
100
AcDbLine
 10
18.7224
 20
59.285635
 30
0.0
 11
19.0284
 21
57.111735
 31
0.0
  0
LINE
  5
23A
330
1E
100
AcDbEntity
  8
0
100
AcDbLine
 10
18.5184
 20
58.918235
 30
0.0
 11
18.52655584887489
 21
58.86119736407739
 31
0.0
  0
LINE
  5
23B
330
1E
100
AcDbEntity
  8
0
100
AcDbLine
 10
19.0284
 20
56.791635
 30
0.0
 11
19.0284
 21
57.111735
 31
0.0
  0
LINE
  5
23C
330
1E
100
AcDbEntity
  8
0
100
AcDbLine
 10
19.0284
 20
57.111735
 30
0.0
 11
19.0284
 21
56.791635
 31
0.0
  0
LINE
  5
23D
330
1E
100
AcDbEntity
  8
0
100
AcDbLine
 10
18.9866928849118
 20
56.4953236660072
 30
0.0
 11
19.0284
 21
56.791635
 31
0.0
  0
LINE
  5
23E
330
1E
100
AcDbEntity
  8
0
100
AcDbLine
 10
18.7224
 20
58.372235
 30
0.0
 11
19.0284
 21
56.199135
 31
0.0
  0
LINE
  5
23F
330
1E
100
AcDbEntity
  8
0
100
AcDbLine
 10
19.0284
 20
55.81793499999999
 30
0.0
 11
19.0284
 21
56.199135
 31
0.0
  0
LINE
  5
240
330
1E
100
AcDbEntity
  8
0
100
AcDbLine
 10
19.0284
 20
56.199135
 30
0.0
 11
19.0284
 21
55.81793499999999
 31
0.0
  0
LINE
  5
241
330
1E
100
AcDbEntity
  8
0
100
AcDbLine
 10
19.00941640480589
 20
55.6831204551756
 30
0.0
 11
19.0284
 21
55.81793499999999
 31
0.0
  0
LINE
  5
249
330
1E
100
AcDbEntity
  8
0
100
AcDbLine
 10
1.79748
 20
59.432635
 30
0.0
 11
1.491479999999999
 21
57.25663499999999
 31
0.0
  0
ENDSEC
  0
SECTION
  2
OBJECTS
  0
DICTIONARY
  5
C
330
0
100
AcDbDictionary
  3
ACAD_GROUP
350
D
  3
ACAD_LAYOUT
350
19
  3
ACAD_MLINESTYLE
350
16
  3
ACAD_PLOTSETTINGS
350
18
  3
ACAD_PLOTSTYLENAME
350
E
  3
ACDBHEADERROUNDTRIPXREC
350
24D
  3
ACDBVARIABLEDICTIONARY
350
24A
  0
DICTIONARY
  5
26F
330
1E
100
AcDbDictionary
280
     1
  3
ACAD_LAYOUTSELFREF
360
270
  0
DICTIONARY
  5
26D
330
1A
100
AcDbDictionary
280
     1
  3
ACAD_LAYOUTSELFREF
360
26E
  0
DICTIONARY
  5
D
102
{ACAD_REACTORS
330
C
102
}
330
C
100
AcDbDictionary
  0
DICTIONARY
  5
19
102
{ACAD_REACTORS
330
C
102
}
330
C
100
AcDbDictionary
  0
DICTIONARY
  5
16
102
{ACAD_REACTORS
330
C
102
}
330
C
100
AcDbDictionary
  3
STANDARD
350
17
  0
DICTIONARY
  5
18
102
{ACAD_REACTORS
330
C
102
}
330
C
100
AcDbDictionary
  0
ACDBDICTIONARYWDFLT
  5
E
102
{ACAD_REACTORS
330
C
102
}
330
C
100
AcDbDictionary
281
     1
  3
Normal
350
F
100
AcDbDictionaryWithDefault
340
F
  0
DICTIONARY
  5
24D
102
{ACAD_REACTORS
330
C
102
}
330
C
100
AcDbDictionary
  3
CEPSNTYPE
350
257
  3
FINGERPRINTGUID
350
258
  3
HYPERLINKBASE
350
250
  3
INSUNITS
350
256
  3
LAYOUTDICT
350
252
  3
LWETCUNION
350
255
  3
PLOTSETDICT
350
253
  3
PLOTSTYLNAMDICT
350
254
  3
PSVPSCALE
350
25A
  3
PUCSBASE
350
25D
  3
PUCSORGBACK
350
263
  3
PUCSORGBOTTOM
350
25F
  3
PUCSORGFRONT
350
262
  3
PUCSORGLEFT
350
260
  3
PUCSORGRIGHT
350
261
  3
PUCSORGTOP
350
25E
  3
PUCSORTHOREF
350
25B
  3
PUCSORTHOVIEW
350
25C
  3
STYLESHEET
350
251
  3
TSTACKALIGN
350
24E
  3
TSTACKSIZE
350
24F
  3
UCSBASE
350
266
  3
UCSORGBACK
350
26C
  3
UCSORGBOTTOM
350
268
  3
UCSORGFRONT
350
26B
  3
UCSORGLEFT
350
269
  3
UCSORGRIGHT
350
26A
  3
UCSORGTOP
350
267
  3
UCSORTHOREF
350
264
  3
UCSORTHOVIEW
350
265
  3
VERSIONGUID
350
259
  0
DICTIONARY
  5
24A
102
{ACAD_REACTORS
330
C
102
}
330
C
100
AcDbDictionary
  3
DIMASSOC
350
24B
  0
XRECORD
  5
270
102
{ACAD_REACTORS
330
26F
102
}
330
26F
100
AcDbXrecord
340
1E
  0
XRECORD
  5
26E
102
{ACAD_REACTORS
330
26D
102
}
330
26D
100
AcDbXrecord
340
1A
  0
MLINESTYLE
  5
17
102
{ACAD_REACTORS
330
16
102
}
330
16
100
AcDbMlineStyle
  2
STANDARD
 70
     0
  3

 62
   256
 51
90.0
 52
90.0
 71
     2
 49
0.5
 62
   256
  6
BYLAYER
 49
-0.5
 62
   256
  6
BYLAYER
  0
ACDBPLACEHOLDER
  5
F
102
{ACAD_REACTORS
330
E
102
}
330
E
100
AcDbPlaceHolder
280
     0
  0
XRECORD
  5
257
102
{ACAD_REACTORS
330
24D
102
}
330
24D
100
AcDbXrecord
 90
        0
  0
XRECORD
  5
258
102
{ACAD_REACTORS
330
24D
102
}
330
24D
100
AcDbXrecord
  1
{FDD2592B-C3DC-4CDA-AEF1-ABD12FE0AD9B}
  0
XRECORD
  5
250
102
{ACAD_REACTORS
330
24D
102
}
330
24D
100
AcDbXrecord
  1

  0
XRECORD
  5
256
102
{ACAD_REACTORS
330
24D
102
}
330
24D
100
AcDbXrecord
 90
        0
  0
XRECORD
  5
252
102
{ACAD_REACTORS
330
24D
102
}
330
24D
100
AcDbXrecord
340
19
  0
XRECORD
  5
255
102
{ACAD_REACTORS
330
24D
102
}
330
24D
100
AcDbXrecord
 90
    10781
  0
XRECORD
  5
253
102
{ACAD_REACTORS
330
24D
102
}
330
24D
100
AcDbXrecord
340
18
  0
XRECORD
  5
254
102
{ACAD_REACTORS
330
24D
102
}
330
24D
100
AcDbXrecord
340
E
  0
XRECORD
  5
25A
102
{ACAD_REACTORS
330
24D
102
}
330
24D
100
AcDbXrecord
 40
0.0
  0
XRECORD
  5
25D
102
{ACAD_REACTORS
330
24D
102
}
330
24D
100
AcDbXrecord
340
0
  0
XRECORD
  5
263
102
{ACAD_REACTORS
330
24D
102
}
330
24D
100
AcDbXrecord
 10
0.0
 20
0.0
 30
0.0
  0
XRECORD
  5
25F
102
{ACAD_REACTORS
330
24D
102
}
330
24D
100
AcDbXrecord
 10
0.0
 20
0.0
 30
0.0
  0
XRECORD
  5
262
102
{ACAD_REACTORS
330
24D
102
}
330
24D
100
AcDbXrecord
 10
0.0
 20
0.0
 30
0.0
  0
XRECORD
  5
260
102
{ACAD_REACTORS
330
24D
102
}
330
24D
100
AcDbXrecord
 10
0.0
 20
0.0
 30
0.0
  0
XRECORD
  5
261
102
{ACAD_REACTORS
330
24D
102
}
330
24D
100
AcDbXrecord
 10
0.0
 20
0.0
 30
0.0
  0
XRECORD
  5
25E
102
{ACAD_REACTORS
330
24D
102
}
330
24D
100
AcDbXrecord
 10
0.0
 20
0.0
 30
0.0
  0
XRECORD
  5
25B
102
{ACAD_REACTORS
330
24D
102
}
330
24D
100
AcDbXrecord
340
0
  0
XRECORD
  5
25C
102
{ACAD_REACTORS
330
24D
102
}
330
24D
100
AcDbXrecord
 70
     0
  0
XRECORD
  5
251
102
{ACAD_REACTORS
330
24D
102
}
330
24D
100
AcDbXrecord
  1

  0
XRECORD
  5
24E
102
{ACAD_REACTORS
330
24D
102
}
330
24D
100
AcDbXrecord
 90
        1
  0
XRECORD
  5
24F
102
{ACAD_REACTORS
330
24D
102
}
330
24D
100
AcDbXrecord
 90
       70
  0
XRECORD
  5
266
102
{ACAD_REACTORS
330
24D
102
}
330
24D
100
AcDbXrecord
340
0
  0
XRECORD
  5
26C
102
{ACAD_REACTORS
330
24D
102
}
330
24D
100
AcDbXrecord
 10
0.0
 20
0.0
 30
0.0
  0
XRECORD
  5
268
102
{ACAD_REACTORS
330
24D
102
}
330
24D
100
AcDbXrecord
 10
0.0
 20
0.0
 30
0.0
  0
XRECORD
  5
26B
102
{ACAD_REACTORS
330
24D
102
}
330
24D
100
AcDbXrecord
 10
0.0
 20
0.0
 30
0.0
  0
XRECORD
  5
269
102
{ACAD_REACTORS
330
24D
102
}
330
24D
100
AcDbXrecord
 10
0.0
 20
0.0
 30
0.0
  0
XRECORD
  5
26A
102
{ACAD_REACTORS
330
24D
102
}
330
24D
100
AcDbXrecord
 10
0.0
 20
0.0
 30
0.0
  0
XRECORD
  5
267
102
{ACAD_REACTORS
330
24D
102
}
330
24D
100
AcDbXrecord
 10
0.0
 20
0.0
 30
0.0
  0
XRECORD
  5
264
102
{ACAD_REACTORS
330
24D
102
}
330
24D
100
AcDbXrecord
340
0
  0
XRECORD
  5
265
102
{ACAD_REACTORS
330
24D
102
}
330
24D
100
AcDbXrecord
 70
     1
  0
XRECORD
  5
259
102
{ACAD_REACTORS
330
24D
102
}
330
24D
100
AcDbXrecord
  1
{D1786020-876D-4A5D-A304-1B697D21024A}
  0
DICTIONARYVAR
  5
24B
102
{ACAD_REACTORS
330
24A
102
}
330
24A
100
DictionaryVariables
280
     0
  1
1
  0
ENDSEC
  0
EOF
