  0
SECTION
  2
HEADER
  9
$ACADVER
  1
AC1014
  9
$ACADMAINTVER
 70
     9
  9
$DWGCODEPAGE
  3
ANSI_1252
  9
$INSBASE
 10
0.0
 20
0.0
 30
0.0
  9
$EXTMIN
 10
-0.0000000000000004
 20
0.0000000000000031
 30
0.0
  9
$EXTMAX
 10
38.0
 20
152.0
 30
0.0
  9
$LIMMIN
 10
0.0
 20
0.0
  9
$LIMMAX
 10
12.0
 20
9.0
  9
$ORTHOMODE
 70
     0
  9
$REGENMODE
 70
     1
  9
$FILLMODE
 70
     1
  9
$QTEXTMODE
 70
     0
  9
$MIRRTEXT
 70
     1
  9
$DRAGMODE
 70
     2
  9
$LTSCALE
 40
1.0
  9
$OSMODE
 70
    37
  9
$ATTMODE
 70
     1
  9
$TEXTSIZE
 40
0.2
  9
$TRACEWID
 40
0.05
  9
$TEXTSTYLE
  7
STANDARD
  9
$CLAYER
  8
0
  9
$CELTYPE
  6
CONTINUOUS
  9
$CECOLOR
 62
   256
  9
$CELTSCALE
 40
1.0
  9
$DELOBJ
 70
     1
  9
$DISPSILH
 70
     0
  9
$DIMSCALE
 40
1.0
  9
$DIMASZ
 40
0.18
  9
$DIMEXO
 40
0.0625
  9
$DIMDLI
 40
0.38
  9
$DIMRND
 40
0.0
  9
$DIMDLE
 40
0.0
  9
$DIMEXE
 40
0.18
  9
$DIMTP
 40
0.0
  9
$DIMTM
 40
0.0
  9
$DIMTXT
 40
0.18
  9
$DIMCEN
 40
0.09
  9
$DIMTSZ
 40
0.0
  9
$DIMTOL
 70
     0
  9
$DIMLIM
 70
     0
  9
$DIMTIH
 70
     1
  9
$DIMTOH
 70
     1
  9
$DIMSE1
 70
     0
  9
$DIMSE2
 70
     0
  9
$DIMTAD
 70
     0
  9
$DIMZIN
 70
     0
  9
$DIMBLK
  1

  9
$DIMASO
 70
     1
  9
$DIMSHO
 70
     1
  9
$DIMPOST
  1

  9
$DIMAPOST
  1

  9
$DIMALT
 70
     0
  9
$DIMALTD
 70
     2
  9
$DIMALTF
 40
25.4
  9
$DIMLFAC
 40
1.0
  9
$DIMTOFL
 70
     0
  9
$DIMTVP
 40
0.0
  9
$DIMTIX
 70
     0
  9
$DIMSOXD
 70
     0
  9
$DIMSAH
 70
     0
  9
$DIMBLK1
  1

  9
$DIMBLK2
  1

  9
$DIMSTYLE
  2
STANDARD
  9
$DIMCLRD
 70
     0
  9
$DIMCLRE
 70
     0
  9
$DIMCLRT
 70
     0
  9
$DIMTFAC
 40
1.0
  9
$DIMGAP
 40
0.09
  9
$DIMJUST
 70
     0
  9
$DIMSD1
 70
     0
  9
$DIMSD2
 70
     0
  9
$DIMTOLJ
 70
     1
  9
$DIMTZIN
 70
     0
  9
$DIMALTZ
 70
     0
  9
$DIMALTTZ
 70
     0
  9
$DIMFIT
 70
     3
  9
$DIMUPT
 70
     0
  9
$DIMUNIT
 70
     2
  9
$DIMDEC
 70
     4
  9
$DIMTDEC
 70
     4
  9
$DIMALTU
 70
     2
  9
$DIMALTTD
 70
     2
  9
$DIMTXSTY
  7
STANDARD
  9
$DIMAUNIT
 70
     0
  9
$LUNITS
 70
     2
  9
$LUPREC
 70
     4
  9
$SKETCHINC
 40
0.1
  9
$FILLETRAD
 40
0.0
  9
$AUNITS
 70
     0
  9
$AUPREC
 70
     0
  9
$MENU
  1
.
  9
$ELEVATION
 40
0.0
  9
$PELEVATION
 40
0.0
  9
$THICKNESS
 40
0.0
  9
$LIMCHECK
 70
     0
  9
$BLIPMODE
 70
     0
  9
$CHAMFERA
 40
0.0
  9
$CHAMFERB
 40
0.0
  9
$CHAMFERC
 40
0.0
  9
$CHAMFERD
 40
0.0
  9
$SKPOLY
 70
     0
  9
$TDCREATE
 40
2454697.423305475
  9
$TDUPDATE
 40
2454697.425427152
  9
$TDINDWG
 40
0.0021218519
  9
$TDUSRTIMER
 40
0.0021218519
  9
$USRTIMER
 70
     1
  9
$ANGBASE
 50
0.0
  9
$ANGDIR
 70
     0
  9
$PDMODE
 70
     0
  9
$PDSIZE
 40
0.0
  9
$PLINEWID
 40
0.0
  9
$COORDS
 70
     1
  9
$SPLFRAME
 70
     0
  9
$SPLINETYPE
 70
     6
  9
$SPLINESEGS
 70
     8
  9
$ATTDIA
 70
     0
  9
$ATTREQ
 70
     1
  9
$HANDLING
 70
 22529
  9
$HANDSEED
  5
E7
  9
$SURFTAB1
 70
     6
  9
$SURFTAB2
 70
     6
  9
$SURFTYPE
 70
     6
  9
$SURFU
 70
     6
  9
$SURFV
 70
     6
  9
$UCSNAME
  2

  9
$UCSORG
 10
0.0
 20
0.0
 30
0.0
  9
$UCSXDIR
 10
1.0
 20
0.0
 30
0.0
  9
$UCSYDIR
 10
0.0
 20
1.0
 30
0.0
  9
$PUCSNAME
  2

  9
$PUCSORG
 10
0.0
 20
0.0
 30
0.0
  9
$PUCSXDIR
 10
1.0
 20
0.0
 30
0.0
  9
$PUCSYDIR
 10
0.0
 20
1.0
 30
0.0
  9
$USERI1
 70
     0
  9
$USERI2
 70
     0
  9
$USERI3
 70
     0
  9
$USERI4
 70
     0
  9
$USERI5
 70
     0
  9
$USERR1
 40
0.0
  9
$USERR2
 40
0.0
  9
$USERR3
 40
0.0
  9
$USERR4
 40
0.0
  9
$USERR5
 40
0.0
  9
$WORLDVIEW
 70
     1
  9
$SHADEDGE
 70
     3
  9
$SHADEDIF
 70
    70
  9
$TILEMODE
 70
     1
  9
$MAXACTVP
 70
    64
  9
$PINSBASE
 10
0.0
 20
0.0
 30
0.0
  9
$PLIMCHECK
 70
     0
  9
$PEXTMIN
 10
1.000000000000000E+20
 20
1.000000000000000E+20
 30
1.000000000000000E+20
  9
$PEXTMAX
 10
-1.000000000000000E+20
 20
-1.000000000000000E+20
 30
-1.000000000000000E+20
  9
$PLIMMIN
 10
0.0
 20
0.0
  9
$PLIMMAX
 10
12.0
 20
9.0
  9
$UNITMODE
 70
     0
  9
$VISRETAIN
 70
     1
  9
$PLINEGEN
 70
     0
  9
$PSLTSCALE
 70
     1
  9
$TREEDEPTH
 70
  3020
  9
$PICKSTYLE
 70
     1
  9
$CMLSTYLE
  2
STANDARD
  9
$CMLJUST
 70
     0
  9
$CMLSCALE
 40
1.0
  9
$PROXYGRAPHICS
 70
     1
  9
$MEASUREMENT
 70
     0
  0
ENDSEC
  0
SECTION
  2
CLASSES
  0
CLASS
  1
ACDBDICTIONARYWDFLT
  2
AcDbDictionaryWithDefault
  3
AutoCAD 2000
 90
        0
280
     0
281
     0
  0
CLASS
  1
ACDBPLACEHOLDER
  2
AcDbPlaceHolder
  3
AutoCAD 2000
 90
        0
280
     0
281
     0
  0
CLASS
  1
LAYOUT
  2
AcDbLayout
  3
AutoCAD 2000
 90
        0
280
     0
281
     0
  0
CLASS
  1
DICTIONARYVAR
  2
AcDbDictionaryVar
  3
AutoCAD 2000
 90
        0
280
     0
281
     0
  0
CLASS
  1
LONG_TRANSACTION
  2
AcDbLongTransaction
  3
AutoCAD 2000
 90
        0
280
     0
281
     0
  0
CLASS
  1
LWPOLYLINE
  2
AcDbPolyline
  3
AutoCAD 2000
 90
        0
280
     0
281
     1
  0
CLASS
  1
HATCH
  2
AcDbHatch
  3
AutoCAD 2000
 90
        0
280
     0
281
     1
  0
CLASS
  1
XRECORD
  2
AcDbXrecord
  3
AutoCAD 2000
 90
        0
280
     0
281
     0
  0
ENDSEC
  0
SECTION
  2
TABLES
  0
TABLE
  2
VPORT
  5
8
330
0
100
AcDbSymbolTable
 70
     2
  0
VPORT
  5
C2
330
8
100
AcDbSymbolTableRecord
100
AcDbViewportTableRecord
  2
*ACTIVE
 70
     0
 10
0.0
 20
0.0
 11
1.0
 21
1.0
 12
19.0
 22
76.0
 13
0.0
 23
0.0
 14
1.0
 24
1.0
 15
0.0
 25
0.0
 16
0.0
 26
0.0
 36
1.0
 17
0.0
 27
0.0
 37
0.0
 40
153.1662404092071
 41
2.078104993597951
 42
50.0
 43
0.0
 44
0.0
 50
0.0
 51
0.0
 71
     0
 72
   100
 73
     1
 74
     3
 75
     0
 76
     0
 77
     0
 78
     0
  0
ENDTAB
  0
TABLE
  2
LTYPE
  5
5
330
0
100
AcDbSymbolTable
 70
     1
  0
LTYPE
  5
13
330
5
100
AcDbSymbolTableRecord
100
AcDbLinetypeTableRecord
  2
BYBLOCK
 70
     0
  3

 72
    65
 73
     0
 40
0.0
  0
LTYPE
  5
14
330
5
100
AcDbSymbolTableRecord
100
AcDbLinetypeTableRecord
  2
BYLAYER
 70
     0
  3

 72
    65
 73
     0
 40
0.0
  0
LTYPE
  5
15
330
5
100
AcDbSymbolTableRecord
100
AcDbLinetypeTableRecord
  2
CONTINUOUS
 70
     0
  3
Solid line
 72
    65
 73
     0
 40
0.0
  0
ENDTAB
  0
TABLE
  2
LAYER
  5
2
330
0
100
AcDbSymbolTable
 70
     1
  0
LAYER
  5
10
330
2
100
AcDbSymbolTableRecord
100
AcDbLayerTableRecord
  2
0
 70
     0
 62
     7
  6
CONTINUOUS
  0
ENDTAB
  0
TABLE
  2
STYLE
  5
3
330
0
100
AcDbSymbolTable
 70
     1
  0
STYLE
  5
11
330
3
100
AcDbSymbolTableRecord
100
AcDbTextStyleTableRecord
  2
STANDARD
 70
     0
 40
0.0
 41
1.0
 50
0.0
 71
     0
 42
0.2
  3
txt
  4

  0
ENDTAB
  0
TABLE
  2
VIEW
  5
6
330
0
100
AcDbSymbolTable
 70
     0
  0
ENDTAB
  0
TABLE
  2
UCS
  5
7
330
0
100
AcDbSymbolTable
 70
     0
  0
ENDTAB
  0
TABLE
  2
APPID
  5
9
330
0
100
AcDbSymbolTable
 70
     1
  0
APPID
  5
12
330
9
100
AcDbSymbolTableRecord
100
AcDbRegAppTableRecord
  2
ACAD
 70
     0
  0
ENDTAB
  0
TABLE
  2
DIMSTYLE
  5
A
330
0
100
AcDbSymbolTable
 70
     1
  0
DIMSTYLE
105
BC
330
A
100
AcDbSymbolTableRecord
100
AcDbDimStyleTableRecord
  2
STANDARD
 70
     0
  3

  4

  5

  6

  7

 40
1.0
 41
0.18
 42
0.0625
 43
0.38
 44
0.18
 45
0.0
 46
0.0
 47
0.0
 48
0.0
140
0.18
141
0.09
142
0.0
143
25.4
144
1.0
145
0.0
146
1.0
147
0.09
 71
     0
 72
     0
 73
     1
 74
     1
 75
     0
 76
     0
 77
     0
 78
     0
170
     0
171
     2
172
     0
173
     0
174
     0
175
     0
176
     0
177
     0
178
     0
270
     2
271
     4
272
     4
273
     2
274
     2
340
11
275
     0
280
     0
281
     0
282
     0
283
     1
284
     0
285
     0
286
     0
287
     3
288
     0
  0
ENDTAB
  0
TABLE
  2
BLOCK_RECORD
  5
1
330
0
100
AcDbSymbolTable
 70
     0
  0
BLOCK_RECORD
  5
1E
102
{ACAD_XDICTIONARY
360
E5
102
}
330
1
100
AcDbSymbolTableRecord
100
AcDbBlockTableRecord
  2
*MODEL_SPACE
  0
BLOCK_RECORD
  5
1A
102
{ACAD_XDICTIONARY
360
E3
102
}
330
1
100
AcDbSymbolTableRecord
100
AcDbBlockTableRecord
  2
*PAPER_SPACE
  0
ENDTAB
  0
ENDSEC
  0
SECTION
  2
BLOCKS
  0
BLOCK
  5
1F
330
1E
100
AcDbEntity
  8
0
100
AcDbBlockBegin
  2
*MODEL_SPACE
 70
     0
 10
0.0
 20
0.0
 30
0.0
  3
*MODEL_SPACE
  1

  0
ENDBLK
  5
20
330
1E
100
AcDbEntity
  8
0
100
AcDbBlockEnd
  0
BLOCK
  5
1B
330
1A
100
AcDbEntity
 67
     1
  8
0
100
AcDbBlockBegin
  2
*PAPER_SPACE
 70
     0
 10
0.0
 20
0.0
 30
0.0
  3
*PAPER_SPACE
  1

  0
ENDBLK
  5
1C
330
1A
100
AcDbEntity
 67
     1
  8
0
100
AcDbBlockEnd
  0
ENDSEC
  0
SECTION
  2
ENTITIES
  0
LINE
  5
22
330
1E
100
AcDbEntity
  8
0
100
AcDbLine
 10
-0.0000000000000004
 20
92.72
 30
0.0
 11
0.0000000000000032
 21
151.28
 31
0.0
  0
LINE
  5
23
330
1E
100
AcDbEntity
  8
0
100
AcDbLine
 10
-0.0000000000000004
 20
92.72
 30
0.0
 11
0.0000000000000032
 21
151.28
 31
0.0
  0
LINE
  5
24
330
1E
100
AcDbEntity
  8
0
100
AcDbLine
 10
-0.0000000000000004
 20
92.72
 30
0.0
 11
0.466482
 21
93.8
 31
0.0
  0
LINE
  5
25
330
1E
100
AcDbEntity
  8
0
100
AcDbLine
 10
-0.0000000000000004
 20
92.72
 30
0.0
 11
0.8999999999999989
 21
92.0
 31
0.0
  0
LINE
  5
26
330
1E
100
AcDbEntity
  8
0
100
AcDbLine
 10
0.0000000000000032
 20
151.28
 30
0.0
 11
0.900000000000003
 21
152.0
 31
0.0
  0
LINE
  5
27
330
1E
100
AcDbEntity
  8
0
100
AcDbLine
 10
0.466482
 20
93.8
 30
0.0
 11
1.712849999999999
 21
96.68000000000001
 31
0.0
  0
LINE
  5
28
330
1E
100
AcDbEntity
  8
0
100
AcDbLine
 10
0.466482000000003
 20
150.1999999999999
 30
0.0
 11
1.712849999999999
 21
147.32
 31
0.0
  0
LINE
  5
29
330
1E
100
AcDbEntity
  8
0
100
AcDbLine
 10
0.466482000000003
 20
150.1999999999999
 30
0.0
 11
1.712849999999999
 21
147.32
 31
0.0
  0
LINE
  5
2A
330
1E
100
AcDbEntity
  8
0
100
AcDbLine
 10
0.466482
 20
93.8
 30
0.0
 11
1.712849999999999
 21
96.68000000000001
 31
0.0
  0
LINE
  5
2B
330
1E
100
AcDbEntity
  8
0
100
AcDbLine
 10
0.0000000000000032
 20
151.28
 30
0.0
 11
0.466482000000003
 21
150.1999999999999
 31
0.0
  0
LINE
  5
2C
330
1E
100
AcDbEntity
  8
0
100
AcDbLine
 10
-0.0000000000000004
 20
92.72
 30
0.0
 11
0.8999999999999989
 21
92.0
 31
0.0
  0
LINE
  5
2D
330
1E
100
AcDbEntity
  8
0
100
AcDbLine
 10
-0.0000000000000004
 20
92.72
 30
0.0
 11
0.466482
 21
93.8
 31
0.0
  0
LINE
  5
2F
330
1E
100
AcDbEntity
  8
0
100
AcDbLine
 10
0.8999999999999989
 20
92.0
 30
0.0
 11
29.0
 21
92.0
 31
0.0
  0
LINE
  5
30
330
1E
100
AcDbEntity
  8
0
100
AcDbLine
 10
0.8999999999999989
 20
92.0
 30
0.0
 11
29.0
 21
92.0
 31
0.0
  0
LINE
  5
31
330
1E
100
AcDbEntity
  8
0
100
AcDbLine
 10
0.900000000000003
 20
152.0
 30
0.0
 11
35.0
 21
152.0
 31
0.0
  0
LINE
  5
32
330
1E
100
AcDbEntity
  8
0
100
AcDbLine
 10
0.0000000000000032
 20
151.28
 30
0.0
 11
0.900000000000003
 21
152.0
 31
0.0
  0
LINE
  5
33
330
1E
100
AcDbEntity
  8
0
100
AcDbLine
 10
0.0000000000000032
 20
151.28
 30
0.0
 11
0.466482000000003
 21
150.1999999999999
 31
0.0
  0
LINE
  5
34
330
1E
100
AcDbEntity
  8
0
100
AcDbLine
 10
20.89999999999999
 20
0.0262500000000029
 30
0.0
 11
22.7
 21
0.101220000000003
 31
0.0
  0
LINE
  5
35
330
1E
100
AcDbEntity
  8
0
100
AcDbLine
 10
19.0
 20
0.0000000000000031
 30
0.0
 11
20.89999999999999
 21
0.0262500000000029
 31
0.0
  0
LINE
  5
36
330
1E
100
AcDbEntity
  8
0
100
AcDbLine
 10
8.5
 20
60.0
 30
0.0
 11
8.9
 21
60.0
 31
0.0
  0
LINE
  5
37
330
1E
100
AcDbEntity
  8
0
100
AcDbLine
 10
9.0
 20
90.0
 30
0.0
 11
9.0
 21
92.0
 31
0.0
  0
LINE
  5
38
330
1E
100
AcDbEntity
  8
0
100
AcDbLine
 10
7.9
 20
90.0
 30
0.0
 11
9.0
 21
90.0
 31
0.0
  0
LINE
  5
39
330
1E
100
AcDbEntity
  8
0
100
AcDbLine
 10
9.0
 20
90.0
 30
0.0
 11
10.9
 21
90.0
 31
0.0
  0
LINE
  5
3A
330
1E
100
AcDbEntity
  8
0
100
AcDbLine
 10
7.5
 20
90.0
 30
0.0
 11
8.5
 21
60.0
 31
0.0
  0
LINE
  5
3B
330
1E
100
AcDbEntity
  8
0
100
AcDbLine
 10
7.5
 20
90.0
 30
0.0
 11
7.9
 21
90.0
 31
0.0
  0
LINE
  5
3C
330
1E
100
AcDbEntity
  8
0
100
AcDbLine
 10
8.9
 20
60.0
 30
0.0
 11
9.9
 21
60.0
 31
0.0
  0
LINE
  5
3D
330
1E
100
AcDbEntity
  8
0
100
AcDbLine
 10
10.9
 20
90.0
 30
0.0
 11
13.3
 21
90.0
 31
0.0
  0
LINE
  5
3E
330
1E
100
AcDbEntity
  8
0
100
AcDbLine
 10
9.9
 20
60.0
 30
0.0
 11
11.5
 21
60.0
 31
0.0
  0
LINE
  5
3F
330
1E
100
AcDbEntity
  8
0
100
AcDbLine
 10
9.9
 20
60.0
 30
0.0
 11
11.59999999999999
 21
60.0
 31
0.0
  0
LINE
  5
40
330
1E
100
AcDbEntity
  8
0
100
AcDbLine
 10
11.5
 20
4.261769999999999
 30
0.0
 11
11.5
 21
60.0
 31
0.0
  0
LINE
  5
41
330
1E
100
AcDbEntity
  8
0
100
AcDbLine
 10
11.59999999999999
 20
60.0
 30
0.0
 11
13.8
 21
60.0
 31
0.0
  0
LINE
  5
42
330
1E
100
AcDbEntity
  8
0
100
AcDbLine
 10
11.5
 20
60.0
 30
0.0
 11
11.8
 21
60.0
 31
0.0
  0
LINE
  5
43
330
1E
100
AcDbEntity
  8
0
100
AcDbLine
 10
11.8
 20
60.0
 30
0.0
 11
12.5
 21
60.0
 31
0.0
  0
LINE
  5
44
330
1E
100
AcDbEntity
  8
0
100
AcDbLine
 10
11.8
 20
5.611139999999999
 30
0.0
 11
12.5
 21
6.810579999999999
 31
0.0
  0
LINE
  5
45
330
1E
100
AcDbEntity
  8
0
100
AcDbLine
 10
11.5
 20
4.261769999999999
 30
0.0
 11
11.8
 21
2.275199999999999
 31
0.0
  0
LINE
  5
46
330
1E
100
AcDbEntity
  8
0
100
AcDbLine
 10
11.5
 20
4.261769999999999
 30
0.0
 11
11.5
 21
60.0
 31
0.0
  0
LINE
  5
47
330
1E
100
AcDbEntity
  8
0
100
AcDbLine
 10
11.5
 20
4.261769999999999
 30
0.0
 11
11.8
 21
5.611139999999999
 31
0.0
  0
LINE
  5
48
330
1E
100
AcDbEntity
  8
0
100
AcDbLine
 10
11.8
 20
2.275199999999999
 30
0.0
 11
12.5
 21
1.15073
 31
0.0
  0
LINE
  5
49
330
1E
100
AcDbEntity
  8
0
100
AcDbLine
 10
12.5
 20
6.810579999999999
 30
0.0
 11
13.7
 21
8.010019999999999
 31
0.0
  0
LINE
  5
4A
330
1E
100
AcDbEntity
  8
0
100
AcDbLine
 10
13.7
 20
8.010019999999999
 30
0.0
 11
15.3
 21
9.05953
 31
0.0
  0
LINE
  5
4B
330
1E
100
AcDbEntity
  8
0
100
AcDbLine
 10
13.3
 20
90.0
 30
0.0
 11
16.0
 21
90.0
 31
0.0
  0
LINE
  5
4C
330
1E
100
AcDbEntity
  8
0
100
AcDbLine
 10
12.5
 20
60.0
 30
0.0
 11
13.7
 21
60.0
 31
0.0
  0
LINE
  5
4D
330
1E
100
AcDbEntity
  8
0
100
AcDbLine
 10
13.8
 20
60.0
 30
0.0
 11
16.3
 21
60.0
 31
0.0
  0
LINE
  5
4E
330
1E
100
AcDbEntity
  8
0
100
AcDbLine
 10
13.7
 20
60.0
 30
0.0
 11
15.3
 21
60.0
 31
0.0
  0
LINE
  5
4F
330
1E
100
AcDbEntity
  8
0
100
AcDbLine
 10
15.3
 20
9.05953
 30
0.0
 11
17.1
 21
9.771699999999999
 31
0.0
  0
LINE
  5
50
330
1E
100
AcDbEntity
  8
0
100
AcDbLine
 10
12.5
 20
1.15073
 30
0.0
 11
13.7
 21
0.476040000000003
 31
0.0
  0
LINE
  5
51
330
1E
100
AcDbEntity
  8
0
100
AcDbLine
 10
13.7
 20
0.476040000000003
 30
0.0
 11
15.3
 21
0.101220000000003
 31
0.0
  0
LINE
  5
52
330
1E
100
AcDbEntity
  8
0
100
AcDbLine
 10
24.3
 20
0.476040000000003
 30
0.0
 11
25.5
 21
1.15073
 31
0.0
  0
LINE
  5
53
330
1E
100
AcDbEntity
  8
0
100
AcDbLine
 10
22.7
 20
0.101220000000003
 30
0.0
 11
24.3
 21
0.476040000000003
 31
0.0
  0
LINE
  5
54
330
1E
100
AcDbEntity
  8
0
100
AcDbLine
 10
26.2
 20
2.275199999999999
 30
0.0
 11
26.5
 21
4.261769999999999
 31
0.0
  0
LINE
  5
55
330
1E
100
AcDbEntity
  8
0
100
AcDbLine
 10
25.5
 20
1.15073
 30
0.0
 11
26.2
 21
2.275199999999999
 31
0.0
  0
LINE
  5
56
330
1E
100
AcDbEntity
  8
0
100
AcDbLine
 10
26.5
 20
4.261769999999999
 30
0.0
 11
26.5
 21
60.0
 31
0.0
  0
LINE
  5
57
330
1E
100
AcDbEntity
  8
0
100
AcDbLine
 10
26.5
 20
4.261769999999999
 30
0.0
 11
26.5
 21
60.0
 31
0.0
  0
LINE
  5
58
330
1E
100
AcDbEntity
  8
0
100
AcDbLine
 10
26.2
 20
5.611139999999999
 30
0.0
 11
26.5
 21
4.261769999999999
 31
0.0
  0
LINE
  5
59
330
1E
100
AcDbEntity
  8
0
100
AcDbLine
 10
25.5
 20
6.810579999999999
 30
0.0
 11
26.2
 21
5.611139999999999
 31
0.0
  0
LINE
  5
5A
330
1E
100
AcDbEntity
  8
0
100
AcDbLine
 10
24.3
 20
8.010019999999999
 30
0.0
 11
25.5
 21
6.810579999999999
 31
0.0
  0
LINE
  5
5B
330
1E
100
AcDbEntity
  8
0
100
AcDbLine
 10
22.7
 20
9.05953
 30
0.0
 11
24.3
 21
8.010019999999999
 31
0.0
  0
LINE
  5
5C
330
1E
100
AcDbEntity
  8
0
100
AcDbLine
 10
20.89999999999999
 20
9.771699999999999
 30
0.0
 11
22.7
 21
9.05953
 31
0.0
  0
LINE
  5
5D
330
1E
100
AcDbEntity
  8
0
100
AcDbLine
 10
16.3
 20
60.0
 30
0.0
 11
19.0
 21
60.0
 31
0.0
  0
LINE
  5
5E
330
1E
100
AcDbEntity
  8
0
100
AcDbLine
 10
16.0
 20
90.0
 30
0.0
 11
19.0
 21
90.0
 31
0.0
  0
LINE
  5
5F
330
1E
100
AcDbEntity
  8
0
100
AcDbLine
 10
15.3
 20
60.0
 30
0.0
 11
17.1
 21
60.0
 31
0.0
  0
LINE
  5
60
330
1E
100
AcDbEntity
  8
0
100
AcDbLine
 10
21.69999999999999
 20
60.0
 30
0.0
 11
24.19999999999999
 21
60.0
 31
0.0
  0
LINE
  5
61
330
1E
100
AcDbEntity
  8
0
100
AcDbLine
 10
24.19999999999999
 20
60.0
 30
0.0
 11
26.4
 21
60.0
 31
0.0
  0
LINE
  5
62
330
1E
100
AcDbEntity
  8
0
100
AcDbLine
 10
26.4
 20
60.0
 30
0.0
 11
28.1
 21
60.0
 31
0.0
  0
LINE
  5
63
330
1E
100
AcDbEntity
  8
0
100
AcDbLine
 10
29.1
 20
60.0
 30
0.0
 11
29.5
 21
60.0
 31
0.0
  0
LINE
  5
64
330
1E
100
AcDbEntity
  8
0
100
AcDbLine
 10
29.5
 20
60.0
 30
0.0
 11
30.5
 21
90.0
 31
0.0
  0
LINE
  5
65
330
1E
100
AcDbEntity
  8
0
100
AcDbLine
 10
28.1
 20
60.0
 30
0.0
 11
29.1
 21
60.0
 31
0.0
  0
LINE
  5
66
330
1E
100
AcDbEntity
  8
0
100
AcDbLine
 10
26.5
 20
60.0
 30
0.0
 11
28.1
 21
60.0
 31
0.0
  0
LINE
  5
67
330
1E
100
AcDbEntity
  8
0
100
AcDbLine
 10
26.2
 20
60.0
 30
0.0
 11
26.5
 21
60.0
 31
0.0
  0
LINE
  5
68
330
1E
100
AcDbEntity
  8
0
100
AcDbLine
 10
25.5
 20
60.0
 30
0.0
 11
26.2
 21
60.0
 31
0.0
  0
LINE
  5
69
330
1E
100
AcDbEntity
  8
0
100
AcDbLine
 10
24.3
 20
60.0
 30
0.0
 11
25.5
 21
60.0
 31
0.0
  0
LINE
  5
6A
330
1E
100
AcDbEntity
  8
0
100
AcDbLine
 10
22.7
 20
60.0
 30
0.0
 11
24.3
 21
60.0
 31
0.0
  0
LINE
  5
6B
330
1E
100
AcDbEntity
  8
0
100
AcDbLine
 10
30.1
 20
90.0
 30
0.0
 11
30.5
 21
90.0
 31
0.0
  0
LINE
  5
6C
330
1E
100
AcDbEntity
  8
0
100
AcDbLine
 10
29.0
 20
90.0
 30
0.0
 11
30.1
 21
90.0
 31
0.0
  0
LINE
  5
6D
330
1E
100
AcDbEntity
  8
0
100
AcDbLine
 10
29.0
 20
90.0
 30
0.0
 11
29.0
 21
92.0
 31
0.0
  0
LINE
  5
6E
330
1E
100
AcDbEntity
  8
0
100
AcDbLine
 10
27.1
 20
90.0
 30
0.0
 11
29.0
 21
90.0
 31
0.0
  0
LINE
  5
6F
330
1E
100
AcDbEntity
  8
0
100
AcDbLine
 10
24.7
 20
90.0
 30
0.0
 11
27.1
 21
90.0
 31
0.0
  0
LINE
  5
70
330
1E
100
AcDbEntity
  8
0
100
AcDbLine
 10
22.0
 20
90.0
 30
0.0
 11
24.7
 21
90.0
 31
0.0
  0
LINE
  5
71
330
1E
100
AcDbEntity
  8
0
100
AcDbLine
 10
19.0
 20
90.0
 30
0.0
 11
22.0
 21
90.0
 31
0.0
  0
LINE
  5
72
330
1E
100
AcDbEntity
  8
0
100
AcDbLine
 10
20.89999999999999
 20
60.0
 30
0.0
 11
22.7
 21
60.0
 31
0.0
  0
LINE
  5
73
330
1E
100
AcDbEntity
  8
0
100
AcDbLine
 10
19.0
 20
60.0
 30
0.0
 11
20.89999999999999
 21
60.0
 31
0.0
  0
LINE
  5
74
330
1E
100
AcDbEntity
  8
0
100
AcDbLine
 10
19.0
 20
60.0
 30
0.0
 11
21.69999999999999
 21
60.0
 31
0.0
  0
LINE
  5
75
330
1E
100
AcDbEntity
  8
0
100
AcDbLine
 10
19.0
 20
10.0
 30
0.0
 11
20.89999999999999
 21
9.771699999999999
 31
0.0
  0
LINE
  5
76
330
1E
100
AcDbEntity
  8
0
100
AcDbLine
 10
17.1
 20
60.0
 30
0.0
 11
19.0
 21
60.0
 31
0.0
  0
LINE
  5
77
330
1E
100
AcDbEntity
  8
0
100
AcDbLine
 10
17.1
 20
9.771699999999999
 30
0.0
 11
19.0
 21
10.0
 31
0.0
  0
LINE
  5
78
330
1E
100
AcDbEntity
  8
0
100
AcDbLine
 10
15.3
 20
0.101220000000003
 30
0.0
 11
17.1
 21
0.0262500000000032
 31
0.0
  0
LINE
  5
79
330
1E
100
AcDbEntity
  8
0
100
AcDbLine
 10
17.1
 20
0.0262500000000032
 30
0.0
 11
19.0
 21
0.0000000000000031
 31
0.0
  0
LINE
  5
7A
330
1E
100
AcDbEntity
  8
0
100
AcDbLine
 10
35.0
 20
92.0
 30
0.0
 11
35.0
 21
93.07999999999999
 31
0.0
  0
LINE
  5
7F
330
1E
100
AcDbEntity
  8
0
100
AcDbLine
 10
5.565269999999999
 20
114.44
 30
0.0
 11
6.018489999999999
 21
122.0
 31
0.0
  0
LINE
  5
80
330
1E
100
AcDbEntity
  8
0
100
AcDbLine
 10
35.0
 20
94.0
 30
0.0
 11
38.0
 21
94.0
 31
0.0
  0
LINE
  5
81
330
1E
100
AcDbEntity
  8
0
100
AcDbLine
 10
35.0
 20
93.07999999999999
 30
0.0
 11
35.0
 21
95.96
 31
0.0
  0
LINE
  5
82
330
1E
100
AcDbEntity
  8
0
100
AcDbLine
 10
35.0
 20
93.07999999999999
 30
0.0
 11
35.0
 21
92.0
 31
0.0
  0
LINE
  5
83
330
1E
100
AcDbEntity
  8
0
100
AcDbLine
 10
35.0
 20
95.96
 30
0.0
 11
35.0
 21
100.76
 31
0.0
  0
LINE
  5
84
330
1E
100
AcDbEntity
  8
0
100
AcDbLine
 10
35.0
 20
95.96
 30
0.0
 11
35.0
 21
93.07999999999999
 31
0.0
  0
LINE
  5
85
330
1E
100
AcDbEntity
  8
0
100
AcDbLine
 10
35.0
 20
107.12
 30
0.0
 11
35.0
 21
100.76
 31
0.0
  0
LINE
  5
86
330
1E
100
AcDbEntity
  8
0
100
AcDbLine
 10
35.0
 20
107.12
 30
0.0
 11
35.0
 21
114.3199999999999
 31
0.0
  0
LINE
  5
87
330
1E
100
AcDbEntity
  8
0
100
AcDbLine
 10
38.0
 20
94.0
 30
0.0
 11
38.0
 21
95.00799999999999
 31
0.0
  0
LINE
  5
88
330
1E
100
AcDbEntity
  8
0
100
AcDbLine
 10
38.0
 20
102.176
 30
0.0
 11
38.0
 21
108.112
 31
0.0
  0
LINE
  5
89
330
1E
100
AcDbEntity
  8
0
100
AcDbLine
 10
38.0
 20
108.112
 30
0.0
 11
38.0
 21
102.176
 31
0.0
  0
LINE
  5
8A
330
1E
100
AcDbEntity
  8
0
100
AcDbLine
 10
38.0
 20
108.112
 30
0.0
 11
38.0
 21
114.832
 31
0.0
  0
LINE
  5
8B
330
1E
100
AcDbEntity
  8
0
100
AcDbLine
 10
38.0
 20
97.696
 30
0.0
 11
38.0
 21
95.00799999999999
 31
0.0
  0
LINE
  5
8C
330
1E
100
AcDbEntity
  8
0
100
AcDbLine
 10
38.0
 20
97.696
 30
0.0
 11
38.0
 21
102.176
 31
0.0
  0
LINE
  5
8D
330
1E
100
AcDbEntity
  8
0
100
AcDbLine
 10
38.0
 20
95.00799999999999
 30
0.0
 11
38.0
 21
94.0
 31
0.0
  0
LINE
  5
8E
330
1E
100
AcDbEntity
  8
0
100
AcDbLine
 10
38.0
 20
95.00799999999999
 30
0.0
 11
38.0
 21
97.696
 31
0.0
  0
LINE
  5
8F
330
1E
100
AcDbEntity
  8
0
100
AcDbLine
 10
35.0
 20
100.76
 30
0.0
 11
35.0
 21
95.96
 31
0.0
  0
LINE
  5
90
330
1E
100
AcDbEntity
  8
0
100
AcDbLine
 10
35.0
 20
100.76
 30
0.0
 11
35.0
 21
107.12
 31
0.0
  0
LINE
  5
91
330
1E
100
AcDbEntity
  8
0
100
AcDbLine
 10
35.0
 20
129.68
 30
0.0
 11
35.0
 21
122.0
 31
0.0
  0
LINE
  5
92
330
1E
100
AcDbEntity
  8
0
100
AcDbLine
 10
35.0
 20
129.68
 30
0.0
 11
35.0
 21
136.88
 31
0.0
  0
LINE
  5
93
330
1E
100
AcDbEntity
  8
0
100
AcDbLine
 10
38.0
 20
129.168
 30
0.0
 11
38.0
 21
122.0
 31
0.0
  0
LINE
  5
94
330
1E
100
AcDbEntity
  8
0
100
AcDbLine
 10
38.0
 20
129.168
 30
0.0
 11
38.0
 21
135.888
 31
0.0
  0
LINE
  5
95
330
1E
100
AcDbEntity
  8
0
100
AcDbLine
 10
38.0
 20
135.888
 30
0.0
 11
38.0
 21
129.168
 31
0.0
  0
LINE
  5
96
330
1E
100
AcDbEntity
  8
0
100
AcDbLine
 10
38.0
 20
135.888
 30
0.0
 11
38.0
 21
141.8239999999999
 31
0.0
  0
LINE
  5
97
330
1E
100
AcDbEntity
  8
0
100
AcDbLine
 10
38.0
 20
122.0
 30
0.0
 11
38.0
 21
114.832
 31
0.0
  0
LINE
  5
98
330
1E
100
AcDbEntity
  8
0
100
AcDbLine
 10
38.0
 20
122.0
 30
0.0
 11
38.0
 21
129.168
 31
0.0
  0
LINE
  5
99
330
1E
100
AcDbEntity
  8
0
100
AcDbLine
 10
38.0
 20
114.832
 30
0.0
 11
38.0
 21
108.112
 31
0.0
  0
LINE
  5
9A
330
1E
100
AcDbEntity
  8
0
100
AcDbLine
 10
38.0
 20
114.832
 30
0.0
 11
38.0
 21
122.0
 31
0.0
  0
LINE
  5
9B
330
1E
100
AcDbEntity
  8
0
100
AcDbLine
 10
35.0
 20
122.0
 30
0.0
 11
35.0
 21
114.3199999999999
 31
0.0
  0
LINE
  5
9C
330
1E
100
AcDbEntity
  8
0
100
AcDbLine
 10
35.0
 20
122.0
 30
0.0
 11
35.0
 21
129.68
 31
0.0
  0
LINE
  5
9D
330
1E
100
AcDbEntity
  8
0
100
AcDbLine
 10
35.0
 20
114.3199999999999
 30
0.0
 11
35.0
 21
107.12
 31
0.0
  0
LINE
  5
9E
330
1E
100
AcDbEntity
  8
0
100
AcDbLine
 10
35.0
 20
114.3199999999999
 30
0.0
 11
35.0
 21
122.0
 31
0.0
  0
LINE
  5
9F
330
1E
100
AcDbEntity
  8
0
100
AcDbLine
 10
5.565269999999999
 20
129.56
 30
0.0
 11
6.018489999999999
 21
122.0
 31
0.0
  0
LINE
  5
A0
330
1E
100
AcDbEntity
  8
0
100
AcDbLine
 10
38.0
 20
141.8239999999999
 30
0.0
 11
38.0
 21
135.888
 31
0.0
  0
LINE
  5
A1
330
1E
100
AcDbEntity
  8
0
100
AcDbLine
 10
38.0
 20
141.8239999999999
 30
0.0
 11
38.0
 21
146.304
 31
0.0
  0
LINE
  5
A2
330
1E
100
AcDbEntity
  8
0
100
AcDbLine
 10
35.0
 20
136.88
 30
0.0
 11
35.0
 21
129.68
 31
0.0
  0
LINE
  5
A3
330
1E
100
AcDbEntity
  8
0
100
AcDbLine
 10
35.0
 20
136.88
 30
0.0
 11
35.0
 21
143.24
 31
0.0
  0
LINE
  5
A4
330
1E
100
AcDbEntity
  8
0
100
AcDbLine
 10
4.54551
 20
136.52
 30
0.0
 11
5.565269999999999
 21
129.56
 31
0.0
  0
LINE
  5
A5
330
1E
100
AcDbEntity
  8
0
100
AcDbLine
 10
4.54551
 20
107.4799999999999
 30
0.0
 11
5.565269999999999
 21
114.44
 31
0.0
  0
LINE
  5
A7
330
1E
100
AcDbEntity
  8
0
100
AcDbLine
 10
38.0
 20
146.304
 30
0.0
 11
38.0
 21
141.8239999999999
 31
0.0
  0
LINE
  5
A8
330
1E
100
AcDbEntity
  8
0
100
AcDbLine
 10
38.0
 20
146.304
 30
0.0
 11
38.0
 21
148.992
 31
0.0
  0
LINE
  5
A9
330
1E
100
AcDbEntity
  8
0
100
AcDbLine
 10
35.0
 20
143.24
 30
0.0
 11
35.0
 21
148.0399999999999
 31
0.0
  0
LINE
  5
AA
330
1E
100
AcDbEntity
  8
0
100
AcDbLine
 10
35.0
 20
143.24
 30
0.0
 11
35.0
 21
136.88
 31
0.0
  0
LINE
  5
AB
330
1E
100
AcDbEntity
  8
0
100
AcDbLine
 10
3.261369999999999
 20
142.6399999999999
 30
0.0
 11
4.54551
 21
136.52
 31
0.0
  0
LINE
  5
AC
330
1E
100
AcDbEntity
  8
0
100
AcDbLine
 10
3.261369999999999
 20
101.36
 30
0.0
 11
4.54551
 21
107.4799999999999
 31
0.0
  0
LINE
  5
AD
330
1E
100
AcDbEntity
  8
0
100
AcDbLine
 10
35.0
 20
150.0
 30
0.0
 11
38.0
 21
150.0
 31
0.0
  0
LINE
  5
AE
330
1E
100
AcDbEntity
  8
0
100
AcDbLine
 10
35.0
 20
152.0
 30
0.0
 11
35.0
 21
150.9199999999999
 31
0.0
  0
LINE
  5
AF
330
1E
100
AcDbEntity
  8
0
100
AcDbLine
 10
38.0
 20
148.992
 30
0.0
 11
38.0
 21
146.304
 31
0.0
  0
LINE
  5
B0
330
1E
100
AcDbEntity
  8
0
100
AcDbLine
 10
38.0
 20
148.992
 30
0.0
 11
38.0
 21
150.0
 31
0.0
  0
LINE
  5
B1
330
1E
100
AcDbEntity
  8
0
100
AcDbLine
 10
38.0
 20
150.0
 30
0.0
 11
38.0
 21
148.992
 31
0.0
  0
LINE
  5
B2
330
1E
100
AcDbEntity
  8
0
100
AcDbLine
 10
35.0
 20
150.9199999999999
 30
0.0
 11
35.0
 21
152.0
 31
0.0
  0
LINE
  5
B3
330
1E
100
AcDbEntity
  8
0
100
AcDbLine
 10
35.0
 20
148.0399999999999
 30
0.0
 11
35.0
 21
143.24
 31
0.0
  0
LINE
  5
B4
330
1E
100
AcDbEntity
  8
0
100
AcDbLine
 10
35.0
 20
148.0399999999999
 30
0.0
 11
35.0
 21
150.9199999999999
 31
0.0
  0
LINE
  5
B6
330
1E
100
AcDbEntity
  8
0
100
AcDbLine
 10
1.712849999999999
 20
147.32
 30
0.0
 11
3.261369999999999
 21
142.6399999999999
 31
0.0
  0
LINE
  5
B7
330
1E
100
AcDbEntity
  8
0
100
AcDbLine
 10
1.712849999999999
 20
96.68000000000001
 30
0.0
 11
3.261369999999999
 21
101.36
 31
0.0
  0
LINE
  5
B8
330
1E
100
AcDbEntity
  8
0
100
AcDbLine
 10
29.0
 20
92.0
 30
0.0
 11
35.0
 21
92.0
 31
0.0
  0
LINE
  5
B9
330
1E
100
AcDbEntity
  8
0
100
AcDbLine
 10
29.0
 20
92.0
 30
0.0
 11
29.0
 21
90.0
 31
0.0
  0
LINE
  5
BA
330
1E
100
AcDbEntity
  8
0
100
AcDbLine
 10
0.900000000000003
 20
152.0
 30
0.0
 11
35.0
 21
152.0
 31
0.0
  0
ENDSEC
  0
SECTION
  2
OBJECTS
  0
DICTIONARY
  5
C
330
0
100
AcDbDictionary
  3
ACAD_GROUP
350
D
  3
ACAD_LAYOUT
350
19
  3
ACAD_MLINESTYLE
350
16
  3
ACAD_PLOTSETTINGS
350
18
  3
ACAD_PLOTSTYLENAME
350
E
  3
ACDBHEADERROUNDTRIPXREC
350
C3
  3
ACDBVARIABLEDICTIONARY
350
C0
  0
DICTIONARY
  5
E5
330
1E
100
AcDbDictionary
280
     1
  3
ACAD_LAYOUTSELFREF
360
E6
  0
DICTIONARY
  5
E3
330
1A
100
AcDbDictionary
280
     1
  3
ACAD_LAYOUTSELFREF
360
E4
  0
DICTIONARY
  5
D
102
{ACAD_REACTORS
330
C
102
}
330
C
100
AcDbDictionary
  0
DICTIONARY
  5
19
102
{ACAD_REACTORS
330
C
102
}
330
C
100
AcDbDictionary
  0
DICTIONARY
  5
16
102
{ACAD_REACTORS
330
C
102
}
330
C
100
AcDbDictionary
  3
STANDARD
350
17
  0
DICTIONARY
  5
18
102
{ACAD_REACTORS
330
C
102
}
330
C
100
AcDbDictionary
  0
ACDBDICTIONARYWDFLT
  5
E
102
{ACAD_REACTORS
330
C
102
}
330
C
100
AcDbDictionary
281
     1
  3
Normal
350
F
100
AcDbDictionaryWithDefault
340
F
  0
DICTIONARY
  5
C3
102
{ACAD_REACTORS
330
C
102
}
330
C
100
AcDbDictionary
  3
CEPSNTYPE
350
CD
  3
FINGERPRINTGUID
350
CE
  3
HYPERLINKBASE
350
C6
  3
INSUNITS
350
CC
  3
LAYOUTDICT
350
C8
  3
LWETCUNION
350
CB
  3
PLOTSETDICT
350
C9
  3
PLOTSTYLNAMDICT
350
CA
  3
PSVPSCALE
350
D0
  3
PUCSBASE
350
D3
  3
PUCSORGBACK
350
D9
  3
PUCSORGBOTTOM
350
D5
  3
PUCSORGFRONT
350
D8
  3
PUCSORGLEFT
350
D6
  3
PUCSORGRIGHT
350
D7
  3
PUCSORGTOP
350
D4
  3
PUCSORTHOREF
350
D1
  3
PUCSORTHOVIEW
350
D2
  3
STYLESHEET
350
C7
  3
TSTACKALIGN
350
C4
  3
TSTACKSIZE
350
C5
  3
UCSBASE
350
DC
  3
UCSORGBACK
350
E2
  3
UCSORGBOTTOM
350
DE
  3
UCSORGFRONT
350
E1
  3
UCSORGLEFT
350
DF
  3
UCSORGRIGHT
350
E0
  3
UCSORGTOP
350
DD
  3
UCSORTHOREF
350
DA
  3
UCSORTHOVIEW
350
DB
  3
VERSIONGUID
350
CF
  0
DICTIONARY
  5
C0
102
{ACAD_REACTORS
330
C
102
}
330
C
100
AcDbDictionary
  3
DIMASSOC
350
C1
  0
XRECORD
  5
E6
102
{ACAD_REACTORS
330
E5
102
}
330
E5
100
AcDbXrecord
340
1E
  0
XRECORD
  5
E4
102
{ACAD_REACTORS
330
E3
102
}
330
E3
100
AcDbXrecord
340
1A
  0
MLINESTYLE
  5
17
102
{ACAD_REACTORS
330
16
102
}
330
16
100
AcDbMlineStyle
  2
STANDARD
 70
     0
  3

 62
   256
 51
90.0
 52
90.0
 71
     2
 49
0.5
 62
   256
  6
BYLAYER
 49
-0.5
 62
   256
  6
BYLAYER
  0
ACDBPLACEHOLDER
  5
F
102
{ACAD_REACTORS
330
E
102
}
330
E
100
AcDbPlaceHolder
280
     0
  0
XRECORD
  5
CD
102
{ACAD_REACTORS
330
C3
102
}
330
C3
100
AcDbXrecord
 90
        0
  0
XRECORD
  5
CE
102
{ACAD_REACTORS
330
C3
102
}
330
C3
100
AcDbXrecord
  1
{F6400895-C317-4BFF-B12F-C63015284B12}
  0
XRECORD
  5
C6
102
{ACAD_REACTORS
330
C3
102
}
330
C3
100
AcDbXrecord
  1

  0
XRECORD
  5
CC
102
{ACAD_REACTORS
330
C3
102
}
330
C3
100
AcDbXrecord
 90
        0
  0
XRECORD
  5
C8
102
{ACAD_REACTORS
330
C3
102
}
330
C3
100
AcDbXrecord
340
19
  0
XRECORD
  5
CB
102
{ACAD_REACTORS
330
C3
102
}
330
C3
100
AcDbXrecord
 90
    10781
  0
XRECORD
  5
C9
102
{ACAD_REACTORS
330
C3
102
}
330
C3
100
AcDbXrecord
340
18
  0
XRECORD
  5
CA
102
{ACAD_REACTORS
330
C3
102
}
330
C3
100
AcDbXrecord
340
E
  0
XRECORD
  5
D0
102
{ACAD_REACTORS
330
C3
102
}
330
C3
100
AcDbXrecord
 40
0.0
  0
XRECORD
  5
D3
102
{ACAD_REACTORS
330
C3
102
}
330
C3
100
AcDbXrecord
340
0
  0
XRECORD
  5
D9
102
{ACAD_REACTORS
330
C3
102
}
330
C3
100
AcDbXrecord
 10
0.0
 20
0.0
 30
0.0
  0
XRECORD
  5
D5
102
{ACAD_REACTORS
330
C3
102
}
330
C3
100
AcDbXrecord
 10
0.0
 20
0.0
 30
0.0
  0
XRECORD
  5
D8
102
{ACAD_REACTORS
330
C3
102
}
330
C3
100
AcDbXrecord
 10
0.0
 20
0.0
 30
0.0
  0
XRECORD
  5
D6
102
{ACAD_REACTORS
330
C3
102
}
330
C3
100
AcDbXrecord
 10
0.0
 20
0.0
 30
0.0
  0
XRECORD
  5
D7
102
{ACAD_REACTORS
330
C3
102
}
330
C3
100
AcDbXrecord
 10
0.0
 20
0.0
 30
0.0
  0
XRECORD
  5
D4
102
{ACAD_REACTORS
330
C3
102
}
330
C3
100
AcDbXrecord
 10
0.0
 20
0.0
 30
0.0
  0
XRECORD
  5
D1
102
{ACAD_REACTORS
330
C3
102
}
330
C3
100
AcDbXrecord
340
0
  0
XRECORD
  5
D2
102
{ACAD_REACTORS
330
C3
102
}
330
C3
100
AcDbXrecord
 70
     0
  0
XRECORD
  5
C7
102
{ACAD_REACTORS
330
C3
102
}
330
C3
100
AcDbXrecord
  1

  0
XRECORD
  5
C4
102
{ACAD_REACTORS
330
C3
102
}
330
C3
100
AcDbXrecord
 90
        1
  0
XRECORD
  5
C5
102
{ACAD_REACTORS
330
C3
102
}
330
C3
100
AcDbXrecord
 90
       70
  0
XRECORD
  5
DC
102
{ACAD_REACTORS
330
C3
102
}
330
C3
100
AcDbXrecord
340
0
  0
XRECORD
  5
E2
102
{ACAD_REACTORS
330
C3
102
}
330
C3
100
AcDbXrecord
 10
0.0
 20
0.0
 30
0.0
  0
XRECORD
  5
DE
102
{ACAD_REACTORS
330
C3
102
}
330
C3
100
AcDbXrecord
 10
0.0
 20
0.0
 30
0.0
  0
XRECORD
  5
E1
102
{ACAD_REACTORS
330
C3
102
}
330
C3
100
AcDbXrecord
 10
0.0
 20
0.0
 30
0.0
  0
XRECORD
  5
DF
102
{ACAD_REACTORS
330
C3
102
}
330
C3
100
AcDbXrecord
 10
0.0
 20
0.0
 30
0.0
  0
XRECORD
  5
E0
102
{ACAD_REACTORS
330
C3
102
}
330
C3
100
AcDbXrecord
 10
0.0
 20
0.0
 30
0.0
  0
XRECORD
  5
DD
102
{ACAD_REACTORS
330
C3
102
}
330
C3
100
AcDbXrecord
 10
0.0
 20
0.0
 30
0.0
  0
XRECORD
  5
DA
102
{ACAD_REACTORS
330
C3
102
}
330
C3
100
AcDbXrecord
340
0
  0
XRECORD
  5
DB
102
{ACAD_REACTORS
330
C3
102
}
330
C3
100
AcDbXrecord
 70
     1
  0
XRECORD
  5
CF
102
{ACAD_REACTORS
330
C3
102
}
330
C3
100
AcDbXrecord
  1
{3C09C265-FCB4-448C-8E5C-16241EDDE0B2}
  0
DICTIONARYVAR
  5
C1
102
{ACAD_REACTORS
330
C0
102
}
330
C0
100
DictionaryVariables
280
     0
  1
1
  0
ENDSEC
  0
EOF
