  0
SECTION
  2
HEADER
  9
$ACADVER
  1
AC1015
  9
$ACADMAINTVER
 70
    13
  9
$DWGCODEPAGE
  3
ANSI_1252
  9
$INSBASE
 10
0.0
 20
0.0
 30
0.0
  9
$EXTMIN
 10
0.0727600000000012
 20
-0.0000000000000024
 30
0.0
  9
$EXTMAX
 10
78.92724
 20
81.0
 30
0.0
  9
$LIMMIN
 10
0.0
 20
0.0
  9
$LIMMAX
 10
12.0
 20
9.0
  9
$ORTHOMODE
 70
     0
  9
$REGENMODE
 70
     1
  9
$FILLMODE
 70
     1
  9
$QTEXTMODE
 70
     0
  9
$MIRRTEXT
 70
     1
  9
$LTSCALE
 40
1.0
  9
$ATTMODE
 70
     1
  9
$TEXTSIZE
 40
0.2
  9
$TRACEWID
 40
0.05
  9
$TEXTSTYLE
  7
Standard
  9
$CLAYER
  8
0
  9
$CELTYPE
  6
Continuous
  9
$CECOLOR
 62
   256
  9
$CELTSCALE
 40
1.0
  9
$DISPSILH
 70
     0
  9
$DIMSCALE
 40
1.0
  9
$DIMASZ
 40
0.18
  9
$DIMEXO
 40
0.0625
  9
$DIMDLI
 40
0.38
  9
$DIMRND
 40
0.0
  9
$DIMDLE
 40
0.0
  9
$DIMEXE
 40
0.18
  9
$DIMTP
 40
0.0
  9
$DIMTM
 40
0.0
  9
$DIMTXT
 40
0.18
  9
$DIMCEN
 40
0.09
  9
$DIMTSZ
 40
0.0
  9
$DIMTOL
 70
     0
  9
$DIMLIM
 70
     0
  9
$DIMTIH
 70
     1
  9
$DIMTOH
 70
     1
  9
$DIMSE1
 70
     0
  9
$DIMSE2
 70
     0
  9
$DIMTAD
 70
     0
  9
$DIMZIN
 70
     0
  9
$DIMBLK
  1

  9
$DIMASO
 70
     1
  9
$DIMSHO
 70
     1
  9
$DIMPOST
  1

  9
$DIMAPOST
  1

  9
$DIMALT
 70
     0
  9
$DIMALTD
 70
     2
  9
$DIMALTF
 40
25.4
  9
$DIMLFAC
 40
1.0
  9
$DIMTOFL
 70
     0
  9
$DIMTVP
 40
0.0
  9
$DIMTIX
 70
     0
  9
$DIMSOXD
 70
     0
  9
$DIMSAH
 70
     0
  9
$DIMBLK1
  1

  9
$DIMBLK2
  1

  9
$DIMSTYLE
  2
Standard
  9
$DIMCLRD
 70
     0
  9
$DIMCLRE
 70
     0
  9
$DIMCLRT
 70
     0
  9
$DIMTFAC
 40
1.0
  9
$DIMGAP
 40
0.09
  9
$DIMJUST
 70
     0
  9
$DIMSD1
 70
     0
  9
$DIMSD2
 70
     0
  9
$DIMTOLJ
 70
     1
  9
$DIMTZIN
 70
     0
  9
$DIMALTZ
 70
     0
  9
$DIMALTTZ
 70
     0
  9
$DIMUPT
 70
     0
  9
$DIMDEC
 70
     4
  9
$DIMTDEC
 70
     4
  9
$DIMALTU
 70
     2
  9
$DIMALTTD
 70
     2
  9
$DIMTXSTY
  7
Standard
  9
$DIMAUNIT
 70
     0
  9
$DIMADEC
 70
     0
  9
$DIMALTRND
 40
0.0
  9
$DIMAZIN
 70
     0
  9
$DIMDSEP
 70
    46
  9
$DIMATFIT
 70
     3
  9
$DIMFRAC
 70
     0
  9
$DIMLDRBLK
  1

  9
$DIMLUNIT
 70
     2
  9
$DIMLWD
 70
    -2
  9
$DIMLWE
 70
    -2
  9
$DIMTMOVE
 70
     0
  9
$LUNITS
 70
     2
  9
$LUPREC
 70
     4
  9
$SKETCHINC
 40
0.1
  9
$FILLETRAD
 40
0.0
  9
$AUNITS
 70
     0
  9
$AUPREC
 70
     0
  9
$MENU
  1
.
  9
$ELEVATION
 40
0.0
  9
$PELEVATION
 40
0.0
  9
$THICKNESS
 40
0.0
  9
$LIMCHECK
 70
     0
  9
$CHAMFERA
 40
0.0
  9
$CHAMFERB
 40
0.0
  9
$CHAMFERC
 40
0.0
  9
$CHAMFERD
 40
0.0
  9
$SKPOLY
 70
     0
  9
$TDCREATE
 40
2454780.772290393
  9
$TDUCREATE
 40
2454780.730623726
  9
$TDUPDATE
 40
2454780.778205104
  9
$TDUUPDATE
 40
2454780.736538437
  9
$TDINDWG
 40
0.0059147106
  9
$TDUSRTIMER
 40
0.0059147106
  9
$USRTIMER
 70
     1
  9
$ANGBASE
 50
0.0
  9
$ANGDIR
 70
     0
  9
$PDMODE
 70
     0
  9
$PDSIZE
 40
0.0
  9
$PLINEWID
 40
0.0
  9
$SPLFRAME
 70
     0
  9
$SPLINETYPE
 70
     6
  9
$SPLINESEGS
 70
     8
  9
$HANDSEED
  5
1CA
  9
$SURFTAB1
 70
     6
  9
$SURFTAB2
 70
     6
  9
$SURFTYPE
 70
     6
  9
$SURFU
 70
     6
  9
$SURFV
 70
     6
  9
$UCSBASE
  2

  9
$UCSNAME
  2

  9
$UCSORG
 10
0.0
 20
0.0
 30
0.0
  9
$UCSXDIR
 10
1.0
 20
0.0
 30
0.0
  9
$UCSYDIR
 10
0.0
 20
1.0
 30
0.0
  9
$UCSORTHOREF
  2

  9
$UCSORTHOVIEW
 70
     1
  9
$UCSORGTOP
 10
0.0
 20
0.0
 30
0.0
  9
$UCSORGBOTTOM
 10
0.0
 20
0.0
 30
0.0
  9
$UCSORGLEFT
 10
0.0
 20
0.0
 30
0.0
  9
$UCSORGRIGHT
 10
0.0
 20
0.0
 30
0.0
  9
$UCSORGFRONT
 10
0.0
 20
0.0
 30
0.0
  9
$UCSORGBACK
 10
0.0
 20
0.0
 30
0.0
  9
$PUCSBASE
  2

  9
$PUCSNAME
  2

  9
$PUCSORG
 10
0.0
 20
0.0
 30
0.0
  9
$PUCSXDIR
 10
1.0
 20
0.0
 30
0.0
  9
$PUCSYDIR
 10
0.0
 20
1.0
 30
0.0
  9
$PUCSORTHOREF
  2

  9
$PUCSORTHOVIEW
 70
     0
  9
$PUCSORGTOP
 10
0.0
 20
0.0
 30
0.0
  9
$PUCSORGBOTTOM
 10
0.0
 20
0.0
 30
0.0
  9
$PUCSORGLEFT
 10
0.0
 20
0.0
 30
0.0
  9
$PUCSORGRIGHT
 10
0.0
 20
0.0
 30
0.0
  9
$PUCSORGFRONT
 10
0.0
 20
0.0
 30
0.0
  9
$PUCSORGBACK
 10
0.0
 20
0.0
 30
0.0
  9
$USERI1
 70
     0
  9
$USERI2
 70
     0
  9
$USERI3
 70
     0
  9
$USERI4
 70
     0
  9
$USERI5
 70
     0
  9
$USERR1
 40
0.0
  9
$USERR2
 40
0.0
  9
$USERR3
 40
0.0
  9
$USERR4
 40
0.0
  9
$USERR5
 40
0.0
  9
$WORLDVIEW
 70
     1
  9
$SHADEDGE
 70
     3
  9
$SHADEDIF
 70
    70
  9
$TILEMODE
 70
     1
  9
$MAXACTVP
 70
    64
  9
$PINSBASE
 10
0.0
 20
0.0
 30
0.0
  9
$PLIMCHECK
 70
     0
  9
$PEXTMIN
 10
1.000000000000000E+20
 20
1.000000000000000E+20
 30
1.000000000000000E+20
  9
$PEXTMAX
 10
-1.000000000000000E+20
 20
-1.000000000000000E+20
 30
-1.000000000000000E+20
  9
$PLIMMIN
 10
0.0
 20
0.0
  9
$PLIMMAX
 10
12.0
 20
9.0
  9
$UNITMODE
 70
     0
  9
$VISRETAIN
 70
     1
  9
$PLINEGEN
 70
     0
  9
$PSLTSCALE
 70
     1
  9
$TREEDEPTH
 70
  3020
  9
$CMLSTYLE
  2
Standard
  9
$CMLJUST
 70
     0
  9
$CMLSCALE
 40
1.0
  9
$PROXYGRAPHICS
 70
     1
  9
$MEASUREMENT
 70
     0
  9
$CELWEIGHT
370
    -1
  9
$ENDCAPS
280
     0
  9
$JOINSTYLE
280
     0
  9
$LWDISPLAY
290
     0
  9
$INSUNITS
 70
     0
  9
$HYPERLINKBASE
  1

  9
$STYLESHEET
  1

  9
$XEDIT
290
     1
  9
$CEPSNTYPE
380
     0
  9
$PSTYLEMODE
290
     1
  9
$FINGERPRINTGUID
  2
{F5EDA4D2-7576-4C01-ACE0-228257440D44}
  9
$VERSIONGUID
  2
{D741FCCF-D9F3-414D-8911-42A7FCFC09BB}
  9
$EXTNAMES
290
     1
  9
$PSVPSCALE
 40
0.0
  9
$OLESTARTUP
290
     0
  0
ENDSEC
  0
SECTION
  2
CLASSES
  0
CLASS
  1
ACDBDICTIONARYWDFLT
  2
AcDbDictionaryWithDefault
  3
AutoCAD 2000
 90
        0
280
     0
281
     0
  0
CLASS
  1
ACDBPLACEHOLDER
  2
AcDbPlaceHolder
  3
AutoCAD 2000
 90
        0
280
     0
281
     0
  0
CLASS
  1
LAYOUT
  2
AcDbLayout
  3
AutoCAD 2000
 90
        0
280
     0
281
     0
  0
CLASS
  1
DICTIONARYVAR
  2
AcDbDictionaryVar
  3
AutoCAD 2000
 90
        0
280
     0
281
     0
  0
ENDSEC
  0
SECTION
  2
TABLES
  0
TABLE
  2
VPORT
  5
8
330
0
100
AcDbSymbolTable
 70
     2
  0
VPORT
  5
1C9
330
8
100
AcDbSymbolTableRecord
100
AcDbViewportTableRecord
  2
*Active
 70
     0
 10
0.0
 20
0.0
 11
1.0
 21
1.0
 12
39.5
 22
40.49999999999999
 13
0.0
 23
0.0
 14
1.0
 24
1.0
 15
0.0
 25
0.0
 16
0.0
 26
0.0
 36
1.0
 17
0.0
 27
0.0
 37
0.0
 40
81.62148337595906
 41
2.078104993597951
 42
50.0
 43
0.0
 44
0.0
 50
0.0
 51
0.0
 71
     0
 72
   100
 73
     1
 74
     3
 75
     0
 76
     0
 77
     0
 78
     0
281
     0
 65
     1
110
0.0
120
0.0
130
0.0
111
1.0
121
0.0
131
0.0
112
0.0
122
1.0
132
0.0
 79
     1
146
0.0
  0
ENDTAB
  0
TABLE
  2
LTYPE
  5
5
330
0
100
AcDbSymbolTable
 70
     1
  0
LTYPE
  5
13
330
5
100
AcDbSymbolTableRecord
100
AcDbLinetypeTableRecord
  2
ByBlock
 70
     0
  3

 72
    65
 73
     0
 40
0.0
  0
LTYPE
  5
14
330
5
100
AcDbSymbolTableRecord
100
AcDbLinetypeTableRecord
  2
ByLayer
 70
     0
  3

 72
    65
 73
     0
 40
0.0
  0
LTYPE
  5
15
330
5
100
AcDbSymbolTableRecord
100
AcDbLinetypeTableRecord
  2
Continuous
 70
     0
  3
Solid line
 72
    65
 73
     0
 40
0.0
  0
ENDTAB
  0
TABLE
  2
LAYER
  5
2
330
0
100
AcDbSymbolTable
 70
     1
  0
LAYER
  5
10
330
2
100
AcDbSymbolTableRecord
100
AcDbLayerTableRecord
  2
0
 70
     0
 62
     7
  6
Continuous
370
    -3
390
F
  0
ENDTAB
  0
TABLE
  2
STYLE
  5
3
330
0
100
AcDbSymbolTable
 70
     1
  0
STYLE
  5
11
330
3
100
AcDbSymbolTableRecord
100
AcDbTextStyleTableRecord
  2
Standard
 70
     0
 40
0.0
 41
1.0
 50
0.0
 71
     0
 42
0.2
  3
txt
  4

  0
ENDTAB
  0
TABLE
  2
VIEW
  5
6
330
0
100
AcDbSymbolTable
 70
     0
  0
ENDTAB
  0
TABLE
  2
UCS
  5
7
330
0
100
AcDbSymbolTable
 70
     0
  0
ENDTAB
  0
TABLE
  2
APPID
  5
9
330
0
100
AcDbSymbolTable
 70
     1
  0
APPID
  5
12
330
9
100
AcDbSymbolTableRecord
100
AcDbRegAppTableRecord
  2
ACAD
 70
     0
  0
ENDTAB
  0
TABLE
  2
DIMSTYLE
  5
A
330
0
100
AcDbSymbolTable
 70
     1
100
AcDbDimStyleTable
 71
     0
  0
DIMSTYLE
105
1C0
330
A
100
AcDbSymbolTableRecord
100
AcDbDimStyleTableRecord
  2
Standard
 70
     0
340
11
  0
ENDTAB
  0
TABLE
  2
BLOCK_RECORD
  5
1
330
0
100
AcDbSymbolTable
 70
     0
  0
BLOCK_RECORD
  5
1E
330
1
100
AcDbSymbolTableRecord
100
AcDbBlockTableRecord
  2
*Model_Space
340
21
  0
BLOCK_RECORD
  5
1A
330
1
100
AcDbSymbolTableRecord
100
AcDbBlockTableRecord
  2
*Paper_Space
340
1D
  0
ENDTAB
  0
ENDSEC
  0
SECTION
  2
BLOCKS
  0
BLOCK
  5
1F
330
1E
100
AcDbEntity
  8
0
100
AcDbBlockBegin
  2
*Model_Space
 70
     0
 10
0.0
 20
0.0
 30
0.0
  3
*Model_Space
  1

  0
ENDBLK
  5
20
330
1E
100
AcDbEntity
  8
0
100
AcDbBlockEnd
  0
BLOCK
  5
1B
330
1A
100
AcDbEntity
 67
     1
  8
0
100
AcDbBlockBegin
  2
*Paper_Space
 70
     0
 10
0.0
 20
0.0
 30
0.0
  3
*Paper_Space
  1

  0
ENDBLK
  5
1C
330
1A
100
AcDbEntity
 67
     1
  8
0
100
AcDbBlockEnd
  0
ENDSEC
  0
SECTION
  2
ENTITIES
  0
LINE
  5
22
330
1E
100
AcDbEntity
  8
0
100
AcDbLine
 10
4.504163
 20
14.0
 30
0.0
 11
23.92724
 21
14.0
 31
0.0
  0
LINE
  5
23
330
1E
100
AcDbEntity
  8
0
100
AcDbLine
 10
3.92724
 20
15.0323
 30
0.0
 11
3.92724
 21
14.57349999999999
 31
0.0
  0
LINE
  5
24
330
1E
100
AcDbEntity
  8
0
100
AcDbLine
 10
3.92724
 20
15.0323
 30
0.0
 11
3.92724
 21
16.2559
 31
0.0
  0
LINE
  5
29
330
1E
100
AcDbEntity
  8
0
100
AcDbLine
 10
3.92724
 20
14.57349999999999
 30
0.0
 11
4.119547999999999
 21
14.1912
 31
0.0
  0
LINE
  5
2A
330
1E
100
AcDbEntity
  8
0
100
AcDbLine
 10
3.92724
 20
14.57349999999999
 30
0.0
 11
3.92724
 21
15.0323
 31
0.0
  0
LINE
  5
2B
330
1E
100
AcDbEntity
  8
0
100
AcDbLine
 10
4.119547999999999
 20
14.1912
 30
0.0
 11
4.504163
 21
14.0
 31
0.0
  0
LINE
  5
2D
330
1E
100
AcDbEntity
  8
0
100
AcDbLine
 10
23.92724
 20
14.0
 30
0.0
 11
23.92724
 21
14.4588
 31
0.0
  0
LINE
  5
2E
330
1E
100
AcDbEntity
  8
0
100
AcDbLine
 10
23.92724
 20
15.7588
 30
0.0
 11
23.92724
 21
14.4588
 31
0.0
  0
LINE
  5
2F
330
1E
100
AcDbEntity
  8
0
100
AcDbLine
 10
23.92724
 20
15.7588
 30
0.0
 11
23.92724
 21
17.8235
 31
0.0
  0
LINE
  5
30
330
1E
100
AcDbEntity
  8
0
100
AcDbLine
 10
23.92724
 20
14.4588
 30
0.0
 11
23.92724
 21
14.0
 31
0.0
  0
LINE
  5
31
330
1E
100
AcDbEntity
  8
0
100
AcDbLine
 10
23.92724
 20
14.4588
 30
0.0
 11
23.92724
 21
15.7588
 31
0.0
  0
LINE
  5
32
330
1E
100
AcDbEntity
  8
0
100
AcDbLine
 10
4.504163
 20
14.0
 30
0.0
 11
23.92724
 21
14.0
 31
0.0
  0
LINE
  5
33
330
1E
100
AcDbEntity
  8
0
100
AcDbLine
 10
3.92724
 20
16.2559
 30
0.0
 11
3.92724
 21
15.0323
 31
0.0
  0
LINE
  5
34
330
1E
100
AcDbEntity
  8
0
100
AcDbLine
 10
3.92724
 20
16.2559
 30
0.0
 11
3.92724
 21
18.2059
 31
0.0
  0
LINE
  5
35
330
1E
100
AcDbEntity
  8
0
100
AcDbLine
 10
3.92724
 20
23.7882
 30
0.0
 11
3.92724
 21
27.0
 31
0.0
  0
LINE
  5
36
330
1E
100
AcDbEntity
  8
0
100
AcDbLine
 10
3.92724
 20
20.8059
 30
0.0
 11
3.92724
 21
23.7882
 31
0.0
  0
LINE
  5
37
330
1E
100
AcDbEntity
  8
0
100
AcDbLine
 10
3.92724
 20
20.8059
 30
0.0
 11
3.92724
 21
18.2059
 31
0.0
  0
LINE
  5
38
330
1E
100
AcDbEntity
  8
0
100
AcDbLine
 10
3.92724
 20
33.19409999999999
 30
0.0
 11
3.927239999999999
 21
37.0152904790706
 31
0.0
  0
LINE
  5
39
330
1E
100
AcDbEntity
  8
0
100
AcDbLine
 10
3.92724
 20
30.2118
 30
0.0
 11
3.92724
 21
27.0
 31
0.0
  0
LINE
  5
3A
330
1E
100
AcDbEntity
  8
0
100
AcDbLine
 10
3.92724
 20
30.2118
 30
0.0
 11
3.92724
 21
33.19409999999999
 31
0.0
  0
LINE
  5
3C
330
1E
100
AcDbEntity
  8
0
100
AcDbLine
 10
3.927239999999999
 20
37.0152904790706
 30
0.0
 11
3.92724
 21
33.19409999999999
 31
0.0
  0
LINE
  5
40
330
1E
100
AcDbEntity
  8
0
100
AcDbLine
 10
3.927239999999999
 20
37.0152904790706
 30
0.0
 11
3.92724
 21
37.0152904790706
 31
0.0
  0
LINE
  5
41
330
1E
100
AcDbEntity
  8
0
100
AcDbLine
 10
3.92724
 20
37.0152904790706
 30
0.0
 11
3.927239999999999
 21
37.0152904790706
 31
0.0
  0
LINE
  5
42
330
1E
100
AcDbEntity
  8
0
100
AcDbLine
 10
3.92724
 20
27.0
 30
0.0
 11
3.92724
 21
23.7882
 31
0.0
  0
LINE
  5
43
330
1E
100
AcDbEntity
  8
0
100
AcDbLine
 10
3.92724
 20
27.0
 30
0.0
 11
3.92724
 21
30.2118
 31
0.0
  0
LINE
  5
46
330
1E
100
AcDbEntity
  8
0
100
AcDbLine
 10
3.92724
 20
18.2059
 30
0.0
 11
3.92724
 21
16.2559
 31
0.0
  0
LINE
  5
47
330
1E
100
AcDbEntity
  8
0
100
AcDbLine
 10
3.92724
 20
18.2059
 30
0.0
 11
3.92724
 21
20.8059
 31
0.0
  0
LINE
  5
4B
330
1E
100
AcDbEntity
  8
0
100
AcDbLine
 10
23.92724
 20
20.53819999999999
 30
0.0
 11
23.92724
 21
17.8235
 31
0.0
  0
LINE
  5
4C
330
1E
100
AcDbEntity
  8
0
100
AcDbLine
 10
23.92724
 20
20.53819999999999
 30
0.0
 11
23.92724
 21
23.6735
 31
0.0
  0
LINE
  5
4D
330
1E
100
AcDbEntity
  8
0
100
AcDbLine
 10
23.92724
 20
23.6735
 30
0.0
 11
23.92724
 21
20.53819999999999
 31
0.0
  0
LINE
  5
4E
330
1E
100
AcDbEntity
  8
0
100
AcDbLine
 10
23.92724
 20
23.6735
 30
0.0
 11
23.92724
 21
27.0
 31
0.0
  0
LINE
  5
52
330
1E
100
AcDbEntity
  8
0
100
AcDbLine
 10
23.92724
 20
33.46179999999999
 30
0.0
 11
23.92724
 21
30.3265
 31
0.0
  0
LINE
  5
53
330
1E
100
AcDbEntity
  8
0
100
AcDbLine
 10
23.92724
 20
33.46179999999999
 30
0.0
 11
23.92724
 21
36.17649999999999
 31
0.0
  0
LINE
  5
54
330
1E
100
AcDbEntity
  8
0
100
AcDbLine
 10
23.92724
 20
30.3265
 30
0.0
 11
23.92724
 21
27.0
 31
0.0
  0
LINE
  5
55
330
1E
100
AcDbEntity
  8
0
100
AcDbLine
 10
23.92724
 20
30.3265
 30
0.0
 11
23.92724
 21
33.46179999999999
 31
0.0
  0
LINE
  5
5A
330
1E
100
AcDbEntity
  8
0
100
AcDbLine
 10
23.92724
 20
38.0
 30
0.0
 11
30.92724
 21
38.0
 31
0.0
  0
LINE
  5
5D
330
1E
100
AcDbEntity
  8
0
100
AcDbLine
 10
23.92724
 20
36.17649999999999
 30
0.0
 11
23.92724
 21
38.2412
 31
0.0
  0
LINE
  5
5E
330
1E
100
AcDbEntity
  8
0
100
AcDbLine
 10
23.92724
 20
36.17649999999999
 30
0.0
 11
23.92724
 21
33.46179999999999
 31
0.0
  0
LINE
  5
5F
330
1E
100
AcDbEntity
  8
0
100
AcDbLine
 10
23.92724
 20
38.2412
 30
0.0
 11
23.92724
 21
36.17649999999999
 31
0.0
  0
LINE
  5
60
330
1E
100
AcDbEntity
  8
0
100
AcDbLine
 10
23.92724
 20
38.2412
 30
0.0
 11
23.92724
 21
39.5412
 31
0.0
  0
LINE
  5
61
330
1E
100
AcDbEntity
  8
0
100
AcDbLine
 10
8.187612455043099
 20
40.0
 30
0.0
 11
23.92724
 21
40.0
 31
0.0
  0
LINE
  5
63
330
1E
100
AcDbEntity
  8
0
100
AcDbLine
 10
8.187612455043099
 20
40.0
 30
0.0
 11
23.92724
 21
40.0
 31
0.0
  0
LINE
  5
64
330
1E
100
AcDbEntity
  8
0
100
AcDbLine
 10
23.92724
 20
39.5412
 30
0.0
 11
23.92724
 21
38.2412
 31
0.0
  0
LINE
  5
65
330
1E
100
AcDbEntity
  8
0
100
AcDbLine
 10
23.92724
 20
39.5412
 30
0.0
 11
23.92724
 21
40.0
 31
0.0
  0
LINE
  5
66
330
1E
100
AcDbEntity
  8
0
100
AcDbLine
 10
23.92724
 20
40.0
 30
0.0
 11
23.92724
 21
39.5412
 31
0.0
  0
LINE
  5
67
330
1E
100
AcDbEntity
  8
0
100
AcDbLine
 10
23.92724
 20
27.0
 30
0.0
 11
23.92724
 21
23.6735
 31
0.0
  0
LINE
  5
68
330
1E
100
AcDbEntity
  8
0
100
AcDbLine
 10
23.92724
 20
27.0
 30
0.0
 11
23.92724
 21
30.3265
 31
0.0
  0
LINE
  5
6B
330
1E
100
AcDbEntity
  8
0
100
AcDbLine
 10
23.92724
 20
17.8235
 30
0.0
 11
23.92724
 21
15.7588
 31
0.0
  0
LINE
  5
6C
330
1E
100
AcDbEntity
  8
0
100
AcDbLine
 10
23.92724
 20
17.8235
 30
0.0
 11
23.92724
 21
20.53819999999999
 31
0.0
  0
LINE
  5
6D
330
1E
100
AcDbEntity
  8
0
100
AcDbLine
 10
29.83634
 20
47.0
 30
0.0
 11
30.65454
 21
47.0
 31
0.0
  0
LINE
  5
6F
330
1E
100
AcDbEntity
  8
0
100
AcDbLine
 10
29.51814
 20
47.0
 30
0.0
 11
29.83634
 21
47.0
 31
0.0
  0
LINE
  5
70
330
1E
100
AcDbEntity
  8
0
100
AcDbLine
 10
30.65454
 20
47.0
 30
0.0
 11
31.97274
 21
47.0
 31
0.0
  0
LINE
  5
71
330
1E
100
AcDbEntity
  8
0
100
AcDbLine
 10
30.87164
 20
47.0
 30
0.0
 11
31.60574
 21
47.0
 31
0.0
  0
LINE
  5
72
330
1E
100
AcDbEntity
  8
0
100
AcDbLine
 10
30.58184
 20
47.0
 30
0.0
 11
30.92724
 21
47.0
 31
0.0
  0
LINE
  5
73
330
1E
100
AcDbEntity
  8
0
100
AcDbLine
 10
30.58184
 20
47.0
 30
0.0
 11
30.87164
 21
47.0
 31
0.0
  0
LINE
  5
74
330
1E
100
AcDbEntity
  8
0
100
AcDbLine
 10
0.269000000000001
 20
47.63959999999999
 30
0.0
 11
3.92724
 21
37.0152904790706
 31
0.0
  0
LINE
  5
75
330
1E
100
AcDbEntity
  8
0
100
AcDbLine
 10
0.0727600000000012
 20
48.54829999999999
 30
0.0
 11
0.156190000000001
 21
48.577
 31
0.0
  0
LINE
  5
76
330
1E
100
AcDbEntity
  8
0
100
AcDbLine
 10
0.156190000000001
 20
48.577
 30
0.0
 11
0.3786600000000011
 21
48.6537
 31
0.0
  0
LINE
  5
77
330
1E
100
AcDbEntity
  8
0
100
AcDbLine
 10
0.0727600000000013
 20
48.54829999999999
 30
0.0
 11
0.103410000000001
 21
48.2335
 31
0.0
  0
LINE
  5
78
330
1E
100
AcDbEntity
  8
0
100
AcDbLine
 10
0.0727600000000013
 20
48.54829999999999
 30
0.0
 11
0.156190000000001
 21
48.577
 31
0.0
  0
LINE
  5
79
330
1E
100
AcDbEntity
  8
0
100
AcDbLine
 10
0.103410000000001
 20
48.2335
 30
0.0
 11
0.269000000000001
 21
47.63959999999999
 31
0.0
  0
LINE
  5
7A
330
1E
100
AcDbEntity
  8
0
100
AcDbLine
 10
0.7332300000000011
 20
48.7757
 30
0.0
 11
1.205989999999999
 21
48.9385
 31
0.0
  0
LINE
  5
7B
330
1E
100
AcDbEntity
  8
0
100
AcDbLine
 10
1.205989999999999
 20
48.9385
 30
0.0
 11
1.748269999999999
 21
49.1252
 31
0.0
  0
LINE
  5
7C
330
1E
100
AcDbEntity
  8
0
100
AcDbLine
 10
4.99659
 20
49.2675
 30
0.0
 11
8.187612455043099
 21
40.0
 31
0.0
  0
LINE
  5
7D
330
1E
100
AcDbEntity
  8
0
100
AcDbLine
 10
3.931312
 20
49.8769
 30
0.0
 11
4.285881999999999
 21
49.999
 31
0.0
  0
LINE
  5
7E
330
1E
100
AcDbEntity
  8
0
100
AcDbLine
 10
4.285881999999999
 20
49.999
 30
0.0
 11
4.508351999999999
 21
50.0756
 31
0.0
  0
LINE
  5
7F
330
1E
100
AcDbEntity
  8
0
100
AcDbLine
 10
4.591782
 20
50.1043
 30
0.0
 11
4.761481999999999
 21
49.8374
 31
0.0
  0
LINE
  5
80
330
1E
100
AcDbEntity
  8
0
100
AcDbLine
 10
4.508351999999999
 20
50.0756
 30
0.0
 11
4.591782
 21
50.1043
 31
0.0
  0
LINE
  5
81
330
1E
100
AcDbEntity
  8
0
100
AcDbLine
 10
4.761481999999999
 20
49.8374
 30
0.0
 11
4.99659
 21
49.2675
 31
0.0
  0
LINE
  5
82
330
1E
100
AcDbEntity
  8
0
100
AcDbLine
 10
3.458551999999999
 20
49.7141
 30
0.0
 11
3.931312
 21
49.8769
 31
0.0
  0
LINE
  5
83
330
1E
100
AcDbEntity
  8
0
100
AcDbLine
 10
2.916259999999999
 20
49.5274
 30
0.0
 11
3.458551999999999
 21
49.7141
 31
0.0
  0
LINE
  5
84
330
1E
100
AcDbEntity
  8
0
100
AcDbLine
 10
2.33227
 20
49.3263
 30
0.0
 11
2.916259999999999
 21
49.5274
 31
0.0
  0
LINE
  5
85
330
1E
100
AcDbEntity
  8
0
100
AcDbLine
 10
1.748269999999999
 20
49.1252
 30
0.0
 11
2.33227
 21
49.3263
 31
0.0
  0
LINE
  5
86
330
1E
100
AcDbEntity
  8
0
100
AcDbLine
 10
0.3786600000000011
 20
48.6537
 30
0.0
 11
0.7332300000000011
 21
48.7757
 31
0.0
  0
LINE
  5
87
330
1E
100
AcDbEntity
  8
0
100
AcDbLine
 10
0.269000000000001
 20
47.63959999999999
 30
0.0
 11
3.92724
 21
37.0152904790706
 31
0.0
  0
LINE
  5
88
330
1E
100
AcDbEntity
  8
0
100
AcDbLine
 10
27.92724
 20
54.7143
 30
0.0
 11
28.15454
 21
55.3571
 31
0.0
  0
LINE
  5
89
330
1E
100
AcDbEntity
  8
0
100
AcDbLine
 10
27.92724
 20
54.7143
 30
0.0
 11
27.92724
 21
48.2857
 31
0.0
  0
LINE
  5
8A
330
1E
100
AcDbEntity
  8
0
100
AcDbLine
 10
28.30974
 20
47.64289999999999
 30
0.0
 11
29.04664
 21
47.2691
 31
0.0
  0
LINE
  5
8C
330
1E
100
AcDbEntity
  8
0
100
AcDbLine
 10
29.04664
 20
47.2691
 30
0.0
 11
30.25634
 21
47.1299
 31
0.0
  0
LINE
  5
8E
330
1E
100
AcDbEntity
  8
0
100
AcDbLine
 10
30.25634
 20
47.1299
 30
0.0
 11
31.47274
 21
47.2338
 31
0.0
  0
LINE
  5
91
330
1E
100
AcDbEntity
  8
0
100
AcDbLine
 10
28.83634
 20
47.19289999999999
 30
0.0
 11
29.51814
 21
47.0
 31
0.0
  0
LINE
  5
92
330
1E
100
AcDbEntity
  8
0
100
AcDbLine
 10
28.30974
 20
55.3571
 30
0.0
 11
29.04664
 21
55.7309
 31
0.0
  0
LINE
  5
93
330
1E
100
AcDbEntity
  8
0
100
AcDbLine
 10
29.04664
 20
55.7309
 30
0.0
 11
30.25634
 21
55.8701
 31
0.0
  0
LINE
  5
96
330
1E
100
AcDbEntity
  8
0
100
AcDbLine
 10
29.92724
 20
56.0
 30
0.0
 11
29.92724
 21
65.0
 31
0.0
  0
LINE
  5
97
330
1E
100
AcDbEntity
  8
0
100
AcDbLine
 10
30.21524
 20
65.0
 30
0.0
 11
30.98324
 21
65.0
 31
0.0
  0
LINE
  5
98
330
1E
100
AcDbEntity
  8
0
100
AcDbLine
 10
29.92724
 20
65.0
 30
0.0
 11
32.32724
 21
68.0
 31
0.0
  0
LINE
  5
99
330
1E
100
AcDbEntity
  8
0
100
AcDbLine
 10
29.92724
 20
65.0
 30
0.0
 11
29.92724
 21
56.0
 31
0.0
  0
LINE
  5
9A
330
1E
100
AcDbEntity
  8
0
100
AcDbLine
 10
29.92724
 20
65.0
 30
0.0
 11
30.21524
 21
65.0
 31
0.0
  0
LINE
  5
9B
330
1E
100
AcDbEntity
  8
0
100
AcDbLine
 10
30.65454
 20
56.0
 30
0.0
 11
31.97274
 21
56.0
 31
0.0
  0
LINE
  5
9C
330
1E
100
AcDbEntity
  8
0
100
AcDbLine
 10
29.83634
 20
56.0
 30
0.0
 11
30.65454
 21
56.0
 31
0.0
  0
LINE
  5
9D
330
1E
100
AcDbEntity
  8
0
100
AcDbLine
 10
30.25634
 20
55.8701
 30
0.0
 11
31.47274
 21
55.7663
 31
0.0
  0
LINE
  5
A0
330
1E
100
AcDbEntity
  8
0
100
AcDbLine
 10
29.51814
 20
56.0
 30
0.0
 11
29.83634
 21
56.0
 31
0.0
  0
LINE
  5
A1
330
1E
100
AcDbEntity
  8
0
100
AcDbLine
 10
28.83634
 20
55.80709999999999
 30
0.0
 11
29.51814
 21
56.0
 31
0.0
  0
LINE
  5
A3
330
1E
100
AcDbEntity
  8
0
100
AcDbLine
 10
28.15454
 20
55.3571
 30
0.0
 11
28.83634
 21
55.80709999999999
 31
0.0
  0
LINE
  5
A5
330
1E
100
AcDbEntity
  8
0
100
AcDbLine
 10
28.15454
 20
55.3571
 30
0.0
 11
28.30974
 21
55.3571
 31
0.0
  0
LINE
  5
A6
330
1E
100
AcDbEntity
  8
0
100
AcDbLine
 10
28.15454
 20
47.64289999999999
 30
0.0
 11
28.83634
 21
47.19289999999999
 31
0.0
  0
LINE
  5
A7
330
1E
100
AcDbEntity
  8
0
100
AcDbLine
 10
28.15454
 20
47.64289999999999
 30
0.0
 11
28.30974
 21
47.64289999999999
 31
0.0
  0
LINE
  5
A8
330
1E
100
AcDbEntity
  8
0
100
AcDbLine
 10
27.92724
 20
48.2857
 30
0.0
 11
27.92724
 21
54.7143
 31
0.0
  0
LINE
  5
A9
330
1E
100
AcDbEntity
  8
0
100
AcDbLine
 10
27.92724
 20
48.2857
 30
0.0
 11
28.15454
 21
47.64289999999999
 31
0.0
  0
LINE
  5
AA
330
1E
100
AcDbEntity
  8
0
100
AcDbLine
 10
30.92724
 20
47.0
 30
0.0
 11
31.17924
 21
47.0
 31
0.0
  0
LINE
  5
AB
330
1E
100
AcDbEntity
  8
0
100
AcDbLine
 10
41.39923999999999
 20
47.0
 30
0.0
 11
42.88324
 21
47.0
 31
0.0
  0
LINE
  5
AC
330
1E
100
AcDbEntity
  8
0
100
AcDbLine
 10
41.36104
 20
47.0
 30
0.0
 11
43.02234
 21
47.0
 31
0.0
  0
LINE
  5
AD
330
1E
100
AcDbEntity
  8
0
100
AcDbLine
 10
44.00324
 20
47.0
 30
0.0
 11
44.67524
 21
47.0
 31
0.0
  0
LINE
  5
AE
330
1E
100
AcDbEntity
  8
0
100
AcDbLine
 10
42.88324
 20
47.0
 30
0.0
 11
44.00324
 21
47.0
 31
0.0
  0
LINE
  5
AF
330
1E
100
AcDbEntity
  8
0
100
AcDbLine
 10
44.67524
 20
47.0
 30
0.0
 11
44.92724
 21
47.0
 31
0.0
  0
LINE
  5
B0
330
1E
100
AcDbEntity
  8
0
100
AcDbLine
 10
44.92724
 20
38.0
 30
0.0
 11
50.92724
 21
38.0
 31
0.0
  0
LINE
  5
B1
330
1E
100
AcDbEntity
  8
0
100
AcDbLine
 10
44.92724
 20
38.0
 30
0.0
 11
44.92724
 21
47.0
 31
0.0
  0
LINE
  5
B2
330
1E
100
AcDbEntity
  8
0
100
AcDbLine
 10
44.25874
 20
47.0
 30
0.0
 11
44.99274
 21
47.0
 31
0.0
  0
LINE
  5
B3
330
1E
100
AcDbEntity
  8
0
100
AcDbLine
 10
43.88174
 20
47.0
 30
0.0
 11
45.19994
 21
47.0
 31
0.0
  0
LINE
  5
B4
330
1E
100
AcDbEntity
  8
0
100
AcDbLine
 10
42.10904
 20
47.0
 30
0.0
 11
43.88174
 21
47.0
 31
0.0
  0
LINE
  5
B5
330
1E
100
AcDbEntity
  8
0
100
AcDbLine
 10
43.02234
 20
47.0
 30
0.0
 11
44.25874
 21
47.0
 31
0.0
  0
LINE
  5
B6
330
1E
100
AcDbEntity
  8
0
100
AcDbLine
 10
45.19994
 20
47.0
 30
0.0
 11
46.01814
 21
47.0
 31
0.0
  0
LINE
  5
B9
330
1E
100
AcDbEntity
  8
0
100
AcDbLine
 10
50.92724
 20
38.0
 30
0.0
 11
53.92724000000001
 21
40.0
 31
0.0
  0
LINE
  5
BA
330
1E
100
AcDbEntity
  8
0
100
AcDbLine
 10
46.33633999999999
 20
47.0
 30
0.0
 11
47.01814
 21
47.19289999999999
 31
0.0
  0
LINE
  5
BB
330
1E
100
AcDbEntity
  8
0
100
AcDbLine
 10
46.01814
 20
47.0
 30
0.0
 11
46.33633999999999
 21
47.0
 31
0.0
  0
LINE
  5
BD
330
1E
100
AcDbEntity
  8
0
100
AcDbLine
 10
44.99274
 20
47.0
 30
0.0
 11
45.24394
 21
47.0
 31
0.0
  0
LINE
  5
BE
330
1E
100
AcDbEntity
  8
0
100
AcDbLine
 10
31.60574
 20
47.0
 30
0.0
 11
33.05454
 21
47.0
 31
0.0
  0
LINE
  5
BF
330
1E
100
AcDbEntity
  8
0
100
AcDbLine
 10
31.97274
 20
47.0
 30
0.0
 11
33.74544
 21
47.0
 31
0.0
  0
LINE
  5
C0
330
1E
100
AcDbEntity
  8
0
100
AcDbLine
 10
31.17924
 20
47.0
 30
0.0
 11
31.85124
 21
47.0
 31
0.0
  0
LINE
  5
C1
330
1E
100
AcDbEntity
  8
0
100
AcDbLine
 10
31.85124
 20
47.0
 30
0.0
 11
32.97124
 21
47.0
 31
0.0
  0
LINE
  5
C2
330
1E
100
AcDbEntity
  8
0
100
AcDbLine
 10
33.05454
 20
47.0
 30
0.0
 11
34.69654
 21
47.0
 31
0.0
  0
LINE
  5
C3
330
1E
100
AcDbEntity
  8
0
100
AcDbLine
 10
35.74544
 20
47.0
 30
0.0
 11
37.92724
 21
47.0
 31
0.0
  0
LINE
  5
C4
330
1E
100
AcDbEntity
  8
0
100
AcDbLine
 10
34.69654
 20
47.0
 30
0.0
 11
36.31914
 21
47.0
 31
0.0
  0
LINE
  5
C5
330
1E
100
AcDbEntity
  8
0
100
AcDbLine
 10
33.74544
 20
47.0
 30
0.0
 11
35.74544
 21
47.0
 31
0.0
  0
LINE
  5
C6
330
1E
100
AcDbEntity
  8
0
100
AcDbLine
 10
32.97124
 20
47.0
 30
0.0
 11
34.45524
 21
47.0
 31
0.0
  0
LINE
  5
C7
330
1E
100
AcDbEntity
  8
0
100
AcDbLine
 10
30.98324
 20
65.0
 30
0.0
 11
32.26324
 21
65.0
 31
0.0
  0
LINE
  5
C9
330
1E
100
AcDbEntity
  8
0
100
AcDbLine
 10
32.32464
 20
47.64289999999999
 30
0.0
 11
33.06364
 21
47.64289999999999
 31
0.0
  0
LINE
  5
CA
330
1E
100
AcDbEntity
  8
0
100
AcDbLine
 10
32.26324
 20
65.0
 30
0.0
 11
33.95924
 21
65.0
 31
0.0
  0
LINE
  5
CB
330
1E
100
AcDbEntity
  8
0
100
AcDbLine
 10
31.97274
 20
56.0
 30
0.0
 11
33.74544
 21
56.0
 31
0.0
  0
LINE
  5
CC
330
1E
100
AcDbEntity
  8
0
100
AcDbLine
 10
31.47274
 20
55.7663
 30
0.0
 11
32.32464
 21
55.3571
 31
0.0
  0
LINE
  5
D0
330
1E
100
AcDbEntity
  8
0
100
AcDbLine
 10
31.47274
 20
47.2338
 30
0.0
 11
32.32464
 21
47.64289999999999
 31
0.0
  0
LINE
  5
D1
330
1E
100
AcDbEntity
  8
0
100
AcDbLine
 10
33.06364
 20
47.64289999999999
 30
0.0
 11
33.51384
 21
47.64289999999999
 31
0.0
  0
LINE
  5
D5
330
1E
100
AcDbEntity
  8
0
100
AcDbLine
 10
33.06364
 20
55.3571
 30
0.0
 11
33.51384
 21
55.3571
 31
0.0
  0
LINE
  5
DC
330
1E
100
AcDbEntity
  8
0
100
AcDbLine
 10
33.51384
 20
55.3571
 30
0.0
 11
35.63634
 21
55.8457
 31
0.0
  0
LINE
  5
DD
330
1E
100
AcDbEntity
  8
0
100
AcDbLine
 10
33.51384
 20
47.64289999999999
 30
0.0
 11
35.63634
 21
47.1543
 31
0.0
  0
LINE
  5
DE
330
1E
100
AcDbEntity
  8
0
100
AcDbLine
 10
35.74544
 20
56.0
 30
0.0
 11
45.19994
 21
56.0
 31
0.0
  0
LINE
  5
DF
330
1E
100
AcDbEntity
  8
0
100
AcDbLine
 10
35.63634
 20
55.8457
 30
0.0
 11
37.92724
 21
55.93569999999999
 31
0.0
  0
LINE
  5
E1
330
1E
100
AcDbEntity
  8
0
100
AcDbLine
 10
35.63634
 20
47.1543
 30
0.0
 11
37.92724
 21
47.0643
 31
0.0
  0
LINE
  5
E2
330
1E
100
AcDbEntity
  8
0
100
AcDbLine
 10
32.32724
 20
68.0
 30
0.0
 11
32.52884
 21
68.0
 31
0.0
  0
LINE
  5
E3
330
1E
100
AcDbEntity
  8
0
100
AcDbLine
 10
32.52884
 20
68.0
 30
0.0
 11
33.06644
 21
68.0
 31
0.0
  0
LINE
  5
E4
330
1E
100
AcDbEntity
  8
0
100
AcDbLine
 10
33.06644
 20
68.0
 30
0.0
 11
33.96244
 21
68.0
 31
0.0
  0
LINE
  5
E5
330
1E
100
AcDbEntity
  8
0
100
AcDbLine
 10
32.92724
 20
81.0
 30
0.0
 11
33.10724
 21
81.0
 31
0.0
  0
LINE
  5
E6
330
1E
100
AcDbEntity
  8
0
100
AcDbLine
 10
33.96244
 20
68.0
 30
0.0
 11
35.14964
 21
68.0
 31
0.0
  0
LINE
  5
E7
330
1E
100
AcDbEntity
  8
0
100
AcDbLine
 10
33.95924
 20
65.0
 30
0.0
 11
35.87924
 21
65.0
 31
0.0
  0
LINE
  5
E8
330
1E
100
AcDbEntity
  8
0
100
AcDbLine
 10
33.10724
 20
81.0
 30
0.0
 11
33.58724
 21
81.0
 31
0.0
  0
LINE
  5
E9
330
1E
100
AcDbEntity
  8
0
100
AcDbLine
 10
33.58724
 20
81.0
 30
0.0
 11
34.38724
 21
81.0
 31
0.0
  0
LINE
  5
EA
330
1E
100
AcDbEntity
  8
0
100
AcDbLine
 10
35.14964
 20
68.0
 30
0.0
 11
36.49364
 21
68.0
 31
0.0
  0
LINE
  5
EB
330
1E
100
AcDbEntity
  8
0
100
AcDbLine
 10
35.87924
 20
65.0
 30
0.0
 11
37.92724
 21
65.0
 31
0.0
  0
LINE
  5
EC
330
1E
100
AcDbEntity
  8
0
100
AcDbLine
 10
34.38724
 20
81.0
 30
0.0
 11
35.44724
 21
81.0
 31
0.0
  0
LINE
  5
ED
330
1E
100
AcDbEntity
  8
0
100
AcDbLine
 10
35.44724
 20
81.0
 30
0.0
 11
36.64724
 21
81.0
 31
0.0
  0
LINE
  5
EE
330
1E
100
AcDbEntity
  8
0
100
AcDbLine
 10
32.92724
 20
68.0
 30
0.0
 11
32.92724
 21
81.0
 31
0.0
  0
LINE
  5
EF
330
1E
100
AcDbEntity
  8
0
100
AcDbLine
 10
33.74544
 20
56.0
 30
0.0
 11
35.74544
 21
56.0
 31
0.0
  0
LINE
  5
F2
330
1E
100
AcDbEntity
  8
0
100
AcDbLine
 10
32.32464
 20
55.3571
 30
0.0
 11
33.06364
 21
55.3571
 31
0.0
  0
LINE
  5
F4
330
1E
100
AcDbEntity
  8
0
100
AcDbLine
 10
34.45524
 20
47.0
 30
0.0
 11
36.13524
 21
47.0
 31
0.0
  0
LINE
  5
F5
330
1E
100
AcDbEntity
  8
0
100
AcDbLine
 10
36.31914
 20
47.0
 30
0.0
 11
37.99974
 21
47.0
 31
0.0
  0
LINE
  5
F6
330
1E
100
AcDbEntity
  8
0
100
AcDbLine
 10
37.92724
 20
47.0
 30
0.0
 11
40.10904
 21
47.0
 31
0.0
  0
LINE
  5
F7
330
1E
100
AcDbEntity
  8
0
100
AcDbLine
 10
37.92724
 20
47.0
 30
0.0
 11
39.71923999999999
 21
47.0
 31
0.0
  0
LINE
  5
F8
330
1E
100
AcDbEntity
  8
0
100
AcDbLine
 10
39.73844
 20
47.0
 30
0.0
 11
41.36104
 21
47.0
 31
0.0
  0
LINE
  5
F9
330
1E
100
AcDbEntity
  8
0
100
AcDbLine
 10
40.10904
 20
47.0
 30
0.0
 11
42.10904
 21
47.0
 31
0.0
  0
LINE
  5
FA
330
1E
100
AcDbEntity
  8
0
100
AcDbLine
 10
37.99974
 20
47.0
 30
0.0
 11
39.73844
 21
47.0
 31
0.0
  0
LINE
  5
FB
330
1E
100
AcDbEntity
  8
0
100
AcDbLine
 10
37.92724
 20
47.0643
 30
0.0
 11
40.21814
 21
47.1543
 31
0.0
  0
LINE
  5
FE
330
1E
100
AcDbEntity
  8
0
100
AcDbLine
 10
40.21814
 20
47.1543
 30
0.0
 11
42.34064
 21
47.64289999999999
 31
0.0
  0
LINE
  5
FF
330
1E
100
AcDbEntity
  8
0
100
AcDbLine
 10
45.59814
 20
47.1299
 30
0.0
 11
46.80774
 21
47.2691
 31
0.0
  0
LINE
  5
101
330
1E
100
AcDbEntity
  8
0
100
AcDbLine
 10
44.38174
 20
47.2338
 30
0.0
 11
45.59814
 21
47.1299
 31
0.0
  0
LINE
  5
102
330
1E
100
AcDbEntity
  8
0
100
AcDbLine
 10
42.79084
 20
47.64289999999999
 30
0.0
 11
43.52994
 21
47.64289999999999
 31
0.0
  0
LINE
  5
103
330
1E
100
AcDbEntity
  8
0
100
AcDbLine
 10
42.34064
 20
47.64289999999999
 30
0.0
 11
42.79084
 21
47.64289999999999
 31
0.0
  0
LINE
  5
107
330
1E
100
AcDbEntity
  8
0
100
AcDbLine
 10
42.79084
 20
55.3571
 30
0.0
 11
44.38174
 21
55.7663
 31
0.0
  0
LINE
  5
10B
330
1E
100
AcDbEntity
  8
0
100
AcDbLine
 10
42.34064
 20
55.3571
 30
0.0
 11
42.79084
 21
55.3571
 31
0.0
  0
LINE
  5
10E
330
1E
100
AcDbEntity
  8
0
100
AcDbLine
 10
43.52994
 20
47.64289999999999
 30
0.0
 11
44.38174
 21
47.2338
 31
0.0
  0
LINE
  5
10F
330
1E
100
AcDbEntity
  8
0
100
AcDbLine
 10
47.54474
 20
47.64289999999999
 30
0.0
 11
47.69994
 21
47.64289999999999
 31
0.0
  0
LINE
  5
111
330
1E
100
AcDbEntity
  8
0
100
AcDbLine
 10
46.80774
 20
47.2691
 30
0.0
 11
47.54474
 21
47.64289999999999
 31
0.0
  0
LINE
  5
112
330
1E
100
AcDbEntity
  8
0
100
AcDbLine
 10
47.54474
 20
55.3571
 30
0.0
 11
47.69994
 21
55.3571
 31
0.0
  0
LINE
  5
115
330
1E
100
AcDbEntity
  8
0
100
AcDbLine
 10
44.38174
 20
55.7663
 30
0.0
 11
45.59814
 21
55.8701
 31
0.0
  0
LINE
  5
118
330
1E
100
AcDbEntity
  8
0
100
AcDbLine
 10
46.80774
 20
55.7309
 30
0.0
 11
47.54474
 21
55.3571
 31
0.0
  0
LINE
  5
119
330
1E
100
AcDbEntity
  8
0
100
AcDbLine
 10
47.69994
 20
55.3571
 30
0.0
 11
47.92724
 21
54.7143
 31
0.0
  0
LINE
  5
11C
330
1E
100
AcDbEntity
  8
0
100
AcDbLine
 10
37.92724
 20
55.93569999999999
 30
0.0
 11
40.21814
 21
55.8457
 31
0.0
  0
LINE
  5
11D
330
1E
100
AcDbEntity
  8
0
100
AcDbLine
 10
45.19994
 20
56.0
 30
0.0
 11
46.01814
 21
56.0
 31
0.0
  0
LINE
  5
120
330
1E
100
AcDbEntity
  8
0
100
AcDbLine
 10
40.21814
 20
55.8457
 30
0.0
 11
42.34064
 21
55.3571
 31
0.0
  0
LINE
  5
126
330
1E
100
AcDbEntity
  8
0
100
AcDbLine
 10
45.92724
 20
56.0
 30
0.0
 11
45.92724
 21
65.0
 31
0.0
  0
LINE
  5
127
330
1E
100
AcDbEntity
  8
0
100
AcDbLine
 10
45.59814
 20
55.8701
 30
0.0
 11
46.80774
 21
55.7309
 31
0.0
  0
LINE
  5
128
330
1E
100
AcDbEntity
  8
0
100
AcDbLine
 10
36.49364
 20
68.0
 30
0.0
 11
37.92724
 21
68.0
 31
0.0
  0
LINE
  5
129
330
1E
100
AcDbEntity
  8
0
100
AcDbLine
 10
37.92724
 20
68.0
 30
0.0
 11
39.36084
 21
68.0
 31
0.0
  0
LINE
  5
12A
330
1E
100
AcDbEntity
  8
0
100
AcDbLine
 10
37.92724
 20
65.0
 30
0.0
 11
39.97524
 21
65.0
 31
0.0
  0
LINE
  5
12B
330
1E
100
AcDbEntity
  8
0
100
AcDbLine
 10
40.70484
 20
68.0
 30
0.0
 11
41.89204
 21
68.0
 31
0.0
  0
LINE
  5
12C
330
1E
100
AcDbEntity
  8
0
100
AcDbLine
 10
39.36084
 20
68.0
 30
0.0
 11
40.70484
 21
68.0
 31
0.0
  0
LINE
  5
12D
330
1E
100
AcDbEntity
  8
0
100
AcDbLine
 10
39.97524
 20
65.0
 30
0.0
 11
41.89524
 21
65.0
 31
0.0
  0
LINE
  5
12E
330
1E
100
AcDbEntity
  8
0
100
AcDbLine
 10
42.78804
 20
68.0
 30
0.0
 11
43.32564
 21
68.0
 31
0.0
  0
LINE
  5
12F
330
1E
100
AcDbEntity
  8
0
100
AcDbLine
 10
41.89204
 20
68.0
 30
0.0
 11
42.78804
 21
68.0
 31
0.0
  0
LINE
  5
130
330
1E
100
AcDbEntity
  8
0
100
AcDbLine
 10
41.89524
 20
65.0
 30
0.0
 11
43.59124
 21
65.0
 31
0.0
  0
LINE
  5
131
330
1E
100
AcDbEntity
  8
0
100
AcDbLine
 10
42.92724
 20
81.0
 30
0.0
 11
42.92724
 21
68.0
 31
0.0
  0
LINE
  5
132
330
1E
100
AcDbEntity
  8
0
100
AcDbLine
 10
42.74724
 20
81.0
 30
0.0
 11
42.92724
 21
81.0
 31
0.0
  0
LINE
  5
133
330
1E
100
AcDbEntity
  8
0
100
AcDbLine
 10
43.32564
 20
68.0
 30
0.0
 11
43.52724
 21
68.0
 31
0.0
  0
LINE
  5
134
330
1E
100
AcDbEntity
  8
0
100
AcDbLine
 10
45.92724
 20
65.0
 30
0.0
 11
45.92724
 21
56.0
 31
0.0
  0
LINE
  5
135
330
1E
100
AcDbEntity
  8
0
100
AcDbLine
 10
45.63924
 20
65.0
 30
0.0
 11
45.92724
 21
65.0
 31
0.0
  0
LINE
  5
136
330
1E
100
AcDbEntity
  8
0
100
AcDbLine
 10
44.87124
 20
65.0
 30
0.0
 11
45.63924
 21
65.0
 31
0.0
  0
LINE
  5
137
330
1E
100
AcDbEntity
  8
0
100
AcDbLine
 10
43.59124
 20
65.0
 30
0.0
 11
44.87124
 21
65.0
 31
0.0
  0
LINE
  5
138
330
1E
100
AcDbEntity
  8
0
100
AcDbLine
 10
43.52724
 20
68.0
 30
0.0
 11
45.92724
 21
65.0
 31
0.0
  0
LINE
  5
139
330
1E
100
AcDbEntity
  8
0
100
AcDbLine
 10
42.92724
 20
68.0
 30
0.0
 11
42.92724
 21
81.0
 31
0.0
  0
LINE
  5
13A
330
1E
100
AcDbEntity
  8
0
100
AcDbLine
 10
42.26723999999999
 20
81.0
 30
0.0
 11
42.74724
 21
81.0
 31
0.0
  0
LINE
  5
13B
330
1E
100
AcDbEntity
  8
0
100
AcDbLine
 10
41.46724
 20
81.0
 30
0.0
 11
42.26723999999999
 21
81.0
 31
0.0
  0
LINE
  5
13C
330
1E
100
AcDbEntity
  8
0
100
AcDbLine
 10
40.40723999999999
 20
81.0
 30
0.0
 11
41.46724
 21
81.0
 31
0.0
  0
LINE
  5
13D
330
1E
100
AcDbEntity
  8
0
100
AcDbLine
 10
40.40723999999999
 20
81.0
 30
0.0
 11
40.96154
 21
81.0
 31
0.0
  0
LINE
  5
13E
330
1E
100
AcDbEntity
  8
0
100
AcDbLine
 10
39.20724
 20
81.0
 30
0.0
 11
40.40723999999999
 21
81.0
 31
0.0
  0
LINE
  5
13F
330
1E
100
AcDbEntity
  8
0
100
AcDbLine
 10
37.92724
 20
81.0
 30
0.0
 11
39.20724
 21
81.0
 31
0.0
  0
LINE
  5
140
330
1E
100
AcDbEntity
  8
0
100
AcDbLine
 10
36.64724
 20
81.0
 30
0.0
 11
37.92724
 21
81.0
 31
0.0
  0
LINE
  5
142
330
1E
100
AcDbEntity
  8
0
100
AcDbLine
 10
46.01814
 20
56.0
 30
0.0
 11
46.33633999999999
 21
56.0
 31
0.0
  0
LINE
  5
143
330
1E
100
AcDbEntity
  8
0
100
AcDbLine
 10
46.33633999999999
 20
56.0
 30
0.0
 11
47.01814
 21
55.80709999999999
 31
0.0
  0
LINE
  5
144
330
1E
100
AcDbEntity
  8
0
100
AcDbLine
 10
47.01814
 20
55.80709999999999
 30
0.0
 11
47.69994
 21
55.3571
 31
0.0
  0
LINE
  5
145
330
1E
100
AcDbEntity
  8
0
100
AcDbLine
 10
47.92724
 20
48.2857
 30
0.0
 11
47.92724
 21
54.7143
 31
0.0
  0
LINE
  5
146
330
1E
100
AcDbEntity
  8
0
100
AcDbLine
 10
47.92724
 20
54.7143
 30
0.0
 11
47.92724
 21
48.2857
 31
0.0
  0
LINE
  5
147
330
1E
100
AcDbEntity
  8
0
100
AcDbLine
 10
47.69994
 20
47.64289999999999
 30
0.0
 11
47.92724
 21
48.2857
 31
0.0
  0
LINE
  5
148
330
1E
100
AcDbEntity
  8
0
100
AcDbLine
 10
47.01814
 20
47.19289999999999
 30
0.0
 11
47.69994
 21
47.64289999999999
 31
0.0
  0
LINE
  5
14A
330
1E
100
AcDbEntity
  8
0
100
AcDbLine
 10
36.13524
 20
47.0
 30
0.0
 11
37.92724
 21
47.0
 31
0.0
  0
LINE
  5
14B
330
1E
100
AcDbEntity
  8
0
100
AcDbLine
 10
44.92724
 20
47.0
 30
0.0
 11
44.92724
 21
38.0
 31
0.0
  0
LINE
  5
14C
330
1E
100
AcDbEntity
  8
0
100
AcDbLine
 10
44.92724
 20
47.0
 30
0.0
 11
44.99274
 21
47.0
 31
0.0
  0
LINE
  5
14D
330
1E
100
AcDbEntity
  8
0
100
AcDbLine
 10
30.92724
 20
38.0
 30
0.0
 11
30.92724
 21
47.0
 31
0.0
  0
LINE
  5
14E
330
1E
100
AcDbEntity
  8
0
100
AcDbLine
 10
23.92724
 20
16.0
 30
0.0
 11
50.92724
 21
16.0
 31
0.0
  0
LINE
  5
14F
330
1E
100
AcDbEntity
  8
0
100
AcDbLine
 10
68.92724
 20
14.0
 30
0.0
 11
68.92724
 21
14.468
 31
0.0
  0
LINE
  5
150
330
1E
100
AcDbEntity
  8
0
100
AcDbLine
 10
68.92724
 20
8.735289999999999
 30
0.0
 11
68.92724
 21
4.68529
 31
0.0
  0
LINE
  5
151
330
1E
100
AcDbEntity
  8
0
100
AcDbLine
 10
68.92724
 20
8.735289999999999
 30
0.0
 11
68.92724
 21
14.1353
 31
0.0
  0
LINE
  5
152
330
1E
100
AcDbEntity
  8
0
100
AcDbLine
 10
68.92724
 20
4.68529
 30
0.0
 11
68.92724
 21
2.14412
 31
0.0
  0
LINE
  5
153
330
1E
100
AcDbEntity
  8
0
100
AcDbLine
 10
68.92724
 20
4.68529
 30
0.0
 11
68.92724
 21
8.735289999999999
 31
0.0
  0
LINE
  5
154
330
1E
100
AcDbEntity
  8
0
100
AcDbLine
 10
68.92724
 20
2.14412
 30
0.0
 11
68.92724
 21
1.191179999999999
 31
0.0
  0
LINE
  5
155
330
1E
100
AcDbEntity
  8
0
100
AcDbLine
 10
68.92724
 20
2.14412
 30
0.0
 11
68.92724
 21
4.68529
 31
0.0
  0
LINE
  5
156
330
1E
100
AcDbEntity
  8
0
100
AcDbLine
 10
69.31184
 20
13.7382
 30
0.0
 11
69.31184
 21
8.17941
 31
0.0
  0
LINE
  5
157
330
1E
100
AcDbEntity
  8
0
100
AcDbLine
 10
69.31184
 20
13.7382
 30
0.0
 11
69.31184
 21
20.1706
 31
0.0
  0
LINE
  5
158
330
1E
100
AcDbEntity
  8
0
100
AcDbLine
 10
69.31184
 20
8.17941
 30
0.0
 11
69.31184
 21
3.970589999999999
 31
0.0
  0
LINE
  5
159
330
1E
100
AcDbEntity
  8
0
100
AcDbLine
 10
69.31184
 20
8.17941
 30
0.0
 11
69.31184
 21
13.7382
 31
0.0
  0
LINE
  5
15A
330
1E
100
AcDbEntity
  8
0
100
AcDbLine
 10
69.31184
 20
3.970589999999999
 30
0.0
 11
69.31184
 21
1.35
 31
0.0
  0
LINE
  5
15B
330
1E
100
AcDbEntity
  8
0
100
AcDbLine
 10
69.31184
 20
3.970589999999999
 30
0.0
 11
69.31184
 21
8.17941
 31
0.0
  0
LINE
  5
15C
330
1E
100
AcDbEntity
  8
0
100
AcDbLine
 10
69.31184
 20
1.35
 30
0.0
 11
69.31184
 21
0.397058999999998
 31
0.0
  0
LINE
  5
15D
330
1E
100
AcDbEntity
  8
0
100
AcDbLine
 10
69.31184
 20
1.35
 30
0.0
 11
69.31184
 21
3.970589999999999
 31
0.0
  0
LINE
  5
15E
330
1E
100
AcDbEntity
  8
0
100
AcDbLine
 10
68.92724
 20
1.191179999999999
 30
0.0
 11
69.31184
 21
0.397058999999998
 31
0.0
  0
LINE
  5
15F
330
1E
100
AcDbEntity
  8
0
100
AcDbLine
 10
68.92724
 20
1.191179999999999
 30
0.0
 11
68.92724
 21
2.14412
 31
0.0
  0
LINE
  5
160
330
1E
100
AcDbEntity
  8
0
100
AcDbLine
 10
69.31184
 20
0.397058999999998
 30
0.0
 11
70.08104
 21
-0.0000000000000018
 31
0.0
  0
LINE
  5
161
330
1E
100
AcDbEntity
  8
0
100
AcDbLine
 10
69.31184
 20
0.397058999999998
 30
0.0
 11
70.08104
 21
-0.0000000000000018
 31
0.0
  0
LINE
  5
162
330
1E
100
AcDbEntity
  8
0
100
AcDbLine
 10
69.31184
 20
0.397058999999998
 30
0.0
 11
69.31184
 21
1.35
 31
0.0
  0
LINE
  5
163
330
1E
100
AcDbEntity
  8
0
100
AcDbLine
 10
78.92724
 20
-0.0000000000000023
 30
0.0
 11
78.92724
 21
0.9529409999999979
 31
0.0
  0
LINE
  5
164
330
1E
100
AcDbEntity
  8
0
100
AcDbLine
 10
78.92724
 20
13.5794
 30
0.0
 11
78.92724
 21
7.94118
 31
0.0
  0
LINE
  5
165
330
1E
100
AcDbEntity
  8
0
100
AcDbLine
 10
78.92724
 20
13.5794
 30
0.0
 11
78.92724
 21
20.0912
 31
0.0
  0
LINE
  5
166
330
1E
100
AcDbEntity
  8
0
100
AcDbLine
 10
78.92724
 20
7.94118
 30
0.0
 11
78.92724
 21
3.65294
 31
0.0
  0
LINE
  5
167
330
1E
100
AcDbEntity
  8
0
100
AcDbLine
 10
78.92724
 20
7.94118
 30
0.0
 11
78.92724
 21
13.5794
 31
0.0
  0
LINE
  5
168
330
1E
100
AcDbEntity
  8
0
100
AcDbLine
 10
78.92724
 20
3.65294
 30
0.0
 11
78.92724
 21
0.952940999999997
 31
0.0
  0
LINE
  5
169
330
1E
100
AcDbEntity
  8
0
100
AcDbLine
 10
78.92724
 20
3.65294
 30
0.0
 11
78.92724
 21
7.94118
 31
0.0
  0
LINE
  5
16A
330
1E
100
AcDbEntity
  8
0
100
AcDbLine
 10
78.92724
 20
0.9529409999999979
 30
0.0
 11
78.92724
 21
-0.0000000000000024
 31
0.0
  0
LINE
  5
16B
330
1E
100
AcDbEntity
  8
0
100
AcDbLine
 10
78.92724
 20
0.9529409999999979
 30
0.0
 11
78.92724
 21
3.65294
 31
0.0
  0
LINE
  5
16C
330
1E
100
AcDbEntity
  8
0
100
AcDbLine
 10
70.08104
 20
-0.0000000000000018
 30
0.0
 11
78.92724
 21
-0.0000000000000023
 31
0.0
  0
LINE
  5
16D
330
1E
100
AcDbEntity
  8
0
100
AcDbLine
 10
68.92724
 20
14.468
 30
0.0
 11
68.92724
 21
15.716
 31
0.0
  0
LINE
  5
16E
330
1E
100
AcDbEntity
  8
0
100
AcDbLine
 10
68.92724
 20
14.468
 30
0.0
 11
68.92724
 21
14.0
 31
0.0
  0
LINE
  5
16F
330
1E
100
AcDbEntity
  8
0
100
AcDbLine
 10
68.92724
 20
15.716
 30
0.0
 11
68.92724
 21
17.796
 31
0.0
  0
LINE
  5
170
330
1E
100
AcDbEntity
  8
0
100
AcDbLine
 10
68.92724
 20
15.716
 30
0.0
 11
68.92724
 21
14.468
 31
0.0
  0
LINE
  5
171
330
1E
100
AcDbEntity
  8
0
100
AcDbLine
 10
68.92724
 20
17.796
 30
0.0
 11
68.92724
 21
20.552
 31
0.0
  0
LINE
  5
172
330
1E
100
AcDbEntity
  8
0
100
AcDbLine
 10
68.92724
 20
17.796
 30
0.0
 11
68.92724
 21
15.716
 31
0.0
  0
LINE
  5
173
330
1E
100
AcDbEntity
  8
0
100
AcDbLine
 10
68.92724
 20
14.1353
 30
0.0
 11
68.92724
 21
8.735289999999999
 31
0.0
  0
LINE
  5
174
330
1E
100
AcDbEntity
  8
0
100
AcDbLine
 10
68.92724
 20
14.1353
 30
0.0
 11
68.92724
 21
20.32939999999999
 31
0.0
  0
LINE
  5
17D
330
1E
100
AcDbEntity
  8
0
100
AcDbLine
 10
68.92724
 20
20.552
 30
0.0
 11
68.92724
 21
23.67199999999999
 31
0.0
  0
LINE
  5
17E
330
1E
100
AcDbEntity
  8
0
100
AcDbLine
 10
68.92724
 20
20.552
 30
0.0
 11
68.92724
 21
17.796
 31
0.0
  0
LINE
  5
17F
330
1E
100
AcDbEntity
  8
0
100
AcDbLine
 10
68.92724
 20
23.67199999999999
 30
0.0
 11
68.92724
 21
27.0
 31
0.0
  0
LINE
  5
180
330
1E
100
AcDbEntity
  8
0
100
AcDbLine
 10
68.92724
 20
23.67199999999999
 30
0.0
 11
68.92724
 21
20.552
 31
0.0
  0
LINE
  5
181
330
1E
100
AcDbEntity
  8
0
100
AcDbLine
 10
68.92724
 20
39.53199999999999
 30
0.0
 11
68.92724
 21
40.0
 31
0.0
  0
LINE
  5
182
330
1E
100
AcDbEntity
  8
0
100
AcDbLine
 10
68.92724
 20
39.53199999999999
 30
0.0
 11
68.92724
 21
38.284
 31
0.0
  0
LINE
  5
183
330
1E
100
AcDbEntity
  8
0
100
AcDbLine
 10
68.92724
 20
38.284
 30
0.0
 11
68.92724
 21
39.53199999999999
 31
0.0
  0
LINE
  5
184
330
1E
100
AcDbEntity
  8
0
100
AcDbLine
 10
68.92724
 20
38.284
 30
0.0
 11
68.92724
 21
36.204
 31
0.0
  0
LINE
  5
185
330
1E
100
AcDbEntity
  8
0
100
AcDbLine
 10
68.92724
 20
36.204
 30
0.0
 11
68.92724
 21
38.284
 31
0.0
  0
LINE
  5
186
330
1E
100
AcDbEntity
  8
0
100
AcDbLine
 10
68.92724
 20
36.204
 30
0.0
 11
68.92724
 21
33.448
 31
0.0
  0
LINE
  5
187
330
1E
100
AcDbEntity
  8
0
100
AcDbLine
 10
68.92724
 20
33.448
 30
0.0
 11
68.92724
 21
36.204
 31
0.0
  0
LINE
  5
188
330
1E
100
AcDbEntity
  8
0
100
AcDbLine
 10
68.92724
 20
33.448
 30
0.0
 11
68.92724
 21
30.328
 31
0.0
  0
LINE
  5
189
330
1E
100
AcDbEntity
  8
0
100
AcDbLine
 10
68.92724
 20
30.328
 30
0.0
 11
68.92724
 21
33.448
 31
0.0
  0
LINE
  5
18A
330
1E
100
AcDbEntity
  8
0
100
AcDbLine
 10
68.92724
 20
30.328
 30
0.0
 11
68.92724
 21
27.0
 31
0.0
  0
LINE
  5
18E
330
1E
100
AcDbEntity
  8
0
100
AcDbLine
 10
53.92724000000001
 20
40.0
 30
0.0
 11
68.92724
 21
40.0
 31
0.0
  0
LINE
  5
18F
330
1E
100
AcDbEntity
  8
0
100
AcDbLine
 10
68.92724
 20
40.0
 30
0.0
 11
68.92724
 21
45.26469999999999
 31
0.0
  0
LINE
  5
190
330
1E
100
AcDbEntity
  8
0
100
AcDbLine
 10
68.92724
 20
40.0
 30
0.0
 11
68.92724
 21
39.53199999999999
 31
0.0
  0
LINE
  5
191
330
1E
100
AcDbEntity
  8
0
100
AcDbLine
 10
68.92724
 20
45.26469999999999
 30
0.0
 11
68.92724
 21
49.3147
 31
0.0
  0
LINE
  5
192
330
1E
100
AcDbEntity
  8
0
100
AcDbLine
 10
68.92724
 20
45.26469999999999
 30
0.0
 11
68.92724
 21
40.0
 31
0.0
  0
LINE
  5
193
330
1E
100
AcDbEntity
  8
0
100
AcDbLine
 10
68.92724
 20
49.3147
 30
0.0
 11
68.92724
 21
51.8559
 31
0.0
  0
LINE
  5
194
330
1E
100
AcDbEntity
  8
0
100
AcDbLine
 10
68.92724
 20
49.3147
 30
0.0
 11
68.92724
 21
45.26469999999999
 31
0.0
  0
LINE
  5
195
330
1E
100
AcDbEntity
  8
0
100
AcDbLine
 10
68.92724
 20
51.8559
 30
0.0
 11
68.92724
 21
52.80879999999999
 31
0.0
  0
LINE
  5
196
330
1E
100
AcDbEntity
  8
0
100
AcDbLine
 10
68.92724
 20
51.8559
 30
0.0
 11
68.92724
 21
49.3147
 31
0.0
  0
LINE
  5
197
330
1E
100
AcDbEntity
  8
0
100
AcDbLine
 10
68.92724
 20
52.80879999999999
 30
0.0
 11
68.92724
 21
51.8559
 31
0.0
  0
LINE
  5
198
330
1E
100
AcDbEntity
  8
0
100
AcDbLine
 10
68.92724
 20
52.80879999999999
 30
0.0
 11
69.31184
 21
53.60289999999999
 31
0.0
  0
LINE
  5
199
330
1E
100
AcDbEntity
  8
0
100
AcDbLine
 10
68.92724
 20
20.32939999999999
 30
0.0
 11
68.92724
 21
14.1353
 31
0.0
  0
LINE
  5
19A
330
1E
100
AcDbEntity
  8
0
100
AcDbLine
 10
68.92724
 20
20.32939999999999
 30
0.0
 11
68.92724
 21
27.0
 31
0.0
  0
LINE
  5
19B
330
1E
100
AcDbEntity
  8
0
100
AcDbLine
 10
69.31184
 20
40.2618
 30
0.0
 11
69.31184
 21
33.8294
 31
0.0
  0
LINE
  5
19C
330
1E
100
AcDbEntity
  8
0
100
AcDbLine
 10
69.31184
 20
40.2618
 30
0.0
 11
69.31184
 21
45.8206
 31
0.0
  0
LINE
  5
19D
330
1E
100
AcDbEntity
  8
0
100
AcDbLine
 10
69.31184
 20
33.8294
 30
0.0
 11
69.31184
 21
27.0
 31
0.0
  0
LINE
  5
19E
330
1E
100
AcDbEntity
  8
0
100
AcDbLine
 10
69.31184
 20
33.8294
 30
0.0
 11
69.31184
 21
40.2618
 31
0.0
  0
LINE
  5
19F
330
1E
100
AcDbEntity
  8
0
100
AcDbLine
 10
69.31184
 20
45.8206
 30
0.0
 11
69.31184
 21
50.0294
 31
0.0
  0
LINE
  5
1A0
330
1E
100
AcDbEntity
  8
0
100
AcDbLine
 10
69.31184
 20
45.8206
 30
0.0
 11
69.31184
 21
40.2618
 31
0.0
  0
LINE
  5
1A1
330
1E
100
AcDbEntity
  8
0
100
AcDbLine
 10
69.31184
 20
50.0294
 30
0.0
 11
69.31184
 21
45.8206
 31
0.0
  0
LINE
  5
1A2
330
1E
100
AcDbEntity
  8
0
100
AcDbLine
 10
69.31184
 20
50.0294
 30
0.0
 11
69.31184
 21
52.65
 31
0.0
  0
LINE
  5
1A3
330
1E
100
AcDbEntity
  8
0
100
AcDbLine
 10
69.31184
 20
52.65
 30
0.0
 11
69.31184
 21
50.0294
 31
0.0
  0
LINE
  5
1A4
330
1E
100
AcDbEntity
  8
0
100
AcDbLine
 10
69.31184
 20
52.65
 30
0.0
 11
69.31184
 21
53.60289999999999
 31
0.0
  0
LINE
  5
1A5
330
1E
100
AcDbEntity
  8
0
100
AcDbLine
 10
69.31184
 20
53.60289999999999
 30
0.0
 11
69.31184
 21
52.65
 31
0.0
  0
LINE
  5
1A6
330
1E
100
AcDbEntity
  8
0
100
AcDbLine
 10
69.31184
 20
53.60289999999999
 30
0.0
 11
70.08104
 21
54.0
 31
0.0
  0
LINE
  5
1A7
330
1E
100
AcDbEntity
  8
0
100
AcDbLine
 10
68.92724
 20
27.0
 30
0.0
 11
68.92724
 21
20.32939999999999
 31
0.0
  0
LINE
  5
1A8
330
1E
100
AcDbEntity
  8
0
100
AcDbLine
 10
68.92724
 20
27.0
 30
0.0
 11
68.92724
 21
30.328
 31
0.0
  0
LINE
  5
1A9
330
1E
100
AcDbEntity
  8
0
100
AcDbLine
 10
68.92724
 20
27.0
 30
0.0
 11
68.92724
 21
23.67199999999999
 31
0.0
  0
LINE
  5
1AA
330
1E
100
AcDbEntity
  8
0
100
AcDbLine
 10
69.31184
 20
20.1706
 30
0.0
 11
69.31184
 21
13.7382
 31
0.0
  0
LINE
  5
1AB
330
1E
100
AcDbEntity
  8
0
100
AcDbLine
 10
69.31184
 20
20.1706
 30
0.0
 11
69.31184
 21
27.0
 31
0.0
  0
LINE
  5
1AC
330
1E
100
AcDbEntity
  8
0
100
AcDbLine
 10
78.92724
 20
40.4206
 30
0.0
 11
78.92724
 21
33.9088
 31
0.0
  0
LINE
  5
1AD
330
1E
100
AcDbEntity
  8
0
100
AcDbLine
 10
78.92724
 20
40.4206
 30
0.0
 11
78.92724
 21
46.05879999999999
 31
0.0
  0
LINE
  5
1AE
330
1E
100
AcDbEntity
  8
0
100
AcDbLine
 10
78.92724
 20
33.9088
 30
0.0
 11
78.92724
 21
27.0
 31
0.0
  0
LINE
  5
1AF
330
1E
100
AcDbEntity
  8
0
100
AcDbLine
 10
78.92724
 20
33.9088
 30
0.0
 11
78.92724
 21
40.4206
 31
0.0
  0
LINE
  5
1B0
330
1E
100
AcDbEntity
  8
0
100
AcDbLine
 10
78.92724
 20
46.05879999999999
 30
0.0
 11
78.92724
 21
50.3471
 31
0.0
  0
LINE
  5
1B1
330
1E
100
AcDbEntity
  8
0
100
AcDbLine
 10
78.92724
 20
46.05879999999999
 30
0.0
 11
78.92724
 21
40.4206
 31
0.0
  0
LINE
  5
1B2
330
1E
100
AcDbEntity
  8
0
100
AcDbLine
 10
70.08104
 20
54.0
 30
0.0
 11
78.92724
 21
54.0
 31
0.0
  0
LINE
  5
1B3
330
1E
100
AcDbEntity
  8
0
100
AcDbLine
 10
78.92724
 20
50.3471
 30
0.0
 11
78.92724
 21
46.05879999999999
 31
0.0
  0
LINE
  5
1B4
330
1E
100
AcDbEntity
  8
0
100
AcDbLine
 10
78.92724
 20
50.3471
 30
0.0
 11
78.92724
 21
53.0471
 31
0.0
  0
LINE
  5
1B5
330
1E
100
AcDbEntity
  8
0
100
AcDbLine
 10
78.92724
 20
53.0471
 30
0.0
 11
78.92724
 21
50.3471
 31
0.0
  0
LINE
  5
1B6
330
1E
100
AcDbEntity
  8
0
100
AcDbLine
 10
78.92724
 20
53.0471
 30
0.0
 11
78.92724
 21
54.0
 31
0.0
  0
LINE
  5
1B7
330
1E
100
AcDbEntity
  8
0
100
AcDbLine
 10
78.92724
 20
54.0
 30
0.0
 11
78.92724
 21
53.0471
 31
0.0
  0
LINE
  5
1B8
330
1E
100
AcDbEntity
  8
0
100
AcDbLine
 10
69.31184
 20
27.0
 30
0.0
 11
69.31184
 21
20.1706
 31
0.0
  0
LINE
  5
1B9
330
1E
100
AcDbEntity
  8
0
100
AcDbLine
 10
69.31184
 20
27.0
 30
0.0
 11
69.31184
 21
33.8294
 31
0.0
  0
LINE
  5
1BA
330
1E
100
AcDbEntity
  8
0
100
AcDbLine
 10
78.92724
 20
20.0912
 30
0.0
 11
78.92724
 21
13.5794
 31
0.0
  0
LINE
  5
1BB
330
1E
100
AcDbEntity
  8
0
100
AcDbLine
 10
78.92724
 20
20.0912
 30
0.0
 11
78.92724
 21
27.0
 31
0.0
  0
LINE
  5
1BC
330
1E
100
AcDbEntity
  8
0
100
AcDbLine
 10
78.92724
 20
27.0
 30
0.0
 11
78.92724
 21
20.0912
 31
0.0
  0
LINE
  5
1BD
330
1E
100
AcDbEntity
  8
0
100
AcDbLine
 10
78.92724
 20
27.0
 30
0.0
 11
78.92724
 21
33.9088
 31
0.0
  0
LINE
  5
1BE
330
1E
100
AcDbEntity
  8
0
100
AcDbLine
 10
53.92724000000001
 20
14.0
 30
0.0
 11
68.92724
 21
14.0
 31
0.0
  0
LINE
  5
1BF
330
1E
100
AcDbEntity
  8
0
100
AcDbLine
 10
50.92724
 20
16.0
 30
0.0
 11
53.92724000000001
 21
14.0
 31
0.0
  0
LINE
  5
1C4
330
1E
100
AcDbEntity
  8
0
100
AcDbLine
 10
30.92724
 20
38.0
 30
0.0
 11
44.92724
 21
38.0
 31
0.0
  0
LINE
  5
1C5
330
1E
100
AcDbEntity
  8
0
100
AcDbLine
 10
53.92724000000001
 20
40.0
 30
0.0
 11
53.92724
 21
14.0
 31
0.0
  0
LINE
  5
1C6
330
1E
100
AcDbEntity
  8
0
100
AcDbLine
 10
50.92724
 20
38.0
 30
0.0
 11
50.92724
 21
16.0
 31
0.0
  0
ENDSEC
  0
SECTION
  2
OBJECTS
  0
DICTIONARY
  5
C
330
0
100
AcDbDictionary
281
     1
  3
ACAD_GROUP
350
D
  3
ACAD_LAYOUT
350
19
  3
ACAD_MLINESTYLE
350
16
  3
ACAD_PLOTSETTINGS
350
18
  3
ACAD_PLOTSTYLENAME
350
E
  3
AcDbVariableDictionary
350
1C7
  0
DICTIONARY
  5
D
102
{ACAD_REACTORS
330
C
102
}
330
C
100
AcDbDictionary
281
     1
  0
DICTIONARY
  5
19
102
{ACAD_REACTORS
330
C
102
}
330
C
100
AcDbDictionary
281
     1
  3
Layout1
350
1D
  3
Model
350
21
  0
DICTIONARY
  5
16
102
{ACAD_REACTORS
330
C
102
}
330
C
100
AcDbDictionary
281
     1
  3
Standard
350
17
  0
DICTIONARY
  5
18
102
{ACAD_REACTORS
330
C
102
}
330
C
100
AcDbDictionary
281
     1
  0
ACDBDICTIONARYWDFLT
  5
E
102
{ACAD_REACTORS
330
C
102
}
330
C
100
AcDbDictionary
281
     1
  3
Normal
350
F
100
AcDbDictionaryWithDefault
340
F
  0
DICTIONARY
  5
1C7
102
{ACAD_REACTORS
330
C
102
}
330
C
100
AcDbDictionary
281
     1
  3
DIMASSOC
350
1C8
  0
LAYOUT
  5
1D
102
{ACAD_REACTORS
330
19
102
}
330
19
100
AcDbPlotSettings
  1

  2
hp deskjet 980c series
  4

  6

 40
0.0
 41
0.0
 42
0.0
 43
0.0
 44
0.0
 45
0.0
 46
0.0
 47
0.0
 48
0.0
 49
0.0
140
0.0
141
0.0
142
1.0
143
1.0
 70
   688
 72
     0
 73
     0
 74
     5
  7

 75
    16
147
1.0
148
0.0
149
0.0
100
AcDbLayout
  1
Layout1
 70
     1
 71
     1
 10
0.0
 20
0.0
 11
12.0
 21
9.0
 12
0.0
 22
0.0
 32
0.0
 14
1.000000000000000E+20
 24
1.000000000000000E+20
 34
1.000000000000000E+20
 15
-1.000000000000000E+20
 25
-1.000000000000000E+20
 35
-1.000000000000000E+20
146
0.0
 13
0.0
 23
0.0
 33
0.0
 16
1.0
 26
0.0
 36
0.0
 17
0.0
 27
1.0
 37
0.0
 76
     0
330
1A
  0
LAYOUT
  5
21
102
{ACAD_REACTORS
330
19
102
}
330
19
100
AcDbPlotSettings
  1

  2
hp deskjet 980c series
  4

  6

 40
0.0
 41
0.0
 42
0.0
 43
0.0
 44
0.0
 45
0.0
 46
0.0
 47
0.0
 48
0.0
 49
0.0
140
0.0
141
0.0
142
1.0
143
1.0
 70
  1712
 72
     0
 73
     0
 74
     0
  7

 75
     0
147
1.0
148
0.0
149
0.0
100
AcDbLayout
  1
Model
 70
     1
 71
     0
 10
0.0
 20
0.0
 11
12.0
 21
9.0
 12
0.0
 22
0.0
 32
0.0
 14
0.0
 24
0.0
 34
0.0
 15
0.0
 25
0.0
 35
0.0
146
0.0
 13
0.0
 23
0.0
 33
0.0
 16
1.0
 26
0.0
 36
0.0
 17
0.0
 27
1.0
 37
0.0
 76
     0
330
1E
  0
MLINESTYLE
  5
17
102
{ACAD_REACTORS
330
16
102
}
330
16
100
AcDbMlineStyle
  2
STANDARD
 70
     0
  3

 62
   256
 51
90.0
 52
90.0
 71
     2
 49
0.5
 62
   256
  6
BYLAYER
 49
-0.5
 62
   256
  6
BYLAYER
  0
ACDBPLACEHOLDER
  5
F
102
{ACAD_REACTORS
330
E
102
}
330
E
  0
DICTIONARYVAR
  5
1C8
102
{ACAD_REACTORS
330
1C7
102
}
330
1C7
100
DictionaryVariables
280
     0
  1
1
  0
ENDSEC
  0
EOF
