  0
SECTION
  2
HEADER
  9
$ACADVER
  1
AC1015
  9
$ACADMAINTVER
 70
    13
  9
$DWGCODEPAGE
  3
ANSI_1252
  9
$INSBASE
 10
0.0
 20
0.0
 30
0.0
  9
$EXTMIN
 10
0.0076000000000031
 20
0.250000000000004
 30
0.0
  9
$EXTMAX
 10
99.9924
 20
164.7499999999999
 30
0.0
  9
$LIMMIN
 10
0.0
 20
0.0
  9
$LIMMAX
 10
12.0
 20
9.0
  9
$ORTHOMODE
 70
     0
  9
$REGENMODE
 70
     1
  9
$FILLMODE
 70
     1
  9
$QTEXTMODE
 70
     0
  9
$MIRRTEXT
 70
     1
  9
$LTSCALE
 40
1.0
  9
$ATTMODE
 70
     1
  9
$TEXTSIZE
 40
0.2
  9
$TRACEWID
 40
0.05
  9
$TEXTSTYLE
  7
Standard
  9
$CLAYER
  8
0
  9
$CELTYPE
  6
Continuous
  9
$CECOLOR
 62
   256
  9
$CELTSCALE
 40
1.0
  9
$DISPSILH
 70
     0
  9
$DIMSCALE
 40
1.0
  9
$DIMASZ
 40
0.18
  9
$DIMEXO
 40
0.0625
  9
$DIMDLI
 40
0.38
  9
$DIMRND
 40
0.0
  9
$DIMDLE
 40
0.0
  9
$DIMEXE
 40
0.18
  9
$DIMTP
 40
0.0
  9
$DIMTM
 40
0.0
  9
$DIMTXT
 40
0.18
  9
$DIMCEN
 40
0.09
  9
$DIMTSZ
 40
0.0
  9
$DIMTOL
 70
     0
  9
$DIMLIM
 70
     0
  9
$DIMTIH
 70
     1
  9
$DIMTOH
 70
     1
  9
$DIMSE1
 70
     0
  9
$DIMSE2
 70
     0
  9
$DIMTAD
 70
     0
  9
$DIMZIN
 70
     0
  9
$DIMBLK
  1

  9
$DIMASO
 70
     1
  9
$DIMSHO
 70
     1
  9
$DIMPOST
  1

  9
$DIMAPOST
  1

  9
$DIMALT
 70
     0
  9
$DIMALTD
 70
     2
  9
$DIMALTF
 40
25.4
  9
$DIMLFAC
 40
1.0
  9
$DIMTOFL
 70
     0
  9
$DIMTVP
 40
0.0
  9
$DIMTIX
 70
     0
  9
$DIMSOXD
 70
     0
  9
$DIMSAH
 70
     0
  9
$DIMBLK1
  1

  9
$DIMBLK2
  1

  9
$DIMSTYLE
  2
Standard
  9
$DIMCLRD
 70
     0
  9
$DIMCLRE
 70
     0
  9
$DIMCLRT
 70
     0
  9
$DIMTFAC
 40
1.0
  9
$DIMGAP
 40
0.09
  9
$DIMJUST
 70
     0
  9
$DIMSD1
 70
     0
  9
$DIMSD2
 70
     0
  9
$DIMTOLJ
 70
     1
  9
$DIMTZIN
 70
     0
  9
$DIMALTZ
 70
     0
  9
$DIMALTTZ
 70
     0
  9
$DIMUPT
 70
     0
  9
$DIMDEC
 70
     4
  9
$DIMTDEC
 70
     4
  9
$DIMALTU
 70
     2
  9
$DIMALTTD
 70
     2
  9
$DIMTXSTY
  7
Standard
  9
$DIMAUNIT
 70
     0
  9
$DIMADEC
 70
     0
  9
$DIMALTRND
 40
0.0
  9
$DIMAZIN
 70
     0
  9
$DIMDSEP
 70
    46
  9
$DIMATFIT
 70
     3
  9
$DIMFRAC
 70
     0
  9
$DIMLDRBLK
  1

  9
$DIMLUNIT
 70
     2
  9
$DIMLWD
 70
    -2
  9
$DIMLWE
 70
    -2
  9
$DIMTMOVE
 70
     0
  9
$LUNITS
 70
     2
  9
$LUPREC
 70
     4
  9
$SKETCHINC
 40
0.1
  9
$FILLETRAD
 40
0.0
  9
$AUNITS
 70
     0
  9
$AUPREC
 70
     0
  9
$MENU
  1
.
  9
$ELEVATION
 40
0.0
  9
$PELEVATION
 40
0.0
  9
$THICKNESS
 40
0.0
  9
$LIMCHECK
 70
     0
  9
$CHAMFERA
 40
0.0
  9
$CHAMFERB
 40
0.0
  9
$CHAMFERC
 40
0.0
  9
$CHAMFERD
 40
0.0
  9
$SKPOLY
 70
     0
  9
$TDCREATE
 40
2454778.718223379
  9
$TDUCREATE
 40
2454778.676556713
  9
$TDUPDATE
 40
2454778.718909675
  9
$TDUUPDATE
 40
2454778.677243009
  9
$TDINDWG
 40
0.0006862963
  9
$TDUSRTIMER
 40
0.0006862963
  9
$USRTIMER
 70
     1
  9
$ANGBASE
 50
0.0
  9
$ANGDIR
 70
     0
  9
$PDMODE
 70
     0
  9
$PDSIZE
 40
0.0
  9
$PLINEWID
 40
0.0
  9
$SPLFRAME
 70
     0
  9
$SPLINETYPE
 70
     6
  9
$SPLINESEGS
 70
     8
  9
$HANDSEED
  5
10D
  9
$SURFTAB1
 70
     6
  9
$SURFTAB2
 70
     6
  9
$SURFTYPE
 70
     6
  9
$SURFU
 70
     6
  9
$SURFV
 70
     6
  9
$UCSBASE
  2

  9
$UCSNAME
  2

  9
$UCSORG
 10
0.0
 20
0.0
 30
0.0
  9
$UCSXDIR
 10
1.0
 20
0.0
 30
0.0
  9
$UCSYDIR
 10
0.0
 20
1.0
 30
0.0
  9
$UCSORTHOREF
  2

  9
$UCSORTHOVIEW
 70
     1
  9
$UCSORGTOP
 10
0.0
 20
0.0
 30
0.0
  9
$UCSORGBOTTOM
 10
0.0
 20
0.0
 30
0.0
  9
$UCSORGLEFT
 10
0.0
 20
0.0
 30
0.0
  9
$UCSORGRIGHT
 10
0.0
 20
0.0
 30
0.0
  9
$UCSORGFRONT
 10
0.0
 20
0.0
 30
0.0
  9
$UCSORGBACK
 10
0.0
 20
0.0
 30
0.0
  9
$PUCSBASE
  2

  9
$PUCSNAME
  2

  9
$PUCSORG
 10
0.0
 20
0.0
 30
0.0
  9
$PUCSXDIR
 10
1.0
 20
0.0
 30
0.0
  9
$PUCSYDIR
 10
0.0
 20
1.0
 30
0.0
  9
$PUCSORTHOREF
  2

  9
$PUCSORTHOVIEW
 70
     0
  9
$PUCSORGTOP
 10
0.0
 20
0.0
 30
0.0
  9
$PUCSORGBOTTOM
 10
0.0
 20
0.0
 30
0.0
  9
$PUCSORGLEFT
 10
0.0
 20
0.0
 30
0.0
  9
$PUCSORGRIGHT
 10
0.0
 20
0.0
 30
0.0
  9
$PUCSORGFRONT
 10
0.0
 20
0.0
 30
0.0
  9
$PUCSORGBACK
 10
0.0
 20
0.0
 30
0.0
  9
$USERI1
 70
     0
  9
$USERI2
 70
     0
  9
$USERI3
 70
     0
  9
$USERI4
 70
     0
  9
$USERI5
 70
     0
  9
$USERR1
 40
0.0
  9
$USERR2
 40
0.0
  9
$USERR3
 40
0.0
  9
$USERR4
 40
0.0
  9
$USERR5
 40
0.0
  9
$WORLDVIEW
 70
     1
  9
$SHADEDGE
 70
     3
  9
$SHADEDIF
 70
    70
  9
$TILEMODE
 70
     1
  9
$MAXACTVP
 70
    64
  9
$PINSBASE
 10
0.0
 20
0.0
 30
0.0
  9
$PLIMCHECK
 70
     0
  9
$PEXTMIN
 10
1.000000000000000E+20
 20
1.000000000000000E+20
 30
1.000000000000000E+20
  9
$PEXTMAX
 10
-1.000000000000000E+20
 20
-1.000000000000000E+20
 30
-1.000000000000000E+20
  9
$PLIMMIN
 10
0.0
 20
0.0
  9
$PLIMMAX
 10
12.0
 20
9.0
  9
$UNITMODE
 70
     0
  9
$VISRETAIN
 70
     1
  9
$PLINEGEN
 70
     0
  9
$PSLTSCALE
 70
     1
  9
$TREEDEPTH
 70
  3020
  9
$CMLSTYLE
  2
Standard
  9
$CMLJUST
 70
     0
  9
$CMLSCALE
 40
1.0
  9
$PROXYGRAPHICS
 70
     1
  9
$MEASUREMENT
 70
     0
  9
$CELWEIGHT
370
    -1
  9
$ENDCAPS
280
     0
  9
$JOINSTYLE
280
     0
  9
$LWDISPLAY
290
     0
  9
$INSUNITS
 70
     0
  9
$HYPERLINKBASE
  1

  9
$STYLESHEET
  1

  9
$XEDIT
290
     1
  9
$CEPSNTYPE
380
     0
  9
$PSTYLEMODE
290
     1
  9
$FINGERPRINTGUID
  2
{32F0F5FB-15B5-4CCE-9F66-84350670E702}
  9
$VERSIONGUID
  2
{11198F76-EDB5-44AF-ABDB-91E5FCDBF4F1}
  9
$EXTNAMES
290
     1
  9
$PSVPSCALE
 40
0.0
  9
$OLESTARTUP
290
     0
  0
ENDSEC
  0
SECTION
  2
CLASSES
  0
CLASS
  1
ACDBDICTIONARYWDFLT
  2
AcDbDictionaryWithDefault
  3
AutoCAD 2000
 90
        0
280
     0
281
     0
  0
CLASS
  1
ACDBPLACEHOLDER
  2
AcDbPlaceHolder
  3
AutoCAD 2000
 90
        0
280
     0
281
     0
  0
CLASS
  1
LAYOUT
  2
AcDbLayout
  3
AutoCAD 2000
 90
        0
280
     0
281
     0
  0
CLASS
  1
DICTIONARYVAR
  2
AcDbDictionaryVar
  3
AutoCAD 2000
 90
        0
280
     0
281
     0
  0
ENDSEC
  0
SECTION
  2
TABLES
  0
TABLE
  2
VPORT
  5
8
330
0
100
AcDbSymbolTable
 70
     2
  0
VPORT
  5
10C
330
8
100
AcDbSymbolTableRecord
100
AcDbViewportTableRecord
  2
*Active
 70
     0
 10
0.0
 20
0.0
 11
1.0
 21
1.0
 12
50.0
 22
82.5
 13
0.0
 23
0.0
 14
1.0
 24
1.0
 15
0.0
 25
0.0
 16
0.0
 26
0.0
 36
1.0
 17
0.0
 27
0.0
 37
0.0
 40
165.7621483375959
 41
2.078104993597951
 42
50.0
 43
0.0
 44
0.0
 50
0.0
 51
0.0
 71
     0
 72
   100
 73
     1
 74
     3
 75
     0
 76
     0
 77
     0
 78
     0
281
     0
 65
     1
110
0.0
120
0.0
130
0.0
111
1.0
121
0.0
131
0.0
112
0.0
122
1.0
132
0.0
 79
     1
146
0.0
  0
ENDTAB
  0
TABLE
  2
LTYPE
  5
5
330
0
100
AcDbSymbolTable
 70
     1
  0
LTYPE
  5
13
330
5
100
AcDbSymbolTableRecord
100
AcDbLinetypeTableRecord
  2
ByBlock
 70
     0
  3

 72
    65
 73
     0
 40
0.0
  0
LTYPE
  5
14
330
5
100
AcDbSymbolTableRecord
100
AcDbLinetypeTableRecord
  2
ByLayer
 70
     0
  3

 72
    65
 73
     0
 40
0.0
  0
LTYPE
  5
15
330
5
100
AcDbSymbolTableRecord
100
AcDbLinetypeTableRecord
  2
Continuous
 70
     0
  3
Solid line
 72
    65
 73
     0
 40
0.0
  0
ENDTAB
  0
TABLE
  2
LAYER
  5
2
330
0
100
AcDbSymbolTable
 70
     1
  0
LAYER
  5
10
330
2
100
AcDbSymbolTableRecord
100
AcDbLayerTableRecord
  2
0
 70
     0
 62
     7
  6
Continuous
370
    -3
390
F
  0
ENDTAB
  0
TABLE
  2
STYLE
  5
3
330
0
100
AcDbSymbolTable
 70
     1
  0
STYLE
  5
11
330
3
100
AcDbSymbolTableRecord
100
AcDbTextStyleTableRecord
  2
Standard
 70
     0
 40
0.0
 41
1.0
 50
0.0
 71
     0
 42
0.2
  3
txt
  4

  0
ENDTAB
  0
TABLE
  2
VIEW
  5
6
330
0
100
AcDbSymbolTable
 70
     0
  0
ENDTAB
  0
TABLE
  2
UCS
  5
7
330
0
100
AcDbSymbolTable
 70
     0
  0
ENDTAB
  0
TABLE
  2
APPID
  5
9
330
0
100
AcDbSymbolTable
 70
     1
  0
APPID
  5
12
330
9
100
AcDbSymbolTableRecord
100
AcDbRegAppTableRecord
  2
ACAD
 70
     0
  0
ENDTAB
  0
TABLE
  2
DIMSTYLE
  5
A
330
0
100
AcDbSymbolTable
 70
     1
100
AcDbDimStyleTable
 71
     0
  0
DIMSTYLE
105
103
330
A
100
AcDbSymbolTableRecord
100
AcDbDimStyleTableRecord
  2
Standard
 70
     0
340
11
  0
ENDTAB
  0
TABLE
  2
BLOCK_RECORD
  5
1
330
0
100
AcDbSymbolTable
 70
     0
  0
BLOCK_RECORD
  5
1E
330
1
100
AcDbSymbolTableRecord
100
AcDbBlockTableRecord
  2
*Model_Space
340
21
  0
BLOCK_RECORD
  5
1A
330
1
100
AcDbSymbolTableRecord
100
AcDbBlockTableRecord
  2
*Paper_Space
340
1D
  0
ENDTAB
  0
ENDSEC
  0
SECTION
  2
BLOCKS
  0
BLOCK
  5
1F
330
1E
100
AcDbEntity
  8
0
100
AcDbBlockBegin
  2
*Model_Space
 70
     0
 10
0.0
 20
0.0
 30
0.0
  3
*Model_Space
  1

  0
ENDBLK
  5
20
330
1E
100
AcDbEntity
  8
0
100
AcDbBlockEnd
  0
BLOCK
  5
1B
330
1A
100
AcDbEntity
 67
     1
  8
0
100
AcDbBlockBegin
  2
*Paper_Space
 70
     0
 10
0.0
 20
0.0
 30
0.0
  3
*Paper_Space
  1

  0
ENDBLK
  5
1C
330
1A
100
AcDbEntity
 67
     1
  8
0
100
AcDbBlockEnd
  0
ENDSEC
  0
SECTION
  2
ENTITIES
  0
LINE
  5
22
330
1E
100
AcDbEntity
  8
0
100
AcDbLine
 10
24.3481
 20
7.383499999999999
 30
0.0
 11
36.2608
 21
2.2749
 31
0.0
  0
LINE
  5
23
330
1E
100
AcDbEntity
  8
0
100
AcDbLine
 10
24.3481
 20
7.383499999999999
 30
0.0
 11
36.2608
 21
2.2749
 31
0.0
  0
LINE
  5
24
330
1E
100
AcDbEntity
  8
0
100
AcDbLine
 10
6.27199999999999
 20
26.1019
 30
0.0
 11
14.08929999999999
 21
15.5638
 31
0.0
  0
LINE
  5
25
330
1E
100
AcDbEntity
  8
0
100
AcDbLine
 10
1.5822
 20
38.1855
 30
0.0
 11
6.27199999999999
 21
26.1019
 31
0.0
  0
LINE
  5
26
330
1E
100
AcDbEntity
  8
0
100
AcDbLine
 10
30.0031
 20
50.5914
 30
0.0
 11
30.6139
 21
45.48
 31
0.0
  0
LINE
  5
27
330
1E
100
AcDbEntity
  8
0
100
AcDbLine
 10
30.0031
 20
50.5914
 30
0.0
 11
30.792
 21
55.67843
 31
0.0
  0
LINE
  5
28
330
1E
100
AcDbEntity
  8
0
100
AcDbLine
 10
0.0076000000000031
 20
51.115
 30
0.0
 11
1.5822
 21
38.1855
 31
0.0
  0
LINE
  5
29
330
1E
100
AcDbEntity
  8
0
100
AcDbLine
 10
0.0076000000000031
 20
51.115
 30
0.0
 11
2.0325
 21
63.9816
 31
0.0
  0
LINE
  5
2A
330
1E
100
AcDbEntity
  8
0
100
AcDbLine
 10
2.0325
 20
63.9816
 30
0.0
 11
7.141200000000009
 21
75.8943
 31
0.0
  0
LINE
  5
2B
330
1E
100
AcDbEntity
  8
0
100
AcDbLine
 10
2.0325
 20
63.9816
 30
0.0
 11
7.141200000000009
 21
75.8943
 31
0.0
  0
LINE
  5
2C
330
1E
100
AcDbEntity
  8
0
100
AcDbLine
 10
0.0076000000000031
 20
51.115
 30
0.0
 11
1.5822
 21
38.1855
 31
0.0
  0
LINE
  5
2D
330
1E
100
AcDbEntity
  8
0
100
AcDbLine
 10
0.0076000000000031
 20
51.115
 30
0.0
 11
2.0325
 21
63.9816
 31
0.0
  0
LINE
  5
2E
330
1E
100
AcDbEntity
  8
0
100
AcDbLine
 10
30.792
 20
55.67843
 30
0.0
 11
32.8772
 21
60.54278
 31
0.0
  0
LINE
  5
2F
330
1E
100
AcDbEntity
  8
0
100
AcDbLine
 10
32.8772
 20
60.54278
 30
0.0
 11
36.1482
 21
64.58629999999999
 31
0.0
  0
LINE
  5
30
330
1E
100
AcDbEntity
  8
0
100
AcDbLine
 10
30.6139
 20
45.48
 30
0.0
 11
32.5281
 21
40.5458
 31
0.0
  0
LINE
  5
31
330
1E
100
AcDbEntity
  8
0
100
AcDbLine
 10
32.5281
 20
40.5458
 30
0.0
 11
35.6561
 21
36.3906
 31
0.0
  0
LINE
  5
32
330
1E
100
AcDbEntity
  8
0
100
AcDbLine
 10
35.6561
 20
36.3906
 30
0.0
 11
39.69939999999999
 21
33.1195
 31
0.0
  0
LINE
  5
33
330
1E
100
AcDbEntity
  8
0
100
AcDbLine
 10
14.08929999999999
 20
15.5638
 30
0.0
 11
24.3481
 21
7.383499999999999
 31
0.0
  0
LINE
  5
34
330
1E
100
AcDbEntity
  8
0
100
AcDbLine
 10
39.69939999999999
 20
33.1195
 30
0.0
 11
44.56439999999999
 21
31.0343
 31
0.0
  0
LINE
  5
35
330
1E
100
AcDbEntity
  8
0
100
AcDbLine
 10
36.2608
 20
2.2749
 30
0.0
 11
49.1274
 21
0.250000000000004
 31
0.0
  0
LINE
  5
36
330
1E
100
AcDbEntity
  8
0
100
AcDbLine
 10
36.2608
 20
2.2749
 30
0.0
 11
49.1274
 21
0.250000000000004
 31
0.0
  0
LINE
  5
37
330
1E
100
AcDbEntity
  8
0
100
AcDbLine
 10
36.1482
 20
64.58629999999999
 30
0.0
 11
40.3034
 21
67.71429999999999
 31
0.0
  0
LINE
  5
38
330
1E
100
AcDbEntity
  8
0
100
AcDbLine
 10
41.3678
 20
64.21224000000001
 30
0.0
 11
41.4902
 21
63.18556
 31
0.0
  0
LINE
  5
39
330
1E
100
AcDbEntity
  8
0
100
AcDbLine
 10
41.3678
 20
64.21224000000001
 30
0.0
 11
41.4937
 21
65.23862
 31
0.0
  0
LINE
  5
3A
330
1E
100
AcDbEntity
  8
0
100
AcDbLine
 10
41.4902
 20
63.18556
 30
0.0
 11
41.88899999999999
 21
62.200814
 31
0.0
  0
LINE
  5
3B
330
1E
100
AcDbEntity
  8
0
100
AcDbLine
 10
7.141200000000009
 20
75.8943
 30
0.0
 11
15.3215
 21
86.15309999999999
 31
0.0
  0
LINE
  5
3C
330
1E
100
AcDbEntity
  8
0
100
AcDbLine
 10
40.3034
 20
67.71429999999999
 30
0.0
 11
42.3721270172385
 21
68.5168436529583
 31
0.0
  0
LINE
  5
3D
330
1E
100
AcDbEntity
  8
0
100
AcDbLine
 10
15.3215
 20
86.15309999999999
 30
0.0
 11
25.8595
 21
93.97029999999999
 31
0.0
  0
LINE
  5
3E
330
1E
100
AcDbEntity
  8
0
100
AcDbLine
 10
37.94319999999999
 20
98.6602
 30
0.0
 11
50.8708676099004
 21
100.234613375812
 31
0.0
  0
LINE
  5
3F
330
1E
100
AcDbEntity
  8
0
100
AcDbLine
 10
25.8595
 20
93.97029999999999
 30
0.0
 11
37.94319999999999
 21
98.6602
 31
0.0
  0
LINE
  5
40
330
1E
100
AcDbEntity
  8
0
100
AcDbLine
 10
41.5819
 20
65.56775
 30
0.0
 11
41.8405
 21
66.53271
 31
0.0
  0
LINE
  5
41
330
1E
100
AcDbEntity
  8
0
100
AcDbLine
 10
41.4937
 20
65.23862
 30
0.0
 11
41.5819
 21
65.56775
 31
0.0
  0
LINE
  5
42
330
1E
100
AcDbEntity
  8
0
100
AcDbLine
 10
49.6514
 20
30.2454
 30
0.0
 11
54.7624
 21
30.8563
 31
0.0
  0
LINE
  5
43
330
1E
100
AcDbEntity
  8
0
100
AcDbLine
 10
49.1274
 20
0.250000000000004
 30
0.0
 11
62.05639999999999
 21
1.8246
 31
0.0
  0
LINE
  5
44
330
1E
100
AcDbEntity
  8
0
100
AcDbLine
 10
62.05639999999999
 20
1.8246
 30
0.0
 11
74.14039999999999
 21
6.5144
 31
0.0
  0
LINE
  5
45
330
1E
100
AcDbEntity
  8
0
100
AcDbLine
 10
62.05639999999999
 20
1.8246
 30
0.0
 11
74.14039999999999
 21
6.5144
 31
0.0
  0
LINE
  5
46
330
1E
100
AcDbEntity
  8
0
100
AcDbLine
 10
63.85139999999999
 20
35.8984
 30
0.0
 11
67.1224
 21
39.942
 31
0.0
  0
LINE
  5
47
330
1E
100
AcDbEntity
  8
0
100
AcDbLine
 10
59.6964
 20
32.7705
 30
0.0
 11
63.85139999999999
 21
35.8984
 31
0.0
  0
LINE
  5
48
330
1E
100
AcDbEntity
  8
0
100
AcDbLine
 10
54.7624
 20
30.8563
 30
0.0
 11
59.6964
 21
32.7705
 31
0.0
  0
LINE
  5
49
330
1E
100
AcDbEntity
  8
0
100
AcDbLine
 10
49.1274
 20
0.250000000000004
 30
0.0
 11
62.05639999999999
 21
1.8246
 31
0.0
  0
LINE
  5
4A
330
1E
100
AcDbEntity
  8
0
100
AcDbLine
 10
44.56439999999999
 20
31.0343
 30
0.0
 11
49.6514
 21
30.2454
 31
0.0
  0
LINE
  5
4B
330
1E
100
AcDbEntity
  8
0
100
AcDbLine
 10
46.37520999999999
 20
60.33615000000001
 30
0.0
 11
47.35994999999999
 21
60.73485999999999
 31
0.0
  0
LINE
  5
4C
330
1E
100
AcDbEntity
  8
0
100
AcDbLine
 10
45.3485
 20
60.2137
 30
0.0
 11
46.37520999999999
 21
60.33615000000001
 31
0.0
  0
LINE
  5
4D
330
1E
100
AcDbEntity
  8
0
100
AcDbLine
 10
44.3222
 20
60.33964
 30
0.0
 11
45.3485
 21
60.2137
 31
0.0
  0
LINE
  5
4E
330
1E
100
AcDbEntity
  8
0
100
AcDbLine
 10
42.2518
 20
68.06775
 30
0.0
 11
42.3721270172385
 21
68.5168436529583
 31
0.0
  0
LINE
  5
4F
330
1E
100
AcDbEntity
  8
0
100
AcDbLine
 10
42.2518
 20
68.06775
 30
0.0
 11
42.7878
 21
70.06825
 31
0.0
  0
LINE
  5
50
330
1E
100
AcDbEntity
  8
0
100
AcDbLine
 10
41.88899999999999
 20
62.200814
 30
0.0
 11
42.5424
 21
61.36314300000001
 31
0.0
  0
LINE
  5
51
330
1E
100
AcDbEntity
  8
0
100
AcDbLine
 10
49.30932
 20
63.4972
 30
0.0
 11
49.56788
 21
64.46215999999999
 31
0.0
  0
LINE
  5
52
330
1E
100
AcDbEntity
  8
0
100
AcDbLine
 10
49.22113
 20
63.16805999999999
 30
0.0
 11
49.30932
 21
63.4972
 31
0.0
  0
LINE
  5
53
330
1E
100
AcDbEntity
  8
0
100
AcDbLine
 10
49.56788
 20
64.46215999999999
 30
0.0
 11
49.97919
 21
65.99720000000001
 31
0.0
  0
LINE
  5
54
330
1E
100
AcDbEntity
  8
0
100
AcDbLine
 10
49.97919
 20
65.99720000000001
 30
0.0
 11
50.51522999999999
 21
67.99769000000001
 31
0.0
  0
LINE
  5
55
330
1E
100
AcDbEntity
  8
0
100
AcDbLine
 10
60.3004
 20
67.3652
 30
0.0
 11
64.34439999999999
 21
64.0941
 31
0.0
  0
LINE
  5
56
330
1E
100
AcDbEntity
  8
0
100
AcDbLine
 10
64.34439999999999
 20
64.0941
 30
0.0
 11
67.4714
 21
59.93893
 31
0.0
  0
LINE
  5
57
330
1E
100
AcDbEntity
  8
0
100
AcDbLine
 10
55.43639999999999
 20
69.4504
 30
0.0
 11
60.3004
 21
67.3652
 31
0.0
  0
LINE
  5
58
330
1E
100
AcDbEntity
  8
0
100
AcDbLine
 10
50.51522999999999
 20
67.99769000000001
 30
0.0
 11
51.13945
 21
70.32732
 31
0.0
  0
LINE
  5
59
330
1E
100
AcDbEntity
  8
0
100
AcDbLine
 10
48.81700999999999
 20
62.21622599999999
 30
0.0
 11
49.22113
 21
63.16805999999999
 31
0.0
  0
LINE
  5
5A
330
1E
100
AcDbEntity
  8
0
100
AcDbLine
 10
48.19763
 20
61.388324
 30
0.0
 11
48.81700999999999
 21
62.21622599999999
 31
0.0
  0
LINE
  5
5B
330
1E
100
AcDbEntity
  8
0
100
AcDbLine
 10
51.0852863185318
 20
70.1251775866543
 30
0.0
 11
55.43639999999999
 21
69.4504
 31
0.0
  0
LINE
  5
5C
330
1E
100
AcDbEntity
  8
0
100
AcDbLine
 10
51.13945
 20
70.32732
 30
0.0
 11
51.80932
 21
72.82729999999999
 31
0.0
  0
LINE
  5
5D
330
1E
100
AcDbEntity
  8
0
100
AcDbLine
 10
51.80932
 20
72.82729999999999
 30
0.0
 11
65.26791
 21
123.0555
 31
0.0
  0
LINE
  5
5E
330
1E
100
AcDbEntity
  8
0
100
AcDbLine
 10
63.73940000000001
 20
98.20990000000001
 30
0.0
 11
75.6524
 21
93.10120000000001
 31
0.0
  0
LINE
  5
5F
330
1E
100
AcDbEntity
  8
0
100
AcDbLine
 10
58.81807924622949
 20
98.9843759768641
 30
0.0
 11
63.73940000000001
 21
98.20990000000001
 31
0.0
  0
LINE
  5
60
330
1E
100
AcDbEntity
  8
0
100
AcDbLine
 10
65.26791
 20
123.0555
 30
0.0
 11
65.93779000000001
 21
125.5554999999999
 31
0.0
  0
LINE
  5
61
330
1E
100
AcDbEntity
  8
0
100
AcDbLine
 10
65.93779000000001
 20
125.5554999999999
 30
0.0
 11
66.562
 21
127.8850999999999
 31
0.0
  0
LINE
  5
62
330
1E
100
AcDbEntity
  8
0
100
AcDbLine
 10
57.54051
 20
125.126
 30
0.0
 11
58.21038000000001
 21
127.626
 31
0.0
  0
LINE
  5
63
330
1E
100
AcDbEntity
  8
0
100
AcDbLine
 10
44.0819
 20
74.89790000000001
 30
0.0
 11
57.54051
 21
125.126
 31
0.0
  0
LINE
  5
64
330
1E
100
AcDbEntity
  8
0
100
AcDbLine
 10
43.41199999999999
 20
72.39790000000001
 30
0.0
 11
44.0819
 21
74.89790000000001
 31
0.0
  0
LINE
  5
65
330
1E
100
AcDbEntity
  8
0
100
AcDbLine
 10
42.7878
 20
70.06825
 30
0.0
 11
43.41199999999999
 21
72.39790000000001
 31
0.0
  0
LINE
  5
66
330
1E
100
AcDbEntity
  8
0
100
AcDbLine
 10
42.5424
 20
61.36314300000001
 30
0.0
 11
43.3703
 21
60.74375999999999
 31
0.0
  0
LINE
  5
67
330
1E
100
AcDbEntity
  8
0
100
AcDbLine
 10
43.3703
 20
60.74375999999999
 30
0.0
 11
44.3222
 21
60.33964
 31
0.0
  0
LINE
  5
68
330
1E
100
AcDbEntity
  8
0
100
AcDbLine
 10
41.8405
 20
66.53271
 30
0.0
 11
42.2518
 21
68.06775
 31
0.0
  0
LINE
  5
69
330
1E
100
AcDbEntity
  8
0
100
AcDbLine
 10
65.9899057473386
 20
125.75
 30
0.0
 11
87.99240000000001
 21
125.75
 31
0.0
  0
LINE
  5
6A
330
1E
100
AcDbEntity
  8
0
100
AcDbLine
 10
67.4714
 20
59.93893
 30
0.0
 11
69.38639999999999
 21
55.00477
 31
0.0
  0
LINE
  5
6B
330
1E
100
AcDbEntity
  8
0
100
AcDbLine
 10
69.38639999999999
 20
55.00477
 30
0.0
 11
69.9974
 21
49.8933
 31
0.0
  0
LINE
  5
6C
330
1E
100
AcDbEntity
  8
0
100
AcDbLine
 10
69.2084
 20
44.8063
 30
0.0
 11
69.9974
 21
49.8933
 31
0.0
  0
LINE
  5
6D
330
1E
100
AcDbEntity
  8
0
100
AcDbLine
 10
67.1224
 20
39.942
 30
0.0
 11
69.2084
 21
44.8063
 31
0.0
  0
LINE
  5
6E
330
1E
100
AcDbEntity
  8
0
100
AcDbLine
 10
85.91039999999999
 20
84.92090000000001
 30
0.0
 11
93.7284
 21
74.38290000000001
 31
0.0
  0
LINE
  5
6F
330
1E
100
AcDbEntity
  8
0
100
AcDbLine
 10
75.6524
 20
93.10120000000001
 30
0.0
 11
85.91039999999999
 21
84.92090000000001
 31
0.0
  0
LINE
  5
70
330
1E
100
AcDbEntity
  8
0
100
AcDbLine
 10
84.6784
 20
14.3317
 30
0.0
 11
92.8584
 21
24.59049999999999
 31
0.0
  0
LINE
  5
71
330
1E
100
AcDbEntity
  8
0
100
AcDbLine
 10
74.14039999999999
 20
6.5144
 30
0.0
 11
84.6784
 21
14.3317
 31
0.0
  0
LINE
  5
72
330
1E
100
AcDbEntity
  8
0
100
AcDbLine
 10
87.99240000000001
 20
118.8499999999999
 30
0.0
 11
87.99240000000001
 21
112.5499999999999
 31
0.0
  0
LINE
  5
73
330
1E
100
AcDbEntity
  8
0
100
AcDbLine
 10
87.99240000000001
 20
118.8499999999999
 30
0.0
 11
87.99240000000001
 21
126.0499999999999
 31
0.0
  0
LINE
  5
74
330
1E
100
AcDbEntity
  8
0
100
AcDbLine
 10
87.99240000000001
 20
112.5499999999999
 30
0.0
 11
87.99240000000001
 21
107.75
 31
0.0
  0
LINE
  5
75
330
1E
100
AcDbEntity
  8
0
100
AcDbLine
 10
87.99240000000001
 20
112.5499999999999
 30
0.0
 11
87.99240000000001
 21
118.8499999999999
 31
0.0
  0
LINE
  5
76
330
1E
100
AcDbEntity
  8
0
100
AcDbLine
 10
87.99240000000001
 20
107.75
 30
0.0
 11
87.99240000000001
 21
104.8499999999999
 31
0.0
  0
LINE
  5
77
330
1E
100
AcDbEntity
  8
0
100
AcDbLine
 10
87.99240000000001
 20
107.75
 30
0.0
 11
87.99240000000001
 21
112.5499999999999
 31
0.0
  0
LINE
  5
78
330
1E
100
AcDbEntity
  8
0
100
AcDbLine
 10
87.99240000000001
 20
104.8499999999999
 30
0.0
 11
87.99240000000001
 21
103.75
 31
0.0
  0
LINE
  5
79
330
1E
100
AcDbEntity
  8
0
100
AcDbLine
 10
87.99240000000001
 20
104.8499999999999
 30
0.0
 11
87.99240000000001
 21
107.75
 31
0.0
  0
LINE
  5
7A
330
1E
100
AcDbEntity
  8
0
100
AcDbLine
 10
87.99240000000001
 20
103.75
 30
0.0
 11
88.2624
 21
103.0499999999999
 31
0.0
  0
LINE
  5
7B
330
1E
100
AcDbEntity
  8
0
100
AcDbLine
 10
87.99240000000001
 20
103.75
 30
0.0
 11
87.99240000000001
 21
104.8499999999999
 31
0.0
  0
LINE
  5
7C
330
1E
100
AcDbEntity
  8
0
100
AcDbLine
 10
65.9899057473386
 20
125.75
 30
0.0
 11
87.99240000000001
 21
125.75
 31
0.0
  0
LINE
  5
7D
330
1E
100
AcDbEntity
  8
0
100
AcDbLine
 10
56.9924
 20
126.9979999999999
 30
0.0
 11
56.9924
 21
126.2299999999999
 31
0.0
  0
LINE
  5
7E
330
1E
100
AcDbEntity
  8
0
100
AcDbLine
 10
56.9924
 20
126.9979999999999
 30
0.0
 11
56.9924
 21
128.246
 31
0.0
  0
LINE
  5
7F
330
1E
100
AcDbEntity
  8
0
100
AcDbLine
 10
56.9924
 20
126.2299999999999
 30
0.0
 11
56.9924
 21
125.942
 31
0.0
  0
LINE
  5
80
330
1E
100
AcDbEntity
  8
0
100
AcDbLine
 10
56.9924
 20
126.2299999999999
 30
0.0
 11
56.9924
 21
126.9979999999999
 31
0.0
  0
LINE
  5
81
330
1E
100
AcDbEntity
  8
0
100
AcDbLine
 10
87.99240000000001
 20
126.0499999999999
 30
0.0
 11
87.99240000000001
 21
118.8499999999999
 31
0.0
  0
LINE
  5
82
330
1E
100
AcDbEntity
  8
0
100
AcDbLine
 10
87.99240000000001
 20
126.0499999999999
 30
0.0
 11
87.99240000000001
 21
133.75
 31
0.0
  0
LINE
  5
83
330
1E
100
AcDbEntity
  8
0
100
AcDbLine
 10
66.562
 20
127.8850999999999
 30
0.0
 11
67.098
 21
129.8856
 31
0.0
  0
LINE
  5
84
330
1E
100
AcDbEntity
  8
0
100
AcDbLine
 10
58.21038000000001
 20
127.626
 30
0.0
 11
58.8346
 21
129.9557
 31
0.0
  0
LINE
  5
86
330
1E
100
AcDbEntity
  8
0
100
AcDbLine
 10
56.9924
 20
125.942
 30
0.0
 11
57.2924
 21
125.75
 31
0.0
  0
LINE
  5
87
330
1E
100
AcDbEntity
  8
0
100
AcDbLine
 10
56.9924
 20
125.942
 30
0.0
 11
56.9924
 21
126.2299999999999
 31
0.0
  0
LINE
  5
88
330
1E
100
AcDbEntity
  8
0
100
AcDbLine
 10
87.99240000000001
 20
128.086
 30
0.0
 11
87.99240000000001
 21
129.782
 31
0.0
  0
LINE
  5
89
330
1E
100
AcDbEntity
  8
0
100
AcDbLine
 10
87.99240000000001
 20
126.8059999999999
 30
0.0
 11
87.99240000000001
 21
128.086
 31
0.0
  0
LINE
  5
8A
330
1E
100
AcDbEntity
  8
0
100
AcDbLine
 10
56.9924
 20
135.7659999999999
 30
0.0
 11
56.9924
 21
133.75
 31
0.0
  0
LINE
  5
8B
330
1E
100
AcDbEntity
  8
0
100
AcDbLine
 10
56.9924
 20
135.7659999999999
 30
0.0
 11
56.9924
 21
137.622
 31
0.0
  0
LINE
  5
8C
330
1E
100
AcDbEntity
  8
0
100
AcDbLine
 10
56.9924
 20
137.622
 30
0.0
 11
56.9924
 21
135.7659999999999
 31
0.0
  0
LINE
  5
8D
330
1E
100
AcDbEntity
  8
0
100
AcDbLine
 10
56.9924
 20
137.622
 30
0.0
 11
56.9924
 21
139.2539999999999
 31
0.0
  0
LINE
  5
8E
330
1E
100
AcDbEntity
  8
0
100
AcDbLine
 10
56.9924
 20
139.2539999999999
 30
0.0
 11
56.9924
 21
137.622
 31
0.0
  0
LINE
  5
8F
330
1E
100
AcDbEntity
  8
0
100
AcDbLine
 10
56.9924
 20
139.2539999999999
 30
0.0
 11
56.9924
 21
140.502
 31
0.0
  0
LINE
  5
90
330
1E
100
AcDbEntity
  8
0
100
AcDbLine
 10
56.9924
 20
140.502
 30
0.0
 11
56.9924
 21
139.2539999999999
 31
0.0
  0
LINE
  5
91
330
1E
100
AcDbEntity
  8
0
100
AcDbLine
 10
56.9924
 20
140.502
 30
0.0
 11
56.9924
 21
141.27
 31
0.0
  0
LINE
  5
92
330
1E
100
AcDbEntity
  8
0
100
AcDbLine
 10
56.9924
 20
141.27
 30
0.0
 11
56.9924
 21
140.502
 31
0.0
  0
LINE
  5
93
330
1E
100
AcDbEntity
  8
0
100
AcDbLine
 10
56.9924
 20
141.27
 30
0.0
 11
56.9924
 21
141.558
 31
0.0
  0
LINE
  5
94
330
1E
100
AcDbEntity
  8
0
100
AcDbLine
 10
56.9924
 20
141.558
 30
0.0
 11
56.9924
 21
141.27
 31
0.0
  0
LINE
  5
95
330
1E
100
AcDbEntity
  8
0
100
AcDbLine
 10
56.9924
 20
141.558
 30
0.0
 11
57.2924
 21
141.7499999999999
 31
0.0
  0
LINE
  5
96
330
1E
100
AcDbEntity
  8
0
100
AcDbLine
 10
56.9924
 20
133.75
 30
0.0
 11
56.9924
 21
131.734
 31
0.0
  0
LINE
  5
97
330
1E
100
AcDbEntity
  8
0
100
AcDbLine
 10
56.9924
 20
133.75
 30
0.0
 11
56.9924
 21
135.7659999999999
 31
0.0
  0
LINE
  5
98
330
1E
100
AcDbEntity
  8
0
100
AcDbLine
 10
56.9924
 20
131.734
 30
0.0
 11
56.9924
 21
129.8779999999999
 31
0.0
  0
LINE
  5
99
330
1E
100
AcDbEntity
  8
0
100
AcDbLine
 10
56.9924
 20
131.734
 30
0.0
 11
56.9924
 21
133.75
 31
0.0
  0
LINE
  5
9E
330
1E
100
AcDbEntity
  8
0
100
AcDbLine
 10
57.2924
 20
141.7499999999999
 30
0.0
 11
87.99240000000001
 21
141.7499999999999
 31
0.0
  0
LINE
  5
9F
330
1E
100
AcDbEntity
  8
0
100
AcDbLine
 10
56.9924
 20
129.8779999999999
 30
0.0
 11
56.9924
 21
128.246
 31
0.0
  0
LINE
  5
A0
330
1E
100
AcDbEntity
  8
0
100
AcDbLine
 10
56.9924
 20
129.8779999999999
 30
0.0
 11
56.9924
 21
131.734
 31
0.0
  0
LINE
  5
A1
330
1E
100
AcDbEntity
  8
0
100
AcDbLine
 10
56.9924
 20
128.246
 30
0.0
 11
56.9924
 21
126.9979999999999
 31
0.0
  0
LINE
  5
A2
330
1E
100
AcDbEntity
  8
0
100
AcDbLine
 10
56.9924
 20
128.246
 30
0.0
 11
56.9924
 21
129.8779999999999
 31
0.0
  0
LINE
  5
A3
330
1E
100
AcDbEntity
  8
0
100
AcDbLine
 10
67.098
 20
129.8856
 30
0.0
 11
67.50939999999999
 21
131.4206
 31
0.0
  0
LINE
  5
A4
330
1E
100
AcDbEntity
  8
0
100
AcDbLine
 10
67.50939999999999
 20
131.4206
 30
0.0
 11
67.7679
 21
132.3856
 31
0.0
  0
LINE
  5
A5
330
1E
100
AcDbEntity
  8
0
100
AcDbLine
 10
67.7679
 20
132.3856
 30
0.0
 11
67.8561
 21
132.7146999999999
 31
0.0
  0
LINE
  5
A6
330
1E
100
AcDbEntity
  8
0
100
AcDbLine
 10
67.8561
 20
132.7146999999999
 30
0.0
 11
67.982
 21
133.7410999999999
 31
0.0
  0
LINE
  5
A7
330
1E
100
AcDbEntity
  8
0
100
AcDbLine
 10
60.1287
 20
134.7853
 30
0.0
 11
60.53281999999999
 21
135.7371
 31
0.0
  0
LINE
  5
A8
330
1E
100
AcDbEntity
  8
0
100
AcDbLine
 10
60.53281999999999
 20
135.7371
 30
0.0
 11
61.1522
 21
136.565
 31
0.0
  0
LINE
  5
A9
330
1E
100
AcDbEntity
  8
0
100
AcDbLine
 10
60.04051
 20
134.4560999999999
 30
0.0
 11
60.1287
 21
134.7853
 31
0.0
  0
LINE
  5
AA
330
1E
100
AcDbEntity
  8
0
100
AcDbLine
 10
59.78195
 20
133.4911999999999
 30
0.0
 11
60.04051
 21
134.4560999999999
 31
0.0
  0
LINE
  5
AB
330
1E
100
AcDbEntity
  8
0
100
AcDbLine
 10
59.37063000000001
 20
131.9560999999999
 30
0.0
 11
59.78195
 21
133.4911999999999
 31
0.0
  0
LINE
  5
AC
330
1E
100
AcDbEntity
  8
0
100
AcDbLine
 10
58.8346
 20
129.9557
 30
0.0
 11
59.37063000000001
 21
131.9560999999999
 31
0.0
  0
LINE
  5
AD
330
1E
100
AcDbEntity
  8
0
100
AcDbLine
 10
87.99240000000001
 20
133.75
 30
0.0
 11
87.99240000000001
 21
135.7979999999999
 31
0.0
  0
LINE
  5
AE
330
1E
100
AcDbEntity
  8
0
100
AcDbLine
 10
87.99240000000001
 20
133.75
 30
0.0
 11
87.99240000000001
 21
126.0499999999999
 31
0.0
  0
LINE
  5
AF
330
1E
100
AcDbEntity
  8
0
100
AcDbLine
 10
87.99240000000001
 20
133.75
 30
0.0
 11
87.99240000000001
 21
141.4499999999999
 31
0.0
  0
LINE
  5
B0
330
1E
100
AcDbEntity
  8
0
100
AcDbLine
 10
61.1522
 20
136.565
 30
0.0
 11
61.98986999999999
 21
137.2184999999999
 31
0.0
  0
LINE
  5
B1
330
1E
100
AcDbEntity
  8
0
100
AcDbLine
 10
61.98986999999999
 20
137.2184999999999
 30
0.0
 11
62.97461999999999
 21
137.6171999999999
 31
0.0
  0
LINE
  5
B2
330
1E
100
AcDbEntity
  8
0
100
AcDbLine
 10
62.97461999999999
 20
137.6171999999999
 30
0.0
 11
64.0013
 21
137.7396
 31
0.0
  0
LINE
  5
B3
330
1E
100
AcDbEntity
  8
0
100
AcDbLine
 10
66.8074
 20
136.5902
 30
0.0
 11
67.46089999999999
 21
135.7525
 31
0.0
  0
LINE
  5
B4
330
1E
100
AcDbEntity
  8
0
100
AcDbLine
 10
65.97951000000001
 20
137.2095999999999
 30
0.0
 11
66.8074
 21
136.5902
 31
0.0
  0
LINE
  5
B5
330
1E
100
AcDbEntity
  8
0
100
AcDbLine
 10
65.02768
 20
137.6136999999999
 30
0.0
 11
65.97951000000001
 21
137.2095999999999
 31
0.0
  0
LINE
  5
B6
330
1E
100
AcDbEntity
  8
0
100
AcDbLine
 10
64.0013
 20
137.7396
 30
0.0
 11
65.02768
 21
137.6136999999999
 31
0.0
  0
LINE
  5
B7
330
1E
100
AcDbEntity
  8
0
100
AcDbLine
 10
87.99240000000001
 20
135.7979999999999
 30
0.0
 11
87.99240000000001
 21
137.7179999999999
 31
0.0
  0
LINE
  5
B8
330
1E
100
AcDbEntity
  8
0
100
AcDbLine
 10
87.99240000000001
 20
137.7179999999999
 30
0.0
 11
87.99240000000001
 21
139.4139999999999
 31
0.0
  0
LINE
  5
B9
330
1E
100
AcDbEntity
  8
0
100
AcDbLine
 10
87.99240000000001
 20
141.4499999999999
 30
0.0
 11
87.99240000000001
 21
133.75
 31
0.0
  0
LINE
  5
BA
330
1E
100
AcDbEntity
  8
0
100
AcDbLine
 10
87.99240000000001
 20
141.4499999999999
 30
0.0
 11
87.99240000000001
 21
148.65
 31
0.0
  0
LINE
  5
BB
330
1E
100
AcDbEntity
  8
0
100
AcDbLine
 10
87.99240000000001
 20
139.4139999999999
 30
0.0
 11
87.99240000000001
 21
140.6939999999999
 31
0.0
  0
LINE
  5
BC
330
1E
100
AcDbEntity
  8
0
100
AcDbLine
 10
87.99240000000001
 20
140.6939999999999
 30
0.0
 11
87.99240000000001
 21
141.462
 31
0.0
  0
LINE
  5
BD
330
1E
100
AcDbEntity
  8
0
100
AcDbLine
 10
87.99240000000001
 20
148.65
 30
0.0
 11
87.99240000000001
 21
141.4499999999999
 31
0.0
  0
LINE
  5
BE
330
1E
100
AcDbEntity
  8
0
100
AcDbLine
 10
87.99240000000001
 20
148.65
 30
0.0
 11
87.99240000000001
 21
154.9499999999999
 31
0.0
  0
LINE
  5
BF
330
1E
100
AcDbEntity
  8
0
100
AcDbLine
 10
87.99240000000001
 20
154.9499999999999
 30
0.0
 11
87.99240000000001
 21
159.75
 31
0.0
  0
LINE
  5
C0
330
1E
100
AcDbEntity
  8
0
100
AcDbLine
 10
87.99240000000001
 20
154.9499999999999
 30
0.0
 11
87.99240000000001
 21
148.65
 31
0.0
  0
LINE
  5
C1
330
1E
100
AcDbEntity
  8
0
100
AcDbLine
 10
87.99240000000001
 20
159.75
 30
0.0
 11
87.99240000000001
 21
154.9499999999999
 31
0.0
  0
LINE
  5
C2
330
1E
100
AcDbEntity
  8
0
100
AcDbLine
 10
87.99240000000001
 20
159.75
 30
0.0
 11
87.99240000000001
 21
162.65
 31
0.0
  0
LINE
  5
C3
330
1E
100
AcDbEntity
  8
0
100
AcDbLine
 10
87.99240000000001
 20
162.65
 30
0.0
 11
87.99240000000001
 21
159.75
 31
0.0
  0
LINE
  5
C4
330
1E
100
AcDbEntity
  8
0
100
AcDbLine
 10
87.99240000000001
 20
162.65
 30
0.0
 11
87.99240000000001
 21
163.75
 31
0.0
  0
LINE
  5
C5
330
1E
100
AcDbEntity
  8
0
100
AcDbLine
 10
87.99240000000001
 20
163.75
 30
0.0
 11
88.2624
 21
164.4499999999999
 31
0.0
  0
LINE
  5
C6
330
1E
100
AcDbEntity
  8
0
100
AcDbLine
 10
87.99240000000001
 20
163.75
 30
0.0
 11
87.99240000000001
 21
162.65
 31
0.0
  0
LINE
  5
C7
330
1E
100
AcDbEntity
  8
0
100
AcDbLine
 10
87.99240000000001
 20
141.462
 30
0.0
 11
87.99240000000001
 21
141.7499999999999
 31
0.0
  0
LINE
  5
C8
330
1E
100
AcDbEntity
  8
0
100
AcDbLine
 10
87.99240000000001
 20
131.702
 30
0.0
 11
87.99240000000001
 21
133.75
 31
0.0
  0
LINE
  5
C9
330
1E
100
AcDbEntity
  8
0
100
AcDbLine
 10
87.99240000000001
 20
129.782
 30
0.0
 11
87.99240000000001
 21
131.702
 31
0.0
  0
LINE
  5
CD
330
1E
100
AcDbEntity
  8
0
100
AcDbLine
 10
87.99240000000001
 20
126.038
 30
0.0
 11
87.99240000000001
 21
126.8059999999999
 31
0.0
  0
LINE
  5
CE
330
1E
100
AcDbEntity
  8
0
100
AcDbLine
 10
57.2924
 20
125.75
 30
0.0
 11
57.70770955199999
 21
125.75
 31
0.0
  0
LINE
  5
CF
330
1E
100
AcDbEntity
  8
0
100
AcDbLine
 10
93.7284
 20
74.38290000000001
 30
0.0
 11
98.41740000000001
 21
62.29919999999999
 31
0.0
  0
LINE
  5
D0
330
1E
100
AcDbEntity
  8
0
100
AcDbLine
 10
98.41740000000001
 20
62.29919999999999
 30
0.0
 11
99.9924
 21
49.3698
 31
0.0
  0
LINE
  5
D1
330
1E
100
AcDbEntity
  8
0
100
AcDbLine
 10
97.96739999999999
 20
36.5031
 30
0.0
 11
99.9924
 21
49.3698
 31
0.0
  0
LINE
  5
D2
330
1E
100
AcDbEntity
  8
0
100
AcDbLine
 10
92.8584
 20
24.59049999999999
 30
0.0
 11
97.96739999999999
 21
36.5031
 31
0.0
  0
LINE
  5
D3
330
1E
100
AcDbEntity
  8
0
100
AcDbLine
 10
99.9924
 20
102.75
 30
0.0
 11
99.9924
 21
103.8499999999999
 31
0.0
  0
LINE
  5
D4
330
1E
100
AcDbEntity
  8
0
100
AcDbLine
 10
88.2624
 20
133.75
 30
0.0
 11
88.2924
 21
125.8499999999999
 31
0.0
  0
LINE
  5
D5
330
1E
100
AcDbEntity
  8
0
100
AcDbLine
 10
88.2624
 20
133.75
 30
0.0
 11
88.2924
 21
141.65
 31
0.0
  0
LINE
  5
D6
330
1E
100
AcDbEntity
  8
0
100
AcDbLine
 10
88.2624
 20
164.4499999999999
 30
0.0
 11
88.9924
 21
164.7499999999999
 31
0.0
  0
LINE
  5
D7
330
1E
100
AcDbEntity
  8
0
100
AcDbLine
 10
88.2624
 20
164.4499999999999
 30
0.0
 11
88.2924
 21
163.3499999999999
 31
0.0
  0
LINE
  5
D8
330
1E
100
AcDbEntity
  8
0
100
AcDbLine
 10
88.2924
 20
104.15
 30
0.0
 11
88.2924
 21
107.15
 31
0.0
  0
LINE
  5
D9
330
1E
100
AcDbEntity
  8
0
100
AcDbLine
 10
88.2924
 20
118.45
 30
0.0
 11
88.2924
 21
125.8499999999999
 31
0.0
  0
LINE
  5
DA
330
1E
100
AcDbEntity
  8
0
100
AcDbLine
 10
88.2924
 20
141.65
 30
0.0
 11
88.2924
 21
149.05
 31
0.0
  0
LINE
  5
DB
330
1E
100
AcDbEntity
  8
0
100
AcDbLine
 10
88.2924
 20
149.05
 30
0.0
 11
88.2924
 21
141.65
 31
0.0
  0
LINE
  5
DC
330
1E
100
AcDbEntity
  8
0
100
AcDbLine
 10
88.2924
 20
149.05
 30
0.0
 11
88.2924
 21
155.3499999999999
 31
0.0
  0
LINE
  5
DD
330
1E
100
AcDbEntity
  8
0
100
AcDbLine
 10
88.2924
 20
125.8499999999999
 30
0.0
 11
88.2924
 21
118.45
 31
0.0
  0
LINE
  5
DE
330
1E
100
AcDbEntity
  8
0
100
AcDbLine
 10
88.2924
 20
112.15
 30
0.0
 11
88.2924
 21
107.15
 31
0.0
  0
LINE
  5
DF
330
1E
100
AcDbEntity
  8
0
100
AcDbLine
 10
88.2924
 20
112.15
 30
0.0
 11
88.2924
 21
118.45
 31
0.0
  0
LINE
  5
E0
330
1E
100
AcDbEntity
  8
0
100
AcDbLine
 10
88.2924
 20
107.15
 30
0.0
 11
88.2924
 21
104.15
 31
0.0
  0
LINE
  5
E1
330
1E
100
AcDbEntity
  8
0
100
AcDbLine
 10
88.2924
 20
107.15
 30
0.0
 11
88.2924
 21
112.15
 31
0.0
  0
LINE
  5
E2
330
1E
100
AcDbEntity
  8
0
100
AcDbLine
 10
99.9924
 20
118.3499999999999
 30
0.0
 11
99.9924
 21
111.85
 31
0.0
  0
LINE
  5
E3
330
1E
100
AcDbEntity
  8
0
100
AcDbLine
 10
99.9924
 20
118.3499999999999
 30
0.0
 11
99.9924
 21
125.75
 31
0.0
  0
LINE
  5
E4
330
1E
100
AcDbEntity
  8
0
100
AcDbLine
 10
99.9924
 20
149.15
 30
0.0
 11
99.9924
 21
141.7499999999999
 31
0.0
  0
LINE
  5
E5
330
1E
100
AcDbEntity
  8
0
100
AcDbLine
 10
99.9924
 20
149.15
 30
0.0
 11
99.9924
 21
155.6499999999999
 31
0.0
  0
LINE
  5
E6
330
1E
100
AcDbEntity
  8
0
100
AcDbLine
 10
99.9924
 20
141.7499999999999
 30
0.0
 11
99.9924
 21
133.75
 31
0.0
  0
LINE
  5
E7
330
1E
100
AcDbEntity
  8
0
100
AcDbLine
 10
99.9924
 20
141.7499999999999
 30
0.0
 11
99.9924
 21
149.15
 31
0.0
  0
LINE
  5
E8
330
1E
100
AcDbEntity
  8
0
100
AcDbLine
 10
99.9924
 20
125.75
 30
0.0
 11
99.9924
 21
118.3499999999999
 31
0.0
  0
LINE
  5
E9
330
1E
100
AcDbEntity
  8
0
100
AcDbLine
 10
99.9924
 20
125.75
 30
0.0
 11
99.9924
 21
133.75
 31
0.0
  0
LINE
  5
EA
330
1E
100
AcDbEntity
  8
0
100
AcDbLine
 10
99.9924
 20
133.75
 30
0.0
 11
99.9924
 21
125.75
 31
0.0
  0
LINE
  5
EB
330
1E
100
AcDbEntity
  8
0
100
AcDbLine
 10
99.9924
 20
133.75
 30
0.0
 11
99.9924
 21
141.7499999999999
 31
0.0
  0
LINE
  5
EC
330
1E
100
AcDbEntity
  8
0
100
AcDbLine
 10
99.9924
 20
111.85
 30
0.0
 11
99.9924
 21
106.95
 31
0.0
  0
LINE
  5
ED
330
1E
100
AcDbEntity
  8
0
100
AcDbLine
 10
99.9924
 20
111.85
 30
0.0
 11
99.9924
 21
118.3499999999999
 31
0.0
  0
LINE
  5
EE
330
1E
100
AcDbEntity
  8
0
100
AcDbLine
 10
99.9924
 20
106.95
 30
0.0
 11
99.9924
 21
103.8499999999999
 31
0.0
  0
LINE
  5
EF
330
1E
100
AcDbEntity
  8
0
100
AcDbLine
 10
99.9924
 20
106.95
 30
0.0
 11
99.9924
 21
111.85
 31
0.0
  0
LINE
  5
F0
330
1E
100
AcDbEntity
  8
0
100
AcDbLine
 10
99.9924
 20
103.8499999999999
 30
0.0
 11
99.9924
 21
102.75
 31
0.0
  0
LINE
  5
F1
330
1E
100
AcDbEntity
  8
0
100
AcDbLine
 10
99.9924
 20
103.8499999999999
 30
0.0
 11
99.9924
 21
106.95
 31
0.0
  0
LINE
  5
F2
330
1E
100
AcDbEntity
  8
0
100
AcDbLine
 10
88.2924
 20
155.3499999999999
 30
0.0
 11
88.2924
 21
160.3499999999999
 31
0.0
  0
LINE
  5
F3
330
1E
100
AcDbEntity
  8
0
100
AcDbLine
 10
88.2924
 20
155.3499999999999
 30
0.0
 11
88.2924
 21
149.05
 31
0.0
  0
LINE
  5
F4
330
1E
100
AcDbEntity
  8
0
100
AcDbLine
 10
88.2924
 20
160.3499999999999
 30
0.0
 11
88.2924
 21
155.3499999999999
 31
0.0
  0
LINE
  5
F5
330
1E
100
AcDbEntity
  8
0
100
AcDbLine
 10
88.2924
 20
160.3499999999999
 30
0.0
 11
88.2924
 21
163.3499999999999
 31
0.0
  0
LINE
  5
F6
330
1E
100
AcDbEntity
  8
0
100
AcDbLine
 10
88.2924
 20
163.3499999999999
 30
0.0
 11
88.2924
 21
160.3499999999999
 31
0.0
  0
LINE
  5
F7
330
1E
100
AcDbEntity
  8
0
100
AcDbLine
 10
99.9924
 20
155.6499999999999
 30
0.0
 11
99.9924
 21
160.55
 31
0.0
  0
LINE
  5
F8
330
1E
100
AcDbEntity
  8
0
100
AcDbLine
 10
99.9924
 20
155.6499999999999
 30
0.0
 11
99.9924
 21
149.15
 31
0.0
  0
LINE
  5
F9
330
1E
100
AcDbEntity
  8
0
100
AcDbLine
 10
99.9924
 20
160.55
 30
0.0
 11
99.9924
 21
155.6499999999999
 31
0.0
  0
LINE
  5
FA
330
1E
100
AcDbEntity
  8
0
100
AcDbLine
 10
99.9924
 20
160.55
 30
0.0
 11
99.9924
 21
163.65
 31
0.0
  0
LINE
  5
FB
330
1E
100
AcDbEntity
  8
0
100
AcDbLine
 10
99.9924
 20
163.65
 30
0.0
 11
99.9924
 21
160.55
 31
0.0
  0
LINE
  5
FC
330
1E
100
AcDbEntity
  8
0
100
AcDbLine
 10
99.9924
 20
163.65
 30
0.0
 11
99.9924
 21
164.7499999999999
 31
0.0
  0
LINE
  5
FD
330
1E
100
AcDbEntity
  8
0
100
AcDbLine
 10
99.9924
 20
164.7499999999999
 30
0.0
 11
99.9924
 21
163.65
 31
0.0
  0
LINE
  5
FE
330
1E
100
AcDbEntity
  8
0
100
AcDbLine
 10
88.9924
 20
164.7499999999999
 30
0.0
 11
99.9924
 21
164.7499999999999
 31
0.0
  0
LINE
  5
FF
330
1E
100
AcDbEntity
  8
0
100
AcDbLine
 10
88.2624
 20
103.0499999999999
 30
0.0
 11
88.9924
 21
102.75
 31
0.0
  0
LINE
  5
100
330
1E
100
AcDbEntity
  8
0
100
AcDbLine
 10
88.2624
 20
103.0499999999999
 30
0.0
 11
88.2924
 21
104.15
 31
0.0
  0
LINE
  5
101
330
1E
100
AcDbEntity
  8
0
100
AcDbLine
 10
88.9924
 20
102.75
 30
0.0
 11
99.9924
 21
102.75
 31
0.0
  0
LINE
  5
102
330
1E
100
AcDbEntity
  8
0
100
AcDbLine
 10
87.99240000000001
 20
125.75
 30
0.0
 11
87.99240000000001
 21
126.038
 31
0.0
  0
LINE
  5
107
330
1E
100
AcDbEntity
  8
0
100
AcDbLine
 10
67.46089999999999
 20
135.7525
 30
0.0
 11
67.88314972478997
 21
134.7898253346559
 31
0.0
  0
LINE
  5
108
330
1E
100
AcDbEntity
  8
0
100
AcDbLine
 10
67.88314972478997
 20
134.7898253346559
 30
0.0
 11
67.982
 21
133.7410999999999
 31
0.0
  0
LINE
  5
109
330
1E
100
AcDbEntity
  8
0
100
AcDbLine
 10
48.19763
 20
61.388324
 30
0.0
 11
47.35994999999999
 21
60.73485999999999
 31
0.0
  0
ENDSEC
  0
SECTION
  2
OBJECTS
  0
DICTIONARY
  5
C
330
0
100
AcDbDictionary
281
     1
  3
ACAD_GROUP
350
D
  3
ACAD_LAYOUT
350
19
  3
ACAD_MLINESTYLE
350
16
  3
ACAD_PLOTSETTINGS
350
18
  3
ACAD_PLOTSTYLENAME
350
E
  3
AcDbVariableDictionary
350
10A
  0
DICTIONARY
  5
D
102
{ACAD_REACTORS
330
C
102
}
330
C
100
AcDbDictionary
281
     1
  0
DICTIONARY
  5
19
102
{ACAD_REACTORS
330
C
102
}
330
C
100
AcDbDictionary
281
     1
  3
Layout1
350
1D
  3
Model
350
21
  0
DICTIONARY
  5
16
102
{ACAD_REACTORS
330
C
102
}
330
C
100
AcDbDictionary
281
     1
  3
Standard
350
17
  0
DICTIONARY
  5
18
102
{ACAD_REACTORS
330
C
102
}
330
C
100
AcDbDictionary
281
     1
  0
ACDBDICTIONARYWDFLT
  5
E
102
{ACAD_REACTORS
330
C
102
}
330
C
100
AcDbDictionary
281
     1
  3
Normal
350
F
100
AcDbDictionaryWithDefault
340
F
  0
DICTIONARY
  5
10A
102
{ACAD_REACTORS
330
C
102
}
330
C
100
AcDbDictionary
281
     1
  3
DIMASSOC
350
10B
  0
LAYOUT
  5
1D
102
{ACAD_REACTORS
330
19
102
}
330
19
100
AcDbPlotSettings
  1

  2
hp deskjet 980c series
  4

  6

 40
0.0
 41
0.0
 42
0.0
 43
0.0
 44
0.0
 45
0.0
 46
0.0
 47
0.0
 48
0.0
 49
0.0
140
0.0
141
0.0
142
1.0
143
1.0
 70
   688
 72
     0
 73
     0
 74
     5
  7

 75
    16
147
1.0
148
0.0
149
0.0
100
AcDbLayout
  1
Layout1
 70
     1
 71
     1
 10
0.0
 20
0.0
 11
12.0
 21
9.0
 12
0.0
 22
0.0
 32
0.0
 14
1.000000000000000E+20
 24
1.000000000000000E+20
 34
1.000000000000000E+20
 15
-1.000000000000000E+20
 25
-1.000000000000000E+20
 35
-1.000000000000000E+20
146
0.0
 13
0.0
 23
0.0
 33
0.0
 16
1.0
 26
0.0
 36
0.0
 17
0.0
 27
1.0
 37
0.0
 76
     0
330
1A
  0
LAYOUT
  5
21
102
{ACAD_REACTORS
330
19
102
}
330
19
100
AcDbPlotSettings
  1

  2
hp deskjet 980c series
  4

  6

 40
0.0
 41
0.0
 42
0.0
 43
0.0
 44
0.0
 45
0.0
 46
0.0
 47
0.0
 48
0.0
 49
0.0
140
0.0
141
0.0
142
1.0
143
1.0
 70
  1712
 72
     0
 73
     0
 74
     0
  7

 75
     0
147
1.0
148
0.0
149
0.0
100
AcDbLayout
  1
Model
 70
     1
 71
     0
 10
0.0
 20
0.0
 11
12.0
 21
9.0
 12
0.0
 22
0.0
 32
0.0
 14
0.0
 24
0.0
 34
0.0
 15
0.0
 25
0.0
 35
0.0
146
0.0
 13
0.0
 23
0.0
 33
0.0
 16
1.0
 26
0.0
 36
0.0
 17
0.0
 27
1.0
 37
0.0
 76
     0
330
1E
  0
MLINESTYLE
  5
17
102
{ACAD_REACTORS
330
16
102
}
330
16
100
AcDbMlineStyle
  2
STANDARD
 70
     0
  3

 62
   256
 51
90.0
 52
90.0
 71
     2
 49
0.5
 62
   256
  6
BYLAYER
 49
-0.5
 62
   256
  6
BYLAYER
  0
ACDBPLACEHOLDER
  5
F
102
{ACAD_REACTORS
330
E
102
}
330
E
  0
DICTIONARYVAR
  5
10B
102
{ACAD_REACTORS
330
10A
102
}
330
10A
100
DictionaryVariables
280
     0
  1
1
  0
ENDSEC
  0
EOF
