  0
SECTION
  2
HEADER
  9
$ACADVER
  1
AC1015
  9
$ACADMAINTVER
 70
    13
  9
$DWGCODEPAGE
  3
ANSI_1252
  9
$INSBASE
 10
0.0
 20
0.0
 30
0.0
  9
$EXTMIN
 10
-0.0000000000000102
 20
0.000000000000006
 30
0.0
  9
$EXTMAX
 10
122.0
 20
399.0
 30
0.0
  9
$LIMMIN
 10
0.0
 20
0.0
  9
$LIMMAX
 10
12.0
 20
9.0
  9
$ORTHOMODE
 70
     0
  9
$REGENMODE
 70
     1
  9
$FILLMODE
 70
     1
  9
$QTEXTMODE
 70
     0
  9
$MIRRTEXT
 70
     1
  9
$LTSCALE
 40
1.0
  9
$ATTMODE
 70
     1
  9
$TEXTSIZE
 40
0.2
  9
$TRACEWID
 40
0.05
  9
$TEXTSTYLE
  7
Standard
  9
$CLAYER
  8
0
  9
$CELTYPE
  6
Continuous
  9
$CECOLOR
 62
   256
  9
$CELTSCALE
 40
1.0
  9
$DISPSILH
 70
     0
  9
$DIMSCALE
 40
1.0
  9
$DIMASZ
 40
0.18
  9
$DIMEXO
 40
0.0625
  9
$DIMDLI
 40
0.38
  9
$DIMRND
 40
0.0
  9
$DIMDLE
 40
0.0
  9
$DIMEXE
 40
0.18
  9
$DIMTP
 40
0.0
  9
$DIMTM
 40
0.0
  9
$DIMTXT
 40
0.18
  9
$DIMCEN
 40
0.09
  9
$DIMTSZ
 40
0.0
  9
$DIMTOL
 70
     0
  9
$DIMLIM
 70
     0
  9
$DIMTIH
 70
     1
  9
$DIMTOH
 70
     1
  9
$DIMSE1
 70
     0
  9
$DIMSE2
 70
     0
  9
$DIMTAD
 70
     0
  9
$DIMZIN
 70
     0
  9
$DIMBLK
  1

  9
$DIMASO
 70
     1
  9
$DIMSHO
 70
     1
  9
$DIMPOST
  1

  9
$DIMAPOST
  1

  9
$DIMALT
 70
     0
  9
$DIMALTD
 70
     2
  9
$DIMALTF
 40
25.4
  9
$DIMLFAC
 40
1.0
  9
$DIMTOFL
 70
     0
  9
$DIMTVP
 40
0.0
  9
$DIMTIX
 70
     0
  9
$DIMSOXD
 70
     0
  9
$DIMSAH
 70
     0
  9
$DIMBLK1
  1

  9
$DIMBLK2
  1

  9
$DIMSTYLE
  2
Standard
  9
$DIMCLRD
 70
     0
  9
$DIMCLRE
 70
     0
  9
$DIMCLRT
 70
     0
  9
$DIMTFAC
 40
1.0
  9
$DIMGAP
 40
0.09
  9
$DIMJUST
 70
     0
  9
$DIMSD1
 70
     0
  9
$DIMSD2
 70
     0
  9
$DIMTOLJ
 70
     1
  9
$DIMTZIN
 70
     0
  9
$DIMALTZ
 70
     0
  9
$DIMALTTZ
 70
     0
  9
$DIMUPT
 70
     0
  9
$DIMDEC
 70
     4
  9
$DIMTDEC
 70
     4
  9
$DIMALTU
 70
     2
  9
$DIMALTTD
 70
     2
  9
$DIMTXSTY
  7
Standard
  9
$DIMAUNIT
 70
     0
  9
$DIMADEC
 70
     0
  9
$DIMALTRND
 40
0.0
  9
$DIMAZIN
 70
     0
  9
$DIMDSEP
 70
    46
  9
$DIMATFIT
 70
     3
  9
$DIMFRAC
 70
     0
  9
$DIMLDRBLK
  1

  9
$DIMLUNIT
 70
     2
  9
$DIMLWD
 70
    -2
  9
$DIMLWE
 70
    -2
  9
$DIMTMOVE
 70
     0
  9
$LUNITS
 70
     2
  9
$LUPREC
 70
     4
  9
$SKETCHINC
 40
0.1
  9
$FILLETRAD
 40
0.0
  9
$AUNITS
 70
     0
  9
$AUPREC
 70
     0
  9
$MENU
  1
.
  9
$ELEVATION
 40
0.0
  9
$PELEVATION
 40
0.0
  9
$THICKNESS
 40
0.0
  9
$LIMCHECK
 70
     0
  9
$CHAMFERA
 40
0.0
  9
$CHAMFERB
 40
0.0
  9
$CHAMFERC
 40
0.0
  9
$CHAMFERD
 40
0.0
  9
$SKPOLY
 70
     0
  9
$TDCREATE
 40
2454778.765806377
  9
$TDUCREATE
 40
2454778.724139710
  9
$TDUPDATE
 40
2454778.767529652
  9
$TDUUPDATE
 40
2454778.725862986
  9
$TDINDWG
 40
0.0017232755
  9
$TDUSRTIMER
 40
0.0017232755
  9
$USRTIMER
 70
     1
  9
$ANGBASE
 50
0.0
  9
$ANGDIR
 70
     0
  9
$PDMODE
 70
     0
  9
$PDSIZE
 40
0.0
  9
$PLINEWID
 40
0.0
  9
$SPLFRAME
 70
     0
  9
$SPLINETYPE
 70
     6
  9
$SPLINESEGS
 70
     8
  9
$HANDSEED
  5
1B5
  9
$SURFTAB1
 70
     6
  9
$SURFTAB2
 70
     6
  9
$SURFTYPE
 70
     6
  9
$SURFU
 70
     6
  9
$SURFV
 70
     6
  9
$UCSBASE
  2

  9
$UCSNAME
  2

  9
$UCSORG
 10
0.0
 20
0.0
 30
0.0
  9
$UCSXDIR
 10
1.0
 20
0.0
 30
0.0
  9
$UCSYDIR
 10
0.0
 20
1.0
 30
0.0
  9
$UCSORTHOREF
  2

  9
$UCSORTHOVIEW
 70
     1
  9
$UCSORGTOP
 10
0.0
 20
0.0
 30
0.0
  9
$UCSORGBOTTOM
 10
0.0
 20
0.0
 30
0.0
  9
$UCSORGLEFT
 10
0.0
 20
0.0
 30
0.0
  9
$UCSORGRIGHT
 10
0.0
 20
0.0
 30
0.0
  9
$UCSORGFRONT
 10
0.0
 20
0.0
 30
0.0
  9
$UCSORGBACK
 10
0.0
 20
0.0
 30
0.0
  9
$PUCSBASE
  2

  9
$PUCSNAME
  2

  9
$PUCSORG
 10
0.0
 20
0.0
 30
0.0
  9
$PUCSXDIR
 10
1.0
 20
0.0
 30
0.0
  9
$PUCSYDIR
 10
0.0
 20
1.0
 30
0.0
  9
$PUCSORTHOREF
  2

  9
$PUCSORTHOVIEW
 70
     0
  9
$PUCSORGTOP
 10
0.0
 20
0.0
 30
0.0
  9
$PUCSORGBOTTOM
 10
0.0
 20
0.0
 30
0.0
  9
$PUCSORGLEFT
 10
0.0
 20
0.0
 30
0.0
  9
$PUCSORGRIGHT
 10
0.0
 20
0.0
 30
0.0
  9
$PUCSORGFRONT
 10
0.0
 20
0.0
 30
0.0
  9
$PUCSORGBACK
 10
0.0
 20
0.0
 30
0.0
  9
$USERI1
 70
     0
  9
$USERI2
 70
     0
  9
$USERI3
 70
     0
  9
$USERI4
 70
     0
  9
$USERI5
 70
     0
  9
$USERR1
 40
0.0
  9
$USERR2
 40
0.0
  9
$USERR3
 40
0.0
  9
$USERR4
 40
0.0
  9
$USERR5
 40
0.0
  9
$WORLDVIEW
 70
     1
  9
$SHADEDGE
 70
     3
  9
$SHADEDIF
 70
    70
  9
$TILEMODE
 70
     1
  9
$MAXACTVP
 70
    64
  9
$PINSBASE
 10
0.0
 20
0.0
 30
0.0
  9
$PLIMCHECK
 70
     0
  9
$PEXTMIN
 10
1.000000000000000E+20
 20
1.000000000000000E+20
 30
1.000000000000000E+20
  9
$PEXTMAX
 10
-1.000000000000000E+20
 20
-1.000000000000000E+20
 30
-1.000000000000000E+20
  9
$PLIMMIN
 10
0.0
 20
0.0
  9
$PLIMMAX
 10
12.0
 20
9.0
  9
$UNITMODE
 70
     0
  9
$VISRETAIN
 70
     1
  9
$PLINEGEN
 70
     0
  9
$PSLTSCALE
 70
     1
  9
$TREEDEPTH
 70
  3020
  9
$CMLSTYLE
  2
Standard
  9
$CMLJUST
 70
     0
  9
$CMLSCALE
 40
1.0
  9
$PROXYGRAPHICS
 70
     1
  9
$MEASUREMENT
 70
     0
  9
$CELWEIGHT
370
    -1
  9
$ENDCAPS
280
     0
  9
$JOINSTYLE
280
     0
  9
$LWDISPLAY
290
     0
  9
$INSUNITS
 70
     0
  9
$HYPERLINKBASE
  1

  9
$STYLESHEET
  1

  9
$XEDIT
290
     1
  9
$CEPSNTYPE
380
     0
  9
$PSTYLEMODE
290
     1
  9
$FINGERPRINTGUID
  2
{EA28D468-B3C4-4CDE-B16D-1680826AFDEB}
  9
$VERSIONGUID
  2
{4FF0A3AF-E23E-4B3A-84C7-49D602285C83}
  9
$EXTNAMES
290
     1
  9
$PSVPSCALE
 40
0.0
  9
$OLESTARTUP
290
     0
  0
ENDSEC
  0
SECTION
  2
CLASSES
  0
CLASS
  1
ACDBDICTIONARYWDFLT
  2
AcDbDictionaryWithDefault
  3
AutoCAD 2000
 90
        0
280
     0
281
     0
  0
CLASS
  1
ACDBPLACEHOLDER
  2
AcDbPlaceHolder
  3
AutoCAD 2000
 90
        0
280
     0
281
     0
  0
CLASS
  1
LAYOUT
  2
AcDbLayout
  3
AutoCAD 2000
 90
        0
280
     0
281
     0
  0
CLASS
  1
DICTIONARYVAR
  2
AcDbDictionaryVar
  3
AutoCAD 2000
 90
        0
280
     0
281
     0
  0
ENDSEC
  0
SECTION
  2
TABLES
  0
TABLE
  2
VPORT
  5
8
330
0
100
AcDbSymbolTable
 70
     2
  0
VPORT
  5
1B4
330
8
100
AcDbSymbolTableRecord
100
AcDbViewportTableRecord
  2
*Active
 70
     0
 10
0.0
 20
0.0
 11
1.0
 21
1.0
 12
61.0
 22
199.5
 13
0.0
 23
0.0
 14
1.0
 24
1.0
 15
0.0
 25
0.0
 16
0.0
 26
0.0
 36
1.0
 17
0.0
 27
0.0
 37
0.0
 40
402.0613810741687
 41
2.078104993597951
 42
50.0
 43
0.0
 44
0.0
 50
0.0
 51
0.0
 71
     0
 72
   100
 73
     1
 74
     3
 75
     0
 76
     0
 77
     0
 78
     0
281
     0
 65
     1
110
0.0
120
0.0
130
0.0
111
1.0
121
0.0
131
0.0
112
0.0
122
1.0
132
0.0
 79
     1
146
0.0
  0
ENDTAB
  0
TABLE
  2
LTYPE
  5
5
330
0
100
AcDbSymbolTable
 70
     1
  0
LTYPE
  5
13
330
5
100
AcDbSymbolTableRecord
100
AcDbLinetypeTableRecord
  2
ByBlock
 70
     0
  3

 72
    65
 73
     0
 40
0.0
  0
LTYPE
  5
14
330
5
100
AcDbSymbolTableRecord
100
AcDbLinetypeTableRecord
  2
ByLayer
 70
     0
  3

 72
    65
 73
     0
 40
0.0
  0
LTYPE
  5
15
330
5
100
AcDbSymbolTableRecord
100
AcDbLinetypeTableRecord
  2
Continuous
 70
     0
  3
Solid line
 72
    65
 73
     0
 40
0.0
  0
ENDTAB
  0
TABLE
  2
LAYER
  5
2
330
0
100
AcDbSymbolTable
 70
     1
  0
LAYER
  5
10
330
2
100
AcDbSymbolTableRecord
100
AcDbLayerTableRecord
  2
0
 70
     0
 62
     7
  6
Continuous
370
    -3
390
F
  0
ENDTAB
  0
TABLE
  2
STYLE
  5
3
330
0
100
AcDbSymbolTable
 70
     1
  0
STYLE
  5
11
330
3
100
AcDbSymbolTableRecord
100
AcDbTextStyleTableRecord
  2
Standard
 70
     0
 40
0.0
 41
1.0
 50
0.0
 71
     0
 42
0.2
  3
txt
  4

  0
ENDTAB
  0
TABLE
  2
VIEW
  5
6
330
0
100
AcDbSymbolTable
 70
     0
  0
ENDTAB
  0
TABLE
  2
UCS
  5
7
330
0
100
AcDbSymbolTable
 70
     0
  0
ENDTAB
  0
TABLE
  2
APPID
  5
9
330
0
100
AcDbSymbolTable
 70
     1
  0
APPID
  5
12
330
9
100
AcDbSymbolTableRecord
100
AcDbRegAppTableRecord
  2
ACAD
 70
     0
  0
ENDTAB
  0
TABLE
  2
DIMSTYLE
  5
A
330
0
100
AcDbSymbolTable
 70
     1
100
AcDbDimStyleTable
 71
     0
  0
DIMSTYLE
105
1AE
330
A
100
AcDbSymbolTableRecord
100
AcDbDimStyleTableRecord
  2
Standard
 70
     0
340
11
  0
ENDTAB
  0
TABLE
  2
BLOCK_RECORD
  5
1
330
0
100
AcDbSymbolTable
 70
     0
  0
BLOCK_RECORD
  5
1E
330
1
100
AcDbSymbolTableRecord
100
AcDbBlockTableRecord
  2
*Model_Space
340
21
  0
BLOCK_RECORD
  5
1A
330
1
100
AcDbSymbolTableRecord
100
AcDbBlockTableRecord
  2
*Paper_Space
340
1D
  0
ENDTAB
  0
ENDSEC
  0
SECTION
  2
BLOCKS
  0
BLOCK
  5
1F
330
1E
100
AcDbEntity
  8
0
100
AcDbBlockBegin
  2
*Model_Space
 70
     0
 10
0.0
 20
0.0
 30
0.0
  3
*Model_Space
  1

  0
ENDBLK
  5
20
330
1E
100
AcDbEntity
  8
0
100
AcDbBlockEnd
  0
BLOCK
  5
1B
330
1A
100
AcDbEntity
 67
     1
  8
0
100
AcDbBlockBegin
  2
*Paper_Space
 70
     0
 10
0.0
 20
0.0
 30
0.0
  3
*Paper_Space
  1

  0
ENDBLK
  5
1C
330
1A
100
AcDbEntity
 67
     1
  8
0
100
AcDbBlockEnd
  0
ENDSEC
  0
SECTION
  2
ENTITIES
  0
LINE
  5
22
330
1E
100
AcDbEntity
  8
0
100
AcDbLine
 10
1.279409999999979
 20
2.230770000000009
 30
0.0
 11
1.279409999999989
 21
117.1149999999999
 31
0.0
  0
LINE
  5
23
330
1E
100
AcDbEntity
  8
0
100
AcDbLine
 10
1.279409999999979
 20
2.230770000000009
 30
0.0
 11
1.919119999999979
 21
0.557692000000011
 31
0.0
  0
LINE
  5
24
330
1E
100
AcDbEntity
  8
0
100
AcDbLine
 10
1.279409999999979
 20
2.230770000000009
 30
0.0
 11
1.279409999999989
 21
117.1149999999999
 31
0.0
  0
LINE
  5
25
330
1E
100
AcDbEntity
  8
0
100
AcDbLine
 10
1.279409999999979
 20
2.230770000000009
 30
0.0
 11
1.919119999999979
 21
0.557692000000011
 31
0.0
  0
LINE
  5
26
330
1E
100
AcDbEntity
  8
0
100
AcDbLine
 10
15.4809
 20
0.0000000000000101
 30
0.0
 11
23.7971
 21
0.0000000000000096
 31
0.0
  0
LINE
  5
27
330
1E
100
AcDbEntity
  8
0
100
AcDbLine
 10
23.7971
 20
0.0000000000000096
 30
0.0
 11
33.2647
 21
0.000000000000009
 31
0.0
  0
LINE
  5
28
330
1E
100
AcDbEntity
  8
0
100
AcDbLine
 10
71.51909999999999
 20
0.0000000000000067
 30
0.0
 11
77.7882
 21
0.0000000000000063
 31
0.0
  0
LINE
  5
29
330
1E
100
AcDbEntity
  8
0
100
AcDbLine
 10
77.7882
 20
0.0000000000000063
 30
0.0
 11
81.7544
 21
0.0000000000000061
 31
0.0
  0
LINE
  5
2A
330
1E
100
AcDbEntity
  8
0
100
AcDbLine
 10
83.16180000000001
 20
0.000000000000006
 30
0.0
 11
85.08090000000001
 21
0.557692000000006
 31
0.0
  0
LINE
  5
2B
330
1E
100
AcDbEntity
  8
0
100
AcDbLine
 10
83.16180000000001
 20
0.000000000000006
 30
0.0
 11
85.08090000000001
 21
0.557692000000006
 31
0.0
  0
LINE
  5
2C
330
1E
100
AcDbEntity
  8
0
100
AcDbLine
 10
81.7544
 20
0.0000000000000061
 30
0.0
 11
83.16180000000001
 21
0.000000000000006
 31
0.0
  0
LINE
  5
2D
330
1E
100
AcDbEntity
  8
0
100
AcDbLine
 10
63.20289999999999
 20
0.0000000000000072
 30
0.0
 11
71.51909999999999
 21
0.0000000000000067
 31
0.0
  0
LINE
  5
2E
330
1E
100
AcDbEntity
  8
0
100
AcDbLine
 10
53.7353
 20
0.0000000000000078
 30
0.0
 11
63.20289999999999
 21
0.0000000000000072
 31
0.0
  0
LINE
  5
2F
330
1E
100
AcDbEntity
  8
0
100
AcDbLine
 10
43.5
 20
0.0000000000000084
 30
0.0
 11
53.7353
 21
0.0000000000000078
 31
0.0
  0
LINE
  5
30
330
1E
100
AcDbEntity
  8
0
100
AcDbLine
 10
33.2647
 20
0.000000000000009
 30
0.0
 11
43.5
 21
0.0000000000000084
 31
0.0
  0
LINE
  5
31
330
1E
100
AcDbEntity
  8
0
100
AcDbLine
 10
9.211769999999981
 20
0.0000000000000105
 30
0.0
 11
15.4809
 21
0.0000000000000101
 31
0.0
  0
LINE
  5
32
330
1E
100
AcDbEntity
  8
0
100
AcDbLine
 10
5.24558999999998
 20
0.0000000000000108
 30
0.0
 11
9.211769999999981
 21
0.0000000000000105
 31
0.0
  0
LINE
  5
33
330
1E
100
AcDbEntity
  8
0
100
AcDbLine
 10
14.0735
 20
0.55769200000001
 30
0.0
 11
22.77349999999999
 21
0.55769200000001
 31
0.0
  0
LINE
  5
34
330
1E
100
AcDbEntity
  8
0
100
AcDbLine
 10
22.77349999999999
 20
0.55769200000001
 30
0.0
 11
32.7529
 21
0.5576920000000091
 31
0.0
  0
LINE
  5
35
330
1E
100
AcDbEntity
  8
0
100
AcDbLine
 10
72.9265
 20
0.5576920000000071
 30
0.0
 11
79.45149999999999
 21
0.557692000000006
 31
0.0
  0
LINE
  5
36
330
1E
100
AcDbEntity
  8
0
100
AcDbLine
 10
79.45149999999999
 20
0.557692000000006
 30
0.0
 11
83.54559999999999
 21
0.557692000000006
 31
0.0
  0
LINE
  5
37
330
1E
100
AcDbEntity
  8
0
100
AcDbLine
 10
85.08090000000001
 20
0.557692000000006
 30
0.0
 11
85.7206
 21
2.230770000000009
 31
0.0
  0
LINE
  5
38
330
1E
100
AcDbEntity
  8
0
100
AcDbLine
 10
85.08090000000001
 20
0.557692000000006
 30
0.0
 11
85.7206
 21
2.230770000000009
 31
0.0
  0
LINE
  5
39
330
1E
100
AcDbEntity
  8
0
100
AcDbLine
 10
83.54559999999999
 20
0.557692000000006
 30
0.0
 11
85.08090000000001
 21
0.557692000000006
 31
0.0
  0
LINE
  5
3A
330
1E
100
AcDbEntity
  8
0
100
AcDbLine
 10
64.2265
 20
0.5576920000000071
 30
0.0
 11
72.9265
 21
0.5576920000000071
 31
0.0
  0
LINE
  5
3B
330
1E
100
AcDbEntity
  8
0
100
AcDbLine
 10
54.24710000000001
 20
0.5576920000000079
 30
0.0
 11
64.2265
 21
0.5576920000000071
 31
0.0
  0
LINE
  5
3C
330
1E
100
AcDbEntity
  8
0
100
AcDbLine
 10
43.5
 20
0.5576920000000079
 30
0.0
 11
54.24710000000001
 21
0.5576920000000079
 31
0.0
  0
LINE
  5
3D
330
1E
100
AcDbEntity
  8
0
100
AcDbLine
 10
32.7529
 20
0.5576920000000091
 30
0.0
 11
43.5
 21
0.5576920000000079
 31
0.0
  0
LINE
  5
3E
330
1E
100
AcDbEntity
  8
0
100
AcDbLine
 10
85.7206
 20
2.230770000000009
 30
0.0
 11
85.7206
 21
87.00304146382981
 31
0.0
  0
LINE
  5
3F
330
1E
100
AcDbEntity
  8
0
100
AcDbLine
 10
3.454409999999979
 20
0.557692000000011
 30
0.0
 11
7.54852999999998
 21
0.557692000000011
 31
0.0
  0
LINE
  5
40
330
1E
100
AcDbEntity
  8
0
100
AcDbLine
 10
7.54852999999998
 20
0.557692000000011
 30
0.0
 11
14.0735
 21
0.55769200000001
 31
0.0
  0
LINE
  5
41
330
1E
100
AcDbEntity
  8
0
100
AcDbLine
 10
3.454409999999979
 20
0.557692000000011
 30
0.0
 11
7.54852999999998
 21
0.557692000000011
 31
0.0
  0
LINE
  5
42
330
1E
100
AcDbEntity
  8
0
100
AcDbLine
 10
3.838239999999979
 20
0.0000000000000108
 30
0.0
 11
5.24558999999998
 21
0.0000000000000108
 31
0.0
  0
LINE
  5
43
330
1E
100
AcDbEntity
  8
0
100
AcDbLine
 10
1.919119999999979
 20
0.557692000000011
 30
0.0
 11
3.838239999999979
 21
0.0000000000000108
 31
0.0
  0
LINE
  5
44
330
1E
100
AcDbEntity
  8
0
100
AcDbLine
 10
1.919119999999979
 20
0.557692000000011
 30
0.0
 11
3.454409999999979
 21
0.557692000000011
 31
0.0
  0
LINE
  5
45
330
1E
100
AcDbEntity
  8
0
100
AcDbLine
 10
1.919119999999979
 20
0.557692000000011
 30
0.0
 11
3.838239999999979
 21
0.0000000000000108
 31
0.0
  0
LINE
  5
46
330
1E
100
AcDbEntity
  8
0
100
AcDbLine
 10
109.0
 20
73.9
 30
0.0
 11
109.0
 21
71.4
 31
0.0
  0
LINE
  5
47
330
1E
100
AcDbEntity
  8
0
100
AcDbLine
 10
109.0
 20
73.9
 30
0.0
 11
109.0
 21
78.0
 31
0.0
  0
LINE
  5
48
330
1E
100
AcDbEntity
  8
0
100
AcDbLine
 10
109.0
 20
71.4
 30
0.0
 11
109.0
 21
70.5
 31
0.0
  0
LINE
  5
49
330
1E
100
AcDbEntity
  8
0
100
AcDbLine
 10
109.0
 20
71.4
 30
0.0
 11
109.0
 21
73.9
 31
0.0
  0
LINE
  5
4A
330
1E
100
AcDbEntity
  8
0
100
AcDbLine
 10
109.0
 20
70.5
 30
0.0
 11
109.2999999999999
 21
69.8
 31
0.0
  0
LINE
  5
4B
330
1E
100
AcDbEntity
  8
0
100
AcDbLine
 10
109.0
 20
70.5
 30
0.0
 11
109.0
 21
71.4
 31
0.0
  0
LINE
  5
4C
330
1E
100
AcDbEntity
  8
0
100
AcDbLine
 10
109.0
 20
78.0
 30
0.0
 11
109.0
 21
83.3
 31
0.0
  0
LINE
  5
4D
330
1E
100
AcDbEntity
  8
0
100
AcDbLine
 10
109.0
 20
78.0
 30
0.0
 11
109.0
 21
73.9
 31
0.0
  0
LINE
  5
4E
330
1E
100
AcDbEntity
  8
0
100
AcDbLine
 10
85.7206
 20
87.00304146382981
 30
0.0
 11
85.7206
 21
2.230770000000009
 31
0.0
  0
LINE
  5
4F
330
1E
100
AcDbEntity
  8
0
100
AcDbLine
 10
109.0
 20
88.18799999999999
 30
0.0
 11
109.0
 21
87.324
 31
0.0
  0
LINE
  5
50
330
1E
100
AcDbEntity
  8
0
100
AcDbLine
 10
109.0
 20
87.324
 30
0.0
 11
109.0
 21
87.0
 31
0.0
  0
LINE
  5
51
330
1E
100
AcDbEntity
  8
0
100
AcDbLine
 10
85.7206
 20
87.0
 30
0.0
 11
109.0
 21
87.0
 31
0.0
  0
LINE
  5
52
330
1E
100
AcDbEntity
  8
0
100
AcDbLine
 10
109.0
 20
93.696
 30
0.0
 11
109.0
 21
91.536
 31
0.0
  0
LINE
  5
53
330
1E
100
AcDbEntity
  8
0
100
AcDbLine
 10
109.0
 20
91.536
 30
0.0
 11
109.0
 21
89.62799999999999
 31
0.0
  0
LINE
  5
54
330
1E
100
AcDbEntity
  8
0
100
AcDbLine
 10
109.0
 20
89.62799999999999
 30
0.0
 11
109.0
 21
88.18799999999999
 31
0.0
  0
LINE
  5
55
330
1E
100
AcDbEntity
  8
0
100
AcDbLine
 10
109.0
 20
98.304
 30
0.0
 11
109.0
 21
96.0
 31
0.0
  0
LINE
  5
56
330
1E
100
AcDbEntity
  8
0
100
AcDbLine
 10
109.0
 20
100.4639999999999
 30
0.0
 11
109.0
 21
98.304
 31
0.0
  0
LINE
  5
57
330
1E
100
AcDbEntity
  8
0
100
AcDbLine
 10
109.0
 20
102.372
 30
0.0
 11
109.0
 21
100.4639999999999
 31
0.0
  0
LINE
  5
58
330
1E
100
AcDbEntity
  8
0
100
AcDbLine
 10
85.7206
 20
104.9969585361699
 30
0.0
 11
85.7206
 21
117.1149999999999
 31
0.0
  0
LINE
  5
59
330
1E
100
AcDbEntity
  8
0
100
AcDbLine
 10
109.0
 20
103.812
 30
0.0
 11
109.0
 21
102.372
 31
0.0
  0
LINE
  5
5A
330
1E
100
AcDbEntity
  8
0
100
AcDbLine
 10
109.0
 20
104.676
 30
0.0
 11
109.0
 21
103.812
 31
0.0
  0
LINE
  5
5B
330
1E
100
AcDbEntity
  8
0
100
AcDbLine
 10
85.7206
 20
105.0
 30
0.0
 11
109.0
 21
105.0
 31
0.0
  0
LINE
  5
5C
330
1E
100
AcDbEntity
  8
0
100
AcDbLine
 10
109.0
 20
102.6
 30
0.0
 11
109.0
 21
108.6999999999999
 31
0.0
  0
LINE
  5
5D
330
1E
100
AcDbEntity
  8
0
100
AcDbLine
 10
109.0
 20
96.0
 30
0.0
 11
109.0
 21
89.40000000000001
 31
0.0
  0
LINE
  5
5E
330
1E
100
AcDbEntity
  8
0
100
AcDbLine
 10
109.0
 20
96.0
 30
0.0
 11
109.0
 21
93.696
 31
0.0
  0
LINE
  5
5F
330
1E
100
AcDbEntity
  8
0
100
AcDbLine
 10
109.0
 20
89.40000000000001
 30
0.0
 11
109.0
 21
96.0
 31
0.0
  0
LINE
  5
60
330
1E
100
AcDbEntity
  8
0
100
AcDbLine
 10
109.0
 20
89.40000000000001
 30
0.0
 11
109.0
 21
83.3
 31
0.0
  0
LINE
  5
61
330
1E
100
AcDbEntity
  8
0
100
AcDbLine
 10
109.0
 20
105.0
 30
0.0
 11
109.0
 21
108.6999999999999
 31
0.0
  0
LINE
  5
62
330
1E
100
AcDbEntity
  8
0
100
AcDbLine
 10
109.0
 20
105.0
 30
0.0
 11
109.0
 21
104.676
 31
0.0
  0
LINE
  5
63
330
1E
100
AcDbEntity
  8
0
100
AcDbLine
 10
0.38382399999999
 20
117.45
 30
0.0
 11
1.279409999999989
 21
117.1149999999999
 31
0.0
  0
LINE
  5
65
330
1E
100
AcDbEntity
  8
0
100
AcDbLine
 10
13.6897
 20
117.1149999999999
 30
0.0
 11
22.5176
 21
117.1149999999999
 31
0.0
  0
LINE
  5
66
330
1E
100
AcDbEntity
  8
0
100
AcDbLine
 10
22.5176
 20
117.1149999999999
 30
0.0
 11
32.625
 21
117.1149999999999
 31
0.0
  0
LINE
  5
67
330
1E
100
AcDbEntity
  8
0
100
AcDbLine
 10
73.3103
 20
117.1149999999999
 30
0.0
 11
80.09120000000001
 21
117.1149999999999
 31
0.0
  0
LINE
  5
68
330
1E
100
AcDbEntity
  8
0
100
AcDbLine
 10
80.09120000000001
 20
117.1149999999999
 30
0.0
 11
84.1853
 21
117.1149999999999
 31
0.0
  0
LINE
  5
69
330
1E
100
AcDbEntity
  8
0
100
AcDbLine
 10
84.1853
 20
117.1149999999999
 30
0.0
 11
85.7206
 21
117.1149999999999
 31
0.0
  0
LINE
  5
6A
330
1E
100
AcDbEntity
  8
0
100
AcDbLine
 10
85.7206
 20
117.1149999999999
 30
0.0
 11
86.6162
 21
117.45
 31
0.0
  0
LINE
  5
6B
330
1E
100
AcDbEntity
  8
0
100
AcDbLine
 10
85.7206
 20
117.1149999999999
 30
0.0
 11
85.7206
 21
104.9969585361699
 31
0.0
  0
LINE
  5
6C
330
1E
100
AcDbEntity
  8
0
100
AcDbLine
 10
64.4824
 20
117.1149999999999
 30
0.0
 11
73.3103
 21
117.1149999999999
 31
0.0
  0
LINE
  5
6D
330
1E
100
AcDbEntity
  8
0
100
AcDbLine
 10
54.375
 20
117.1149999999999
 30
0.0
 11
64.4824
 21
117.1149999999999
 31
0.0
  0
LINE
  5
6E
330
1E
100
AcDbEntity
  8
0
100
AcDbLine
 10
43.5
 20
117.1149999999999
 30
0.0
 11
54.375
 21
117.1149999999999
 31
0.0
  0
LINE
  5
6F
330
1E
100
AcDbEntity
  8
0
100
AcDbLine
 10
32.625
 20
117.1149999999999
 30
0.0
 11
43.5
 21
117.1149999999999
 31
0.0
  0
LINE
  5
70
330
1E
100
AcDbEntity
  8
0
100
AcDbLine
 10
6.90881999999999
 20
117.1149999999999
 30
0.0
 11
13.6897
 21
117.1149999999999
 31
0.0
  0
LINE
  5
71
330
1E
100
AcDbEntity
  8
0
100
AcDbLine
 10
2.81470999999999
 20
117.1149999999999
 30
0.0
 11
6.90881999999999
 21
117.1149999999999
 31
0.0
  0
LINE
  5
76
330
1E
100
AcDbEntity
  8
0
100
AcDbLine
 10
86.6162
 20
117.45
 30
0.0
 11
87.0
 21
118.231
 31
0.0
  0
LINE
  5
7F
330
1E
100
AcDbEntity
  8
0
100
AcDbLine
 10
1.279409999999989
 20
117.1149999999999
 30
0.0
 11
2.81470999999999
 21
117.1149999999999
 31
0.0
  0
LINE
  5
80
330
1E
100
AcDbEntity
  8
0
100
AcDbLine
 10
0.38382399999999
 20
117.45
 30
0.0
 11
1.279409999999989
 21
117.1149999999999
 31
0.0
  0
LINE
  5
82
330
1E
100
AcDbEntity
  8
0
100
AcDbLine
 10
109.0
 20
108.6999999999999
 30
0.0
 11
109.0
 21
105.0
 31
0.0
  0
LINE
  5
83
330
1E
100
AcDbEntity
  8
0
100
AcDbLine
 10
109.0
 20
108.6999999999999
 30
0.0
 11
109.0
 21
114.0
 31
0.0
  0
LINE
  5
84
330
1E
100
AcDbEntity
  8
0
100
AcDbLine
 10
109.0
 20
108.6999999999999
 30
0.0
 11
109.0
 21
102.6
 31
0.0
  0
LINE
  5
85
330
1E
100
AcDbEntity
  8
0
100
AcDbLine
 10
109.0
 20
114.0
 30
0.0
 11
109.0
 21
118.1
 31
0.0
  0
LINE
  5
86
330
1E
100
AcDbEntity
  8
0
100
AcDbLine
 10
109.0
 20
114.0
 30
0.0
 11
109.0
 21
108.6999999999999
 31
0.0
  0
LINE
  5
93
330
1E
100
AcDbEntity
  8
0
100
AcDbLine
 10
-0.0000000000000102
 20
118.231
 30
0.0
 11
0.38382399999999
 21
119.012
 31
0.0
  0
LINE
  5
94
330
1E
100
AcDbEntity
  8
0
100
AcDbLine
 10
-0.0000000000000102
 20
118.231
 30
0.0
 11
0.38382399999999
 21
117.45
 31
0.0
  0
LINE
  5
97
330
1E
100
AcDbEntity
  8
0
100
AcDbLine
 10
0.38382399999999
 20
119.012
 30
0.0
 11
1.279409999999989
 21
119.3459999999999
 31
0.0
  0
LINE
  5
9D
330
1E
100
AcDbEntity
  8
0
100
AcDbLine
 10
86.6162
 20
119.012
 30
0.0
 11
87.0
 21
118.231
 31
0.0
  0
LINE
  5
A4
330
1E
100
AcDbEntity
  8
0
100
AcDbLine
 10
1.279409999999989
 20
120.462
 30
0.0
 11
2.81470999999999
 21
120.462
 31
0.0
  0
LINE
  5
A5
330
1E
100
AcDbEntity
  8
0
100
AcDbLine
 10
1.279409999999989
 20
120.462
 30
0.0
 11
1.279409999999989
 21
144.442
 31
0.0
  0
LINE
  5
A6
330
1E
100
AcDbEntity
  8
0
100
AcDbLine
 10
3.83823999999999
 20
119.3459999999999
 30
0.0
 11
3.83823999999999
 21
120.462
 31
0.0
  0
LINE
  5
A7
330
1E
100
AcDbEntity
  8
0
100
AcDbLine
 10
2.81470999999999
 20
119.3459999999999
 30
0.0
 11
6.90881999999999
 21
119.3459999999999
 31
0.0
  0
LINE
  5
A8
330
1E
100
AcDbEntity
  8
0
100
AcDbLine
 10
13.6897
 20
119.3459999999999
 30
0.0
 11
22.5176
 21
119.3459999999999
 31
0.0
  0
LINE
  5
A9
330
1E
100
AcDbEntity
  8
0
100
AcDbLine
 10
73.3103
 20
119.3459999999999
 30
0.0
 11
80.09120000000001
 21
119.3459999999999
 31
0.0
  0
LINE
  5
AA
330
1E
100
AcDbEntity
  8
0
100
AcDbLine
 10
83.16180000000001
 20
119.3459999999999
 30
0.0
 11
83.16180000000001
 21
120.462
 31
0.0
  0
LINE
  5
AB
330
1E
100
AcDbEntity
  8
0
100
AcDbLine
 10
80.09120000000001
 20
119.3459999999999
 30
0.0
 11
84.1853
 21
119.3459999999999
 31
0.0
  0
LINE
  5
AC
330
1E
100
AcDbEntity
  8
0
100
AcDbLine
 10
84.1853
 20
119.3459999999999
 30
0.0
 11
85.7206
 21
119.3459999999999
 31
0.0
  0
LINE
  5
AD
330
1E
100
AcDbEntity
  8
0
100
AcDbLine
 10
85.7206
 20
119.3459999999999
 30
0.0
 11
86.6162
 21
119.012
 31
0.0
  0
LINE
  5
AE
330
1E
100
AcDbEntity
  8
0
100
AcDbLine
 10
64.4824
 20
119.3459999999999
 30
0.0
 11
73.3103
 21
119.3459999999999
 31
0.0
  0
LINE
  5
AF
330
1E
100
AcDbEntity
  8
0
100
AcDbLine
 10
54.375
 20
119.3459999999999
 30
0.0
 11
64.4824
 21
119.3459999999999
 31
0.0
  0
LINE
  5
B0
330
1E
100
AcDbEntity
  8
0
100
AcDbLine
 10
43.5
 20
119.3459999999999
 30
0.0
 11
54.375
 21
119.3459999999999
 31
0.0
  0
LINE
  5
B1
330
1E
100
AcDbEntity
  8
0
100
AcDbLine
 10
22.5176
 20
119.3459999999999
 30
0.0
 11
32.625
 21
119.3459999999999
 31
0.0
  0
LINE
  5
B2
330
1E
100
AcDbEntity
  8
0
100
AcDbLine
 10
32.625
 20
119.3459999999999
 30
0.0
 11
43.5
 21
119.3459999999999
 31
0.0
  0
LINE
  5
B3
330
1E
100
AcDbEntity
  8
0
100
AcDbLine
 10
6.90881999999999
 20
119.3459999999999
 30
0.0
 11
13.6897
 21
119.3459999999999
 31
0.0
  0
LINE
  5
B4
330
1E
100
AcDbEntity
  8
0
100
AcDbLine
 10
13.6897
 20
120.462
 30
0.0
 11
22.5176
 21
120.462
 31
0.0
  0
LINE
  5
B5
330
1E
100
AcDbEntity
  8
0
100
AcDbLine
 10
22.5176
 20
120.462
 30
0.0
 11
32.625
 21
120.462
 31
0.0
  0
LINE
  5
B6
330
1E
100
AcDbEntity
  8
0
100
AcDbLine
 10
15.4809
 20
120.462
 30
0.0
 11
23.7971
 21
120.462
 31
0.0
  0
LINE
  5
B7
330
1E
100
AcDbEntity
  8
0
100
AcDbLine
 10
32.625
 20
120.462
 30
0.0
 11
43.5
 21
120.462
 31
0.0
  0
LINE
  5
B8
330
1E
100
AcDbEntity
  8
0
100
AcDbLine
 10
23.7971
 20
120.462
 30
0.0
 11
33.2647
 21
120.462
 31
0.0
  0
LINE
  5
B9
330
1E
100
AcDbEntity
  8
0
100
AcDbLine
 10
33.2647
 20
120.462
 30
0.0
 11
43.5
 21
120.462
 31
0.0
  0
LINE
  5
BA
330
1E
100
AcDbEntity
  8
0
100
AcDbLine
 10
6.90881999999999
 20
120.462
 30
0.0
 11
13.6897
 21
120.462
 31
0.0
  0
LINE
  5
BB
330
1E
100
AcDbEntity
  8
0
100
AcDbLine
 10
9.21176999999999
 20
120.462
 30
0.0
 11
15.4809
 21
120.462
 31
0.0
  0
LINE
  5
BC
330
1E
100
AcDbEntity
  8
0
100
AcDbLine
 10
5.24558999999999
 20
120.462
 30
0.0
 11
9.21176999999999
 21
120.462
 31
0.0
  0
LINE
  5
BD
330
1E
100
AcDbEntity
  8
0
100
AcDbLine
 10
3.83823999999999
 20
120.462
 30
0.0
 11
5.24558999999999
 21
120.462
 31
0.0
  0
LINE
  5
BE
330
1E
100
AcDbEntity
  8
0
100
AcDbLine
 10
2.81470999999999
 20
120.462
 30
0.0
 11
3.83823999999999
 21
120.462
 31
0.0
  0
LINE
  5
BF
330
1E
100
AcDbEntity
  8
0
100
AcDbLine
 10
2.81470999999999
 20
120.462
 30
0.0
 11
6.90881999999999
 21
120.462
 31
0.0
  0
LINE
  5
C0
330
1E
100
AcDbEntity
  8
0
100
AcDbLine
 10
2.81470999999999
 20
144.442
 30
0.0
 11
6.90881999999999
 21
144.442
 31
0.0
  0
LINE
  5
C1
330
1E
100
AcDbEntity
  8
0
100
AcDbLine
 10
13.6897
 20
144.442
 30
0.0
 11
22.5176
 21
144.442
 31
0.0
  0
LINE
  5
C2
330
1E
100
AcDbEntity
  8
0
100
AcDbLine
 10
22.5176
 20
144.442
 30
0.0
 11
32.625
 21
144.442
 31
0.0
  0
LINE
  5
C3
330
1E
100
AcDbEntity
  8
0
100
AcDbLine
 10
32.625
 20
144.442
 30
0.0
 11
43.5
 21
144.442
 31
0.0
  0
LINE
  5
C4
330
1E
100
AcDbEntity
  8
0
100
AcDbLine
 10
6.90881999999999
 20
144.442
 30
0.0
 11
13.6897
 21
144.442
 31
0.0
  0
LINE
  5
C5
330
1E
100
AcDbEntity
  8
0
100
AcDbLine
 10
3.45440999999999
 20
145.0
 30
0.0
 11
7.54852999999999
 21
145.0
 31
0.0
  0
LINE
  5
C6
330
1E
100
AcDbEntity
  8
0
100
AcDbLine
 10
14.0735
 20
145.0
 30
0.0
 11
22.77349999999999
 21
145.0
 31
0.0
  0
LINE
  5
C7
330
1E
100
AcDbEntity
  8
0
100
AcDbLine
 10
22.77349999999999
 20
145.0
 30
0.0
 11
32.7529
 21
145.0
 31
0.0
  0
LINE
  5
C8
330
1E
100
AcDbEntity
  8
0
100
AcDbLine
 10
32.7529
 20
145.0
 30
0.0
 11
43.5
 21
145.0
 31
0.0
  0
LINE
  5
C9
330
1E
100
AcDbEntity
  8
0
100
AcDbLine
 10
7.54852999999999
 20
145.0
 30
0.0
 11
14.0735
 21
145.0
 31
0.0
  0
LINE
  5
CA
330
1E
100
AcDbEntity
  8
0
100
AcDbLine
 10
3.45440999999999
 20
145.0
 30
0.0
 11
7.54852999999999
 21
145.0
 31
0.0
  0
LINE
  5
CB
330
1E
100
AcDbEntity
  8
0
100
AcDbLine
 10
1.919119999999989
 20
145.0
 30
0.0
 11
3.45440999999999
 21
145.0
 31
0.0
  0
LINE
  5
CC
330
1E
100
AcDbEntity
  8
0
100
AcDbLine
 10
2.81470999999999
 20
144.442
 30
0.0
 11
6.90881999999999
 21
144.442
 31
0.0
  0
LINE
  5
CD
330
1E
100
AcDbEntity
  8
0
100
AcDbLine
 10
1.279409999999989
 20
144.442
 30
0.0
 11
1.919119999999989
 21
145.0
 31
0.0
  0
LINE
  5
CE
330
1E
100
AcDbEntity
  8
0
100
AcDbLine
 10
1.279409999999989
 20
144.442
 30
0.0
 11
2.81470999999999
 21
144.442
 31
0.0
  0
LINE
  5
CF
330
1E
100
AcDbEntity
  8
0
100
AcDbLine
 10
2.81470999999999
 20
120.462
 30
0.0
 11
3.83823999999999
 21
120.462
 31
0.0
  0
LINE
  5
D0
330
1E
100
AcDbEntity
  8
0
100
AcDbLine
 10
2.81470999999999
 20
120.462
 30
0.0
 11
6.90881999999999
 21
120.462
 31
0.0
  0
LINE
  5
D1
330
1E
100
AcDbEntity
  8
0
100
AcDbLine
 10
35.5
 20
146.0
 30
0.0
 11
35.788
 21
146.0
 31
0.0
  0
LINE
  5
D2
330
1E
100
AcDbEntity
  8
0
100
AcDbLine
 10
35.5
 20
146.0
 30
0.0
 11
35.5
 21
148.2
 31
0.0
  0
LINE
  5
D3
330
1E
100
AcDbEntity
  8
0
100
AcDbLine
 10
35.5
 20
148.2
 30
0.0
 11
35.5
 21
146.0
 31
0.0
  0
LINE
  5
D4
330
1E
100
AcDbEntity
  8
0
100
AcDbLine
 10
35.5
 20
148.2
 30
0.0
 11
35.692
 21
148.5
 31
0.0
  0
LINE
  5
D5
330
1E
100
AcDbEntity
  8
0
100
AcDbLine
 10
34.38888888888889
 20
145.0
 30
0.0
 11
35.5
 21
146.0
 31
0.0
  0
LINE
  5
D6
330
1E
100
AcDbEntity
  8
0
100
AcDbLine
 10
35.5
 20
148.5
 30
0.0
 11
35.5
 21
398.1999999999999
 31
0.0
  0
LINE
  5
D7
330
1E
100
AcDbEntity
  8
0
100
AcDbLine
 10
35.692
 20
148.5
 30
0.0
 11
35.97999999999999
 21
148.5
 31
0.0
  0
LINE
  5
D8
330
1E
100
AcDbEntity
  8
0
100
AcDbLine
 10
35.788
 20
146.0
 30
0.0
 11
36.55599999999999
 21
146.0
 31
0.0
  0
LINE
  5
D9
330
1E
100
AcDbEntity
  8
0
100
AcDbLine
 10
36.55599999999999
 20
146.0
 30
0.0
 11
37.83599999999999
 21
146.0
 31
0.0
  0
LINE
  5
DA
330
1E
100
AcDbEntity
  8
0
100
AcDbLine
 10
35.97999999999999
 20
148.5
 30
0.0
 11
36.748
 21
148.5
 31
0.0
  0
LINE
  5
DB
330
1E
100
AcDbEntity
  8
0
100
AcDbLine
 10
36.748
 20
148.5
 30
0.0
 11
37.996
 21
148.5
 31
0.0
  0
LINE
  5
DE
330
1E
100
AcDbEntity
  8
0
100
AcDbLine
 10
37.83599999999999
 20
146.0
 30
0.0
 11
39.53199999999999
 21
146.0
 31
0.0
  0
LINE
  5
DF
330
1E
100
AcDbEntity
  8
0
100
AcDbLine
 10
35.788
 20
148.5
 30
0.0
 11
36.55599999999999
 21
148.5
 31
0.0
  0
LINE
  5
E0
330
1E
100
AcDbEntity
  8
0
100
AcDbLine
 10
36.55599999999999
 20
148.5
 30
0.0
 11
37.83599999999999
 21
148.5
 31
0.0
  0
LINE
  5
E1
330
1E
100
AcDbEntity
  8
0
100
AcDbLine
 10
39.53199999999999
 20
146.0
 30
0.0
 11
41.45199999999999
 21
146.0
 31
0.0
  0
LINE
  5
E2
330
1E
100
AcDbEntity
  8
0
100
AcDbLine
 10
39.628
 20
148.5
 30
0.0
 11
41.48399999999999
 21
148.5
 31
0.0
  0
LINE
  5
E3
330
1E
100
AcDbEntity
  8
0
100
AcDbLine
 10
37.996
 20
148.5
 30
0.0
 11
39.628
 21
148.5
 31
0.0
  0
LINE
  5
E4
330
1E
100
AcDbEntity
  8
0
100
AcDbLine
 10
41.45199999999999
 20
146.0
 30
0.0
 11
43.5
 21
146.0
 31
0.0
  0
LINE
  5
E5
330
1E
100
AcDbEntity
  8
0
100
AcDbLine
 10
37.83599999999999
 20
148.5
 30
0.0
 11
39.53199999999999
 21
148.5
 31
0.0
  0
LINE
  5
E8
330
1E
100
AcDbEntity
  8
0
100
AcDbLine
 10
39.53199999999999
 20
148.5
 30
0.0
 11
41.45199999999999
 21
148.5
 31
0.0
  0
LINE
  5
E9
330
1E
100
AcDbEntity
  8
0
100
AcDbLine
 10
43.5
 20
145.0
 30
0.0
 11
54.24710000000001
 21
145.0
 31
0.0
  0
LINE
  5
EA
330
1E
100
AcDbEntity
  8
0
100
AcDbLine
 10
43.5
 20
144.442
 30
0.0
 11
54.375
 21
144.442
 31
0.0
  0
LINE
  5
EB
330
1E
100
AcDbEntity
  8
0
100
AcDbLine
 10
43.5
 20
120.462
 30
0.0
 11
53.7353
 21
120.462
 31
0.0
  0
LINE
  5
EC
330
1E
100
AcDbEntity
  8
0
100
AcDbLine
 10
43.5
 20
120.462
 30
0.0
 11
54.375
 21
120.462
 31
0.0
  0
LINE
  5
ED
330
1E
100
AcDbEntity
  8
0
100
AcDbLine
 10
45.516
 20
148.5
 30
0.0
 11
47.372
 21
148.5
 31
0.0
  0
LINE
  5
EE
330
1E
100
AcDbEntity
  8
0
100
AcDbLine
 10
45.548
 20
146.0
 30
0.0
 11
47.468
 21
146.0
 31
0.0
  0
LINE
  5
EF
330
1E
100
AcDbEntity
  8
0
100
AcDbLine
 10
43.5
 20
146.0
 30
0.0
 11
45.548
 21
146.0
 31
0.0
  0
LINE
  5
F0
330
1E
100
AcDbEntity
  8
0
100
AcDbLine
 10
41.48399999999999
 20
148.5
 30
0.0
 11
43.5
 21
148.5
 31
0.0
  0
LINE
  5
F1
330
1E
100
AcDbEntity
  8
0
100
AcDbLine
 10
49.16399999999999
 20
146.0
 30
0.0
 11
50.44399999999999
 21
146.0
 31
0.0
  0
LINE
  5
F2
330
1E
100
AcDbEntity
  8
0
100
AcDbLine
 10
47.372
 20
148.5
 30
0.0
 11
49.004
 21
148.5
 31
0.0
  0
LINE
  5
F3
330
1E
100
AcDbEntity
  8
0
100
AcDbLine
 10
49.004
 20
148.5
 30
0.0
 11
50.25199999999999
 21
148.5
 31
0.0
  0
LINE
  5
F6
330
1E
100
AcDbEntity
  8
0
100
AcDbLine
 10
47.468
 20
146.0
 30
0.0
 11
49.16399999999999
 21
146.0
 31
0.0
  0
LINE
  5
F7
330
1E
100
AcDbEntity
  8
0
100
AcDbLine
 10
51.21199999999999
 20
146.0
 30
0.0
 11
51.5
 21
146.0
 31
0.0
  0
LINE
  5
F8
330
1E
100
AcDbEntity
  8
0
100
AcDbLine
 10
50.25199999999999
 20
148.5
 30
0.0
 11
51.02
 21
148.5
 31
0.0
  0
LINE
  5
F9
330
1E
100
AcDbEntity
  8
0
100
AcDbLine
 10
51.02
 20
148.5
 30
0.0
 11
51.308
 21
148.5
 31
0.0
  0
LINE
  5
FA
330
1E
100
AcDbEntity
  8
0
100
AcDbLine
 10
50.44399999999999
 20
146.0
 30
0.0
 11
51.21199999999999
 21
146.0
 31
0.0
  0
LINE
  5
FB
330
1E
100
AcDbEntity
  8
0
100
AcDbLine
 10
51.5
 20
148.2
 30
0.0
 11
51.5
 21
146.0
 31
0.0
  0
LINE
  5
FC
330
1E
100
AcDbEntity
  8
0
100
AcDbLine
 10
51.5
 20
146.0
 30
0.0
 11
52.6111111111111
 21
145.0
 31
0.0
  0
LINE
  5
FD
330
1E
100
AcDbEntity
  8
0
100
AcDbLine
 10
51.5
 20
146.0
 30
0.0
 11
51.5
 21
148.2
 31
0.0
  0
LINE
  5
FE
330
1E
100
AcDbEntity
  8
0
100
AcDbLine
 10
54.375
 20
120.462
 30
0.0
 11
64.4824
 21
120.462
 31
0.0
  0
LINE
  5
FF
330
1E
100
AcDbEntity
  8
0
100
AcDbLine
 10
73.3103
 20
120.462
 30
0.0
 11
80.09120000000001
 21
120.462
 31
0.0
  0
LINE
  5
100
330
1E
100
AcDbEntity
  8
0
100
AcDbLine
 10
80.09120000000001
 20
120.462
 30
0.0
 11
84.1853
 21
120.462
 31
0.0
  0
LINE
  5
101
330
1E
100
AcDbEntity
  8
0
100
AcDbLine
 10
71.51909999999999
 20
120.462
 30
0.0
 11
77.7882
 21
120.462
 31
0.0
  0
LINE
  5
102
330
1E
100
AcDbEntity
  8
0
100
AcDbLine
 10
77.7882
 20
120.462
 30
0.0
 11
81.7544
 21
120.462
 31
0.0
  0
LINE
  5
103
330
1E
100
AcDbEntity
  8
0
100
AcDbLine
 10
83.16180000000001
 20
120.462
 30
0.0
 11
84.1853
 21
120.462
 31
0.0
  0
LINE
  5
104
330
1E
100
AcDbEntity
  8
0
100
AcDbLine
 10
85.7206
 20
120.462
 30
0.0
 11
85.7206
 21
144.442
 31
0.0
  0
LINE
  5
105
330
1E
100
AcDbEntity
  8
0
100
AcDbLine
 10
84.1853
 20
120.462
 30
0.0
 11
85.7206
 21
120.462
 31
0.0
  0
LINE
  5
106
330
1E
100
AcDbEntity
  8
0
100
AcDbLine
 10
81.7544
 20
120.462
 30
0.0
 11
83.16180000000001
 21
120.462
 31
0.0
  0
LINE
  5
107
330
1E
100
AcDbEntity
  8
0
100
AcDbLine
 10
64.4824
 20
120.462
 30
0.0
 11
73.3103
 21
120.462
 31
0.0
  0
LINE
  5
108
330
1E
100
AcDbEntity
  8
0
100
AcDbLine
 10
63.20289999999999
 20
120.462
 30
0.0
 11
71.51909999999999
 21
120.462
 31
0.0
  0
LINE
  5
109
330
1E
100
AcDbEntity
  8
0
100
AcDbLine
 10
54.24710000000001
 20
145.0
 30
0.0
 11
64.2265
 21
145.0
 31
0.0
  0
LINE
  5
10A
330
1E
100
AcDbEntity
  8
0
100
AcDbLine
 10
73.3103
 20
144.442
 30
0.0
 11
80.09120000000001
 21
144.442
 31
0.0
  0
LINE
  5
10B
330
1E
100
AcDbEntity
  8
0
100
AcDbLine
 10
80.09120000000001
 20
144.442
 30
0.0
 11
84.1853
 21
144.442
 31
0.0
  0
LINE
  5
10C
330
1E
100
AcDbEntity
  8
0
100
AcDbLine
 10
85.7206
 20
144.442
 30
0.0
 11
85.7206
 21
120.462
 31
0.0
  0
LINE
  5
10D
330
1E
100
AcDbEntity
  8
0
100
AcDbLine
 10
84.1853
 20
144.442
 30
0.0
 11
85.7206
 21
144.442
 31
0.0
  0
LINE
  5
10E
330
1E
100
AcDbEntity
  8
0
100
AcDbLine
 10
72.9265
 20
145.0
 30
0.0
 11
79.45149999999999
 21
145.0
 31
0.0
  0
LINE
  5
10F
330
1E
100
AcDbEntity
  8
0
100
AcDbLine
 10
79.45149999999999
 20
145.0
 30
0.0
 11
83.54559999999999
 21
145.0
 31
0.0
  0
LINE
  5
110
330
1E
100
AcDbEntity
  8
0
100
AcDbLine
 10
85.08090000000001
 20
145.0
 30
0.0
 11
85.7206
 21
144.442
 31
0.0
  0
LINE
  5
111
330
1E
100
AcDbEntity
  8
0
100
AcDbLine
 10
83.54559999999999
 20
145.0
 30
0.0
 11
85.08090000000001
 21
145.0
 31
0.0
  0
LINE
  5
112
330
1E
100
AcDbEntity
  8
0
100
AcDbLine
 10
64.2265
 20
145.0
 30
0.0
 11
72.9265
 21
145.0
 31
0.0
  0
LINE
  5
113
330
1E
100
AcDbEntity
  8
0
100
AcDbLine
 10
64.4824
 20
144.442
 30
0.0
 11
73.3103
 21
144.442
 31
0.0
  0
LINE
  5
114
330
1E
100
AcDbEntity
  8
0
100
AcDbLine
 10
54.375
 20
144.442
 30
0.0
 11
64.4824
 21
144.442
 31
0.0
  0
LINE
  5
115
330
1E
100
AcDbEntity
  8
0
100
AcDbLine
 10
53.7353
 20
120.462
 30
0.0
 11
63.20289999999999
 21
120.462
 31
0.0
  0
LINE
  5
116
330
1E
100
AcDbEntity
  8
0
100
AcDbLine
 10
51.5
 20
148.5
 30
0.0
 11
51.5
 21
398.1999999999999
 31
0.0
  0
LINE
  5
117
330
1E
100
AcDbEntity
  8
0
100
AcDbLine
 10
51.308
 20
148.5
 30
0.0
 11
51.5
 21
148.5
 31
0.0
  0
LINE
  5
118
330
1E
100
AcDbEntity
  8
0
100
AcDbLine
 10
51.308
 20
148.5
 30
0.0
 11
51.5
 21
148.2
 31
0.0
  0
LINE
  5
119
330
1E
100
AcDbEntity
  8
0
100
AcDbLine
 10
51.21199999999999
 20
148.5
 30
0.0
 11
51.5
 21
148.5
 31
0.0
  0
LINE
  5
11A
330
1E
100
AcDbEntity
  8
0
100
AcDbLine
 10
50.44399999999999
 20
148.5
 30
0.0
 11
51.21199999999999
 21
148.5
 31
0.0
  0
LINE
  5
11B
330
1E
100
AcDbEntity
  8
0
100
AcDbLine
 10
49.16399999999999
 20
148.5
 30
0.0
 11
50.44399999999999
 21
148.5
 31
0.0
  0
LINE
  5
11C
330
1E
100
AcDbEntity
  8
0
100
AcDbLine
 10
47.468
 20
148.5
 30
0.0
 11
49.16399999999999
 21
148.5
 31
0.0
  0
LINE
  5
11D
330
1E
100
AcDbEntity
  8
0
100
AcDbLine
 10
45.548
 20
148.5
 30
0.0
 11
47.468
 21
148.5
 31
0.0
  0
LINE
  5
11E
330
1E
100
AcDbEntity
  8
0
100
AcDbLine
 10
51.5
 20
148.5
 30
0.0
 11
51.5
 21
398.1999999999999
 31
0.0
  0
LINE
  5
121
330
1E
100
AcDbEntity
  8
0
100
AcDbLine
 10
43.5
 20
148.5
 30
0.0
 11
45.548
 21
148.5
 31
0.0
  0
LINE
  5
122
330
1E
100
AcDbEntity
  8
0
100
AcDbLine
 10
43.5
 20
148.5
 30
0.0
 11
45.516
 21
148.5
 31
0.0
  0
LINE
  5
123
330
1E
100
AcDbEntity
  8
0
100
AcDbLine
 10
41.45199999999999
 20
148.5
 30
0.0
 11
43.5
 21
148.5
 31
0.0
  0
LINE
  5
124
330
1E
100
AcDbEntity
  8
0
100
AcDbLine
 10
35.692
 20
398.4999999999999
 30
0.0
 11
35.97999999999999
 21
398.4999999999999
 31
0.0
  0
LINE
  5
125
330
1E
100
AcDbEntity
  8
0
100
AcDbLine
 10
36.5
 20
398.4999999999999
 30
0.0
 11
36.5
 21
398.7
 31
0.0
  0
LINE
  5
126
330
1E
100
AcDbEntity
  8
0
100
AcDbLine
 10
35.97999999999999
 20
398.4999999999999
 30
0.0
 11
36.748
 21
398.4999999999999
 31
0.0
  0
LINE
  5
127
330
1E
100
AcDbEntity
  8
0
100
AcDbLine
 10
36.748
 20
398.4999999999999
 30
0.0
 11
37.996
 21
398.4999999999999
 31
0.0
  0
LINE
  5
128
330
1E
100
AcDbEntity
  8
0
100
AcDbLine
 10
37.996
 20
398.4999999999999
 30
0.0
 11
39.628
 21
398.4999999999999
 31
0.0
  0
LINE
  5
129
330
1E
100
AcDbEntity
  8
0
100
AcDbLine
 10
36.668
 20
399.0
 30
0.0
 11
36.92
 21
399.0
 31
0.0
  0
LINE
  5
12A
330
1E
100
AcDbEntity
  8
0
100
AcDbLine
 10
36.92
 20
399.0
 30
0.0
 11
37.59199999999999
 21
399.0
 31
0.0
  0
LINE
  5
12B
330
1E
100
AcDbEntity
  8
0
100
AcDbLine
 10
37.59199999999999
 20
399.0
 30
0.0
 11
38.68399999999999
 21
399.0
 31
0.0
  0
LINE
  5
12C
330
1E
100
AcDbEntity
  8
0
100
AcDbLine
 10
38.68399999999999
 20
399.0
 30
0.0
 11
40.11199999999999
 21
399.0
 31
0.0
  0
LINE
  5
12D
330
1E
100
AcDbEntity
  8
0
100
AcDbLine
 10
40.11199999999999
 20
399.0
 30
0.0
 11
41.736
 21
399.0
 31
0.0
  0
LINE
  5
12E
330
1E
100
AcDbEntity
  8
0
100
AcDbLine
 10
36.5
 20
398.7
 30
0.0
 11
36.5
 21
398.4999999999999
 31
0.0
  0
LINE
  5
12F
330
1E
100
AcDbEntity
  8
0
100
AcDbLine
 10
36.5
 20
398.7
 30
0.0
 11
36.668
 21
399.0
 31
0.0
  0
LINE
  5
130
330
1E
100
AcDbEntity
  8
0
100
AcDbLine
 10
39.628
 20
398.4999999999999
 30
0.0
 11
41.48399999999999
 21
398.4999999999999
 31
0.0
  0
LINE
  5
131
330
1E
100
AcDbEntity
  8
0
100
AcDbLine
 10
50.5
 20
398.4999999999999
 30
0.0
 11
50.5
 21
398.7
 31
0.0
  0
LINE
  5
132
330
1E
100
AcDbEntity
  8
0
100
AcDbLine
 10
51.02
 20
398.4999999999999
 30
0.0
 11
51.308
 21
398.4999999999999
 31
0.0
  0
LINE
  5
133
330
1E
100
AcDbEntity
  8
0
100
AcDbLine
 10
51.308
 20
398.4999999999999
 30
0.0
 11
51.5
 21
398.1999999999999
 31
0.0
  0
LINE
  5
134
330
1E
100
AcDbEntity
  8
0
100
AcDbLine
 10
50.25199999999999
 20
398.4999999999999
 30
0.0
 11
51.02
 21
398.4999999999999
 31
0.0
  0
LINE
  5
135
330
1E
100
AcDbEntity
  8
0
100
AcDbLine
 10
49.004
 20
398.4999999999999
 30
0.0
 11
50.25199999999999
 21
398.4999999999999
 31
0.0
  0
LINE
  5
136
330
1E
100
AcDbEntity
  8
0
100
AcDbLine
 10
47.372
 20
398.4999999999999
 30
0.0
 11
49.004
 21
398.4999999999999
 31
0.0
  0
LINE
  5
137
330
1E
100
AcDbEntity
  8
0
100
AcDbLine
 10
45.516
 20
398.4999999999999
 30
0.0
 11
47.372
 21
398.4999999999999
 31
0.0
  0
LINE
  5
138
330
1E
100
AcDbEntity
  8
0
100
AcDbLine
 10
50.08
 20
399.0
 30
0.0
 11
50.332
 21
399.0
 31
0.0
  0
LINE
  5
139
330
1E
100
AcDbEntity
  8
0
100
AcDbLine
 10
50.332
 20
399.0
 30
0.0
 11
50.5
 21
398.7
 31
0.0
  0
LINE
  5
13A
330
1E
100
AcDbEntity
  8
0
100
AcDbLine
 10
49.408
 20
399.0
 30
0.0
 11
50.08
 21
399.0
 31
0.0
  0
LINE
  5
13B
330
1E
100
AcDbEntity
  8
0
100
AcDbLine
 10
48.316
 20
399.0
 30
0.0
 11
49.408
 21
399.0
 31
0.0
  0
LINE
  5
13C
330
1E
100
AcDbEntity
  8
0
100
AcDbLine
 10
46.888
 20
399.0
 30
0.0
 11
48.316
 21
399.0
 31
0.0
  0
LINE
  5
13D
330
1E
100
AcDbEntity
  8
0
100
AcDbLine
 10
45.26399999999999
 20
399.0
 30
0.0
 11
46.888
 21
399.0
 31
0.0
  0
LINE
  5
13E
330
1E
100
AcDbEntity
  8
0
100
AcDbLine
 10
43.5
 20
399.0
 30
0.0
 11
45.26399999999999
 21
399.0
 31
0.0
  0
LINE
  5
13F
330
1E
100
AcDbEntity
  8
0
100
AcDbLine
 10
50.5
 20
398.7
 30
0.0
 11
50.5
 21
398.4999999999999
 31
0.0
  0
LINE
  5
140
330
1E
100
AcDbEntity
  8
0
100
AcDbLine
 10
41.736
 20
399.0
 30
0.0
 11
43.5
 21
399.0
 31
0.0
  0
LINE
  5
141
330
1E
100
AcDbEntity
  8
0
100
AcDbLine
 10
43.5
 20
398.4999999999999
 30
0.0
 11
45.516
 21
398.4999999999999
 31
0.0
  0
LINE
  5
142
330
1E
100
AcDbEntity
  8
0
100
AcDbLine
 10
41.48399999999999
 20
398.4999999999999
 30
0.0
 11
43.5
 21
398.4999999999999
 31
0.0
  0
LINE
  5
143
330
1E
100
AcDbEntity
  8
0
100
AcDbLine
 10
35.5
 20
398.1999999999999
 30
0.0
 11
35.692
 21
398.4999999999999
 31
0.0
  0
LINE
  5
144
330
1E
100
AcDbEntity
  8
0
100
AcDbLine
 10
35.5
 20
148.5
 30
0.0
 11
35.692
 21
148.5
 31
0.0
  0
LINE
  5
145
330
1E
100
AcDbEntity
  8
0
100
AcDbLine
 10
35.5
 20
148.5
 30
0.0
 11
35.788
 21
148.5
 31
0.0
  0
LINE
  5
146
330
1E
100
AcDbEntity
  8
0
100
AcDbLine
 10
35.5
 20
148.5
 30
0.0
 11
35.5
 21
398.1999999999999
 31
0.0
  0
LINE
  5
147
330
1E
100
AcDbEntity
  8
0
100
AcDbLine
 10
2.81470999999999
 20
119.3459999999999
 30
0.0
 11
6.90881999999999
 21
119.3459999999999
 31
0.0
  0
LINE
  5
148
330
1E
100
AcDbEntity
  8
0
100
AcDbLine
 10
1.279409999999989
 20
119.3459999999999
 30
0.0
 11
2.81470999999999
 21
119.3459999999999
 31
0.0
  0
LINE
  5
14A
330
1E
100
AcDbEntity
  8
0
100
AcDbLine
 10
0.38382399999999
 20
119.012
 30
0.0
 11
1.279409999999989
 21
119.3459999999999
 31
0.0
  0
LINE
  5
14C
330
1E
100
AcDbEntity
  8
0
100
AcDbLine
 10
-0.0000000000000101
 20
118.231
 30
0.0
 11
0.38382399999999
 21
117.45
 31
0.0
  0
LINE
  5
14E
330
1E
100
AcDbEntity
  8
0
100
AcDbLine
 10
-0.0000000000000101
 20
118.231
 30
0.0
 11
0.38382399999999
 21
119.012
 31
0.0
  0
LINE
  5
14F
330
1E
100
AcDbEntity
  8
0
100
AcDbLine
 10
109.0
 20
120.5999999999999
 30
0.0
 11
109.0
 21
121.5
 31
0.0
  0
LINE
  5
150
330
1E
100
AcDbEntity
  8
0
100
AcDbLine
 10
109.0
 20
120.5999999999999
 30
0.0
 11
109.0
 21
118.1
 31
0.0
  0
LINE
  5
151
330
1E
100
AcDbEntity
  8
0
100
AcDbLine
 10
109.0
 20
118.1
 30
0.0
 11
109.0
 21
114.0
 31
0.0
  0
LINE
  5
152
330
1E
100
AcDbEntity
  8
0
100
AcDbLine
 10
109.0
 20
118.1
 30
0.0
 11
109.0
 21
120.5999999999999
 31
0.0
  0
LINE
  5
153
330
1E
100
AcDbEntity
  8
0
100
AcDbLine
 10
109.0
 20
121.5
 30
0.0
 11
109.2999999999999
 21
122.1999999999999
 31
0.0
  0
LINE
  5
154
330
1E
100
AcDbEntity
  8
0
100
AcDbLine
 10
109.0
 20
121.5
 30
0.0
 11
109.0
 21
120.5999999999999
 31
0.0
  0
LINE
  5
155
330
1E
100
AcDbEntity
  8
0
100
AcDbLine
 10
109.0
 20
83.3
 30
0.0
 11
109.0
 21
78.0
 31
0.0
  0
LINE
  5
156
330
1E
100
AcDbEntity
  8
0
100
AcDbLine
 10
109.0
 20
83.3
 30
0.0
 11
109.0
 21
87.0
 31
0.0
  0
LINE
  5
157
330
1E
100
AcDbEntity
  8
0
100
AcDbLine
 10
109.0
 20
83.3
 30
0.0
 11
109.0
 21
89.40000000000001
 31
0.0
  0
LINE
  5
158
330
1E
100
AcDbEntity
  8
0
100
AcDbLine
 10
111.4999999999999
 20
69.0
 30
0.0
 11
113.5
 21
68.0
 31
0.0
  0
LINE
  5
159
330
1E
100
AcDbEntity
  8
0
100
AcDbLine
 10
113.5
 20
68.0
 30
0.0
 11
115.0
 21
66.5
 31
0.0
  0
LINE
  5
15A
330
1E
100
AcDbEntity
  8
0
100
AcDbLine
 10
116.0
 20
69.2
 30
0.0
 11
116.0
 21
74.1
 31
0.0
  0
LINE
  5
15B
330
1E
100
AcDbEntity
  8
0
100
AcDbLine
 10
116.0
 20
69.2
 30
0.0
 11
116.0
 21
66.09999999999999
 31
0.0
  0
LINE
  5
15C
330
1E
100
AcDbEntity
  8
0
100
AcDbLine
 10
116.0
 20
66.09999999999999
 30
0.0
 11
116.0
 21
69.2
 31
0.0
  0
LINE
  5
15D
330
1E
100
AcDbEntity
  8
0
100
AcDbLine
 10
116.0
 20
66.09999999999999
 30
0.0
 11
116.0
 21
65.0
 31
0.0
  0
LINE
  5
15E
330
1E
100
AcDbEntity
  8
0
100
AcDbLine
 10
115.0
 20
66.5
 30
0.0
 11
115.5
 21
65.5
 31
0.0
  0
LINE
  5
15F
330
1E
100
AcDbEntity
  8
0
100
AcDbLine
 10
115.5
 20
65.5
 30
0.0
 11
116.0
 21
65.0
 31
0.0
  0
LINE
  5
160
330
1E
100
AcDbEntity
  8
0
100
AcDbLine
 10
122.0
 20
66.09999999999999
 30
0.0
 11
122.0
 21
69.2
 31
0.0
  0
LINE
  5
161
330
1E
100
AcDbEntity
  8
0
100
AcDbLine
 10
122.0
 20
66.09999999999999
 30
0.0
 11
122.0
 21
65.0
 31
0.0
  0
LINE
  5
162
330
1E
100
AcDbEntity
  8
0
100
AcDbLine
 10
122.0
 20
65.0
 30
0.0
 11
122.0
 21
66.09999999999999
 31
0.0
  0
LINE
  5
163
330
1E
100
AcDbEntity
  8
0
100
AcDbLine
 10
116.0
 20
65.0
 30
0.0
 11
122.0
 21
65.0
 31
0.0
  0
LINE
  5
164
330
1E
100
AcDbEntity
  8
0
100
AcDbLine
 10
116.0
 20
65.0
 30
0.0
 11
116.0
 21
66.09999999999999
 31
0.0
  0
LINE
  5
165
330
1E
100
AcDbEntity
  8
0
100
AcDbLine
 10
109.2999999999999
 20
83.0
 30
0.0
 11
109.2999999999999
 21
89.29999999999999
 31
0.0
  0
LINE
  5
166
330
1E
100
AcDbEntity
  8
0
100
AcDbLine
 10
109.2999999999999
 20
83.0
 30
0.0
 11
109.2999999999999
 21
77.5
 31
0.0
  0
LINE
  5
167
330
1E
100
AcDbEntity
  8
0
100
AcDbLine
 10
109.2999999999999
 20
109.0
 30
0.0
 11
109.2999999999999
 21
114.5
 31
0.0
  0
LINE
  5
168
330
1E
100
AcDbEntity
  8
0
100
AcDbLine
 10
109.2999999999999
 20
109.0
 30
0.0
 11
109.2999999999999
 21
102.7
 31
0.0
  0
LINE
  5
169
330
1E
100
AcDbEntity
  8
0
100
AcDbLine
 10
109.2999999999999
 20
102.7
 30
0.0
 11
109.2999999999999
 21
109.0
 31
0.0
  0
LINE
  5
16A
330
1E
100
AcDbEntity
  8
0
100
AcDbLine
 10
109.2999999999999
 20
102.7
 30
0.0
 11
109.2999999999999
 21
96.0
 31
0.0
  0
LINE
  5
16B
330
1E
100
AcDbEntity
  8
0
100
AcDbLine
 10
109.2999999999999
 20
96.0
 30
0.0
 11
109.2999999999999
 21
89.29999999999999
 31
0.0
  0
LINE
  5
16C
330
1E
100
AcDbEntity
  8
0
100
AcDbLine
 10
109.2999999999999
 20
96.0
 30
0.0
 11
109.2999999999999
 21
102.7
 31
0.0
  0
LINE
  5
16D
330
1E
100
AcDbEntity
  8
0
100
AcDbLine
 10
109.2999999999999
 20
89.29999999999999
 30
0.0
 11
109.2999999999999
 21
96.0
 31
0.0
  0
LINE
  5
16E
330
1E
100
AcDbEntity
  8
0
100
AcDbLine
 10
109.2999999999999
 20
89.29999999999999
 30
0.0
 11
109.2999999999999
 21
83.0
 31
0.0
  0
LINE
  5
16F
330
1E
100
AcDbEntity
  8
0
100
AcDbLine
 10
109.2999999999999
 20
77.5
 30
0.0
 11
109.2999999999999
 21
73.3
 31
0.0
  0
LINE
  5
170
330
1E
100
AcDbEntity
  8
0
100
AcDbLine
 10
109.2999999999999
 20
77.5
 30
0.0
 11
109.2999999999999
 21
83.0
 31
0.0
  0
LINE
  5
171
330
1E
100
AcDbEntity
  8
0
100
AcDbLine
 10
109.2999999999999
 20
73.3
 30
0.0
 11
109.2999999999999
 21
77.5
 31
0.0
  0
LINE
  5
172
330
1E
100
AcDbEntity
  8
0
100
AcDbLine
 10
109.2999999999999
 20
73.3
 30
0.0
 11
109.2999999999999
 21
70.7
 31
0.0
  0
LINE
  5
173
330
1E
100
AcDbEntity
  8
0
100
AcDbLine
 10
109.2999999999999
 20
70.7
 30
0.0
 11
109.2999999999999
 21
73.3
 31
0.0
  0
LINE
  5
174
330
1E
100
AcDbEntity
  8
0
100
AcDbLine
 10
109.2999999999999
 20
70.7
 30
0.0
 11
109.2999999999999
 21
69.8
 31
0.0
  0
LINE
  5
175
330
1E
100
AcDbEntity
  8
0
100
AcDbLine
 10
109.2999999999999
 20
114.5
 30
0.0
 11
109.2999999999999
 21
118.7
 31
0.0
  0
LINE
  5
176
330
1E
100
AcDbEntity
  8
0
100
AcDbLine
 10
109.2999999999999
 20
114.5
 30
0.0
 11
109.2999999999999
 21
109.0
 31
0.0
  0
LINE
  5
177
330
1E
100
AcDbEntity
  8
0
100
AcDbLine
 10
109.2999999999999
 20
118.7
 30
0.0
 11
109.2999999999999
 21
121.3
 31
0.0
  0
LINE
  5
178
330
1E
100
AcDbEntity
  8
0
100
AcDbLine
 10
109.2999999999999
 20
118.7
 30
0.0
 11
109.2999999999999
 21
114.5
 31
0.0
  0
LINE
  5
179
330
1E
100
AcDbEntity
  8
0
100
AcDbLine
 10
109.2999999999999
 20
121.3
 30
0.0
 11
109.2999999999999
 21
122.1999999999999
 31
0.0
  0
LINE
  5
17A
330
1E
100
AcDbEntity
  8
0
100
AcDbLine
 10
109.2999999999999
 20
121.3
 30
0.0
 11
109.2999999999999
 21
118.7
 31
0.0
  0
LINE
  5
17B
330
1E
100
AcDbEntity
  8
0
100
AcDbLine
 10
109.2999999999999
 20
122.1999999999999
 30
0.0
 11
110.0
 21
122.5
 31
0.0
  0
LINE
  5
17C
330
1E
100
AcDbEntity
  8
0
100
AcDbLine
 10
109.2999999999999
 20
122.1999999999999
 30
0.0
 11
109.2999999999999
 21
121.3
 31
0.0
  0
LINE
  5
17D
330
1E
100
AcDbEntity
  8
0
100
AcDbLine
 10
109.2999999999999
 20
69.8
 30
0.0
 11
110.0
 21
69.5
 31
0.0
  0
LINE
  5
17E
330
1E
100
AcDbEntity
  8
0
100
AcDbLine
 10
109.2999999999999
 20
69.8
 30
0.0
 11
109.2999999999999
 21
70.7
 31
0.0
  0
LINE
  5
17F
330
1E
100
AcDbEntity
  8
0
100
AcDbLine
 10
110.0
 20
122.5
 30
0.0
 11
111.4999999999999
 21
123.0
 31
0.0
  0
LINE
  5
180
330
1E
100
AcDbEntity
  8
0
100
AcDbLine
 10
111.4999999999999
 20
123.0
 30
0.0
 11
113.5
 21
124.0
 31
0.0
  0
LINE
  5
181
330
1E
100
AcDbEntity
  8
0
100
AcDbLine
 10
113.5
 20
124.0
 30
0.0
 11
115.0
 21
125.5
 31
0.0
  0
LINE
  5
182
330
1E
100
AcDbEntity
  8
0
100
AcDbLine
 10
115.0
 20
125.5
 30
0.0
 11
115.5
 21
126.5
 31
0.0
  0
LINE
  5
183
330
1E
100
AcDbEntity
  8
0
100
AcDbLine
 10
116.0
 20
111.4
 30
0.0
 11
116.0
 21
117.9
 31
0.0
  0
LINE
  5
184
330
1E
100
AcDbEntity
  8
0
100
AcDbLine
 10
116.0
 20
111.4
 30
0.0
 11
116.0
 21
104.0
 31
0.0
  0
LINE
  5
185
330
1E
100
AcDbEntity
  8
0
100
AcDbLine
 10
116.0
 20
104.0
 30
0.0
 11
116.0
 21
111.4
 31
0.0
  0
LINE
  5
186
330
1E
100
AcDbEntity
  8
0
100
AcDbLine
 10
116.0
 20
104.0
 30
0.0
 11
116.0
 21
96.0
 31
0.0
  0
LINE
  5
187
330
1E
100
AcDbEntity
  8
0
100
AcDbLine
 10
116.0
 20
96.0
 30
0.0
 11
116.0
 21
88.0
 31
0.0
  0
LINE
  5
188
330
1E
100
AcDbEntity
  8
0
100
AcDbLine
 10
116.0
 20
96.0
 30
0.0
 11
116.0
 21
104.0
 31
0.0
  0
LINE
  5
189
330
1E
100
AcDbEntity
  8
0
100
AcDbLine
 10
116.0
 20
80.6
 30
0.0
 11
116.0
 21
88.0
 31
0.0
  0
LINE
  5
18A
330
1E
100
AcDbEntity
  8
0
100
AcDbLine
 10
116.0
 20
80.6
 30
0.0
 11
116.0
 21
74.1
 31
0.0
  0
LINE
  5
18B
330
1E
100
AcDbEntity
  8
0
100
AcDbLine
 10
116.0
 20
88.0
 30
0.0
 11
116.0
 21
96.0
 31
0.0
  0
LINE
  5
18C
330
1E
100
AcDbEntity
  8
0
100
AcDbLine
 10
116.0
 20
88.0
 30
0.0
 11
116.0
 21
80.6
 31
0.0
  0
LINE
  5
18D
330
1E
100
AcDbEntity
  8
0
100
AcDbLine
 10
116.0
 20
74.1
 30
0.0
 11
116.0
 21
69.2
 31
0.0
  0
LINE
  5
18E
330
1E
100
AcDbEntity
  8
0
100
AcDbLine
 10
116.0
 20
74.1
 30
0.0
 11
116.0
 21
80.6
 31
0.0
  0
LINE
  5
18F
330
1E
100
AcDbEntity
  8
0
100
AcDbLine
 10
122.0
 20
74.1
 30
0.0
 11
122.0
 21
80.6
 31
0.0
  0
LINE
  5
190
330
1E
100
AcDbEntity
  8
0
100
AcDbLine
 10
122.0
 20
80.6
 30
0.0
 11
122.0
 21
88.0
 31
0.0
  0
LINE
  5
191
330
1E
100
AcDbEntity
  8
0
100
AcDbLine
 10
122.0
 20
80.6
 30
0.0
 11
122.0
 21
74.1
 31
0.0
  0
LINE
  5
192
330
1E
100
AcDbEntity
  8
0
100
AcDbLine
 10
122.0
 20
111.4
 30
0.0
 11
122.0
 21
117.9
 31
0.0
  0
LINE
  5
193
330
1E
100
AcDbEntity
  8
0
100
AcDbLine
 10
122.0
 20
111.4
 30
0.0
 11
122.0
 21
104.0
 31
0.0
  0
LINE
  5
194
330
1E
100
AcDbEntity
  8
0
100
AcDbLine
 10
122.0
 20
104.0
 30
0.0
 11
122.0
 21
111.4
 31
0.0
  0
LINE
  5
195
330
1E
100
AcDbEntity
  8
0
100
AcDbLine
 10
122.0
 20
104.0
 30
0.0
 11
122.0
 21
96.0
 31
0.0
  0
LINE
  5
196
330
1E
100
AcDbEntity
  8
0
100
AcDbLine
 10
122.0
 20
96.0
 30
0.0
 11
122.0
 21
88.0
 31
0.0
  0
LINE
  5
197
330
1E
100
AcDbEntity
  8
0
100
AcDbLine
 10
122.0
 20
96.0
 30
0.0
 11
122.0
 21
104.0
 31
0.0
  0
LINE
  5
198
330
1E
100
AcDbEntity
  8
0
100
AcDbLine
 10
122.0
 20
88.0
 30
0.0
 11
122.0
 21
96.0
 31
0.0
  0
LINE
  5
199
330
1E
100
AcDbEntity
  8
0
100
AcDbLine
 10
122.0
 20
88.0
 30
0.0
 11
122.0
 21
80.6
 31
0.0
  0
LINE
  5
19A
330
1E
100
AcDbEntity
  8
0
100
AcDbLine
 10
116.0
 20
117.9
 30
0.0
 11
116.0
 21
122.7999999999999
 31
0.0
  0
LINE
  5
19B
330
1E
100
AcDbEntity
  8
0
100
AcDbLine
 10
116.0
 20
117.9
 30
0.0
 11
116.0
 21
111.4
 31
0.0
  0
LINE
  5
19C
330
1E
100
AcDbEntity
  8
0
100
AcDbLine
 10
116.0
 20
122.7999999999999
 30
0.0
 11
116.0
 21
125.9
 31
0.0
  0
LINE
  5
19D
330
1E
100
AcDbEntity
  8
0
100
AcDbLine
 10
116.0
 20
122.7999999999999
 30
0.0
 11
116.0
 21
117.9
 31
0.0
  0
LINE
  5
19E
330
1E
100
AcDbEntity
  8
0
100
AcDbLine
 10
116.0
 20
125.9
 30
0.0
 11
116.0
 21
127.0
 31
0.0
  0
LINE
  5
19F
330
1E
100
AcDbEntity
  8
0
100
AcDbLine
 10
116.0
 20
125.9
 30
0.0
 11
116.0
 21
122.7999999999999
 31
0.0
  0
LINE
  5
1A0
330
1E
100
AcDbEntity
  8
0
100
AcDbLine
 10
122.0
 20
117.9
 30
0.0
 11
122.0
 21
122.7999999999999
 31
0.0
  0
LINE
  5
1A1
330
1E
100
AcDbEntity
  8
0
100
AcDbLine
 10
122.0
 20
117.9
 30
0.0
 11
122.0
 21
111.4
 31
0.0
  0
LINE
  5
1A2
330
1E
100
AcDbEntity
  8
0
100
AcDbLine
 10
122.0
 20
122.7999999999999
 30
0.0
 11
122.0
 21
125.9
 31
0.0
  0
LINE
  5
1A3
330
1E
100
AcDbEntity
  8
0
100
AcDbLine
 10
122.0
 20
122.7999999999999
 30
0.0
 11
122.0
 21
117.9
 31
0.0
  0
LINE
  5
1A4
330
1E
100
AcDbEntity
  8
0
100
AcDbLine
 10
122.0
 20
127.0
 30
0.0
 11
122.0
 21
125.9
 31
0.0
  0
LINE
  5
1A5
330
1E
100
AcDbEntity
  8
0
100
AcDbLine
 10
122.0
 20
125.9
 30
0.0
 11
122.0
 21
127.0
 31
0.0
  0
LINE
  5
1A6
330
1E
100
AcDbEntity
  8
0
100
AcDbLine
 10
122.0
 20
125.9
 30
0.0
 11
122.0
 21
122.7999999999999
 31
0.0
  0
LINE
  5
1A7
330
1E
100
AcDbEntity
  8
0
100
AcDbLine
 10
115.5
 20
126.5
 30
0.0
 11
116.0
 21
127.0
 31
0.0
  0
LINE
  5
1A8
330
1E
100
AcDbEntity
  8
0
100
AcDbLine
 10
116.0
 20
127.0
 30
0.0
 11
122.0
 21
127.0
 31
0.0
  0
LINE
  5
1A9
330
1E
100
AcDbEntity
  8
0
100
AcDbLine
 10
116.0
 20
127.0
 30
0.0
 11
116.0
 21
125.9
 31
0.0
  0
LINE
  5
1AA
330
1E
100
AcDbEntity
  8
0
100
AcDbLine
 10
110.0
 20
69.5
 30
0.0
 11
111.4999999999999
 21
69.0
 31
0.0
  0
LINE
  5
1AB
330
1E
100
AcDbEntity
  8
0
100
AcDbLine
 10
122.0
 20
69.2
 30
0.0
 11
122.0
 21
74.1
 31
0.0
  0
LINE
  5
1AC
330
1E
100
AcDbEntity
  8
0
100
AcDbLine
 10
122.0
 20
69.2
 30
0.0
 11
122.0
 21
66.09999999999999
 31
0.0
  0
LINE
  5
1AD
330
1E
100
AcDbEntity
  8
0
100
AcDbLine
 10
109.0
 20
87.0
 30
0.0
 11
109.0
 21
83.3
 31
0.0
  0
ENDSEC
  0
SECTION
  2
OBJECTS
  0
DICTIONARY
  5
C
330
0
100
AcDbDictionary
281
     1
  3
ACAD_GROUP
350
D
  3
ACAD_LAYOUT
350
19
  3
ACAD_MLINESTYLE
350
16
  3
ACAD_PLOTSETTINGS
350
18
  3
ACAD_PLOTSTYLENAME
350
E
  3
AcDbVariableDictionary
350
1B2
  0
DICTIONARY
  5
D
102
{ACAD_REACTORS
330
C
102
}
330
C
100
AcDbDictionary
281
     1
  0
DICTIONARY
  5
19
102
{ACAD_REACTORS
330
C
102
}
330
C
100
AcDbDictionary
281
     1
  3
Layout1
350
1D
  3
Model
350
21
  0
DICTIONARY
  5
16
102
{ACAD_REACTORS
330
C
102
}
330
C
100
AcDbDictionary
281
     1
  3
Standard
350
17
  0
DICTIONARY
  5
18
102
{ACAD_REACTORS
330
C
102
}
330
C
100
AcDbDictionary
281
     1
  0
ACDBDICTIONARYWDFLT
  5
E
102
{ACAD_REACTORS
330
C
102
}
330
C
100
AcDbDictionary
281
     1
  3
Normal
350
F
100
AcDbDictionaryWithDefault
340
F
  0
DICTIONARY
  5
1B2
102
{ACAD_REACTORS
330
C
102
}
330
C
100
AcDbDictionary
281
     1
  3
DIMASSOC
350
1B3
  0
LAYOUT
  5
1D
102
{ACAD_REACTORS
330
19
102
}
330
19
100
AcDbPlotSettings
  1

  2
hp deskjet 980c series
  4

  6

 40
0.0
 41
0.0
 42
0.0
 43
0.0
 44
0.0
 45
0.0
 46
0.0
 47
0.0
 48
0.0
 49
0.0
140
0.0
141
0.0
142
1.0
143
1.0
 70
   688
 72
     0
 73
     0
 74
     5
  7

 75
    16
147
1.0
148
0.0
149
0.0
100
AcDbLayout
  1
Layout1
 70
     1
 71
     1
 10
0.0
 20
0.0
 11
12.0
 21
9.0
 12
0.0
 22
0.0
 32
0.0
 14
1.000000000000000E+20
 24
1.000000000000000E+20
 34
1.000000000000000E+20
 15
-1.000000000000000E+20
 25
-1.000000000000000E+20
 35
-1.000000000000000E+20
146
0.0
 13
0.0
 23
0.0
 33
0.0
 16
1.0
 26
0.0
 36
0.0
 17
0.0
 27
1.0
 37
0.0
 76
     0
330
1A
  0
LAYOUT
  5
21
102
{ACAD_REACTORS
330
19
102
}
330
19
100
AcDbPlotSettings
  1

  2
hp deskjet 980c series
  4

  6

 40
0.0
 41
0.0
 42
0.0
 43
0.0
 44
0.0
 45
0.0
 46
0.0
 47
0.0
 48
0.0
 49
0.0
140
0.0
141
0.0
142
1.0
143
1.0
 70
  1712
 72
     0
 73
     0
 74
     0
  7

 75
     0
147
1.0
148
0.0
149
0.0
100
AcDbLayout
  1
Model
 70
     1
 71
     0
 10
0.0
 20
0.0
 11
12.0
 21
9.0
 12
0.0
 22
0.0
 32
0.0
 14
0.0
 24
0.0
 34
0.0
 15
0.0
 25
0.0
 35
0.0
146
0.0
 13
0.0
 23
0.0
 33
0.0
 16
1.0
 26
0.0
 36
0.0
 17
0.0
 27
1.0
 37
0.0
 76
     0
330
1E
  0
MLINESTYLE
  5
17
102
{ACAD_REACTORS
330
16
102
}
330
16
100
AcDbMlineStyle
  2
STANDARD
 70
     0
  3

 62
   256
 51
90.0
 52
90.0
 71
     2
 49
0.5
 62
   256
  6
BYLAYER
 49
-0.5
 62
   256
  6
BYLAYER
  0
ACDBPLACEHOLDER
  5
F
102
{ACAD_REACTORS
330
E
102
}
330
E
  0
DICTIONARYVAR
  5
1B3
102
{ACAD_REACTORS
330
1B2
102
}
330
1B2
100
DictionaryVariables
280
     0
  1
1
  0
ENDSEC
  0
EOF
