  0
SECTION
  2
HEADER
  9
$ACADVER
  1
AC1015
  9
$ACADMAINTVER
 70
    13
  9
$DWGCODEPAGE
  3
ANSI_1252
  9
$INSBASE
 10
0.0
 20
0.0
 30
0.0
  9
$EXTMIN
 10
-0.0000000000000039
 20
0.0076000000000031
 30
0.0
  9
$EXTMAX
 10
157.0
 20
99.9924
 30
0.0
  9
$LIMMIN
 10
0.0
 20
0.0
  9
$LIMMAX
 10
12.0
 20
9.0
  9
$ORTHOMODE
 70
     0
  9
$REGENMODE
 70
     1
  9
$FILLMODE
 70
     1
  9
$QTEXTMODE
 70
     0
  9
$MIRRTEXT
 70
     1
  9
$LTSCALE
 40
1.0
  9
$ATTMODE
 70
     1
  9
$TEXTSIZE
 40
0.2
  9
$TRACEWID
 40
0.05
  9
$TEXTSTYLE
  7
Standard
  9
$CLAYER
  8
0
  9
$CELTYPE
  6
Continuous
  9
$CECOLOR
 62
   256
  9
$CELTSCALE
 40
1.0
  9
$DISPSILH
 70
     0
  9
$DIMSCALE
 40
1.0
  9
$DIMASZ
 40
0.18
  9
$DIMEXO
 40
0.0625
  9
$DIMDLI
 40
0.38
  9
$DIMRND
 40
0.0
  9
$DIMDLE
 40
0.0
  9
$DIMEXE
 40
0.18
  9
$DIMTP
 40
0.0
  9
$DIMTM
 40
0.0
  9
$DIMTXT
 40
0.18
  9
$DIMCEN
 40
0.09
  9
$DIMTSZ
 40
0.0
  9
$DIMTOL
 70
     0
  9
$DIMLIM
 70
     0
  9
$DIMTIH
 70
     1
  9
$DIMTOH
 70
     1
  9
$DIMSE1
 70
     0
  9
$DIMSE2
 70
     0
  9
$DIMTAD
 70
     0
  9
$DIMZIN
 70
     0
  9
$DIMBLK
  1

  9
$DIMASO
 70
     1
  9
$DIMSHO
 70
     1
  9
$DIMPOST
  1

  9
$DIMAPOST
  1

  9
$DIMALT
 70
     0
  9
$DIMALTD
 70
     2
  9
$DIMALTF
 40
25.4
  9
$DIMLFAC
 40
1.0
  9
$DIMTOFL
 70
     0
  9
$DIMTVP
 40
0.0
  9
$DIMTIX
 70
     0
  9
$DIMSOXD
 70
     0
  9
$DIMSAH
 70
     0
  9
$DIMBLK1
  1

  9
$DIMBLK2
  1

  9
$DIMSTYLE
  2
Standard
  9
$DIMCLRD
 70
     0
  9
$DIMCLRE
 70
     0
  9
$DIMCLRT
 70
     0
  9
$DIMTFAC
 40
1.0
  9
$DIMGAP
 40
0.09
  9
$DIMJUST
 70
     0
  9
$DIMSD1
 70
     0
  9
$DIMSD2
 70
     0
  9
$DIMTOLJ
 70
     1
  9
$DIMTZIN
 70
     0
  9
$DIMALTZ
 70
     0
  9
$DIMALTTZ
 70
     0
  9
$DIMUPT
 70
     0
  9
$DIMDEC
 70
     4
  9
$DIMTDEC
 70
     4
  9
$DIMALTU
 70
     2
  9
$DIMALTTD
 70
     2
  9
$DIMTXSTY
  7
Standard
  9
$DIMAUNIT
 70
     0
  9
$DIMADEC
 70
     0
  9
$DIMALTRND
 40
0.0
  9
$DIMAZIN
 70
     0
  9
$DIMDSEP
 70
    46
  9
$DIMATFIT
 70
     3
  9
$DIMFRAC
 70
     0
  9
$DIMLDRBLK
  1

  9
$DIMLUNIT
 70
     2
  9
$DIMLWD
 70
    -2
  9
$DIMLWE
 70
    -2
  9
$DIMTMOVE
 70
     0
  9
$LUNITS
 70
     2
  9
$LUPREC
 70
     4
  9
$SKETCHINC
 40
0.1
  9
$FILLETRAD
 40
0.0
  9
$AUNITS
 70
     0
  9
$AUPREC
 70
     0
  9
$MENU
  1
.
  9
$ELEVATION
 40
0.0
  9
$PELEVATION
 40
0.0
  9
$THICKNESS
 40
0.0
  9
$LIMCHECK
 70
     0
  9
$CHAMFERA
 40
0.0
  9
$CHAMFERB
 40
0.0
  9
$CHAMFERC
 40
0.0
  9
$CHAMFERD
 40
0.0
  9
$SKPOLY
 70
     0
  9
$TDCREATE
 40
2454778.765801134
  9
$TDUCREATE
 40
2454778.724134467
  9
$TDUPDATE
 40
2454778.768291192
  9
$TDUUPDATE
 40
2454778.726624525
  9
$TDINDWG
 40
0.0024900579
  9
$TDUSRTIMER
 40
0.0024900579
  9
$USRTIMER
 70
     1
  9
$ANGBASE
 50
0.0
  9
$ANGDIR
 70
     0
  9
$PDMODE
 70
     0
  9
$PDSIZE
 40
0.0
  9
$PLINEWID
 40
0.0
  9
$SPLFRAME
 70
     0
  9
$SPLINETYPE
 70
     6
  9
$SPLINESEGS
 70
     8
  9
$HANDSEED
  5
1A5
  9
$SURFTAB1
 70
     6
  9
$SURFTAB2
 70
     6
  9
$SURFTYPE
 70
     6
  9
$SURFU
 70
     6
  9
$SURFV
 70
     6
  9
$UCSBASE
  2

  9
$UCSNAME
  2

  9
$UCSORG
 10
0.0
 20
0.0
 30
0.0
  9
$UCSXDIR
 10
1.0
 20
0.0
 30
0.0
  9
$UCSYDIR
 10
0.0
 20
1.0
 30
0.0
  9
$UCSORTHOREF
  2

  9
$UCSORTHOVIEW
 70
     1
  9
$UCSORGTOP
 10
0.0
 20
0.0
 30
0.0
  9
$UCSORGBOTTOM
 10
0.0
 20
0.0
 30
0.0
  9
$UCSORGLEFT
 10
0.0
 20
0.0
 30
0.0
  9
$UCSORGRIGHT
 10
0.0
 20
0.0
 30
0.0
  9
$UCSORGFRONT
 10
0.0
 20
0.0
 30
0.0
  9
$UCSORGBACK
 10
0.0
 20
0.0
 30
0.0
  9
$PUCSBASE
  2

  9
$PUCSNAME
  2

  9
$PUCSORG
 10
0.0
 20
0.0
 30
0.0
  9
$PUCSXDIR
 10
1.0
 20
0.0
 30
0.0
  9
$PUCSYDIR
 10
0.0
 20
1.0
 30
0.0
  9
$PUCSORTHOREF
  2

  9
$PUCSORTHOVIEW
 70
     0
  9
$PUCSORGTOP
 10
0.0
 20
0.0
 30
0.0
  9
$PUCSORGBOTTOM
 10
0.0
 20
0.0
 30
0.0
  9
$PUCSORGLEFT
 10
0.0
 20
0.0
 30
0.0
  9
$PUCSORGRIGHT
 10
0.0
 20
0.0
 30
0.0
  9
$PUCSORGFRONT
 10
0.0
 20
0.0
 30
0.0
  9
$PUCSORGBACK
 10
0.0
 20
0.0
 30
0.0
  9
$USERI1
 70
     0
  9
$USERI2
 70
     0
  9
$USERI3
 70
     0
  9
$USERI4
 70
     0
  9
$USERI5
 70
     0
  9
$USERR1
 40
0.0
  9
$USERR2
 40
0.0
  9
$USERR3
 40
0.0
  9
$USERR4
 40
0.0
  9
$USERR5
 40
0.0
  9
$WORLDVIEW
 70
     1
  9
$SHADEDGE
 70
     3
  9
$SHADEDIF
 70
    70
  9
$TILEMODE
 70
     1
  9
$MAXACTVP
 70
    64
  9
$PINSBASE
 10
0.0
 20
0.0
 30
0.0
  9
$PLIMCHECK
 70
     0
  9
$PEXTMIN
 10
1.000000000000000E+20
 20
1.000000000000000E+20
 30
1.000000000000000E+20
  9
$PEXTMAX
 10
-1.000000000000000E+20
 20
-1.000000000000000E+20
 30
-1.000000000000000E+20
  9
$PLIMMIN
 10
0.0
 20
0.0
  9
$PLIMMAX
 10
12.0
 20
9.0
  9
$UNITMODE
 70
     0
  9
$VISRETAIN
 70
     1
  9
$PLINEGEN
 70
     0
  9
$PSLTSCALE
 70
     1
  9
$TREEDEPTH
 70
  3020
  9
$CMLSTYLE
  2
Standard
  9
$CMLJUST
 70
     0
  9
$CMLSCALE
 40
1.0
  9
$PROXYGRAPHICS
 70
     1
  9
$MEASUREMENT
 70
     0
  9
$CELWEIGHT
370
    -1
  9
$ENDCAPS
280
     0
  9
$JOINSTYLE
280
     0
  9
$LWDISPLAY
290
     0
  9
$INSUNITS
 70
     0
  9
$HYPERLINKBASE
  1

  9
$STYLESHEET
  1

  9
$XEDIT
290
     1
  9
$CEPSNTYPE
380
     0
  9
$PSTYLEMODE
290
     1
  9
$FINGERPRINTGUID
  2
{9AFBF292-4447-48EE-8DCC-5BAC90914D1F}
  9
$VERSIONGUID
  2
{59B35B68-C4D6-468D-9278-332E877C836D}
  9
$EXTNAMES
290
     1
  9
$PSVPSCALE
 40
0.0
  9
$OLESTARTUP
290
     0
  0
ENDSEC
  0
SECTION
  2
CLASSES
  0
CLASS
  1
ACDBDICTIONARYWDFLT
  2
AcDbDictionaryWithDefault
  3
AutoCAD 2000
 90
        0
280
     0
281
     0
  0
CLASS
  1
ACDBPLACEHOLDER
  2
AcDbPlaceHolder
  3
AutoCAD 2000
 90
        0
280
     0
281
     0
  0
CLASS
  1
LAYOUT
  2
AcDbLayout
  3
AutoCAD 2000
 90
        0
280
     0
281
     0
  0
CLASS
  1
DICTIONARYVAR
  2
AcDbDictionaryVar
  3
AutoCAD 2000
 90
        0
280
     0
281
     0
  0
ENDSEC
  0
SECTION
  2
TABLES
  0
TABLE
  2
VPORT
  5
8
330
0
100
AcDbSymbolTable
 70
     2
  0
VPORT
  5
1A4
330
8
100
AcDbSymbolTableRecord
100
AcDbViewportTableRecord
  2
*Active
 70
     0
 10
0.0
 20
0.0
 11
1.0
 21
1.0
 12
78.5
 22
50.0
 13
0.0
 23
0.0
 14
1.0
 24
1.0
 15
0.0
 25
0.0
 16
0.0
 26
0.0
 36
1.0
 17
0.0
 27
0.0
 37
0.0
 40
100.751946803069
 41
2.078104993597951
 42
50.0
 43
0.0
 44
0.0
 50
0.0
 51
0.0
 71
     0
 72
   100
 73
     1
 74
     3
 75
     0
 76
     0
 77
     0
 78
     0
281
     0
 65
     1
110
0.0
120
0.0
130
0.0
111
1.0
121
0.0
131
0.0
112
0.0
122
1.0
132
0.0
 79
     1
146
0.0
  0
ENDTAB
  0
TABLE
  2
LTYPE
  5
5
330
0
100
AcDbSymbolTable
 70
     1
  0
LTYPE
  5
13
330
5
100
AcDbSymbolTableRecord
100
AcDbLinetypeTableRecord
  2
ByBlock
 70
     0
  3

 72
    65
 73
     0
 40
0.0
  0
LTYPE
  5
14
330
5
100
AcDbSymbolTableRecord
100
AcDbLinetypeTableRecord
  2
ByLayer
 70
     0
  3

 72
    65
 73
     0
 40
0.0
  0
LTYPE
  5
15
330
5
100
AcDbSymbolTableRecord
100
AcDbLinetypeTableRecord
  2
Continuous
 70
     0
  3
Solid line
 72
    65
 73
     0
 40
0.0
  0
ENDTAB
  0
TABLE
  2
LAYER
  5
2
330
0
100
AcDbSymbolTable
 70
     1
  0
LAYER
  5
10
330
2
100
AcDbSymbolTableRecord
100
AcDbLayerTableRecord
  2
0
 70
     0
 62
     7
  6
Continuous
370
    -3
390
F
  0
ENDTAB
  0
TABLE
  2
STYLE
  5
3
330
0
100
AcDbSymbolTable
 70
     1
  0
STYLE
  5
11
330
3
100
AcDbSymbolTableRecord
100
AcDbTextStyleTableRecord
  2
Standard
 70
     0
 40
0.0
 41
1.0
 50
0.0
 71
     0
 42
0.2
  3
txt
  4

  0
ENDTAB
  0
TABLE
  2
VIEW
  5
6
330
0
100
AcDbSymbolTable
 70
     0
  0
ENDTAB
  0
TABLE
  2
UCS
  5
7
330
0
100
AcDbSymbolTable
 70
     0
  0
ENDTAB
  0
TABLE
  2
APPID
  5
9
330
0
100
AcDbSymbolTable
 70
     1
  0
APPID
  5
12
330
9
100
AcDbSymbolTableRecord
100
AcDbRegAppTableRecord
  2
ACAD
 70
     0
  0
ENDTAB
  0
TABLE
  2
DIMSTYLE
  5
A
330
0
100
AcDbSymbolTable
 70
     1
100
AcDbDimStyleTable
 71
     0
  0
DIMSTYLE
105
19E
330
A
100
AcDbSymbolTableRecord
100
AcDbDimStyleTableRecord
  2
Standard
 70
     0
340
11
  0
ENDTAB
  0
TABLE
  2
BLOCK_RECORD
  5
1
330
0
100
AcDbSymbolTable
 70
     0
  0
BLOCK_RECORD
  5
1E
330
1
100
AcDbSymbolTableRecord
100
AcDbBlockTableRecord
  2
*Model_Space
340
21
  0
BLOCK_RECORD
  5
1A
330
1
100
AcDbSymbolTableRecord
100
AcDbBlockTableRecord
  2
*Paper_Space
340
1D
  0
ENDTAB
  0
ENDSEC
  0
SECTION
  2
BLOCKS
  0
BLOCK
  5
1F
330
1E
100
AcDbEntity
  8
0
100
AcDbBlockBegin
  2
*Model_Space
 70
     0
 10
0.0
 20
0.0
 30
0.0
  3
*Model_Space
  1

  0
ENDBLK
  5
20
330
1E
100
AcDbEntity
  8
0
100
AcDbBlockEnd
  0
BLOCK
  5
1B
330
1A
100
AcDbEntity
 67
     1
  8
0
100
AcDbBlockBegin
  2
*Paper_Space
 70
     0
 10
0.0
 20
0.0
 30
0.0
  3
*Paper_Space
  1

  0
ENDBLK
  5
1C
330
1A
100
AcDbEntity
 67
     1
  8
0
100
AcDbBlockEnd
  0
ENDSEC
  0
SECTION
  2
ENTITIES
  0
LINE
  5
22
330
1E
100
AcDbEntity
  8
0
100
AcDbLine
 10
0.143999999999996
 20
46.95650999999999
 30
0.0
 11
0.5279999999999961
 21
46.02922
 31
0.0
  0
LINE
  5
23
330
1E
100
AcDbEntity
  8
0
100
AcDbLine
 10
0.143999999999996
 20
46.95650999999999
 30
0.0
 11
0.5279999999999961
 21
46.02922
 31
0.0
  0
LINE
  5
24
330
1E
100
AcDbEntity
  8
0
100
AcDbLine
 10
3.62155
 20
43.0411
 30
0.0
 11
5.52603
 21
42.39869999999999
 31
0.0
  0
LINE
  5
25
330
1E
100
AcDbEntity
  8
0
100
AcDbLine
 10
2.42435
 20
43.7891
 30
0.0
 11
3.62155
 21
43.0411
 31
0.0
  0
LINE
  5
26
330
1E
100
AcDbEntity
  8
0
100
AcDbLine
 10
1.60524
 20
44.35049999999999
 30
0.0
 11
2.42435
 21
43.7891
 31
0.0
  0
LINE
  5
27
330
1E
100
AcDbEntity
  8
0
100
AcDbLine
 10
2.976
 20
46.29156
 30
0.0
 11
4.0
 21
46.15247
 31
0.0
  0
LINE
  5
28
330
1E
100
AcDbEntity
  8
0
100
AcDbLine
 10
2.016
 20
46.66248
 30
0.0
 11
2.976
 21
46.29156
 31
0.0
  0
LINE
  5
29
330
1E
100
AcDbEntity
  8
0
100
AcDbLine
 10
1.167999999999999
 20
47.28067
 30
0.0
 11
2.016
 21
46.66248
 31
0.0
  0
LINE
  5
2A
330
1E
100
AcDbEntity
  8
0
100
AcDbLine
 10
4.0
 20
46.15247
 30
0.0
 11
5.024
 21
46.29156
 31
0.0
  0
LINE
  5
2B
330
1E
100
AcDbEntity
  8
0
100
AcDbLine
 10
5.024
 20
46.29156
 30
0.0
 11
5.983999999999999
 21
46.66248
 31
0.0
  0
LINE
  5
2C
330
1E
100
AcDbEntity
  8
0
100
AcDbLine
 10
0.987046999999996
 20
45.1268
 30
0.0
 11
1.60524
 21
44.35049999999999
 31
0.0
  0
LINE
  5
2D
330
1E
100
AcDbEntity
  8
0
100
AcDbLine
 10
0.5279999999999961
 20
46.02922
 30
0.0
 11
0.987046999999996
 21
45.1268
 31
0.0
  0
LINE
  5
2E
330
1E
100
AcDbEntity
  8
0
100
AcDbLine
 10
0.143999999999996
 20
49.02706
 30
0.0
 11
0.5279999999999961
 21
48.09978
 31
0.0
  0
LINE
  5
2F
330
1E
100
AcDbEntity
  8
0
100
AcDbLine
 10
0.5279999999999961
 20
48.09978
 30
0.0
 11
1.167999999999999
 21
47.28067
 31
0.0
  0
LINE
  5
30
330
1E
100
AcDbEntity
  8
0
100
AcDbLine
 10
0.143999999999996
 20
51.00528
 30
0.0
 11
0.5279999999999961
 21
51.93257
 31
0.0
  0
LINE
  5
31
330
1E
100
AcDbEntity
  8
0
100
AcDbLine
 10
2.976
 20
53.74078
 30
0.0
 11
4.0
 21
53.87988
 31
0.0
  0
LINE
  5
32
330
1E
100
AcDbEntity
  8
0
100
AcDbLine
 10
2.016
 20
53.36987
 30
0.0
 11
2.976
 21
53.74078
 31
0.0
  0
LINE
  5
33
330
1E
100
AcDbEntity
  8
0
100
AcDbLine
 10
1.167999999999999
 20
52.75166999999999
 30
0.0
 11
2.016
 21
53.36987
 31
0.0
  0
LINE
  5
34
330
1E
100
AcDbEntity
  8
0
100
AcDbLine
 10
0.5279999999999961
 20
51.93257
 30
0.0
 11
1.167999999999999
 21
52.75166999999999
 31
0.0
  0
LINE
  5
35
330
1E
100
AcDbEntity
  8
0
100
AcDbLine
 10
0.143999999999996
 20
51.00528
 30
0.0
 11
0.5279999999999961
 21
51.93257
 31
0.0
  0
LINE
  5
36
330
1E
100
AcDbEntity
  8
0
100
AcDbLine
 10
4.0
 20
53.87988
 30
0.0
 11
5.024
 21
53.74078
 31
0.0
  0
LINE
  5
37
330
1E
100
AcDbEntity
  8
0
100
AcDbLine
 10
5.024
 20
53.74078
 30
0.0
 11
5.983999999999999
 21
53.36987
 31
0.0
  0
LINE
  5
38
330
1E
100
AcDbEntity
  8
0
100
AcDbLine
 10
0.143999999999996
 20
49.02706
 30
0.0
 11
0.5279999999999961
 21
48.09978
 31
0.0
  0
LINE
  5
39
330
1E
100
AcDbEntity
  8
0
100
AcDbLine
 10
-0.0000000000000039
 20
50.01617
 30
0.0
 11
-0.0000000000000039
 21
47.94561999999999
 31
0.0
  0
LINE
  5
3A
330
1E
100
AcDbEntity
  8
0
100
AcDbLine
 10
-0.0000000000000039
 20
50.01617
 30
0.0
 11
0.143999999999996
 21
49.02706
 31
0.0
  0
LINE
  5
3B
330
1E
100
AcDbEntity
  8
0
100
AcDbLine
 10
-0.0000000000000039
 20
50.01617
 30
0.0
 11
0.143999999999996
 21
51.00528
 31
0.0
  0
LINE
  5
3C
330
1E
100
AcDbEntity
  8
0
100
AcDbLine
 10
-0.0000000000000039
 20
47.94561999999999
 30
0.0
 11
0.143999999999996
 21
46.95650999999999
 31
0.0
  0
LINE
  5
3D
330
1E
100
AcDbEntity
  8
0
100
AcDbLine
 10
-0.0000000000000039
 20
47.94561999999999
 30
0.0
 11
-0.0000000000000039
 21
50.01617
 31
0.0
  0
LINE
  5
3E
330
1E
100
AcDbEntity
  8
0
100
AcDbLine
 10
11.1468
 20
41.465
 30
0.0
 11
14.0
 21
41.3678
 31
0.0
  0
LINE
  5
3F
330
1E
100
AcDbEntity
  8
0
100
AcDbLine
 10
8.487999999999999
 20
41.74999999999999
 30
0.0
 11
11.1468
 21
41.465
 31
0.0
  0
LINE
  5
40
330
1E
100
AcDbEntity
  8
0
100
AcDbLine
 10
28.5
 20
2.0325
 30
0.0
 11
28.5
 21
7.141200000000009
 31
0.0
  0
LINE
  5
41
330
1E
100
AcDbEntity
  8
0
100
AcDbLine
 10
28.5
 20
2.0325
 30
0.0
 11
28.5
 21
0.0076000000000031
 31
0.0
  0
LINE
  5
42
330
1E
100
AcDbEntity
  8
0
100
AcDbLine
 10
28.5
 20
7.141200000000009
 30
0.0
 11
28.5
 21
15.3215
 31
0.0
  0
LINE
  5
43
330
1E
100
AcDbEntity
  8
0
100
AcDbLine
 10
28.5
 20
7.141200000000009
 30
0.0
 11
28.5
 21
2.0325
 31
0.0
  0
LINE
  5
44
330
1E
100
AcDbEntity
  8
0
100
AcDbLine
 10
28.5
 20
15.3215
 30
0.0
 11
28.5
 21
25.8595
 31
0.0
  0
LINE
  5
45
330
1E
100
AcDbEntity
  8
0
100
AcDbLine
 10
28.5
 20
15.3215
 30
0.0
 11
28.5
 21
7.141200000000009
 31
0.0
  0
LINE
  5
46
330
1E
100
AcDbEntity
  8
0
100
AcDbLine
 10
28.5
 20
25.8595
 30
0.0
 11
28.5
 21
37.94319999999999
 31
0.0
  0
LINE
  5
47
330
1E
100
AcDbEntity
  8
0
100
AcDbLine
 10
28.5
 20
25.8595
 30
0.0
 11
28.5
 21
15.3215
 31
0.0
  0
LINE
  5
48
330
1E
100
AcDbEntity
  8
0
100
AcDbLine
 10
28.5
 20
0.0076000000000031
 30
0.0
 11
128.4999999999999
 21
0.0076000000000031
 31
0.0
  0
LINE
  5
49
330
1E
100
AcDbEntity
  8
0
100
AcDbLine
 10
28.5
 20
0.0076000000000031
 30
0.0
 11
28.5
 21
1.5822
 31
0.0
  0
LINE
  5
4A
330
1E
100
AcDbEntity
  8
0
100
AcDbLine
 10
28.5
 20
0.0076000000000031
 30
0.0
 11
28.5
 21
2.0325
 31
0.0
  0
LINE
  5
4B
330
1E
100
AcDbEntity
  8
0
100
AcDbLine
 10
28.5
 20
0.0076000000000031
 30
0.0
 11
128.4999999999999
 21
0.0076000000000031
 31
0.0
  0
LINE
  5
4C
330
1E
100
AcDbEntity
  8
0
100
AcDbLine
 10
28.5
 20
30.0031
 30
0.0
 11
28.5
 21
30.6139
 31
0.0
  0
LINE
  5
4D
330
1E
100
AcDbEntity
  8
0
100
AcDbLine
 10
28.5
 20
30.0031
 30
0.0
 11
28.5
 21
30.792
 31
0.0
  0
LINE
  5
4E
330
1E
100
AcDbEntity
  8
0
100
AcDbLine
 10
28.5
 20
1.5822
 30
0.0
 11
28.5
 21
0.0076000000000031
 31
0.0
  0
LINE
  5
4F
330
1E
100
AcDbEntity
  8
0
100
AcDbLine
 10
28.5
 20
1.5822
 30
0.0
 11
28.5
 21
6.27199999999999
 31
0.0
  0
LINE
  5
50
330
1E
100
AcDbEntity
  8
0
100
AcDbLine
 10
28.5
 20
30.792
 30
0.0
 11
28.5
 21
30.0031
 31
0.0
  0
LINE
  5
51
330
1E
100
AcDbEntity
  8
0
100
AcDbLine
 10
28.5
 20
30.792
 30
0.0
 11
28.5
 21
32.8772
 31
0.0
  0
LINE
  5
52
330
1E
100
AcDbEntity
  8
0
100
AcDbLine
 10
28.5
 20
30.6139
 30
0.0
 11
28.5
 21
32.5281
 31
0.0
  0
LINE
  5
53
330
1E
100
AcDbEntity
  8
0
100
AcDbLine
 10
28.5
 20
30.6139
 30
0.0
 11
28.5
 21
30.0031
 31
0.0
  0
LINE
  5
54
330
1E
100
AcDbEntity
  8
0
100
AcDbLine
 10
28.5
 20
6.27199999999999
 30
0.0
 11
28.5
 21
1.5822
 31
0.0
  0
LINE
  5
55
330
1E
100
AcDbEntity
  8
0
100
AcDbLine
 10
28.5
 20
6.27199999999999
 30
0.0
 11
28.5
 21
14.08929999999999
 31
0.0
  0
LINE
  5
56
330
1E
100
AcDbEntity
  8
0
100
AcDbLine
 10
28.5
 20
32.8772
 30
0.0
 11
28.5
 21
30.792
 31
0.0
  0
LINE
  5
57
330
1E
100
AcDbEntity
  8
0
100
AcDbLine
 10
28.5
 20
32.8772
 30
0.0
 11
28.5
 21
36.1482
 31
0.0
  0
LINE
  5
58
330
1E
100
AcDbEntity
  8
0
100
AcDbLine
 10
28.5
 20
32.5281
 30
0.0
 11
28.5
 21
35.6561
 31
0.0
  0
LINE
  5
59
330
1E
100
AcDbEntity
  8
0
100
AcDbLine
 10
28.5
 20
32.5281
 30
0.0
 11
28.5
 21
30.6139
 31
0.0
  0
LINE
  5
5A
330
1E
100
AcDbEntity
  8
0
100
AcDbLine
 10
28.5
 20
14.08929999999999
 30
0.0
 11
28.5
 21
6.27199999999999
 31
0.0
  0
LINE
  5
5B
330
1E
100
AcDbEntity
  8
0
100
AcDbLine
 10
28.5
 20
14.08929999999999
 30
0.0
 11
28.5
 21
24.3481
 31
0.0
  0
LINE
  5
5C
330
1E
100
AcDbEntity
  8
0
100
AcDbLine
 10
28.5
 20
36.1482
 30
0.0
 11
28.5
 21
32.8772
 31
0.0
  0
LINE
  5
5D
330
1E
100
AcDbEntity
  8
0
100
AcDbLine
 10
28.5
 20
36.1482
 30
0.0
 11
28.5
 21
40.3034
 31
0.0
  0
LINE
  5
5E
330
1E
100
AcDbEntity
  8
0
100
AcDbLine
 10
28.5
 20
37.94319999999999
 30
0.0
 11
28.5
 21
50.8724
 31
0.0
  0
LINE
  5
5F
330
1E
100
AcDbEntity
  8
0
100
AcDbLine
 10
28.5
 20
37.94319999999999
 30
0.0
 11
28.5
 21
25.8595
 31
0.0
  0
LINE
  5
60
330
1E
100
AcDbEntity
  8
0
100
AcDbLine
 10
28.5
 20
35.6561
 30
0.0
 11
28.5
 21
39.69939999999999
 31
0.0
  0
LINE
  5
61
330
1E
100
AcDbEntity
  8
0
100
AcDbLine
 10
28.5
 20
35.6561
 30
0.0
 11
28.5
 21
32.5281
 31
0.0
  0
LINE
  5
62
330
1E
100
AcDbEntity
  8
0
100
AcDbLine
 10
28.5
 20
24.3481
 30
0.0
 11
28.5
 21
14.08929999999999
 31
0.0
  0
LINE
  5
63
330
1E
100
AcDbEntity
  8
0
100
AcDbLine
 10
28.5
 20
24.3481
 30
0.0
 11
28.5
 21
36.2608
 31
0.0
  0
LINE
  5
64
330
1E
100
AcDbEntity
  8
0
100
AcDbLine
 10
28.5
 20
40.3034
 30
0.0
 11
28.5
 21
36.1482
 31
0.0
  0
LINE
  5
65
330
1E
100
AcDbEntity
  8
0
100
AcDbLine
 10
28.5
 20
40.3034
 30
0.0
 11
28.5
 21
45.2374
 31
0.0
  0
LINE
  5
66
330
1E
100
AcDbEntity
  8
0
100
AcDbLine
 10
28.5
 20
39.69939999999999
 30
0.0
 11
28.5
 21
41.3678
 31
0.0
  0
LINE
  5
67
330
1E
100
AcDbEntity
  8
0
100
AcDbLine
 10
28.5
 20
39.69939999999999
 30
0.0
 11
28.5
 21
35.6561
 31
0.0
  0
LINE
  5
68
330
1E
100
AcDbEntity
  8
0
100
AcDbLine
 10
28.5
 20
36.2608
 30
0.0
 11
28.5
 21
24.3481
 31
0.0
  0
LINE
  5
69
330
1E
100
AcDbEntity
  8
0
100
AcDbLine
 10
28.5
 20
36.2608
 30
0.0
 11
28.5
 21
41.3678
 31
0.0
  0
LINE
  5
6A
330
1E
100
AcDbEntity
  8
0
100
AcDbLine
 10
28.5
 20
41.3678
 30
0.0
 11
28.5
 21
36.2608
 31
0.0
  0
LINE
  5
6B
330
1E
100
AcDbEntity
  8
0
100
AcDbLine
 10
28.5
 20
41.3678
 30
0.0
 11
28.5
 21
39.69939999999999
 31
0.0
  0
LINE
  5
6C
330
1E
100
AcDbEntity
  8
0
100
AcDbLine
 10
14.0
 20
41.3678
 30
0.0
 11
28.5
 21
41.3678
 31
0.0
  0
LINE
  5
6D
330
1E
100
AcDbEntity
  8
0
100
AcDbLine
 10
14.0
 20
41.3678
 30
0.0
 11
28.5
 21
41.3678
 31
0.0
  0
LINE
  5
6E
330
1E
100
AcDbEntity
  8
0
100
AcDbLine
 10
5.983999999999999
 20
46.66248
 30
0.0
 11
6.832
 21
47.28067
 31
0.0
  0
LINE
  5
6F
330
1E
100
AcDbEntity
  8
0
100
AcDbLine
 10
6.832
 20
47.28067
 30
0.0
 11
7.472
 21
48.09978
 31
0.0
  0
LINE
  5
70
330
1E
100
AcDbEntity
  8
0
100
AcDbLine
 10
5.983999999999999
 20
53.36987
 30
0.0
 11
6.832
 21
52.75166999999999
 31
0.0
  0
LINE
  5
71
330
1E
100
AcDbEntity
  8
0
100
AcDbLine
 10
6.832
 20
52.75166999999999
 30
0.0
 11
7.472
 21
51.93257
 31
0.0
  0
LINE
  5
72
330
1E
100
AcDbEntity
  8
0
100
AcDbLine
 10
7.472
 20
51.93257
 30
0.0
 11
7.855999999999999
 21
51.00528
 31
0.0
  0
LINE
  5
73
330
1E
100
AcDbEntity
  8
0
100
AcDbLine
 10
7.855999999999999
 20
51.00528
 30
0.0
 11
8.0
 21
50.01617
 31
0.0
  0
LINE
  5
74
330
1E
100
AcDbEntity
  8
0
100
AcDbLine
 10
7.472
 20
48.09978
 30
0.0
 11
7.855999999999999
 21
49.02706
 31
0.0
  0
LINE
  5
75
330
1E
100
AcDbEntity
  8
0
100
AcDbLine
 10
28.5
 20
45.2374
 30
0.0
 11
28.5
 21
40.3034
 31
0.0
  0
LINE
  5
76
330
1E
100
AcDbEntity
  8
0
100
AcDbLine
 10
28.5
 20
45.2374
 30
0.0
 11
28.5
 21
50.3494
 31
0.0
  0
LINE
  5
77
330
1E
100
AcDbEntity
  8
0
100
AcDbLine
 10
8.0
 20
49.9585969299996
 30
0.0
 11
9.512
 21
49.65831
 31
0.0
  0
LINE
  5
79
330
1E
100
AcDbEntity
  8
0
100
AcDbLine
 10
9.512
 20
49.65831
 30
0.0
 11
11.6768
 21
49.42623
 31
0.0
  0
LINE
  5
7A
330
1E
100
AcDbEntity
  8
0
100
AcDbLine
 10
11.6768
 20
49.42623
 30
0.0
 11
14.0
 21
49.34707
 31
0.0
  0
LINE
  5
7C
330
1E
100
AcDbEntity
  8
0
100
AcDbLine
 10
14.0
 20
49.34707
 30
0.0
 11
28.5
 21
49.34707
 31
0.0
  0
LINE
  5
7D
330
1E
100
AcDbEntity
  8
0
100
AcDbLine
 10
14.0
 20
49.34707
 30
0.0
 11
28.5
 21
49.34707
 31
0.0
  0
LINE
  5
7E
330
1E
100
AcDbEntity
  8
0
100
AcDbLine
 10
14.0
 20
60.00275999999999
 30
0.0
 11
14.0
 21
60.12520999999999
 31
0.0
  0
LINE
  5
7F
330
1E
100
AcDbEntity
  8
0
100
AcDbLine
 10
14.0
 20
60.00275999999999
 30
0.0
 11
70.53011673224749
 21
60.00275999999999
 31
0.0
  0
LINE
  5
80
330
1E
100
AcDbEntity
  8
0
100
AcDbLine
 10
14.0
 20
60.00275999999999
 30
0.0
 11
14.0
 21
60.1287
 31
0.0
  0
LINE
  5
81
330
1E
100
AcDbEntity
  8
0
100
AcDbLine
 10
14.0
 20
60.53281999999999
 30
0.0
 11
14.0
 21
60.1287
 31
0.0
  0
LINE
  5
82
330
1E
100
AcDbEntity
  8
0
100
AcDbLine
 10
14.0
 20
60.53281999999999
 30
0.0
 11
14.0
 21
61.1522
 31
0.0
  0
LINE
  5
83
330
1E
100
AcDbEntity
  8
0
100
AcDbLine
 10
14.0
 20
61.1522
 30
0.0
 11
14.0
 21
60.53281999999999
 31
0.0
  0
LINE
  5
84
330
1E
100
AcDbEntity
  8
0
100
AcDbLine
 10
14.0
 20
61.1522
 30
0.0
 11
14.0
 21
61.98986999999999
 31
0.0
  0
LINE
  5
85
330
1E
100
AcDbEntity
  8
0
100
AcDbLine
 10
14.0
 20
60.1287
 30
0.0
 11
14.0
 21
60.00275999999999
 31
0.0
  0
LINE
  5
86
330
1E
100
AcDbEntity
  8
0
100
AcDbLine
 10
14.0
 20
60.1287
 30
0.0
 11
14.0
 21
60.53281999999999
 31
0.0
  0
LINE
  5
87
330
1E
100
AcDbEntity
  8
0
100
AcDbLine
 10
14.0
 20
60.12520999999999
 30
0.0
 11
14.0
 21
60.52392
 31
0.0
  0
LINE
  5
88
330
1E
100
AcDbEntity
  8
0
100
AcDbLine
 10
14.0
 20
60.12520999999999
 30
0.0
 11
14.0
 21
60.00275999999999
 31
0.0
  0
LINE
  5
89
330
1E
100
AcDbEntity
  8
0
100
AcDbLine
 10
14.0
 20
60.52392
 30
0.0
 11
14.0
 21
61.17738000000001
 31
0.0
  0
LINE
  5
8A
330
1E
100
AcDbEntity
  8
0
100
AcDbLine
 10
14.0
 20
60.52392
 30
0.0
 11
14.0
 21
60.12520999999999
 31
0.0
  0
LINE
  5
8B
330
1E
100
AcDbEntity
  8
0
100
AcDbLine
 10
14.0
 20
63.9835
 30
0.0
 11
14.0
 21
65.01018000000001
 31
0.0
  0
LINE
  5
8C
330
1E
100
AcDbEntity
  8
0
100
AcDbLine
 10
14.0
 20
63.9835
 30
0.0
 11
14.0
 21
62.95711999999999
 31
0.0
  0
LINE
  5
8D
330
1E
100
AcDbEntity
  8
0
100
AcDbLine
 10
14.0
 20
62.95711999999999
 30
0.0
 11
14.0
 21
62.00529
 31
0.0
  0
LINE
  5
8E
330
1E
100
AcDbEntity
  8
0
100
AcDbLine
 10
14.0
 20
62.95711999999999
 30
0.0
 11
14.0
 21
63.9835
 31
0.0
  0
LINE
  5
8F
330
1E
100
AcDbEntity
  8
0
100
AcDbLine
 10
14.0
 20
61.98986999999999
 30
0.0
 11
14.0
 21
61.1522
 31
0.0
  0
LINE
  5
90
330
1E
100
AcDbEntity
  8
0
100
AcDbLine
 10
14.0
 20
61.98986999999999
 30
0.0
 11
14.0
 21
62.97461999999999
 31
0.0
  0
LINE
  5
91
330
1E
100
AcDbEntity
  8
0
100
AcDbLine
 10
14.0
 20
62.97461999999999
 30
0.0
 11
14.0
 21
61.98986999999999
 31
0.0
  0
LINE
  5
92
330
1E
100
AcDbEntity
  8
0
100
AcDbLine
 10
14.0
 20
62.97461999999999
 30
0.0
 11
14.0
 21
64.0013
 31
0.0
  0
LINE
  5
93
330
1E
100
AcDbEntity
  8
0
100
AcDbLine
 10
14.0
 20
65.97951000000001
 30
0.0
 11
14.0
 21
65.02768
 31
0.0
  0
LINE
  5
94
330
1E
100
AcDbEntity
  8
0
100
AcDbLine
 10
14.0
 20
65.97951000000001
 30
0.0
 11
14.0
 21
66.8074
 31
0.0
  0
LINE
  5
95
330
1E
100
AcDbEntity
  8
0
100
AcDbLine
 10
14.0
 20
66.8074
 30
0.0
 11
14.0
 21
65.97951000000001
 31
0.0
  0
LINE
  5
96
330
1E
100
AcDbEntity
  8
0
100
AcDbLine
 10
14.0
 20
66.8074
 30
0.0
 11
14.0
 21
67.46089999999999
 31
0.0
  0
LINE
  5
97
330
1E
100
AcDbEntity
  8
0
100
AcDbLine
 10
14.0
 20
67.8561
 30
0.0
 11
14.0
 21
67.982
 31
0.0
  0
LINE
  5
98
330
1E
100
AcDbEntity
  8
0
100
AcDbLine
 10
14.0
 20
67.8561
 30
0.0
 11
14.0
 21
67.452
 31
0.0
  0
LINE
  5
99
330
1E
100
AcDbEntity
  8
0
100
AcDbLine
 10
14.0
 20
67.982
 30
0.0
 11
14.0
 21
67.8596
 31
0.0
  0
LINE
  5
9A
330
1E
100
AcDbEntity
  8
0
100
AcDbLine
 10
14.0
 20
67.982
 30
0.0
 11
70.5
 21
67.982
 31
0.0
  0
LINE
  5
9B
330
1E
100
AcDbEntity
  8
0
100
AcDbLine
 10
14.0
 20
67.982
 30
0.0
 11
14.0
 21
67.8561
 31
0.0
  0
LINE
  5
9C
330
1E
100
AcDbEntity
  8
0
100
AcDbLine
 10
14.0
 20
67.8596
 30
0.0
 11
14.0
 21
67.46089999999999
 31
0.0
  0
LINE
  5
9D
330
1E
100
AcDbEntity
  8
0
100
AcDbLine
 10
14.0
 20
67.8596
 30
0.0
 11
14.0
 21
67.982
 31
0.0
  0
LINE
  5
9E
330
1E
100
AcDbEntity
  8
0
100
AcDbLine
 10
14.0
 20
67.46089999999999
 30
0.0
 11
14.0
 21
66.8074
 31
0.0
  0
LINE
  5
9F
330
1E
100
AcDbEntity
  8
0
100
AcDbLine
 10
14.0
 20
67.46089999999999
 30
0.0
 11
14.0
 21
67.8596
 31
0.0
  0
LINE
  5
A0
330
1E
100
AcDbEntity
  8
0
100
AcDbLine
 10
14.0
 20
67.452
 30
0.0
 11
14.0
 21
67.8561
 31
0.0
  0
LINE
  5
A1
330
1E
100
AcDbEntity
  8
0
100
AcDbLine
 10
14.0
 20
67.452
 30
0.0
 11
14.0
 21
66.8326
 31
0.0
  0
LINE
  5
A2
330
1E
100
AcDbEntity
  8
0
100
AcDbLine
 10
14.0
 20
66.8326
 30
0.0
 11
14.0
 21
67.452
 31
0.0
  0
LINE
  5
A3
330
1E
100
AcDbEntity
  8
0
100
AcDbLine
 10
14.0
 20
66.8326
 30
0.0
 11
14.0
 21
65.9949
 31
0.0
  0
LINE
  5
A4
330
1E
100
AcDbEntity
  8
0
100
AcDbLine
 10
14.0
 20
65.9949
 30
0.0
 11
14.0
 21
66.8326
 31
0.0
  0
LINE
  5
A5
330
1E
100
AcDbEntity
  8
0
100
AcDbLine
 10
14.0
 20
65.9949
 30
0.0
 11
14.0
 21
65.01018000000001
 31
0.0
  0
LINE
  5
A6
330
1E
100
AcDbEntity
  8
0
100
AcDbLine
 10
14.0
 20
65.01018000000001
 30
0.0
 11
14.0
 21
65.9949
 31
0.0
  0
LINE
  5
A7
330
1E
100
AcDbEntity
  8
0
100
AcDbLine
 10
14.0
 20
65.01018000000001
 30
0.0
 11
14.0
 21
63.9835
 31
0.0
  0
LINE
  5
A8
330
1E
100
AcDbEntity
  8
0
100
AcDbLine
 10
14.0
 20
64.0013
 30
0.0
 11
14.0
 21
62.97461999999999
 31
0.0
  0
LINE
  5
A9
330
1E
100
AcDbEntity
  8
0
100
AcDbLine
 10
14.0
 20
64.0013
 30
0.0
 11
14.0
 21
65.02768
 31
0.0
  0
LINE
  5
AA
330
1E
100
AcDbEntity
  8
0
100
AcDbLine
 10
14.0
 20
65.02768
 30
0.0
 11
14.0
 21
64.0013
 31
0.0
  0
LINE
  5
AB
330
1E
100
AcDbEntity
  8
0
100
AcDbLine
 10
14.0
 20
65.02768
 30
0.0
 11
14.0
 21
65.97951000000001
 31
0.0
  0
LINE
  5
AC
330
1E
100
AcDbEntity
  8
0
100
AcDbLine
 10
14.0
 20
61.17738000000001
 30
0.0
 11
14.0
 21
62.00529
 31
0.0
  0
LINE
  5
AD
330
1E
100
AcDbEntity
  8
0
100
AcDbLine
 10
14.0
 20
61.17738000000001
 30
0.0
 11
14.0
 21
60.52392
 31
0.0
  0
LINE
  5
AE
330
1E
100
AcDbEntity
  8
0
100
AcDbLine
 10
28.5
 20
55.43639999999999
 30
0.0
 11
28.5
 21
50.3494
 31
0.0
  0
LINE
  5
AF
330
1E
100
AcDbEntity
  8
0
100
AcDbLine
 10
28.5
 20
55.43639999999999
 30
0.0
 11
28.5
 21
60.00275999999999
 31
0.0
  0
LINE
  5
B0
330
1E
100
AcDbEntity
  8
0
100
AcDbLine
 10
28.5
 20
50.8724
 30
0.0
 11
28.5
 21
37.94319999999999
 31
0.0
  0
LINE
  5
B1
330
1E
100
AcDbEntity
  8
0
100
AcDbLine
 10
28.5
 20
50.8724
 30
0.0
 11
28.5
 21
60.00275999999999
 31
0.0
  0
LINE
  5
B2
330
1E
100
AcDbEntity
  8
0
100
AcDbLine
 10
28.5
 20
50.3494
 30
0.0
 11
28.5
 21
45.2374
 31
0.0
  0
LINE
  5
B3
330
1E
100
AcDbEntity
  8
0
100
AcDbLine
 10
28.5
 20
50.3494
 30
0.0
 11
28.5
 21
55.43639999999999
 31
0.0
  0
LINE
  5
B4
330
1E
100
AcDbEntity
  8
0
100
AcDbLine
 10
28.5
 20
59.6964
 30
0.0
 11
28.5
 21
60.00275999999999
 31
0.0
  0
LINE
  5
B5
330
1E
100
AcDbEntity
  8
0
100
AcDbLine
 10
28.5
 20
59.6964
 30
0.0
 11
28.5
 21
54.7624
 31
0.0
  0
LINE
  5
B6
330
1E
100
AcDbEntity
  8
0
100
AcDbLine
 10
28.5
 20
54.7624
 30
0.0
 11
28.5
 21
59.6964
 31
0.0
  0
LINE
  5
B7
330
1E
100
AcDbEntity
  8
0
100
AcDbLine
 10
28.5
 20
54.7624
 30
0.0
 11
28.5
 21
49.6514
 31
0.0
  0
LINE
  5
B8
330
1E
100
AcDbEntity
  8
0
100
AcDbLine
 10
28.5
 20
69.38639999999999
 30
0.0
 11
28.5
 21
67.982
 31
0.0
  0
LINE
  5
B9
330
1E
100
AcDbEntity
  8
0
100
AcDbLine
 10
28.5
 20
69.38639999999999
 30
0.0
 11
28.5
 21
69.9974
 31
0.0
  0
LINE
  5
BA
330
1E
100
AcDbEntity
  8
0
100
AcDbLine
 10
28.5
 20
75.6524
 30
0.0
 11
28.5
 21
85.91039999999999
 31
0.0
  0
LINE
  5
BB
330
1E
100
AcDbEntity
  8
0
100
AcDbLine
 10
28.5
 20
75.6524
 30
0.0
 11
28.5
 21
67.982
 31
0.0
  0
LINE
  5
BC
330
1E
100
AcDbEntity
  8
0
100
AcDbLine
 10
28.5
 20
69.9974
 30
0.0
 11
28.5
 21
69.2084
 31
0.0
  0
LINE
  5
BD
330
1E
100
AcDbEntity
  8
0
100
AcDbLine
 10
28.5
 20
69.9974
 30
0.0
 11
28.5
 21
69.38639999999999
 31
0.0
  0
LINE
  5
BE
330
1E
100
AcDbEntity
  8
0
100
AcDbLine
 10
28.5
 20
69.2084
 30
0.0
 11
28.5
 21
69.9974
 31
0.0
  0
LINE
  5
BF
330
1E
100
AcDbEntity
  8
0
100
AcDbLine
 10
28.5
 20
69.2084
 30
0.0
 11
28.5
 21
67.982
 31
0.0
  0
LINE
  5
C0
330
1E
100
AcDbEntity
  8
0
100
AcDbLine
 10
28.5
 20
67.982
 30
0.0
 11
28.5
 21
69.2084
 31
0.0
  0
LINE
  5
C1
330
1E
100
AcDbEntity
  8
0
100
AcDbLine
 10
28.5
 20
67.982
 30
0.0
 11
28.5
 21
74.14039999999999
 31
0.0
  0
LINE
  5
C2
330
1E
100
AcDbEntity
  8
0
100
AcDbLine
 10
28.5
 20
67.982
 30
0.0
 11
28.5
 21
75.6524
 31
0.0
  0
LINE
  5
C3
330
1E
100
AcDbEntity
  8
0
100
AcDbLine
 10
28.5
 20
67.982
 30
0.0
 11
28.5
 21
69.38639999999999
 31
0.0
  0
LINE
  5
C4
330
1E
100
AcDbEntity
  8
0
100
AcDbLine
 10
28.5
 20
93.7284
 30
0.0
 11
28.5
 21
98.41740000000001
 31
0.0
  0
LINE
  5
C5
330
1E
100
AcDbEntity
  8
0
100
AcDbLine
 10
28.5
 20
93.7284
 30
0.0
 11
28.5
 21
85.91039999999999
 31
0.0
  0
LINE
  5
C6
330
1E
100
AcDbEntity
  8
0
100
AcDbLine
 10
28.5
 20
85.91039999999999
 30
0.0
 11
28.5
 21
93.7284
 31
0.0
  0
LINE
  5
C7
330
1E
100
AcDbEntity
  8
0
100
AcDbLine
 10
28.5
 20
85.91039999999999
 30
0.0
 11
28.5
 21
75.6524
 31
0.0
  0
LINE
  5
C8
330
1E
100
AcDbEntity
  8
0
100
AcDbLine
 10
28.5
 20
99.9924
 30
0.0
 11
47.5
 21
99.9924
 31
0.0
  0
LINE
  5
C9
330
1E
100
AcDbEntity
  8
0
100
AcDbLine
 10
28.5
 20
98.41740000000001
 30
0.0
 11
28.5
 21
99.9924
 31
0.0
  0
LINE
  5
CA
330
1E
100
AcDbEntity
  8
0
100
AcDbLine
 10
28.5
 20
98.41740000000001
 30
0.0
 11
28.5
 21
93.7284
 31
0.0
  0
LINE
  5
CB
330
1E
100
AcDbEntity
  8
0
100
AcDbLine
 10
28.5
 20
99.9924
 30
0.0
 11
28.5
 21
97.96739999999999
 31
0.0
  0
LINE
  5
CC
330
1E
100
AcDbEntity
  8
0
100
AcDbLine
 10
28.5
 20
99.9924
 30
0.0
 11
47.5
 21
99.9924
 31
0.0
  0
LINE
  5
CD
330
1E
100
AcDbEntity
  8
0
100
AcDbLine
 10
28.5
 20
99.9924
 30
0.0
 11
28.5
 21
98.41740000000001
 31
0.0
  0
LINE
  5
CE
330
1E
100
AcDbEntity
  8
0
100
AcDbLine
 10
28.5
 20
97.96739999999999
 30
0.0
 11
28.5
 21
92.8584
 31
0.0
  0
LINE
  5
CF
330
1E
100
AcDbEntity
  8
0
100
AcDbLine
 10
28.5
 20
97.96739999999999
 30
0.0
 11
28.5
 21
99.9924
 31
0.0
  0
LINE
  5
D0
330
1E
100
AcDbEntity
  8
0
100
AcDbLine
 10
28.5
 20
92.8584
 30
0.0
 11
28.5
 21
84.6784
 31
0.0
  0
LINE
  5
D1
330
1E
100
AcDbEntity
  8
0
100
AcDbLine
 10
28.5
 20
92.8584
 30
0.0
 11
28.5
 21
97.96739999999999
 31
0.0
  0
LINE
  5
D2
330
1E
100
AcDbEntity
  8
0
100
AcDbLine
 10
28.5
 20
84.6784
 30
0.0
 11
28.5
 21
74.14039999999999
 31
0.0
  0
LINE
  5
D3
330
1E
100
AcDbEntity
  8
0
100
AcDbLine
 10
28.5
 20
84.6784
 30
0.0
 11
28.5
 21
92.8584
 31
0.0
  0
LINE
  5
D4
330
1E
100
AcDbEntity
  8
0
100
AcDbLine
 10
28.5
 20
74.14039999999999
 30
0.0
 11
28.5
 21
67.982
 31
0.0
  0
LINE
  5
D5
330
1E
100
AcDbEntity
  8
0
100
AcDbLine
 10
28.5
 20
74.14039999999999
 30
0.0
 11
28.5
 21
84.6784
 31
0.0
  0
LINE
  5
D6
330
1E
100
AcDbEntity
  8
0
100
AcDbLine
 10
28.5
 20
60.00275999999999
 30
0.0
 11
28.5
 21
49.34707
 31
0.0
  0
LINE
  5
D7
330
1E
100
AcDbEntity
  8
0
100
AcDbLine
 10
28.5
 20
60.00275999999999
 30
0.0
 11
28.5
 21
59.6964
 31
0.0
  0
LINE
  5
D8
330
1E
100
AcDbEntity
  8
0
100
AcDbLine
 10
28.5
 20
60.00275999999999
 30
0.0
 11
28.5
 21
55.43639999999999
 31
0.0
  0
LINE
  5
D9
330
1E
100
AcDbEntity
  8
0
100
AcDbLine
 10
28.5
 20
60.00275999999999
 30
0.0
 11
28.5
 21
50.8724
 31
0.0
  0
LINE
  5
DA
330
1E
100
AcDbEntity
  8
0
100
AcDbLine
 10
28.5
 20
49.6514
 30
0.0
 11
28.5
 21
49.34707
 31
0.0
  0
LINE
  5
DB
330
1E
100
AcDbEntity
  8
0
100
AcDbLine
 10
28.5
 20
49.6514
 30
0.0
 11
28.5
 21
54.7624
 31
0.0
  0
LINE
  5
DC
330
1E
100
AcDbEntity
  8
0
100
AcDbLine
 10
28.5
 20
49.34707
 30
0.0
 11
28.5
 21
49.6514
 31
0.0
  0
LINE
  5
DD
330
1E
100
AcDbEntity
  8
0
100
AcDbLine
 10
28.5
 20
49.34707
 30
0.0
 11
28.5
 21
60.00275999999999
 31
0.0
  0
LINE
  5
DE
330
1E
100
AcDbEntity
  8
0
100
AcDbLine
 10
14.0
 20
62.00529
 30
0.0
 11
14.0
 21
62.95711999999999
 31
0.0
  0
LINE
  5
DF
330
1E
100
AcDbEntity
  8
0
100
AcDbLine
 10
14.0
 20
62.00529
 30
0.0
 11
14.0
 21
61.17738000000001
 31
0.0
  0
LINE
  5
E1
330
1E
100
AcDbEntity
  8
0
100
AcDbLine
 10
7.855999999999999
 20
49.02706
 30
0.0
 11
8.0
 21
50.01617
 31
0.0
  0
LINE
  5
E2
330
1E
100
AcDbEntity
  8
0
100
AcDbLine
 10
6.20485
 20
42.20349999999999
 30
0.0
 11
8.487999999999999
 21
41.74999999999999
 31
0.0
  0
LINE
  5
E3
330
1E
100
AcDbEntity
  8
0
100
AcDbLine
 10
5.52603
 20
42.39869999999999
 30
0.0
 11
6.20485
 21
42.20349999999999
 31
0.0
  0
LINE
  5
E4
330
1E
100
AcDbEntity
  8
0
100
AcDbLine
 10
47.5
 20
99.9924
 30
0.0
 11
48.6
 21
99.9924
 31
0.0
  0
LINE
  5
E5
330
1E
100
AcDbEntity
  8
0
100
AcDbLine
 10
47.5
 20
99.9924
 30
0.0
 11
47.5
 21
93.9924
 31
0.0
  0
LINE
  5
E6
330
1E
100
AcDbEntity
  8
0
100
AcDbLine
 10
60.5
 20
86.99240000000001
 30
0.0
 11
65.8
 21
86.99240000000001
 31
0.0
  0
LINE
  5
E7
330
1E
100
AcDbEntity
  8
0
100
AcDbLine
 10
76.86199999999999
 20
55.9924
 30
0.0
 11
78.5
 21
55.9924
 31
0.0
  0
LINE
  5
E8
330
1E
100
AcDbEntity
  8
0
100
AcDbLine
 10
75.354
 20
55.9924
 30
0.0
 11
76.86199999999999
 21
55.9924
 31
0.0
  0
LINE
  5
E9
330
1E
100
AcDbEntity
  8
0
100
AcDbLine
 10
74.028
 20
55.9924
 30
0.0
 11
75.354
 21
55.9924
 31
0.0
  0
LINE
  5
EA
330
1E
100
AcDbEntity
  8
0
100
AcDbLine
 10
73.014
 20
55.9924
 30
0.0
 11
74.028
 21
55.9924
 31
0.0
  0
LINE
  5
EB
330
1E
100
AcDbEntity
  8
0
100
AcDbLine
 10
72.39
 20
55.9924
 30
0.0
 11
73.014
 21
55.9924
 31
0.0
  0
LINE
  5
EC
330
1E
100
AcDbEntity
  8
0
100
AcDbLine
 10
72.15600000000001
 20
55.9924
 30
0.0
 11
72.39
 21
55.9924
 31
0.0
  0
LINE
  5
ED
330
1E
100
AcDbEntity
  8
0
100
AcDbLine
 10
78.5
 20
55.9924
 30
0.0
 11
80.13800000000001
 21
55.9924
 31
0.0
  0
LINE
  5
EE
330
1E
100
AcDbEntity
  8
0
100
AcDbLine
 10
80.13800000000001
 20
55.9924
 30
0.0
 11
81.646
 21
55.9924
 31
0.0
  0
LINE
  5
EF
330
1E
100
AcDbEntity
  8
0
100
AcDbLine
 10
81.646
 20
55.9924
 30
0.0
 11
82.97200000000001
 21
55.9924
 31
0.0
  0
LINE
  5
F0
330
1E
100
AcDbEntity
  8
0
100
AcDbLine
 10
82.97200000000001
 20
55.9924
 30
0.0
 11
83.986
 21
55.9924
 31
0.0
  0
LINE
  5
F1
330
1E
100
AcDbEntity
  8
0
100
AcDbLine
 10
76.836
 20
56.177312
 30
0.0
 11
78.5
 21
56.177312
 31
0.0
  0
LINE
  5
F2
330
1E
100
AcDbEntity
  8
0
100
AcDbLine
 10
75.27600000000001
 20
56.177312
 30
0.0
 11
76.836
 21
56.177312
 31
0.0
  0
LINE
  5
F3
330
1E
100
AcDbEntity
  8
0
100
AcDbLine
 10
73.898
 20
56.177312
 30
0.0
 11
75.27600000000001
 21
56.177312
 31
0.0
  0
LINE
  5
F4
330
1E
100
AcDbEntity
  8
0
100
AcDbLine
 10
72.858
 20
56.177312
 30
0.0
 11
73.898
 21
56.177312
 31
0.0
  0
LINE
  5
F5
330
1E
100
AcDbEntity
  8
0
100
AcDbLine
 10
72.23399999999999
 20
56.177312
 30
0.0
 11
72.858
 21
56.177312
 31
0.0
  0
LINE
  5
F6
330
1E
100
AcDbEntity
  8
0
100
AcDbLine
 10
72.0
 20
56.177312
 30
0.0
 11
72.0
 21
56.4924
 31
0.0
  0
LINE
  5
F7
330
1E
100
AcDbEntity
  8
0
100
AcDbLine
 10
72.0
 20
56.177312
 30
0.0
 11
72.15600000000001
 21
55.9924
 31
0.0
  0
LINE
  5
F8
330
1E
100
AcDbEntity
  8
0
100
AcDbLine
 10
72.0
 20
56.177312
 30
0.0
 11
72.23399999999999
 21
56.177312
 31
0.0
  0
LINE
  5
F9
330
1E
100
AcDbEntity
  8
0
100
AcDbLine
 10
78.5
 20
56.177312
 30
0.0
 11
80.164
 21
56.177312
 31
0.0
  0
LINE
  5
FA
330
1E
100
AcDbEntity
  8
0
100
AcDbLine
 10
80.164
 20
56.177312
 30
0.0
 11
81.72399999999999
 21
56.177312
 31
0.0
  0
LINE
  5
FB
330
1E
100
AcDbEntity
  8
0
100
AcDbLine
 10
81.72399999999999
 20
56.177312
 30
0.0
 11
83.102
 21
56.177312
 31
0.0
  0
LINE
  5
FC
330
1E
100
AcDbEntity
  8
0
100
AcDbLine
 10
70.69199999999999
 20
56.4924
 30
0.0
 11
70.98
 21
56.4924
 31
0.0
  0
LINE
  5
FD
330
1E
100
AcDbEntity
  8
0
100
AcDbLine
 10
70.98
 20
56.4924
 30
0.0
 11
71.74800000000001
 21
56.4924
 31
0.0
  0
LINE
  5
FE
330
1E
100
AcDbEntity
  8
0
100
AcDbLine
 10
71.74800000000001
 20
56.4924
 30
0.0
 11
72.99600000000001
 21
56.4924
 31
0.0
  0
LINE
  5
FF
330
1E
100
AcDbEntity
  8
0
100
AcDbLine
 10
71.74800000000001
 20
56.4924
 30
0.0
 11
72.0
 21
56.4924
 31
0.0
  0
LINE
  5
100
330
1E
100
AcDbEntity
  8
0
100
AcDbLine
 10
72.99600000000001
 20
56.4924
 30
0.0
 11
74.628
 21
56.4924
 31
0.0
  0
LINE
  5
101
330
1E
100
AcDbEntity
  8
0
100
AcDbLine
 10
74.628
 20
56.4924
 30
0.0
 11
76.48399999999999
 21
56.4924
 31
0.0
  0
LINE
  5
102
330
1E
100
AcDbEntity
  8
0
100
AcDbLine
 10
76.48399999999999
 20
56.4924
 30
0.0
 11
78.5
 21
56.4924
 31
0.0
  0
LINE
  5
103
330
1E
100
AcDbEntity
  8
0
100
AcDbLine
 10
84.00399999999999
 20
56.4924
 30
0.0
 11
85.25200000000001
 21
56.4924
 31
0.0
  0
LINE
  5
104
330
1E
100
AcDbEntity
  8
0
100
AcDbLine
 10
82.37200000000001
 20
56.4924
 30
0.0
 11
84.00399999999999
 21
56.4924
 31
0.0
  0
LINE
  5
105
330
1E
100
AcDbEntity
  8
0
100
AcDbLine
 10
80.516
 20
56.4924
 30
0.0
 11
82.37200000000001
 21
56.4924
 31
0.0
  0
LINE
  5
106
330
1E
100
AcDbEntity
  8
0
100
AcDbLine
 10
78.5
 20
56.4924
 30
0.0
 11
80.516
 21
56.4924
 31
0.0
  0
LINE
  5
107
330
1E
100
AcDbEntity
  8
0
100
AcDbLine
 10
72.0
 20
56.4924
 30
0.0
 11
72.0
 21
56.177312
 31
0.0
  0
LINE
  5
108
330
1E
100
AcDbEntity
  8
0
100
AcDbLine
 10
83.102
 20
56.177312
 30
0.0
 11
84.14200000000001
 21
56.177312
 31
0.0
  0
LINE
  5
109
330
1E
100
AcDbEntity
  8
0
100
AcDbLine
 10
84.14200000000001
 20
56.177312
 30
0.0
 11
84.76600000000001
 21
56.177312
 31
0.0
  0
LINE
  5
10A
330
1E
100
AcDbEntity
  8
0
100
AcDbLine
 10
83.986
 20
55.9924
 30
0.0
 11
84.61
 21
55.9924
 31
0.0
  0
LINE
  5
10B
330
1E
100
AcDbEntity
  8
0
100
AcDbLine
 10
84.76600000000001
 20
56.177312
 30
0.0
 11
85.0
 21
56.177312
 31
0.0
  0
LINE
  5
10C
330
1E
100
AcDbEntity
  8
0
100
AcDbLine
 10
86.30799999999998
 20
56.4924
 30
0.0
 11
86.5
 21
56.7924
 31
0.0
  0
LINE
  5
10D
330
1E
100
AcDbEntity
  8
0
100
AcDbLine
 10
86.02
 20
56.4924
 30
0.0
 11
86.30799999999998
 21
56.4924
 31
0.0
  0
LINE
  5
10E
330
1E
100
AcDbEntity
  8
0
100
AcDbLine
 10
85.25200000000001
 20
56.4924
 30
0.0
 11
86.02
 21
56.4924
 31
0.0
  0
LINE
  5
10F
330
1E
100
AcDbEntity
  8
0
100
AcDbLine
 10
85.0
 20
56.177312
 30
0.0
 11
85.0
 21
56.4924
 31
0.0
  0
LINE
  5
110
330
1E
100
AcDbEntity
  8
0
100
AcDbLine
 10
84.84399999999999
 20
55.9924
 30
0.0
 11
85.0
 21
56.177312
 31
0.0
  0
LINE
  5
111
330
1E
100
AcDbEntity
  8
0
100
AcDbLine
 10
84.61
 20
55.9924
 30
0.0
 11
84.84399999999999
 21
55.9924
 31
0.0
  0
LINE
  5
112
330
1E
100
AcDbEntity
  8
0
100
AcDbLine
 10
70.5
 20
56.7924
 30
0.0
 11
70.69199999999999
 21
56.4924
 31
0.0
  0
LINE
  5
113
330
1E
100
AcDbEntity
  8
0
100
AcDbLine
 10
70.5
 20
56.7924
 30
0.0
 11
70.5
 21
60.00275999999999
 31
0.0
  0
LINE
  5
116
330
1E
100
AcDbEntity
  8
0
100
AcDbLine
 10
86.5
 20
56.7924
 30
0.0
 11
86.5
 21
60.00275999999999
 31
0.0
  0
LINE
  5
118
330
1E
100
AcDbEntity
  8
0
100
AcDbLine
 10
70.5
 20
67.982
 30
0.0
 11
70.5
 21
86.99240000000001
 31
0.0
  0
LINE
  5
119
330
1E
100
AcDbEntity
  8
0
100
AcDbLine
 10
70.5
 20
60.00275999999999
 30
0.0
 11
70.5
 21
56.7924
 31
0.0
  0
LINE
  5
11A
330
1E
100
AcDbEntity
  8
0
100
AcDbLine
 10
70.5
 20
86.99240000000001
 30
0.0
 11
70.5
 21
67.982
 31
0.0
  0
LINE
  5
11B
330
1E
100
AcDbEntity
  8
0
100
AcDbLine
 10
86.5
 20
67.982
 30
0.0
 11
86.5
 21
86.99240000000001
 31
0.0
  0
LINE
  5
11C
330
1E
100
AcDbEntity
  8
0
100
AcDbLine
 10
86.5
 20
67.982
 30
0.0
 11
143.0
 21
67.982
 31
0.0
  0
LINE
  5
11E
330
1E
100
AcDbEntity
  8
0
100
AcDbLine
 10
86.5
 20
60.00275999999999
 30
0.0
 11
86.5
 21
56.7924
 31
0.0
  0
LINE
  5
11F
330
1E
100
AcDbEntity
  8
0
100
AcDbLine
 10
86.5
 20
60.00275999999999
 30
0.0
 11
143.0
 21
60.00275999999999
 31
0.0
  0
LINE
  5
120
330
1E
100
AcDbEntity
  8
0
100
AcDbLine
 10
85.0
 20
56.4924
 30
0.0
 11
85.0
 21
56.177312
 31
0.0
  0
LINE
  5
121
330
1E
100
AcDbEntity
  8
0
100
AcDbLine
 10
85.0
 20
56.4924
 30
0.0
 11
85.25200000000001
 21
56.4924
 31
0.0
  0
LINE
  5
122
330
1E
100
AcDbEntity
  8
0
100
AcDbLine
 10
96.5
 20
86.99240000000001
 30
0.0
 11
100.6
 21
86.99240000000001
 31
0.0
  0
LINE
  5
123
330
1E
100
AcDbEntity
  8
0
100
AcDbLine
 10
100.6
 20
86.99240000000001
 30
0.0
 11
103.0999999999999
 21
86.99240000000001
 31
0.0
  0
LINE
  5
124
330
1E
100
AcDbEntity
  8
0
100
AcDbLine
 10
128.4999999999999
 20
0.0076000000000031
 30
0.0
 11
128.4999999999999
 21
2.0325
 31
0.0
  0
LINE
  5
125
330
1E
100
AcDbEntity
  8
0
100
AcDbLine
 10
128.4999999999999
 20
2.0325
 30
0.0
 11
128.4999999999999
 21
7.141200000000009
 31
0.0
  0
LINE
  5
126
330
1E
100
AcDbEntity
  8
0
100
AcDbLine
 10
128.4999999999999
 20
2.0325
 30
0.0
 11
128.4999999999999
 21
0.0076000000000031
 31
0.0
  0
LINE
  5
127
330
1E
100
AcDbEntity
  8
0
100
AcDbLine
 10
128.4999999999999
 20
7.141200000000009
 30
0.0
 11
128.4999999999999
 21
15.3215
 31
0.0
  0
LINE
  5
128
330
1E
100
AcDbEntity
  8
0
100
AcDbLine
 10
128.4999999999999
 20
7.141200000000009
 30
0.0
 11
128.4999999999999
 21
2.0325
 31
0.0
  0
LINE
  5
129
330
1E
100
AcDbEntity
  8
0
100
AcDbLine
 10
128.4999999999999
 20
15.3215
 30
0.0
 11
128.4999999999999
 21
25.8595
 31
0.0
  0
LINE
  5
12A
330
1E
100
AcDbEntity
  8
0
100
AcDbLine
 10
128.4999999999999
 20
15.3215
 30
0.0
 11
128.4999999999999
 21
7.141200000000009
 31
0.0
  0
LINE
  5
12B
330
1E
100
AcDbEntity
  8
0
100
AcDbLine
 10
128.4999999999999
 20
25.8595
 30
0.0
 11
128.4999999999999
 21
37.94319999999999
 31
0.0
  0
LINE
  5
12C
330
1E
100
AcDbEntity
  8
0
100
AcDbLine
 10
128.4999999999999
 20
25.8595
 30
0.0
 11
128.4999999999999
 21
15.3215
 31
0.0
  0
LINE
  5
12D
330
1E
100
AcDbEntity
  8
0
100
AcDbLine
 10
128.4999999999999
 20
37.94319999999999
 30
0.0
 11
128.4999999999999
 21
50.8724
 31
0.0
  0
LINE
  5
12E
330
1E
100
AcDbEntity
  8
0
100
AcDbLine
 10
128.4999999999999
 20
37.94319999999999
 30
0.0
 11
128.4999999999999
 21
25.8595
 31
0.0
  0
LINE
  5
12F
330
1E
100
AcDbEntity
  8
0
100
AcDbLine
 10
143.0
 20
41.3678
 30
0.0
 11
145.8529999999999
 21
41.465
 31
0.0
  0
LINE
  5
130
330
1E
100
AcDbEntity
  8
0
100
AcDbLine
 10
128.4999999999999
 20
50.8724
 30
0.0
 11
128.4999999999999
 21
37.94319999999999
 31
0.0
  0
LINE
  5
131
330
1E
100
AcDbEntity
  8
0
100
AcDbLine
 10
128.4999999999999
 20
50.8724
 30
0.0
 11
128.4999999999999
 21
60.00275999999999
 31
0.0
  0
LINE
  5
132
330
1E
100
AcDbEntity
  8
0
100
AcDbLine
 10
145.3229999999999
 20
49.42623
 30
0.0
 11
147.4879999999999
 21
49.65831
 31
0.0
  0
LINE
  5
133
330
1E
100
AcDbEntity
  8
0
100
AcDbLine
 10
143.0
 20
49.34707
 30
0.0
 11
145.3229999999999
 21
49.42623
 31
0.0
  0
LINE
  5
134
330
1E
100
AcDbEntity
  8
0
100
AcDbLine
 10
128.4999999999999
 20
49.34707
 30
0.0
 11
143.0
 21
49.34707
 31
0.0
  0
LINE
  5
135
330
1E
100
AcDbEntity
  8
0
100
AcDbLine
 10
128.4999999999999
 20
60.00275999999999
 30
0.0
 11
128.4999999999999
 21
50.8724
 31
0.0
  0
LINE
  5
136
330
1E
100
AcDbEntity
  8
0
100
AcDbLine
 10
128.4999999999999
 20
67.982
 30
0.0
 11
128.4999999999999
 21
75.6524
 31
0.0
  0
LINE
  5
137
330
1E
100
AcDbEntity
  8
0
100
AcDbLine
 10
128.4999999999999
 20
85.91039999999999
 30
0.0
 11
128.4999999999999
 21
93.7284
 31
0.0
  0
LINE
  5
138
330
1E
100
AcDbEntity
  8
0
100
AcDbLine
 10
128.4999999999999
 20
85.91039999999999
 30
0.0
 11
128.4999999999999
 21
75.6524
 31
0.0
  0
LINE
  5
139
330
1E
100
AcDbEntity
  8
0
100
AcDbLine
 10
128.4999999999999
 20
75.6524
 30
0.0
 11
128.4999999999999
 21
85.91039999999999
 31
0.0
  0
LINE
  5
13A
330
1E
100
AcDbEntity
  8
0
100
AcDbLine
 10
128.4999999999999
 20
75.6524
 30
0.0
 11
128.4999999999999
 21
67.982
 31
0.0
  0
LINE
  5
13B
330
1E
100
AcDbEntity
  8
0
100
AcDbLine
 10
143.0
 20
67.982
 30
0.0
 11
145.8529999999999
 21
67.88479999999999
 31
0.0
  0
LINE
  5
13C
330
1E
100
AcDbEntity
  8
0
100
AcDbLine
 10
145.8529999999999
 20
67.88479999999999
 30
0.0
 11
148.512
 21
67.5998
 31
0.0
  0
LINE
  5
13D
330
1E
100
AcDbEntity
  8
0
100
AcDbLine
 10
143.0
 20
60.00275999999999
 30
0.0
 11
145.3229999999999
 21
59.9236
 31
0.0
  0
LINE
  5
13E
330
1E
100
AcDbEntity
  8
0
100
AcDbLine
 10
145.3229999999999
 20
59.9236
 30
0.0
 11
147.4879999999999
 21
59.69152
 31
0.0
  0
LINE
  5
13F
330
1E
100
AcDbEntity
  8
0
100
AcDbLine
 10
147.4879999999999
 20
49.65831
 30
0.0
 11
149.0
 21
49.95859531468529
 31
0.0
  0
LINE
  5
141
330
1E
100
AcDbEntity
  8
0
100
AcDbLine
 10
149.0
 20
49.95859531468529
 30
0.0
 11
149.0
 21
59.39123468531469
 31
0.0
  0
LINE
  5
144
330
1E
100
AcDbEntity
  8
0
100
AcDbLine
 10
150.7949999999999
 20
67.1464
 30
0.0
 11
151.4739999999999
 21
66.95109999999999
 31
0.0
  0
LINE
  5
145
330
1E
100
AcDbEntity
  8
0
100
AcDbLine
 10
148.512
 20
67.5998
 30
0.0
 11
150.7949999999999
 21
67.1464
 31
0.0
  0
LINE
  5
146
330
1E
100
AcDbEntity
  8
0
100
AcDbLine
 10
147.4879999999999
 20
59.69152
 30
0.0
 11
149.0
 21
59.39123468531469
 31
0.0
  0
LINE
  5
147
330
1E
100
AcDbEntity
  8
0
100
AcDbLine
 10
149.0
 20
59.39123468531469
 30
0.0
 11
149.0
 21
49.95859531468529
 31
0.0
  0
LINE
  5
148
330
1E
100
AcDbEntity
  8
0
100
AcDbLine
 10
153.3779999999999
 20
66.3087
 30
0.0
 11
154.576
 21
65.56068
 31
0.0
  0
LINE
  5
149
330
1E
100
AcDbEntity
  8
0
100
AcDbLine
 10
154.576
 20
65.56068
 30
0.0
 11
155.395
 21
64.99929
 31
0.0
  0
LINE
  5
14A
330
1E
100
AcDbEntity
  8
0
100
AcDbLine
 10
151.4739999999999
 20
66.95109999999999
 30
0.0
 11
153.3779999999999
 21
66.3087
 31
0.0
  0
LINE
  5
14B
330
1E
100
AcDbEntity
  8
0
100
AcDbLine
 10
155.395
 20
64.99929
 30
0.0
 11
156.013
 21
64.22306
 31
0.0
  0
LINE
  5
14C
330
1E
100
AcDbEntity
  8
0
100
AcDbLine
 10
154.576
 20
43.7891
 30
0.0
 11
155.395
 21
44.35049999999999
 31
0.0
  0
LINE
  5
14D
330
1E
100
AcDbEntity
  8
0
100
AcDbLine
 10
153.3779999999999
 20
43.0411
 30
0.0
 11
154.576
 21
43.7891
 31
0.0
  0
LINE
  5
14E
330
1E
100
AcDbEntity
  8
0
100
AcDbLine
 10
156.472
 20
46.02922
 30
0.0
 11
156.8559999999999
 21
46.95650999999999
 31
0.0
  0
LINE
  5
14F
330
1E
100
AcDbEntity
  8
0
100
AcDbLine
 10
156.013
 20
45.1268
 30
0.0
 11
156.472
 21
46.02922
 31
0.0
  0
LINE
  5
150
330
1E
100
AcDbEntity
  8
0
100
AcDbLine
 10
156.013
 20
64.22306
 30
0.0
 11
156.472
 21
63.32060999999999
 31
0.0
  0
LINE
  5
151
330
1E
100
AcDbEntity
  8
0
100
AcDbLine
 10
156.472
 20
63.32060999999999
 30
0.0
 11
156.8559999999999
 21
62.39332
 31
0.0
  0
LINE
  5
152
330
1E
100
AcDbEntity
  8
0
100
AcDbLine
 10
156.8559999999999
 20
62.39332
 30
0.0
 11
157.0
 21
61.40420999999999
 31
0.0
  0
LINE
  5
153
330
1E
100
AcDbEntity
  8
0
100
AcDbLine
 10
157.0
 20
61.40420999999999
 30
0.0
 11
157.0
 21
47.94561999999999
 31
0.0
  0
LINE
  5
154
330
1E
100
AcDbEntity
  8
0
100
AcDbLine
 10
157.0
 20
47.94561999999999
 30
0.0
 11
157.0
 21
61.40420999999999
 31
0.0
  0
LINE
  5
155
330
1E
100
AcDbEntity
  8
0
100
AcDbLine
 10
156.8559999999999
 20
46.95650999999999
 30
0.0
 11
157.0
 21
47.94561999999999
 31
0.0
  0
LINE
  5
156
330
1E
100
AcDbEntity
  8
0
100
AcDbLine
 10
155.395
 20
44.35049999999999
 30
0.0
 11
156.013
 21
45.1268
 31
0.0
  0
LINE
  5
157
330
1E
100
AcDbEntity
  8
0
100
AcDbLine
 10
151.4739999999999
 20
42.39869999999999
 30
0.0
 11
153.3779999999999
 21
43.0411
 31
0.0
  0
LINE
  5
158
330
1E
100
AcDbEntity
  8
0
100
AcDbLine
 10
150.7949999999999
 20
42.20349999999999
 30
0.0
 11
151.4739999999999
 21
42.39869999999999
 31
0.0
  0
LINE
  5
159
330
1E
100
AcDbEntity
  8
0
100
AcDbLine
 10
148.512
 20
41.74999999999999
 30
0.0
 11
150.7949999999999
 21
42.20349999999999
 31
0.0
  0
LINE
  5
15A
330
1E
100
AcDbEntity
  8
0
100
AcDbLine
 10
145.8529999999999
 20
41.465
 30
0.0
 11
148.512
 21
41.74999999999999
 31
0.0
  0
LINE
  5
15B
330
1E
100
AcDbEntity
  8
0
100
AcDbLine
 10
128.4999999999999
 20
41.3678
 30
0.0
 11
143.0
 21
41.3678
 31
0.0
  0
LINE
  5
15C
330
1E
100
AcDbEntity
  8
0
100
AcDbLine
 10
104.0
 20
86.99240000000001
 30
0.0
 11
104.7
 21
87.2924
 31
0.0
  0
LINE
  5
15D
330
1E
100
AcDbEntity
  8
0
100
AcDbLine
 10
103.0999999999999
 20
86.99240000000001
 30
0.0
 11
104.0
 21
86.99240000000001
 31
0.0
  0
LINE
  5
15E
330
1E
100
AcDbEntity
  8
0
100
AcDbLine
 10
91.2
 20
86.99240000000001
 30
0.0
 11
96.5
 21
86.99240000000001
 31
0.0
  0
LINE
  5
15F
330
1E
100
AcDbEntity
  8
0
100
AcDbLine
 10
86.5
 20
86.99240000000001
 30
0.0
 11
91.2
 21
86.99240000000001
 31
0.0
  0
LINE
  5
160
330
1E
100
AcDbEntity
  8
0
100
AcDbLine
 10
86.5
 20
86.99240000000001
 30
0.0
 11
86.5
 21
67.982
 31
0.0
  0
LINE
  5
161
330
1E
100
AcDbEntity
  8
0
100
AcDbLine
 10
65.8
 20
86.99240000000001
 30
0.0
 11
70.5
 21
86.99240000000001
 31
0.0
  0
LINE
  5
162
330
1E
100
AcDbEntity
  8
0
100
AcDbLine
 10
56.4
 20
86.99240000000001
 30
0.0
 11
60.5
 21
86.99240000000001
 31
0.0
  0
LINE
  5
163
330
1E
100
AcDbEntity
  8
0
100
AcDbLine
 10
53.9
 20
86.99240000000001
 30
0.0
 11
56.4
 21
86.99240000000001
 31
0.0
  0
LINE
  5
164
330
1E
100
AcDbEntity
  8
0
100
AcDbLine
 10
55.8
 20
87.2924
 30
0.0
 11
60.0
 21
87.2924
 31
0.0
  0
LINE
  5
165
330
1E
100
AcDbEntity
  8
0
100
AcDbLine
 10
53.2
 20
87.2924
 30
0.0
 11
55.8
 21
87.2924
 31
0.0
  0
LINE
  5
166
330
1E
100
AcDbEntity
  8
0
100
AcDbLine
 10
60.0
 20
87.2924
 30
0.0
 11
65.5
 21
87.2924
 31
0.0
  0
LINE
  5
167
330
1E
100
AcDbEntity
  8
0
100
AcDbLine
 10
65.5
 20
87.2924
 30
0.0
 11
71.79999999999999
 21
87.2924
 31
0.0
  0
LINE
  5
168
330
1E
100
AcDbEntity
  8
0
100
AcDbLine
 10
97.0
 20
87.2924
 30
0.0
 11
101.2
 21
87.2924
 31
0.0
  0
LINE
  5
169
330
1E
100
AcDbEntity
  8
0
100
AcDbLine
 10
101.2
 20
87.2924
 30
0.0
 11
103.8
 21
87.2924
 31
0.0
  0
LINE
  5
16A
330
1E
100
AcDbEntity
  8
0
100
AcDbLine
 10
103.8
 20
87.2924
 30
0.0
 11
104.7
 21
87.2924
 31
0.0
  0
LINE
  5
16B
330
1E
100
AcDbEntity
  8
0
100
AcDbLine
 10
104.7
 20
87.2924
 30
0.0
 11
105.0
 21
87.99240000000001
 31
0.0
  0
LINE
  5
16C
330
1E
100
AcDbEntity
  8
0
100
AcDbLine
 10
91.5
 20
87.2924
 30
0.0
 11
97.0
 21
87.2924
 31
0.0
  0
LINE
  5
16D
330
1E
100
AcDbEntity
  8
0
100
AcDbLine
 10
85.20000000000001
 20
87.2924
 30
0.0
 11
91.5
 21
87.2924
 31
0.0
  0
LINE
  5
16E
330
1E
100
AcDbEntity
  8
0
100
AcDbLine
 10
105.0
 20
87.99240000000001
 30
0.0
 11
105.4999999999999
 21
89.49240000000001
 31
0.0
  0
LINE
  5
16F
330
1E
100
AcDbEntity
  8
0
100
AcDbLine
 10
78.5
 20
87.2924
 30
0.0
 11
85.20000000000001
 21
87.2924
 31
0.0
  0
LINE
  5
170
330
1E
100
AcDbEntity
  8
0
100
AcDbLine
 10
71.79999999999999
 20
87.2924
 30
0.0
 11
78.5
 21
87.2924
 31
0.0
  0
LINE
  5
171
330
1E
100
AcDbEntity
  8
0
100
AcDbLine
 10
53.0
 20
86.99240000000001
 30
0.0
 11
53.9
 21
86.99240000000001
 31
0.0
  0
LINE
  5
172
330
1E
100
AcDbEntity
  8
0
100
AcDbLine
 10
52.3
 20
87.2924
 30
0.0
 11
53.0
 21
86.99240000000001
 31
0.0
  0
LINE
  5
173
330
1E
100
AcDbEntity
  8
0
100
AcDbLine
 10
52.3
 20
87.2924
 30
0.0
 11
53.2
 21
87.2924
 31
0.0
  0
LINE
  5
174
330
1E
100
AcDbEntity
  8
0
100
AcDbLine
 10
105.4999999999999
 20
89.49240000000001
 30
0.0
 11
106.4999999999999
 21
91.4924
 31
0.0
  0
LINE
  5
175
330
1E
100
AcDbEntity
  8
0
100
AcDbLine
 10
106.4999999999999
 20
91.4924
 30
0.0
 11
108.0
 21
92.99240000000001
 31
0.0
  0
LINE
  5
176
330
1E
100
AcDbEntity
  8
0
100
AcDbLine
 10
52.0
 20
87.99240000000001
 30
0.0
 11
52.3
 21
87.2924
 31
0.0
  0
LINE
  5
177
330
1E
100
AcDbEntity
  8
0
100
AcDbLine
 10
51.5
 20
89.49240000000001
 30
0.0
 11
52.0
 21
87.99240000000001
 31
0.0
  0
LINE
  5
178
330
1E
100
AcDbEntity
  8
0
100
AcDbLine
 10
108.0
 20
92.99240000000001
 30
0.0
 11
109.0
 21
93.49239999999999
 31
0.0
  0
LINE
  5
179
330
1E
100
AcDbEntity
  8
0
100
AcDbLine
 10
109.0
 20
93.49239999999999
 30
0.0
 11
109.4999999999999
 21
93.9924
 31
0.0
  0
LINE
  5
17A
330
1E
100
AcDbEntity
  8
0
100
AcDbLine
 10
50.5
 20
91.4924
 30
0.0
 11
51.5
 21
89.49240000000001
 31
0.0
  0
LINE
  5
17B
330
1E
100
AcDbEntity
  8
0
100
AcDbLine
 10
49.0
 20
92.99240000000001
 30
0.0
 11
50.5
 21
91.4924
 31
0.0
  0
LINE
  5
17C
330
1E
100
AcDbEntity
  8
0
100
AcDbLine
 10
51.7
 20
93.9924
 30
0.0
 11
56.6
 21
93.9924
 31
0.0
  0
LINE
  5
17D
330
1E
100
AcDbEntity
  8
0
100
AcDbLine
 10
48.6
 20
93.9924
 30
0.0
 11
51.7
 21
93.9924
 31
0.0
  0
LINE
  5
17E
330
1E
100
AcDbEntity
  8
0
100
AcDbLine
 10
51.7
 20
99.9924
 30
0.0
 11
56.6
 21
99.9924
 31
0.0
  0
LINE
  5
17F
330
1E
100
AcDbEntity
  8
0
100
AcDbLine
 10
48.6
 20
99.9924
 30
0.0
 11
51.7
 21
99.9924
 31
0.0
  0
LINE
  5
180
330
1E
100
AcDbEntity
  8
0
100
AcDbLine
 10
56.6
 20
93.9924
 30
0.0
 11
63.1
 21
93.9924
 31
0.0
  0
LINE
  5
181
330
1E
100
AcDbEntity
  8
0
100
AcDbLine
 10
63.1
 20
93.9924
 30
0.0
 11
70.5
 21
93.9924
 31
0.0
  0
LINE
  5
182
330
1E
100
AcDbEntity
  8
0
100
AcDbLine
 10
70.5
 20
93.9924
 30
0.0
 11
78.5
 21
93.9924
 31
0.0
  0
LINE
  5
183
330
1E
100
AcDbEntity
  8
0
100
AcDbLine
 10
56.6
 20
99.9924
 30
0.0
 11
63.1
 21
99.9924
 31
0.0
  0
LINE
  5
184
330
1E
100
AcDbEntity
  8
0
100
AcDbLine
 10
63.1
 20
99.9924
 30
0.0
 11
70.5
 21
99.9924
 31
0.0
  0
LINE
  5
185
330
1E
100
AcDbEntity
  8
0
100
AcDbLine
 10
86.5
 20
93.9924
 30
0.0
 11
93.9
 21
93.9924
 31
0.0
  0
LINE
  5
186
330
1E
100
AcDbEntity
  8
0
100
AcDbLine
 10
78.5
 20
93.9924
 30
0.0
 11
86.5
 21
93.9924
 31
0.0
  0
LINE
  5
187
330
1E
100
AcDbEntity
  8
0
100
AcDbLine
 10
100.4
 20
93.9924
 30
0.0
 11
105.2999999999999
 21
93.9924
 31
0.0
  0
LINE
  5
188
330
1E
100
AcDbEntity
  8
0
100
AcDbLine
 10
105.2999999999999
 20
93.9924
 30
0.0
 11
108.4
 21
93.9924
 31
0.0
  0
LINE
  5
189
330
1E
100
AcDbEntity
  8
0
100
AcDbLine
 10
108.4
 20
93.9924
 30
0.0
 11
109.4999999999999
 21
93.9924
 31
0.0
  0
LINE
  5
18A
330
1E
100
AcDbEntity
  8
0
100
AcDbLine
 10
100.4
 20
99.9924
 30
0.0
 11
105.2999999999999
 21
99.9924
 31
0.0
  0
LINE
  5
18B
330
1E
100
AcDbEntity
  8
0
100
AcDbLine
 10
105.2999999999999
 20
99.9924
 30
0.0
 11
108.4
 21
99.9924
 31
0.0
  0
LINE
  5
18C
330
1E
100
AcDbEntity
  8
0
100
AcDbLine
 10
128.4999999999999
 20
93.7284
 30
0.0
 11
128.4999999999999
 21
98.41740000000001
 31
0.0
  0
LINE
  5
18D
330
1E
100
AcDbEntity
  8
0
100
AcDbLine
 10
128.4999999999999
 20
93.7284
 30
0.0
 11
128.4999999999999
 21
85.91039999999999
 31
0.0
  0
LINE
  5
18E
330
1E
100
AcDbEntity
  8
0
100
AcDbLine
 10
128.4999999999999
 20
99.9924
 30
0.0
 11
128.4999999999999
 21
98.41740000000001
 31
0.0
  0
LINE
  5
18F
330
1E
100
AcDbEntity
  8
0
100
AcDbLine
 10
128.4999999999999
 20
98.41740000000001
 30
0.0
 11
128.4999999999999
 21
99.9924
 31
0.0
  0
LINE
  5
190
330
1E
100
AcDbEntity
  8
0
100
AcDbLine
 10
128.4999999999999
 20
98.41740000000001
 30
0.0
 11
128.4999999999999
 21
93.7284
 31
0.0
  0
LINE
  5
191
330
1E
100
AcDbEntity
  8
0
100
AcDbLine
 10
109.4999999999999
 20
99.9924
 30
0.0
 11
128.4999999999999
 21
99.9924
 31
0.0
  0
LINE
  5
192
330
1E
100
AcDbEntity
  8
0
100
AcDbLine
 10
109.4999999999999
 20
93.9924
 30
0.0
 11
109.4999999999999
 21
99.9924
 31
0.0
  0
LINE
  5
193
330
1E
100
AcDbEntity
  8
0
100
AcDbLine
 10
108.4
 20
99.9924
 30
0.0
 11
109.4999999999999
 21
99.9924
 31
0.0
  0
LINE
  5
194
330
1E
100
AcDbEntity
  8
0
100
AcDbLine
 10
109.4999999999999
 20
99.9924
 30
0.0
 11
109.4999999999999
 21
93.9924
 31
0.0
  0
LINE
  5
195
330
1E
100
AcDbEntity
  8
0
100
AcDbLine
 10
93.9
 20
93.9924
 30
0.0
 11
100.4
 21
93.9924
 31
0.0
  0
LINE
  5
196
330
1E
100
AcDbEntity
  8
0
100
AcDbLine
 10
93.9
 20
99.9924
 30
0.0
 11
100.4
 21
99.9924
 31
0.0
  0
LINE
  5
197
330
1E
100
AcDbEntity
  8
0
100
AcDbLine
 10
86.5
 20
99.9924
 30
0.0
 11
93.9
 21
99.9924
 31
0.0
  0
LINE
  5
198
330
1E
100
AcDbEntity
  8
0
100
AcDbLine
 10
78.5
 20
99.9924
 30
0.0
 11
86.5
 21
99.9924
 31
0.0
  0
LINE
  5
199
330
1E
100
AcDbEntity
  8
0
100
AcDbLine
 10
70.5
 20
99.9924
 30
0.0
 11
78.5
 21
99.9924
 31
0.0
  0
LINE
  5
19A
330
1E
100
AcDbEntity
  8
0
100
AcDbLine
 10
48.0
 20
93.49239999999999
 30
0.0
 11
49.0
 21
92.99240000000001
 31
0.0
  0
LINE
  5
19B
330
1E
100
AcDbEntity
  8
0
100
AcDbLine
 10
47.5
 20
93.9924
 30
0.0
 11
47.5
 21
99.9924
 31
0.0
  0
LINE
  5
19C
330
1E
100
AcDbEntity
  8
0
100
AcDbLine
 10
47.5
 20
93.9924
 30
0.0
 11
48.0
 21
93.49239999999999
 31
0.0
  0
LINE
  5
19D
330
1E
100
AcDbEntity
  8
0
100
AcDbLine
 10
47.5
 20
93.9924
 30
0.0
 11
48.6
 21
93.9924
 31
0.0
  0
ENDSEC
  0
SECTION
  2
OBJECTS
  0
DICTIONARY
  5
C
330
0
100
AcDbDictionary
281
     1
  3
ACAD_GROUP
350
D
  3
ACAD_LAYOUT
350
19
  3
ACAD_MLINESTYLE
350
16
  3
ACAD_PLOTSETTINGS
350
18
  3
ACAD_PLOTSTYLENAME
350
E
  3
AcDbVariableDictionary
350
1A2
  0
DICTIONARY
  5
D
102
{ACAD_REACTORS
330
C
102
}
330
C
100
AcDbDictionary
281
     1
  0
DICTIONARY
  5
19
102
{ACAD_REACTORS
330
C
102
}
330
C
100
AcDbDictionary
281
     1
  3
Layout1
350
1D
  3
Model
350
21
  0
DICTIONARY
  5
16
102
{ACAD_REACTORS
330
C
102
}
330
C
100
AcDbDictionary
281
     1
  3
Standard
350
17
  0
DICTIONARY
  5
18
102
{ACAD_REACTORS
330
C
102
}
330
C
100
AcDbDictionary
281
     1
  0
ACDBDICTIONARYWDFLT
  5
E
102
{ACAD_REACTORS
330
C
102
}
330
C
100
AcDbDictionary
281
     1
  3
Normal
350
F
100
AcDbDictionaryWithDefault
340
F
  0
DICTIONARY
  5
1A2
102
{ACAD_REACTORS
330
C
102
}
330
C
100
AcDbDictionary
281
     1
  3
DIMASSOC
350
1A3
  0
LAYOUT
  5
1D
102
{ACAD_REACTORS
330
19
102
}
330
19
100
AcDbPlotSettings
  1

  2
hp deskjet 980c series
  4

  6

 40
0.0
 41
0.0
 42
0.0
 43
0.0
 44
0.0
 45
0.0
 46
0.0
 47
0.0
 48
0.0
 49
0.0
140
0.0
141
0.0
142
1.0
143
1.0
 70
   688
 72
     0
 73
     0
 74
     5
  7

 75
    16
147
1.0
148
0.0
149
0.0
100
AcDbLayout
  1
Layout1
 70
     1
 71
     1
 10
0.0
 20
0.0
 11
12.0
 21
9.0
 12
0.0
 22
0.0
 32
0.0
 14
1.000000000000000E+20
 24
1.000000000000000E+20
 34
1.000000000000000E+20
 15
-1.000000000000000E+20
 25
-1.000000000000000E+20
 35
-1.000000000000000E+20
146
0.0
 13
0.0
 23
0.0
 33
0.0
 16
1.0
 26
0.0
 36
0.0
 17
0.0
 27
1.0
 37
0.0
 76
     0
330
1A
  0
LAYOUT
  5
21
102
{ACAD_REACTORS
330
19
102
}
330
19
100
AcDbPlotSettings
  1

  2
hp deskjet 980c series
  4

  6

 40
0.0
 41
0.0
 42
0.0
 43
0.0
 44
0.0
 45
0.0
 46
0.0
 47
0.0
 48
0.0
 49
0.0
140
0.0
141
0.0
142
1.0
143
1.0
 70
  1712
 72
     0
 73
     0
 74
     0
  7

 75
     0
147
1.0
148
0.0
149
0.0
100
AcDbLayout
  1
Model
 70
     1
 71
     0
 10
0.0
 20
0.0
 11
12.0
 21
9.0
 12
0.0
 22
0.0
 32
0.0
 14
0.0
 24
0.0
 34
0.0
 15
0.0
 25
0.0
 35
0.0
146
0.0
 13
0.0
 23
0.0
 33
0.0
 16
1.0
 26
0.0
 36
0.0
 17
0.0
 27
1.0
 37
0.0
 76
     0
330
1E
  0
MLINESTYLE
  5
17
102
{ACAD_REACTORS
330
16
102
}
330
16
100
AcDbMlineStyle
  2
STANDARD
 70
     0
  3

 62
   256
 51
90.0
 52
90.0
 71
     2
 49
0.5
 62
   256
  6
BYLAYER
 49
-0.5
 62
   256
  6
BYLAYER
  0
ACDBPLACEHOLDER
  5
F
102
{ACAD_REACTORS
330
E
102
}
330
E
  0
DICTIONARYVAR
  5
1A3
102
{ACAD_REACTORS
330
1A2
102
}
330
1A2
100
DictionaryVariables
280
     0
  1
1
  0
ENDSEC
  0
EOF
