  0
SECTION
  2
HEADER
  9
$ACADVER
  1
AC1015
  9
$ACADMAINTVER
 70
    13
  9
$DWGCODEPAGE
  3
ANSI_1252
  9
$INSBASE
 10
0.0
 20
0.0
 30
0.0
  9
$EXTMIN
 10
-0.0000000000000039
 20
0.250000000000004
 30
0.0
  9
$EXTMAX
 10
157.0
 20
164.7499999999999
 30
0.0
  9
$LIMMIN
 10
0.0
 20
0.0
  9
$LIMMAX
 10
12.0
 20
9.0
  9
$ORTHOMODE
 70
     0
  9
$REGENMODE
 70
     1
  9
$FILLMODE
 70
     1
  9
$QTEXTMODE
 70
     0
  9
$MIRRTEXT
 70
     1
  9
$LTSCALE
 40
1.0
  9
$ATTMODE
 70
     1
  9
$TEXTSIZE
 40
0.2
  9
$TRACEWID
 40
0.05
  9
$TEXTSTYLE
  7
Standard
  9
$CLAYER
  8
0
  9
$CELTYPE
  6
Continuous
  9
$CECOLOR
 62
   256
  9
$CELTSCALE
 40
1.0
  9
$DISPSILH
 70
     0
  9
$DIMSCALE
 40
1.0
  9
$DIMASZ
 40
0.18
  9
$DIMEXO
 40
0.0625
  9
$DIMDLI
 40
0.38
  9
$DIMRND
 40
0.0
  9
$DIMDLE
 40
0.0
  9
$DIMEXE
 40
0.18
  9
$DIMTP
 40
0.0
  9
$DIMTM
 40
0.0
  9
$DIMTXT
 40
0.18
  9
$DIMCEN
 40
0.09
  9
$DIMTSZ
 40
0.0
  9
$DIMTOL
 70
     0
  9
$DIMLIM
 70
     0
  9
$DIMTIH
 70
     1
  9
$DIMTOH
 70
     1
  9
$DIMSE1
 70
     0
  9
$DIMSE2
 70
     0
  9
$DIMTAD
 70
     0
  9
$DIMZIN
 70
     0
  9
$DIMBLK
  1

  9
$DIMASO
 70
     1
  9
$DIMSHO
 70
     1
  9
$DIMPOST
  1

  9
$DIMAPOST
  1

  9
$DIMALT
 70
     0
  9
$DIMALTD
 70
     2
  9
$DIMALTF
 40
25.4
  9
$DIMLFAC
 40
1.0
  9
$DIMTOFL
 70
     0
  9
$DIMTVP
 40
0.0
  9
$DIMTIX
 70
     0
  9
$DIMSOXD
 70
     0
  9
$DIMSAH
 70
     0
  9
$DIMBLK1
  1

  9
$DIMBLK2
  1

  9
$DIMSTYLE
  2
Standard
  9
$DIMCLRD
 70
     0
  9
$DIMCLRE
 70
     0
  9
$DIMCLRT
 70
     0
  9
$DIMTFAC
 40
1.0
  9
$DIMGAP
 40
0.09
  9
$DIMJUST
 70
     0
  9
$DIMSD1
 70
     0
  9
$DIMSD2
 70
     0
  9
$DIMTOLJ
 70
     1
  9
$DIMTZIN
 70
     0
  9
$DIMALTZ
 70
     0
  9
$DIMALTTZ
 70
     0
  9
$DIMUPT
 70
     0
  9
$DIMDEC
 70
     4
  9
$DIMTDEC
 70
     4
  9
$DIMALTU
 70
     2
  9
$DIMALTTD
 70
     2
  9
$DIMTXSTY
  7
Standard
  9
$DIMAUNIT
 70
     0
  9
$DIMADEC
 70
     0
  9
$DIMALTRND
 40
0.0
  9
$DIMAZIN
 70
     0
  9
$DIMDSEP
 70
    46
  9
$DIMATFIT
 70
     3
  9
$DIMFRAC
 70
     0
  9
$DIMLDRBLK
  1

  9
$DIMLUNIT
 70
     2
  9
$DIMLWD
 70
    -2
  9
$DIMLWE
 70
    -2
  9
$DIMTMOVE
 70
     0
  9
$LUNITS
 70
     2
  9
$LUPREC
 70
     4
  9
$SKETCHINC
 40
0.1
  9
$FILLETRAD
 40
0.0
  9
$AUNITS
 70
     0
  9
$AUPREC
 70
     0
  9
$MENU
  1
.
  9
$ELEVATION
 40
0.0
  9
$PELEVATION
 40
0.0
  9
$THICKNESS
 40
0.0
  9
$LIMCHECK
 70
     0
  9
$CHAMFERA
 40
0.0
  9
$CHAMFERB
 40
0.0
  9
$CHAMFERC
 40
0.0
  9
$CHAMFERD
 40
0.0
  9
$SKPOLY
 70
     0
  9
$TDCREATE
 40
2454778.765796250
  9
$TDUCREATE
 40
2454778.724129583
  9
$TDUPDATE
 40
2454778.769082754
  9
$TDUUPDATE
 40
2454778.727416087
  9
$TDINDWG
 40
0.0032866782
  9
$TDUSRTIMER
 40
0.0032866782
  9
$USRTIMER
 70
     1
  9
$ANGBASE
 50
0.0
  9
$ANGDIR
 70
     0
  9
$PDMODE
 70
     0
  9
$PDSIZE
 40
0.0
  9
$PLINEWID
 40
0.0
  9
$SPLFRAME
 70
     0
  9
$SPLINETYPE
 70
     6
  9
$SPLINESEGS
 70
     8
  9
$HANDSEED
  5
1AC
  9
$SURFTAB1
 70
     6
  9
$SURFTAB2
 70
     6
  9
$SURFTYPE
 70
     6
  9
$SURFU
 70
     6
  9
$SURFV
 70
     6
  9
$UCSBASE
  2

  9
$UCSNAME
  2

  9
$UCSORG
 10
0.0
 20
0.0
 30
0.0
  9
$UCSXDIR
 10
1.0
 20
0.0
 30
0.0
  9
$UCSYDIR
 10
0.0
 20
1.0
 30
0.0
  9
$UCSORTHOREF
  2

  9
$UCSORTHOVIEW
 70
     1
  9
$UCSORGTOP
 10
0.0
 20
0.0
 30
0.0
  9
$UCSORGBOTTOM
 10
0.0
 20
0.0
 30
0.0
  9
$UCSORGLEFT
 10
0.0
 20
0.0
 30
0.0
  9
$UCSORGRIGHT
 10
0.0
 20
0.0
 30
0.0
  9
$UCSORGFRONT
 10
0.0
 20
0.0
 30
0.0
  9
$UCSORGBACK
 10
0.0
 20
0.0
 30
0.0
  9
$PUCSBASE
  2

  9
$PUCSNAME
  2

  9
$PUCSORG
 10
0.0
 20
0.0
 30
0.0
  9
$PUCSXDIR
 10
1.0
 20
0.0
 30
0.0
  9
$PUCSYDIR
 10
0.0
 20
1.0
 30
0.0
  9
$PUCSORTHOREF
  2

  9
$PUCSORTHOVIEW
 70
     0
  9
$PUCSORGTOP
 10
0.0
 20
0.0
 30
0.0
  9
$PUCSORGBOTTOM
 10
0.0
 20
0.0
 30
0.0
  9
$PUCSORGLEFT
 10
0.0
 20
0.0
 30
0.0
  9
$PUCSORGRIGHT
 10
0.0
 20
0.0
 30
0.0
  9
$PUCSORGFRONT
 10
0.0
 20
0.0
 30
0.0
  9
$PUCSORGBACK
 10
0.0
 20
0.0
 30
0.0
  9
$USERI1
 70
     0
  9
$USERI2
 70
     0
  9
$USERI3
 70
     0
  9
$USERI4
 70
     0
  9
$USERI5
 70
     0
  9
$USERR1
 40
0.0
  9
$USERR2
 40
0.0
  9
$USERR3
 40
0.0
  9
$USERR4
 40
0.0
  9
$USERR5
 40
0.0
  9
$WORLDVIEW
 70
     1
  9
$SHADEDGE
 70
     3
  9
$SHADEDIF
 70
    70
  9
$TILEMODE
 70
     1
  9
$MAXACTVP
 70
    64
  9
$PINSBASE
 10
0.0
 20
0.0
 30
0.0
  9
$PLIMCHECK
 70
     0
  9
$PEXTMIN
 10
1.000000000000000E+20
 20
1.000000000000000E+20
 30
1.000000000000000E+20
  9
$PEXTMAX
 10
-1.000000000000000E+20
 20
-1.000000000000000E+20
 30
-1.000000000000000E+20
  9
$PLIMMIN
 10
0.0
 20
0.0
  9
$PLIMMAX
 10
12.0
 20
9.0
  9
$UNITMODE
 70
     0
  9
$VISRETAIN
 70
     1
  9
$PLINEGEN
 70
     0
  9
$PSLTSCALE
 70
     1
  9
$TREEDEPTH
 70
  3020
  9
$CMLSTYLE
  2
Standard
  9
$CMLJUST
 70
     0
  9
$CMLSCALE
 40
1.0
  9
$PROXYGRAPHICS
 70
     1
  9
$MEASUREMENT
 70
     0
  9
$CELWEIGHT
370
    -1
  9
$ENDCAPS
280
     0
  9
$JOINSTYLE
280
     0
  9
$LWDISPLAY
290
     0
  9
$INSUNITS
 70
     0
  9
$HYPERLINKBASE
  1

  9
$STYLESHEET
  1

  9
$XEDIT
290
     1
  9
$CEPSNTYPE
380
     0
  9
$PSTYLEMODE
290
     1
  9
$FINGERPRINTGUID
  2
{CC4778D4-84BB-47F6-BD31-310F7FEA7C82}
  9
$VERSIONGUID
  2
{AF841EB7-CA13-49F5-97EC-EDC282BB466C}
  9
$EXTNAMES
290
     1
  9
$PSVPSCALE
 40
0.0
  9
$OLESTARTUP
290
     0
  0
ENDSEC
  0
SECTION
  2
CLASSES
  0
CLASS
  1
ACDBDICTIONARYWDFLT
  2
AcDbDictionaryWithDefault
  3
AutoCAD 2000
 90
        0
280
     0
281
     0
  0
CLASS
  1
ACDBPLACEHOLDER
  2
AcDbPlaceHolder
  3
AutoCAD 2000
 90
        0
280
     0
281
     0
  0
CLASS
  1
LAYOUT
  2
AcDbLayout
  3
AutoCAD 2000
 90
        0
280
     0
281
     0
  0
CLASS
  1
DICTIONARYVAR
  2
AcDbDictionaryVar
  3
AutoCAD 2000
 90
        0
280
     0
281
     0
  0
ENDSEC
  0
SECTION
  2
TABLES
  0
TABLE
  2
VPORT
  5
8
330
0
100
AcDbSymbolTable
 70
     2
  0
VPORT
  5
1AB
330
8
100
AcDbSymbolTableRecord
100
AcDbViewportTableRecord
  2
*Active
 70
     0
 10
0.0
 20
0.0
 11
1.0
 21
1.0
 12
78.5
 22
82.5
 13
0.0
 23
0.0
 14
1.0
 24
1.0
 15
0.0
 25
0.0
 16
0.0
 26
0.0
 36
1.0
 17
0.0
 27
0.0
 37
0.0
 40
165.7621483375959
 41
2.078104993597951
 42
50.0
 43
0.0
 44
0.0
 50
0.0
 51
0.0
 71
     0
 72
   100
 73
     1
 74
     3
 75
     0
 76
     0
 77
     0
 78
     0
281
     0
 65
     1
110
0.0
120
0.0
130
0.0
111
1.0
121
0.0
131
0.0
112
0.0
122
1.0
132
0.0
 79
     1
146
0.0
  0
ENDTAB
  0
TABLE
  2
LTYPE
  5
5
330
0
100
AcDbSymbolTable
 70
     1
  0
LTYPE
  5
13
330
5
100
AcDbSymbolTableRecord
100
AcDbLinetypeTableRecord
  2
ByBlock
 70
     0
  3

 72
    65
 73
     0
 40
0.0
  0
LTYPE
  5
14
330
5
100
AcDbSymbolTableRecord
100
AcDbLinetypeTableRecord
  2
ByLayer
 70
     0
  3

 72
    65
 73
     0
 40
0.0
  0
LTYPE
  5
15
330
5
100
AcDbSymbolTableRecord
100
AcDbLinetypeTableRecord
  2
Continuous
 70
     0
  3
Solid line
 72
    65
 73
     0
 40
0.0
  0
ENDTAB
  0
TABLE
  2
LAYER
  5
2
330
0
100
AcDbSymbolTable
 70
     1
  0
LAYER
  5
10
330
2
100
AcDbSymbolTableRecord
100
AcDbLayerTableRecord
  2
0
 70
     0
 62
     7
  6
Continuous
370
    -3
390
F
  0
ENDTAB
  0
TABLE
  2
STYLE
  5
3
330
0
100
AcDbSymbolTable
 70
     1
  0
STYLE
  5
11
330
3
100
AcDbSymbolTableRecord
100
AcDbTextStyleTableRecord
  2
Standard
 70
     0
 40
0.0
 41
1.0
 50
0.0
 71
     0
 42
0.2
  3
txt
  4

  0
ENDTAB
  0
TABLE
  2
VIEW
  5
6
330
0
100
AcDbSymbolTable
 70
     0
  0
ENDTAB
  0
TABLE
  2
UCS
  5
7
330
0
100
AcDbSymbolTable
 70
     0
  0
ENDTAB
  0
TABLE
  2
APPID
  5
9
330
0
100
AcDbSymbolTable
 70
     1
  0
APPID
  5
12
330
9
100
AcDbSymbolTableRecord
100
AcDbRegAppTableRecord
  2
ACAD
 70
     0
  0
ENDTAB
  0
TABLE
  2
DIMSTYLE
  5
A
330
0
100
AcDbSymbolTable
 70
     1
100
AcDbDimStyleTable
 71
     0
  0
DIMSTYLE
105
19D
330
A
100
AcDbSymbolTableRecord
100
AcDbDimStyleTableRecord
  2
Standard
 70
     0
340
11
  0
ENDTAB
  0
TABLE
  2
BLOCK_RECORD
  5
1
330
0
100
AcDbSymbolTable
 70
     0
  0
BLOCK_RECORD
  5
1E
330
1
100
AcDbSymbolTableRecord
100
AcDbBlockTableRecord
  2
*Model_Space
340
21
  0
BLOCK_RECORD
  5
1A
330
1
100
AcDbSymbolTableRecord
100
AcDbBlockTableRecord
  2
*Paper_Space
340
1D
  0
ENDTAB
  0
ENDSEC
  0
SECTION
  2
BLOCKS
  0
BLOCK
  5
1F
330
1E
100
AcDbEntity
  8
0
100
AcDbBlockBegin
  2
*Model_Space
 70
     0
 10
0.0
 20
0.0
 30
0.0
  3
*Model_Space
  1

  0
ENDBLK
  5
20
330
1E
100
AcDbEntity
  8
0
100
AcDbBlockEnd
  0
BLOCK
  5
1B
330
1A
100
AcDbEntity
 67
     1
  8
0
100
AcDbBlockBegin
  2
*Paper_Space
 70
     0
 10
0.0
 20
0.0
 30
0.0
  3
*Paper_Space
  1

  0
ENDBLK
  5
1C
330
1A
100
AcDbEntity
 67
     1
  8
0
100
AcDbBlockEnd
  0
ENDSEC
  0
SECTION
  2
ENTITIES
  0
LINE
  5
22
330
1E
100
AcDbEntity
  8
0
100
AcDbLine
 10
0.4770379999999961
 20
70.3626
 30
0.0
 11
1.87564
 21
67.10111999999999
 31
0.0
  0
LINE
  5
23
330
1E
100
AcDbEntity
  8
0
100
AcDbLine
 10
7.072
 20
62.00679799999999
 30
0.0
 11
10.41379999999999
 21
60.66974
 31
0.0
  0
LINE
  5
24
330
1E
100
AcDbEntity
  8
0
100
AcDbLine
 10
4.202329999999999
 20
64.13374000000001
 30
0.0
 11
7.072
 21
62.00679799999999
 31
0.0
  0
LINE
  5
25
330
1E
100
AcDbEntity
  8
0
100
AcDbLine
 10
2.00035
 20
66.90563
 30
0.0
 11
4.202329999999999
 21
64.13374000000001
 31
0.0
  0
LINE
  5
26
330
1E
100
AcDbEntity
  8
0
100
AcDbLine
 10
1.87564
 20
67.10111999999999
 30
0.0
 11
2.00035
 21
66.90563
 31
0.0
  0
LINE
  5
27
330
1E
100
AcDbEntity
  8
0
100
AcDbLine
 10
8.67914
 20
71.16030999999999
 30
0.0
 11
9.65554
 21
69.93120000000001
 31
0.0
  0
LINE
  5
28
330
1E
100
AcDbEntity
  8
0
100
AcDbLine
 10
0.4770379999999961
 20
70.3626
 30
0.0
 11
1.87564
 21
67.10111999999999
 31
0.0
  0
LINE
  5
29
330
1E
100
AcDbEntity
  8
0
100
AcDbLine
 10
8.204439999999999
 20
72.3626
 30
0.0
 11
8.767970308917039
 21
71.0484887986552
 31
0.0
  0
LINE
  5
2A
330
1E
100
AcDbEntity
  8
0
100
AcDbLine
 10
-0.0000000000000039
 20
73.8626
 30
0.0
 11
0.4770379999999961
 21
70.3626
 31
0.0
  0
LINE
  5
2B
330
1E
100
AcDbEntity
  8
0
100
AcDbLine
 10
-0.0000000000000039
 20
73.8626
 30
0.0
 11
-0.0000000000000039
 21
81.59
 31
0.0
  0
LINE
  5
2C
330
1E
100
AcDbEntity
  8
0
100
AcDbLine
 10
0.143999999999996
 20
81.85500000000001
 30
0.0
 11
0.5279999999999961
 21
82.1035
 31
0.0
  0
LINE
  5
2D
330
1E
100
AcDbEntity
  8
0
100
AcDbLine
 10
0.5279999999999961
 20
82.1035
 30
0.0
 11
1.167999999999999
 21
82.323
 31
0.0
  0
LINE
  5
2E
330
1E
100
AcDbEntity
  8
0
100
AcDbLine
 10
0.143999999999996
 20
81.85500000000001
 30
0.0
 11
0.5279999999999961
 21
82.1035
 31
0.0
  0
LINE
  5
2F
330
1E
100
AcDbEntity
  8
0
100
AcDbLine
 10
-0.0000000000000039
 20
81.59
 30
0.0
 11
-0.0000000000000039
 21
73.8626
 31
0.0
  0
LINE
  5
30
330
1E
100
AcDbEntity
  8
0
100
AcDbLine
 10
-0.0000000000000039
 20
81.59
 30
0.0
 11
0.143999999999996
 21
81.85500000000001
 31
0.0
  0
LINE
  5
31
330
1E
100
AcDbEntity
  8
0
100
AcDbLine
 10
2.016
 20
82.4886
 30
0.0
 11
2.976
 21
82.58799999999999
 31
0.0
  0
LINE
  5
32
330
1E
100
AcDbEntity
  8
0
100
AcDbLine
 10
1.167999999999999
 20
82.323
 30
0.0
 11
2.016
 21
82.4886
 31
0.0
  0
LINE
  5
33
330
1E
100
AcDbEntity
  8
0
100
AcDbLine
 10
2.976
 20
82.58799999999999
 30
0.0
 11
4.0
 21
82.62529999999999
 31
0.0
  0
LINE
  5
34
330
1E
100
AcDbEntity
  8
0
100
AcDbLine
 10
4.0
 20
82.62529999999999
 30
0.0
 11
5.024
 21
82.58799999999999
 31
0.0
  0
LINE
  5
35
330
1E
100
AcDbEntity
  8
0
100
AcDbLine
 10
5.024
 20
82.58799999999999
 30
0.0
 11
5.983999999999999
 21
82.4886
 31
0.0
  0
LINE
  5
36
330
1E
100
AcDbEntity
  8
0
100
AcDbLine
 10
5.983999999999999
 20
82.4886
 30
0.0
 11
6.832
 21
82.323
 31
0.0
  0
LINE
  5
37
330
1E
100
AcDbEntity
  8
0
100
AcDbLine
 10
6.832
 20
82.323
 30
0.0
 11
7.472
 21
82.1035
 31
0.0
  0
LINE
  5
38
330
1E
100
AcDbEntity
  8
0
100
AcDbLine
 10
7.472
 20
82.1035
 30
0.0
 11
7.855999999999999
 21
81.85500000000001
 31
0.0
  0
LINE
  5
39
330
1E
100
AcDbEntity
  8
0
100
AcDbLine
 10
8.0
 20
81.59
 30
0.0
 11
8.0
 21
73.8626
 31
0.0
  0
LINE
  5
3A
330
1E
100
AcDbEntity
  8
0
100
AcDbLine
 10
7.855999999999999
 20
81.85500000000001
 30
0.0
 11
8.0
 21
81.59
 31
0.0
  0
LINE
  5
3B
330
1E
100
AcDbEntity
  8
0
100
AcDbLine
 10
8.0
 20
73.8626
 30
0.0
 11
8.204439999999999
 21
72.3626
 31
0.0
  0
LINE
  5
3C
330
1E
100
AcDbEntity
  8
0
100
AcDbLine
 10
8.0
 20
73.8626
 30
0.0
 11
8.0
 21
81.59
 31
0.0
  0
LINE
  5
3D
330
1E
100
AcDbEntity
  8
0
100
AcDbLine
 10
10.41379999999999
 20
60.66974
 30
0.0
 11
14.0
 21
60.2137
 31
0.0
  0
LINE
  5
3E
330
1E
100
AcDbEntity
  8
0
100
AcDbLine
 10
28.5
 20
0.250000000000004
 30
0.0
 11
128.4999999999999
 21
0.250000000000004
 31
0.0
  0
LINE
  5
3F
330
1E
100
AcDbEntity
  8
0
100
AcDbLine
 10
28.5
 20
1.8246
 30
0.0
 11
28.5
 21
0.250000000000004
 31
0.0
  0
LINE
  5
40
330
1E
100
AcDbEntity
  8
0
100
AcDbLine
 10
28.5
 20
1.8246
 30
0.0
 11
28.5
 21
6.5144
 31
0.0
  0
LINE
  5
41
330
1E
100
AcDbEntity
  8
0
100
AcDbLine
 10
28.5
 20
6.5144
 30
0.0
 11
28.5
 21
1.8246
 31
0.0
  0
LINE
  5
42
330
1E
100
AcDbEntity
  8
0
100
AcDbLine
 10
28.5
 20
6.5144
 30
0.0
 11
28.5
 21
14.3317
 31
0.0
  0
LINE
  5
43
330
1E
100
AcDbEntity
  8
0
100
AcDbLine
 10
28.5
 20
14.3317
 30
0.0
 11
28.5
 21
6.5144
 31
0.0
  0
LINE
  5
44
330
1E
100
AcDbEntity
  8
0
100
AcDbLine
 10
28.5
 20
14.3317
 30
0.0
 11
28.5
 21
24.59049999999999
 31
0.0
  0
LINE
  5
45
330
1E
100
AcDbEntity
  8
0
100
AcDbLine
 10
28.5
 20
24.59049999999999
 30
0.0
 11
28.5
 21
14.3317
 31
0.0
  0
LINE
  5
46
330
1E
100
AcDbEntity
  8
0
100
AcDbLine
 10
28.5
 20
24.59049999999999
 30
0.0
 11
28.5
 21
36.5031
 31
0.0
  0
LINE
  5
47
330
1E
100
AcDbEntity
  8
0
100
AcDbLine
 10
28.5
 20
36.5031
 30
0.0
 11
28.5
 21
24.59049999999999
 31
0.0
  0
LINE
  5
48
330
1E
100
AcDbEntity
  8
0
100
AcDbLine
 10
28.5
 20
36.5031
 30
0.0
 11
28.5
 21
49.3698
 31
0.0
  0
LINE
  5
49
330
1E
100
AcDbEntity
  8
0
100
AcDbLine
 10
28.5
 20
35.8984
 30
0.0
 11
28.5
 21
39.942
 31
0.0
  0
LINE
  5
4A
330
1E
100
AcDbEntity
  8
0
100
AcDbLine
 10
28.5
 20
35.8984
 30
0.0
 11
28.5
 21
32.7705
 31
0.0
  0
LINE
  5
4B
330
1E
100
AcDbEntity
  8
0
100
AcDbLine
 10
28.5
 20
32.7705
 30
0.0
 11
28.5
 21
35.8984
 31
0.0
  0
LINE
  5
4C
330
1E
100
AcDbEntity
  8
0
100
AcDbLine
 10
28.5
 20
32.7705
 30
0.0
 11
28.5
 21
30.8563
 31
0.0
  0
LINE
  5
4D
330
1E
100
AcDbEntity
  8
0
100
AcDbLine
 10
28.5
 20
30.8563
 30
0.0
 11
28.5
 21
32.7705
 31
0.0
  0
LINE
  5
4E
330
1E
100
AcDbEntity
  8
0
100
AcDbLine
 10
28.5
 20
30.8563
 30
0.0
 11
28.5
 21
30.2454
 31
0.0
  0
LINE
  5
4F
330
1E
100
AcDbEntity
  8
0
100
AcDbLine
 10
28.5
 20
30.2454
 30
0.0
 11
28.5
 21
31.0343
 31
0.0
  0
LINE
  5
50
330
1E
100
AcDbEntity
  8
0
100
AcDbLine
 10
28.5
 20
30.2454
 30
0.0
 11
28.5
 21
30.8563
 31
0.0
  0
LINE
  5
51
330
1E
100
AcDbEntity
  8
0
100
AcDbLine
 10
28.5
 20
44.8063
 30
0.0
 11
28.5
 21
49.8933
 31
0.0
  0
LINE
  5
52
330
1E
100
AcDbEntity
  8
0
100
AcDbLine
 10
28.5
 20
44.8063
 30
0.0
 11
28.5
 21
39.942
 31
0.0
  0
LINE
  5
53
330
1E
100
AcDbEntity
  8
0
100
AcDbLine
 10
28.5
 20
49.8933
 30
0.0
 11
28.5
 21
44.8063
 31
0.0
  0
LINE
  5
54
330
1E
100
AcDbEntity
  8
0
100
AcDbLine
 10
28.5
 20
49.8933
 30
0.0
 11
28.5
 21
55.00477
 31
0.0
  0
LINE
  5
55
330
1E
100
AcDbEntity
  8
0
100
AcDbLine
 10
28.5
 20
49.3698
 30
0.0
 11
28.5
 21
36.5031
 31
0.0
  0
LINE
  5
56
330
1E
100
AcDbEntity
  8
0
100
AcDbLine
 10
28.5
 20
49.3698
 30
0.0
 11
28.5
 21
60.2137
 31
0.0
  0
LINE
  5
57
330
1E
100
AcDbEntity
  8
0
100
AcDbLine
 10
28.5
 20
39.942
 30
0.0
 11
28.5
 21
44.8063
 31
0.0
  0
LINE
  5
58
330
1E
100
AcDbEntity
  8
0
100
AcDbLine
 10
28.5
 20
39.942
 30
0.0
 11
28.5
 21
35.8984
 31
0.0
  0
LINE
  5
59
330
1E
100
AcDbEntity
  8
0
100
AcDbLine
 10
28.5
 20
55.00477
 30
0.0
 11
28.5
 21
59.93893
 31
0.0
  0
LINE
  5
5A
330
1E
100
AcDbEntity
  8
0
100
AcDbLine
 10
28.5
 20
55.00477
 30
0.0
 11
28.5
 21
49.8933
 31
0.0
  0
LINE
  5
5B
330
1E
100
AcDbEntity
  8
0
100
AcDbLine
 10
28.5
 20
60.2137
 30
0.0
 11
28.5
 21
49.3698
 31
0.0
  0
LINE
  5
5C
330
1E
100
AcDbEntity
  8
0
100
AcDbLine
 10
28.5
 20
60.2137
 30
0.0
 11
28.5
 21
59.93893
 31
0.0
  0
LINE
  5
5D
330
1E
100
AcDbEntity
  8
0
100
AcDbLine
 10
28.5
 20
59.93893
 30
0.0
 11
28.5
 21
60.2137
 31
0.0
  0
LINE
  5
5E
330
1E
100
AcDbEntity
  8
0
100
AcDbLine
 10
28.5
 20
59.93893
 30
0.0
 11
28.5
 21
55.00477
 31
0.0
  0
LINE
  5
5F
330
1E
100
AcDbEntity
  8
0
100
AcDbLine
 10
28.5
 20
55.67843
 30
0.0
 11
28.5
 21
50.5914
 31
0.0
  0
LINE
  5
60
330
1E
100
AcDbEntity
  8
0
100
AcDbLine
 10
28.5
 20
55.67843
 30
0.0
 11
28.5
 21
60.54278
 31
0.0
  0
LINE
  5
61
330
1E
100
AcDbEntity
  8
0
100
AcDbLine
 10
28.5
 20
63.9816
 30
0.0
 11
28.5
 21
75.8943
 31
0.0
  0
LINE
  5
62
330
1E
100
AcDbEntity
  8
0
100
AcDbLine
 10
28.5
 20
63.9816
 30
0.0
 11
28.5
 21
51.115
 31
0.0
  0
LINE
  5
63
330
1E
100
AcDbEntity
  8
0
100
AcDbLine
 10
28.5
 20
60.54278
 30
0.0
 11
28.5
 21
55.67843
 31
0.0
  0
LINE
  5
64
330
1E
100
AcDbEntity
  8
0
100
AcDbLine
 10
28.5
 20
60.54278
 30
0.0
 11
28.5
 21
64.58629999999999
 31
0.0
  0
LINE
  5
65
330
1E
100
AcDbEntity
  8
0
100
AcDbLine
 10
28.5
 20
68.19298
 30
0.0
 11
28.5
 21
69.4504
 31
0.0
  0
LINE
  5
66
330
1E
100
AcDbEntity
  8
0
100
AcDbLine
 10
28.5
 20
68.19298
 30
0.0
 11
28.5
 21
74.38290000000001
 31
0.0
  0
LINE
  5
67
330
1E
100
AcDbEntity
  8
0
100
AcDbLine
 10
28.5
 20
64.58629999999999
 30
0.0
 11
28.5
 21
60.54278
 31
0.0
  0
LINE
  5
68
330
1E
100
AcDbEntity
  8
0
100
AcDbLine
 10
28.5
 20
64.58629999999999
 30
0.0
 11
28.5
 21
67.71429999999999
 31
0.0
  0
LINE
  5
69
330
1E
100
AcDbEntity
  8
0
100
AcDbLine
 10
28.5
 20
67.71429999999999
 30
0.0
 11
28.5
 21
64.58629999999999
 31
0.0
  0
LINE
  5
6A
330
1E
100
AcDbEntity
  8
0
100
AcDbLine
 10
28.5
 20
67.71429999999999
 30
0.0
 11
28.5
 21
69.62839999999999
 31
0.0
  0
LINE
  5
6B
330
1E
100
AcDbEntity
  8
0
100
AcDbLine
 10
28.5
 20
51.115
 30
0.0
 11
28.5
 21
38.1855
 31
0.0
  0
LINE
  5
6C
330
1E
100
AcDbEntity
  8
0
100
AcDbLine
 10
28.5
 20
51.115
 30
0.0
 11
28.5
 21
63.9816
 31
0.0
  0
LINE
  5
6D
330
1E
100
AcDbEntity
  8
0
100
AcDbLine
 10
28.5
 20
50.5914
 30
0.0
 11
28.5
 21
45.48
 31
0.0
  0
LINE
  5
6E
330
1E
100
AcDbEntity
  8
0
100
AcDbLine
 10
28.5
 20
50.5914
 30
0.0
 11
28.5
 21
55.67843
 31
0.0
  0
LINE
  5
6F
330
1E
100
AcDbEntity
  8
0
100
AcDbLine
 10
28.5
 20
38.1855
 30
0.0
 11
28.5
 21
51.115
 31
0.0
  0
LINE
  5
70
330
1E
100
AcDbEntity
  8
0
100
AcDbLine
 10
28.5
 20
38.1855
 30
0.0
 11
28.5
 21
26.1019
 31
0.0
  0
LINE
  5
71
330
1E
100
AcDbEntity
  8
0
100
AcDbLine
 10
28.5
 20
45.48
 30
0.0
 11
28.5
 21
40.5458
 31
0.0
  0
LINE
  5
72
330
1E
100
AcDbEntity
  8
0
100
AcDbLine
 10
28.5
 20
45.48
 30
0.0
 11
28.5
 21
50.5914
 31
0.0
  0
LINE
  5
73
330
1E
100
AcDbEntity
  8
0
100
AcDbLine
 10
28.5
 20
26.1019
 30
0.0
 11
28.5
 21
38.1855
 31
0.0
  0
LINE
  5
74
330
1E
100
AcDbEntity
  8
0
100
AcDbLine
 10
28.5
 20
26.1019
 30
0.0
 11
28.5
 21
15.5638
 31
0.0
  0
LINE
  5
75
330
1E
100
AcDbEntity
  8
0
100
AcDbLine
 10
28.5
 20
40.5458
 30
0.0
 11
28.5
 21
36.3906
 31
0.0
  0
LINE
  5
76
330
1E
100
AcDbEntity
  8
0
100
AcDbLine
 10
28.5
 20
40.5458
 30
0.0
 11
28.5
 21
45.48
 31
0.0
  0
LINE
  5
77
330
1E
100
AcDbEntity
  8
0
100
AcDbLine
 10
28.5
 20
15.5638
 30
0.0
 11
28.5
 21
26.1019
 31
0.0
  0
LINE
  5
78
330
1E
100
AcDbEntity
  8
0
100
AcDbLine
 10
28.5
 20
15.5638
 30
0.0
 11
28.5
 21
7.383499999999999
 31
0.0
  0
LINE
  5
79
330
1E
100
AcDbEntity
  8
0
100
AcDbLine
 10
28.5
 20
36.3906
 30
0.0
 11
28.5
 21
33.1195
 31
0.0
  0
LINE
  5
7A
330
1E
100
AcDbEntity
  8
0
100
AcDbLine
 10
28.5
 20
36.3906
 30
0.0
 11
28.5
 21
40.5458
 31
0.0
  0
LINE
  5
7B
330
1E
100
AcDbEntity
  8
0
100
AcDbLine
 10
28.5
 20
7.383499999999999
 30
0.0
 11
28.5
 21
15.5638
 31
0.0
  0
LINE
  5
7C
330
1E
100
AcDbEntity
  8
0
100
AcDbLine
 10
28.5
 20
7.383499999999999
 30
0.0
 11
28.5
 21
2.2749
 31
0.0
  0
LINE
  5
7D
330
1E
100
AcDbEntity
  8
0
100
AcDbLine
 10
28.5
 20
33.1195
 30
0.0
 11
28.5
 21
31.0343
 31
0.0
  0
LINE
  5
7E
330
1E
100
AcDbEntity
  8
0
100
AcDbLine
 10
28.5
 20
33.1195
 30
0.0
 11
28.5
 21
36.3906
 31
0.0
  0
LINE
  5
7F
330
1E
100
AcDbEntity
  8
0
100
AcDbLine
 10
28.5
 20
2.2749
 30
0.0
 11
28.5
 21
7.383499999999999
 31
0.0
  0
LINE
  5
80
330
1E
100
AcDbEntity
  8
0
100
AcDbLine
 10
28.5
 20
2.2749
 30
0.0
 11
28.5
 21
0.250000000000004
 31
0.0
  0
LINE
  5
81
330
1E
100
AcDbEntity
  8
0
100
AcDbLine
 10
28.5
 20
31.0343
 30
0.0
 11
28.5
 21
30.2454
 31
0.0
  0
LINE
  5
82
330
1E
100
AcDbEntity
  8
0
100
AcDbLine
 10
28.5
 20
31.0343
 30
0.0
 11
28.5
 21
33.1195
 31
0.0
  0
LINE
  5
83
330
1E
100
AcDbEntity
  8
0
100
AcDbLine
 10
28.5
 20
0.250000000000004
 30
0.0
 11
28.5
 21
2.2749
 31
0.0
  0
LINE
  5
84
330
1E
100
AcDbEntity
  8
0
100
AcDbLine
 10
28.5
 20
0.250000000000004
 30
0.0
 11
128.4999999999999
 21
0.250000000000004
 31
0.0
  0
LINE
  5
85
330
1E
100
AcDbEntity
  8
0
100
AcDbLine
 10
28.5
 20
0.250000000000004
 30
0.0
 11
28.5
 21
1.8246
 31
0.0
  0
LINE
  5
86
330
1E
100
AcDbEntity
  8
0
100
AcDbLine
 10
14.0
 20
60.2137
 30
0.0
 11
28.5
 21
60.2137
 31
0.0
  0
LINE
  5
87
330
1E
100
AcDbEntity
  8
0
100
AcDbLine
 10
14.0
 20
60.2137
 30
0.0
 11
28.5
 21
60.2137
 31
0.0
  0
LINE
  5
88
330
1E
100
AcDbEntity
  8
0
100
AcDbLine
 10
14.0
 20
130.2815
 30
0.0
 11
14.0
 21
130.935
 31
0.0
  0
LINE
  5
89
330
1E
100
AcDbEntity
  8
0
100
AcDbLine
 10
14.0
 20
130.2815
 30
0.0
 11
14.0
 21
129.8828
 31
0.0
  0
LINE
  5
8A
330
1E
100
AcDbEntity
  8
0
100
AcDbLine
 10
14.0
 20
129.8828
 30
0.0
 11
14.0
 21
130.2815
 31
0.0
  0
LINE
  5
8B
330
1E
100
AcDbEntity
  8
0
100
AcDbLine
 10
14.0
 20
129.8828
 30
0.0
 11
14.0
 21
129.7603999999999
 31
0.0
  0
LINE
  5
8C
330
1E
100
AcDbEntity
  8
0
100
AcDbLine
 10
14.0
 20
129.7603999999999
 30
0.0
 11
71.5723018867924
 21
129.7603999999999
 31
0.0
  0
LINE
  5
8D
330
1E
100
AcDbEntity
  8
0
100
AcDbLine
 10
14.0
 20
129.7603999999999
 30
0.0
 11
14.0
 21
129.8828
 31
0.0
  0
LINE
  5
8E
330
1E
100
AcDbEntity
  8
0
100
AcDbLine
 10
14.0
 20
129.7603999999999
 30
0.0
 11
71.5723018867925
 21
129.7603999999999
 31
0.0
  0
LINE
  5
8F
330
1E
100
AcDbEntity
  8
0
100
AcDbLine
 10
14.0
 20
129.7603999999999
 30
0.0
 11
14.0
 21
129.8863
 31
0.0
  0
LINE
  5
90
330
1E
100
AcDbEntity
  8
0
100
AcDbLine
 10
14.0
 20
129.8863
 30
0.0
 11
14.0
 21
130.2904
 31
0.0
  0
LINE
  5
91
330
1E
100
AcDbEntity
  8
0
100
AcDbLine
 10
14.0
 20
129.8863
 30
0.0
 11
14.0
 21
129.7603999999999
 31
0.0
  0
LINE
  5
92
330
1E
100
AcDbEntity
  8
0
100
AcDbLine
 10
14.0
 20
132.7146999999999
 30
0.0
 11
14.0
 21
133.7410999999999
 31
0.0
  0
LINE
  5
93
330
1E
100
AcDbEntity
  8
0
100
AcDbLine
 10
14.0
 20
132.7146999999999
 30
0.0
 11
14.0
 21
131.7628999999999
 31
0.0
  0
LINE
  5
94
330
1E
100
AcDbEntity
  8
0
100
AcDbLine
 10
14.0
 20
131.7628999999999
 30
0.0
 11
14.0
 21
132.7146999999999
 31
0.0
  0
LINE
  5
95
330
1E
100
AcDbEntity
  8
0
100
AcDbLine
 10
14.0
 20
131.7628999999999
 30
0.0
 11
14.0
 21
130.935
 31
0.0
  0
LINE
  5
96
330
1E
100
AcDbEntity
  8
0
100
AcDbLine
 10
14.0
 20
130.935
 30
0.0
 11
14.0
 21
131.7628999999999
 31
0.0
  0
LINE
  5
97
330
1E
100
AcDbEntity
  8
0
100
AcDbLine
 10
14.0
 20
130.935
 30
0.0
 11
14.0
 21
130.2815
 31
0.0
  0
LINE
  5
98
330
1E
100
AcDbEntity
  8
0
100
AcDbLine
 10
14.0
 20
133.7410999999999
 30
0.0
 11
14.0
 21
134.7677999999999
 31
0.0
  0
LINE
  5
99
330
1E
100
AcDbEntity
  8
0
100
AcDbLine
 10
14.0
 20
133.7410999999999
 30
0.0
 11
14.0
 21
132.7146999999999
 31
0.0
  0
LINE
  5
9A
330
1E
100
AcDbEntity
  8
0
100
AcDbLine
 10
14.0
 20
134.7677999999999
 30
0.0
 11
14.0
 21
135.7525
 31
0.0
  0
LINE
  5
9B
330
1E
100
AcDbEntity
  8
0
100
AcDbLine
 10
14.0
 20
134.7677999999999
 30
0.0
 11
14.0
 21
133.7410999999999
 31
0.0
  0
LINE
  5
9C
330
1E
100
AcDbEntity
  8
0
100
AcDbLine
 10
14.0
 20
135.7525
 30
0.0
 11
14.0
 21
136.5902
 31
0.0
  0
LINE
  5
9D
330
1E
100
AcDbEntity
  8
0
100
AcDbLine
 10
14.0
 20
135.7525
 30
0.0
 11
14.0
 21
134.7677999999999
 31
0.0
  0
LINE
  5
9E
330
1E
100
AcDbEntity
  8
0
100
AcDbLine
 10
14.0
 20
135.7371
 30
0.0
 11
14.0
 21
134.7853
 31
0.0
  0
LINE
  5
9F
330
1E
100
AcDbEntity
  8
0
100
AcDbLine
 10
14.0
 20
135.7371
 30
0.0
 11
14.0
 21
136.565
 31
0.0
  0
LINE
  5
A0
330
1E
100
AcDbEntity
  8
0
100
AcDbLine
 10
14.0
 20
136.5902
 30
0.0
 11
14.0
 21
137.2095999999999
 31
0.0
  0
LINE
  5
A1
330
1E
100
AcDbEntity
  8
0
100
AcDbLine
 10
14.0
 20
136.5902
 30
0.0
 11
14.0
 21
135.7525
 31
0.0
  0
LINE
  5
A2
330
1E
100
AcDbEntity
  8
0
100
AcDbLine
 10
14.0
 20
137.2095999999999
 30
0.0
 11
14.0
 21
137.6136999999999
 31
0.0
  0
LINE
  5
A3
330
1E
100
AcDbEntity
  8
0
100
AcDbLine
 10
14.0
 20
137.2095999999999
 30
0.0
 11
14.0
 21
136.5902
 31
0.0
  0
LINE
  5
A4
330
1E
100
AcDbEntity
  8
0
100
AcDbLine
 10
14.0
 20
136.565
 30
0.0
 11
14.0
 21
135.7371
 31
0.0
  0
LINE
  5
A5
330
1E
100
AcDbEntity
  8
0
100
AcDbLine
 10
14.0
 20
136.565
 30
0.0
 11
14.0
 21
137.2184999999999
 31
0.0
  0
LINE
  5
A6
330
1E
100
AcDbEntity
  8
0
100
AcDbLine
 10
14.0
 20
137.2184999999999
 30
0.0
 11
14.0
 21
136.565
 31
0.0
  0
LINE
  5
A7
330
1E
100
AcDbEntity
  8
0
100
AcDbLine
 10
14.0
 20
137.2184999999999
 30
0.0
 11
14.0
 21
137.6171999999999
 31
0.0
  0
LINE
  5
A8
330
1E
100
AcDbEntity
  8
0
100
AcDbLine
 10
14.0
 20
137.6171999999999
 30
0.0
 11
14.0
 21
137.2184999999999
 31
0.0
  0
LINE
  5
A9
330
1E
100
AcDbEntity
  8
0
100
AcDbLine
 10
14.0
 20
137.6171999999999
 30
0.0
 11
14.0
 21
137.7396
 31
0.0
  0
LINE
  5
AA
330
1E
100
AcDbEntity
  8
0
100
AcDbLine
 10
14.0
 20
137.6136999999999
 30
0.0
 11
14.0
 21
137.7396
 31
0.0
  0
LINE
  5
AB
330
1E
100
AcDbEntity
  8
0
100
AcDbLine
 10
14.0
 20
137.6136999999999
 30
0.0
 11
14.0
 21
137.2095999999999
 31
0.0
  0
LINE
  5
AC
330
1E
100
AcDbEntity
  8
0
100
AcDbLine
 10
14.0
 20
137.7396
 30
0.0
 11
71.5723018867924
 21
137.7396
 31
0.0
  0
LINE
  5
AD
330
1E
100
AcDbEntity
  8
0
100
AcDbLine
 10
14.0
 20
137.7396
 30
0.0
 11
14.0
 21
137.6171999999999
 31
0.0
  0
LINE
  5
AE
330
1E
100
AcDbEntity
  8
0
100
AcDbLine
 10
14.0
 20
137.7396
 30
0.0
 11
71.5723018867925
 21
137.7396
 31
0.0
  0
LINE
  5
AF
330
1E
100
AcDbEntity
  8
0
100
AcDbLine
 10
14.0
 20
137.7396
 30
0.0
 11
14.0
 21
137.6136999999999
 31
0.0
  0
LINE
  5
B0
330
1E
100
AcDbEntity
  8
0
100
AcDbLine
 10
14.0
 20
134.7853
 30
0.0
 11
14.0
 21
133.7589
 31
0.0
  0
LINE
  5
B1
330
1E
100
AcDbEntity
  8
0
100
AcDbLine
 10
14.0
 20
134.7853
 30
0.0
 11
14.0
 21
135.7371
 31
0.0
  0
LINE
  5
B2
330
1E
100
AcDbEntity
  8
0
100
AcDbLine
 10
14.0
 20
133.7589
 30
0.0
 11
14.0
 21
132.7322
 31
0.0
  0
LINE
  5
B3
330
1E
100
AcDbEntity
  8
0
100
AcDbLine
 10
14.0
 20
133.7589
 30
0.0
 11
14.0
 21
134.7853
 31
0.0
  0
LINE
  5
B4
330
1E
100
AcDbEntity
  8
0
100
AcDbLine
 10
14.0
 20
132.7322
 30
0.0
 11
14.0
 21
131.7474999999999
 31
0.0
  0
LINE
  5
B5
330
1E
100
AcDbEntity
  8
0
100
AcDbLine
 10
14.0
 20
132.7322
 30
0.0
 11
14.0
 21
133.7589
 31
0.0
  0
LINE
  5
B6
330
1E
100
AcDbEntity
  8
0
100
AcDbLine
 10
14.0
 20
131.7474999999999
 30
0.0
 11
14.0
 21
130.9097999999999
 31
0.0
  0
LINE
  5
B7
330
1E
100
AcDbEntity
  8
0
100
AcDbLine
 10
14.0
 20
131.7474999999999
 30
0.0
 11
14.0
 21
132.7322
 31
0.0
  0
LINE
  5
B8
330
1E
100
AcDbEntity
  8
0
100
AcDbLine
 10
14.0
 20
130.9097999999999
 30
0.0
 11
14.0
 21
130.2904
 31
0.0
  0
LINE
  5
B9
330
1E
100
AcDbEntity
  8
0
100
AcDbLine
 10
14.0
 20
130.9097999999999
 30
0.0
 11
14.0
 21
131.7474999999999
 31
0.0
  0
LINE
  5
BA
330
1E
100
AcDbEntity
  8
0
100
AcDbLine
 10
28.5
 20
69.4504
 30
0.0
 11
28.5
 21
70.2393
 31
0.0
  0
LINE
  5
BB
330
1E
100
AcDbEntity
  8
0
100
AcDbLine
 10
28.5
 20
69.4504
 30
0.0
 11
28.5
 21
68.19298
 31
0.0
  0
LINE
  5
BC
330
1E
100
AcDbEntity
  8
0
100
AcDbLine
 10
28.5
 20
69.62839999999999
 30
0.0
 11
28.5
 21
67.71429999999999
 31
0.0
  0
LINE
  5
BD
330
1E
100
AcDbEntity
  8
0
100
AcDbLine
 10
28.5
 20
69.62839999999999
 30
0.0
 11
28.5
 21
70.2393
 31
0.0
  0
LINE
  5
BE
330
1E
100
AcDbEntity
  8
0
100
AcDbLine
 10
28.5
 20
74.38290000000001
 30
0.0
 11
28.5
 21
68.19298
 31
0.0
  0
LINE
  5
BF
330
1E
100
AcDbEntity
  8
0
100
AcDbLine
 10
28.5
 20
74.38290000000001
 30
0.0
 11
28.5
 21
84.92090000000001
 31
0.0
  0
LINE
  5
C0
330
1E
100
AcDbEntity
  8
0
100
AcDbLine
 10
28.5
 20
84.92090000000001
 30
0.0
 11
28.5
 21
74.38290000000001
 31
0.0
  0
LINE
  5
C1
330
1E
100
AcDbEntity
  8
0
100
AcDbLine
 10
28.5
 20
84.92090000000001
 30
0.0
 11
28.5
 21
93.10120000000001
 31
0.0
  0
LINE
  5
C2
330
1E
100
AcDbEntity
  8
0
100
AcDbLine
 10
28.5
 20
93.10120000000001
 30
0.0
 11
28.5
 21
84.92090000000001
 31
0.0
  0
LINE
  5
C3
330
1E
100
AcDbEntity
  8
0
100
AcDbLine
 10
28.5
 20
93.10120000000001
 30
0.0
 11
28.5
 21
98.20990000000001
 31
0.0
  0
LINE
  5
C4
330
1E
100
AcDbEntity
  8
0
100
AcDbLine
 10
28.5
 20
75.8943
 30
0.0
 11
28.5
 21
86.15309999999999
 31
0.0
  0
LINE
  5
C5
330
1E
100
AcDbEntity
  8
0
100
AcDbLine
 10
28.5
 20
75.8943
 30
0.0
 11
28.5
 21
63.9816
 31
0.0
  0
LINE
  5
C6
330
1E
100
AcDbEntity
  8
0
100
AcDbLine
 10
28.5
 20
86.15309999999999
 30
0.0
 11
28.5
 21
93.97029999999999
 31
0.0
  0
LINE
  5
C7
330
1E
100
AcDbEntity
  8
0
100
AcDbLine
 10
28.5
 20
86.15309999999999
 30
0.0
 11
28.5
 21
75.8943
 31
0.0
  0
LINE
  5
C8
330
1E
100
AcDbEntity
  8
0
100
AcDbLine
 10
28.5
 20
98.20990000000001
 30
0.0
 11
28.5
 21
93.10120000000001
 31
0.0
  0
LINE
  5
C9
330
1E
100
AcDbEntity
  8
0
100
AcDbLine
 10
28.5
 20
98.20990000000001
 30
0.0
 11
28.5
 21
100.2348
 31
0.0
  0
LINE
  5
CA
330
1E
100
AcDbEntity
  8
0
100
AcDbLine
 10
28.5
 20
100.2348
 30
0.0
 11
128.4999999999999
 21
100.2348
 31
0.0
  0
LINE
  5
CB
330
1E
100
AcDbEntity
  8
0
100
AcDbLine
 10
28.5
 20
100.2348
 30
0.0
 11
28.5
 21
98.6602
 31
0.0
  0
LINE
  5
CC
330
1E
100
AcDbEntity
  8
0
100
AcDbLine
 10
28.5
 20
100.2348
 30
0.0
 11
28.5
 21
98.20990000000001
 31
0.0
  0
LINE
  5
CD
330
1E
100
AcDbEntity
  8
0
100
AcDbLine
 10
28.5
 20
100.2348
 30
0.0
 11
128.4999999999999
 21
100.2348
 31
0.0
  0
LINE
  5
CE
330
1E
100
AcDbEntity
  8
0
100
AcDbLine
 10
28.5
 20
93.97029999999999
 30
0.0
 11
28.5
 21
98.6602
 31
0.0
  0
LINE
  5
CF
330
1E
100
AcDbEntity
  8
0
100
AcDbLine
 10
28.5
 20
93.97029999999999
 30
0.0
 11
28.5
 21
86.15309999999999
 31
0.0
  0
LINE
  5
D0
330
1E
100
AcDbEntity
  8
0
100
AcDbLine
 10
28.5
 20
98.6602
 30
0.0
 11
28.5
 21
100.2348
 31
0.0
  0
LINE
  5
D1
330
1E
100
AcDbEntity
  8
0
100
AcDbLine
 10
28.5
 20
98.6602
 30
0.0
 11
28.5
 21
93.97029999999999
 31
0.0
  0
LINE
  5
D2
330
1E
100
AcDbEntity
  8
0
100
AcDbLine
 10
28.5
 20
70.2393
 30
0.0
 11
28.5
 21
69.62839999999999
 31
0.0
  0
LINE
  5
D3
330
1E
100
AcDbEntity
  8
0
100
AcDbLine
 10
28.5
 20
70.2393
 30
0.0
 11
28.5
 21
69.4504
 31
0.0
  0
LINE
  5
D4
330
1E
100
AcDbEntity
  8
0
100
AcDbLine
 10
14.0
 20
130.2904
 30
0.0
 11
14.0
 21
129.8863
 31
0.0
  0
LINE
  5
D5
330
1E
100
AcDbEntity
  8
0
100
AcDbLine
 10
14.0
 20
130.2904
 30
0.0
 11
14.0
 21
130.9097999999999
 31
0.0
  0
LINE
  5
D6
330
1E
100
AcDbEntity
  8
0
100
AcDbLine
 10
12.4098
 20
68.3952
 30
0.0
 11
14.0
 21
68.19298
 31
0.0
  0
LINE
  5
D7
330
1E
100
AcDbEntity
  8
0
100
AcDbLine
 10
10.92799999999999
 20
68.98806999999999
 30
0.0
 11
12.4098
 21
68.3952
 31
0.0
  0
LINE
  5
D8
330
1E
100
AcDbEntity
  8
0
100
AcDbLine
 10
14.0
 20
68.19298
 30
0.0
 11
28.5
 21
68.19298
 31
0.0
  0
LINE
  5
D9
330
1E
100
AcDbEntity
  8
0
100
AcDbLine
 10
14.0
 20
68.19298
 30
0.0
 11
28.5
 21
68.19298
 31
0.0
  0
LINE
  5
DA
330
1E
100
AcDbEntity
  8
0
100
AcDbLine
 10
9.65554
 20
69.93120000000001
 30
0.0
 11
10.92799999999999
 21
68.98806999999999
 31
0.0
  0
LINE
  5
DB
330
1E
100
AcDbEntity
  8
0
100
AcDbLine
 10
48.04857
 20
137.7396
 30
0.0
 11
48.6
 21
141.7499999999999
 31
0.0
  0
LINE
  5
DC
330
1E
100
AcDbEntity
  8
0
100
AcDbLine
 10
60.0
 20
115.25
 30
0.0
 11
65.5
 21
111.05
 31
0.0
  0
LINE
  5
DD
330
1E
100
AcDbEntity
  8
0
100
AcDbLine
 10
65.5
 20
111.05
 30
0.0
 11
71.79999999999999
 21
108.45
 31
0.0
  0
LINE
  5
DE
330
1E
100
AcDbEntity
  8
0
100
AcDbLine
 10
56.6
 20
111.85
 30
0.0
 11
63.1
 21
106.95
 31
0.0
  0
LINE
  5
DF
330
1E
100
AcDbEntity
  8
0
100
AcDbLine
 10
63.1
 20
106.95
 30
0.0
 11
70.5
 21
103.8499999999999
 31
0.0
  0
LINE
  5
E0
330
1E
100
AcDbEntity
  8
0
100
AcDbLine
 10
128.4999999999999
 20
51.115
 30
0.0
 11
128.4999999999999
 21
38.1855
 31
0.0
  0
LINE
  5
E1
330
1E
100
AcDbEntity
  8
0
100
AcDbLine
 10
128.4999999999999
 20
51.115
 30
0.0
 11
128.4999999999999
 21
63.9816
 31
0.0
  0
LINE
  5
E2
330
1E
100
AcDbEntity
  8
0
100
AcDbLine
 10
128.4999999999999
 20
38.1855
 30
0.0
 11
128.4999999999999
 21
51.115
 31
0.0
  0
LINE
  5
E3
330
1E
100
AcDbEntity
  8
0
100
AcDbLine
 10
128.4999999999999
 20
38.1855
 30
0.0
 11
128.4999999999999
 21
26.1019
 31
0.0
  0
LINE
  5
E4
330
1E
100
AcDbEntity
  8
0
100
AcDbLine
 10
128.4999999999999
 20
26.1019
 30
0.0
 11
128.4999999999999
 21
38.1855
 31
0.0
  0
LINE
  5
E5
330
1E
100
AcDbEntity
  8
0
100
AcDbLine
 10
128.4999999999999
 20
26.1019
 30
0.0
 11
128.4999999999999
 21
15.5638
 31
0.0
  0
LINE
  5
E6
330
1E
100
AcDbEntity
  8
0
100
AcDbLine
 10
128.4999999999999
 20
15.5638
 30
0.0
 11
128.4999999999999
 21
26.1019
 31
0.0
  0
LINE
  5
E7
330
1E
100
AcDbEntity
  8
0
100
AcDbLine
 10
128.4999999999999
 20
15.5638
 30
0.0
 11
128.4999999999999
 21
7.383499999999999
 31
0.0
  0
LINE
  5
E8
330
1E
100
AcDbEntity
  8
0
100
AcDbLine
 10
128.4999999999999
 20
7.383499999999999
 30
0.0
 11
128.4999999999999
 21
15.5638
 31
0.0
  0
LINE
  5
E9
330
1E
100
AcDbEntity
  8
0
100
AcDbLine
 10
128.4999999999999
 20
7.383499999999999
 30
0.0
 11
128.4999999999999
 21
2.2749
 31
0.0
  0
LINE
  5
EA
330
1E
100
AcDbEntity
  8
0
100
AcDbLine
 10
128.4999999999999
 20
2.2749
 30
0.0
 11
128.4999999999999
 21
7.383499999999999
 31
0.0
  0
LINE
  5
EB
330
1E
100
AcDbEntity
  8
0
100
AcDbLine
 10
128.4999999999999
 20
2.2749
 30
0.0
 11
128.4999999999999
 21
0.250000000000004
 31
0.0
  0
LINE
  5
EC
330
1E
100
AcDbEntity
  8
0
100
AcDbLine
 10
128.4999999999999
 20
0.250000000000004
 30
0.0
 11
128.4999999999999
 21
2.2749
 31
0.0
  0
LINE
  5
ED
330
1E
100
AcDbEntity
  8
0
100
AcDbLine
 10
128.4999999999999
 20
63.9816
 30
0.0
 11
128.4999999999999
 21
75.8943
 31
0.0
  0
LINE
  5
EE
330
1E
100
AcDbEntity
  8
0
100
AcDbLine
 10
128.4999999999999
 20
63.9816
 30
0.0
 11
128.4999999999999
 21
51.115
 31
0.0
  0
LINE
  5
EF
330
1E
100
AcDbEntity
  8
0
100
AcDbLine
 10
128.4999999999999
 20
75.8943
 30
0.0
 11
128.4999999999999
 21
86.15309999999999
 31
0.0
  0
LINE
  5
F0
330
1E
100
AcDbEntity
  8
0
100
AcDbLine
 10
128.4999999999999
 20
75.8943
 30
0.0
 11
128.4999999999999
 21
63.9816
 31
0.0
  0
LINE
  5
F1
330
1E
100
AcDbEntity
  8
0
100
AcDbLine
 10
128.4999999999999
 20
86.15309999999999
 30
0.0
 11
128.4999999999999
 21
93.97029999999999
 31
0.0
  0
LINE
  5
F2
330
1E
100
AcDbEntity
  8
0
100
AcDbLine
 10
128.4999999999999
 20
86.15309999999999
 30
0.0
 11
128.4999999999999
 21
75.8943
 31
0.0
  0
LINE
  5
F3
330
1E
100
AcDbEntity
  8
0
100
AcDbLine
 10
128.4999999999999
 20
100.2348
 30
0.0
 11
128.4999999999999
 21
98.6602
 31
0.0
  0
LINE
  5
F4
330
1E
100
AcDbEntity
  8
0
100
AcDbLine
 10
128.4999999999999
 20
93.97029999999999
 30
0.0
 11
128.4999999999999
 21
98.6602
 31
0.0
  0
LINE
  5
F5
330
1E
100
AcDbEntity
  8
0
100
AcDbLine
 10
128.4999999999999
 20
93.97029999999999
 30
0.0
 11
128.4999999999999
 21
86.15309999999999
 31
0.0
  0
LINE
  5
F6
330
1E
100
AcDbEntity
  8
0
100
AcDbLine
 10
128.4999999999999
 20
98.6602
 30
0.0
 11
128.4999999999999
 21
100.2348
 31
0.0
  0
LINE
  5
F7
330
1E
100
AcDbEntity
  8
0
100
AcDbLine
 10
128.4999999999999
 20
98.6602
 30
0.0
 11
128.4999999999999
 21
93.97029999999999
 31
0.0
  0
LINE
  5
F8
330
1E
100
AcDbEntity
  8
0
100
AcDbLine
 10
128.4999999999999
 20
60.2137
 30
0.0
 11
143.0
 21
60.2137
 31
0.0
  0
LINE
  5
F9
330
1E
100
AcDbEntity
  8
0
100
AcDbLine
 10
146.586
 20
60.66974
 30
0.0
 11
149.9279999999999
 21
62.00679799999999
 31
0.0
  0
LINE
  5
FA
330
1E
100
AcDbEntity
  8
0
100
AcDbLine
 10
143.0
 20
60.2137
 30
0.0
 11
146.586
 21
60.66974
 31
0.0
  0
LINE
  5
FB
330
1E
100
AcDbEntity
  8
0
100
AcDbLine
 10
149.9279999999999
 20
62.00679799999999
 30
0.0
 11
152.798
 21
64.13374000000001
 31
0.0
  0
LINE
  5
FC
330
1E
100
AcDbEntity
  8
0
100
AcDbLine
 10
152.798
 20
64.13374000000001
 30
0.0
 11
155.0
 21
66.90563
 31
0.0
  0
LINE
  5
FD
330
1E
100
AcDbEntity
  8
0
100
AcDbLine
 10
155.0
 20
66.90563
 30
0.0
 11
155.1239999999999
 21
67.10111999999999
 31
0.0
  0
LINE
  5
FE
330
1E
100
AcDbEntity
  8
0
100
AcDbLine
 10
155.1239999999999
 20
67.10111999999999
 30
0.0
 11
156.5229999999999
 21
70.3626
 31
0.0
  0
LINE
  5
FF
330
1E
100
AcDbEntity
  8
0
100
AcDbLine
 10
156.5229999999999
 20
70.3626
 30
0.0
 11
157.0
 21
73.8626
 31
0.0
  0
LINE
  5
100
330
1E
100
AcDbEntity
  8
0
100
AcDbLine
 10
149.0
 20
73.8626
 30
0.0
 11
149.0
 21
124.0906999999999
 31
0.0
  0
LINE
  5
101
330
1E
100
AcDbEntity
  8
0
100
AcDbLine
 10
157.0
 20
73.8626
 30
0.0
 11
157.0
 21
124.0906999999999
 31
0.0
  0
LINE
  5
102
330
1E
100
AcDbEntity
  8
0
100
AcDbLine
 10
148.7959999999999
 20
72.3626
 30
0.0
 11
149.0
 21
73.8626
 31
0.0
  0
LINE
  5
103
330
1E
100
AcDbEntity
  8
0
100
AcDbLine
 10
148.2316800933819
 20
71.0479415348787
 30
0.0
 11
148.7959999999999
 21
72.3626
 31
0.0
  0
LINE
  5
104
330
1E
100
AcDbEntity
  8
0
100
AcDbLine
 10
147.3439999999999
 20
69.93120000000001
 30
0.0
 11
148.3209999999999
 21
71.16030999999999
 31
0.0
  0
LINE
  5
105
330
1E
100
AcDbEntity
  8
0
100
AcDbLine
 10
146.072
 20
68.98806999999999
 30
0.0
 11
147.3439999999999
 21
69.93120000000001
 31
0.0
  0
LINE
  5
106
330
1E
100
AcDbEntity
  8
0
100
AcDbLine
 10
144.5899999999999
 20
68.3952
 30
0.0
 11
146.072
 21
68.98806999999999
 31
0.0
  0
LINE
  5
107
330
1E
100
AcDbEntity
  8
0
100
AcDbLine
 10
143.0
 20
68.19298
 30
0.0
 11
144.5899999999999
 21
68.3952
 31
0.0
  0
LINE
  5
108
330
1E
100
AcDbEntity
  8
0
100
AcDbLine
 10
128.4999999999999
 20
68.19298
 30
0.0
 11
143.0
 21
68.19298
 31
0.0
  0
LINE
  5
109
330
1E
100
AcDbEntity
  8
0
100
AcDbLine
 10
91.5
 20
111.05
 30
0.0
 11
97.0
 21
115.25
 31
0.0
  0
LINE
  5
10A
330
1E
100
AcDbEntity
  8
0
100
AcDbLine
 10
85.20000000000001
 20
108.45
 30
0.0
 11
91.5
 21
111.05
 31
0.0
  0
LINE
  5
10B
330
1E
100
AcDbEntity
  8
0
100
AcDbLine
 10
78.5
 20
107.5499999999999
 30
0.0
 11
85.20000000000001
 21
108.45
 31
0.0
  0
LINE
  5
10C
330
1E
100
AcDbEntity
  8
0
100
AcDbLine
 10
97.0
 20
115.25
 30
0.0
 11
101.2
 21
120.75
 31
0.0
  0
LINE
  5
10D
330
1E
100
AcDbEntity
  8
0
100
AcDbLine
 10
105.2999999999999
 20
118.3499999999999
 30
0.0
 11
108.4
 21
125.75
 31
0.0
  0
LINE
  5
10E
330
1E
100
AcDbEntity
  8
0
100
AcDbLine
 10
100.4
 20
111.85
 30
0.0
 11
105.2999999999999
 21
118.3499999999999
 31
0.0
  0
LINE
  5
10F
330
1E
100
AcDbEntity
  8
0
100
AcDbLine
 10
93.9
 20
106.95
 30
0.0
 11
100.4
 21
111.85
 31
0.0
  0
LINE
  5
110
330
1E
100
AcDbEntity
  8
0
100
AcDbLine
 10
86.5
 20
103.8499999999999
 30
0.0
 11
93.9
 21
106.95
 31
0.0
  0
LINE
  5
111
330
1E
100
AcDbEntity
  8
0
100
AcDbLine
 10
71.79999999999999
 20
108.45
 30
0.0
 11
78.5
 21
107.5499999999999
 31
0.0
  0
LINE
  5
112
330
1E
100
AcDbEntity
  8
0
100
AcDbLine
 10
78.5
 20
102.75
 30
0.0
 11
86.5
 21
103.8499999999999
 31
0.0
  0
LINE
  5
113
330
1E
100
AcDbEntity
  8
0
100
AcDbLine
 10
70.5
 20
103.8499999999999
 30
0.0
 11
78.5
 21
102.75
 31
0.0
  0
LINE
  5
114
330
1E
100
AcDbEntity
  8
0
100
AcDbLine
 10
48.6
 20
141.7499999999999
 30
0.0
 11
51.7
 21
149.15
 31
0.0
  0
LINE
  5
115
330
1E
100
AcDbEntity
  8
0
100
AcDbLine
 10
101.2
 20
120.75
 30
0.0
 11
103.8
 21
127.0499999999999
 31
0.0
  0
LINE
  5
116
330
1E
100
AcDbEntity
  8
0
100
AcDbLine
 10
74.628
 20
126.9979999999999
 30
0.0
 11
76.48399999999999
 21
126.2299999999999
 31
0.0
  0
LINE
  5
117
330
1E
100
AcDbEntity
  8
0
100
AcDbLine
 10
76.48399999999999
 20
126.2299999999999
 30
0.0
 11
78.5
 21
125.942
 31
0.0
  0
LINE
  5
118
330
1E
100
AcDbEntity
  8
0
100
AcDbLine
 10
76.45199999999999
 20
126.038
 30
0.0
 11
78.5
 21
125.75
 31
0.0
  0
LINE
  5
119
330
1E
100
AcDbEntity
  8
0
100
AcDbLine
 10
78.5
 20
125.942
 30
0.0
 11
80.516
 21
126.2299999999999
 31
0.0
  0
LINE
  5
11A
330
1E
100
AcDbEntity
  8
0
100
AcDbLine
 10
80.516
 20
126.2299999999999
 30
0.0
 11
82.37200000000001
 21
126.9979999999999
 31
0.0
  0
LINE
  5
11B
330
1E
100
AcDbEntity
  8
0
100
AcDbLine
 10
82.37200000000001
 20
126.9979999999999
 30
0.0
 11
84.00399999999999
 21
128.246
 31
0.0
  0
LINE
  5
11C
330
1E
100
AcDbEntity
  8
0
100
AcDbLine
 10
82.46799999999998
 20
126.8059999999999
 30
0.0
 11
84.16400000000001
 21
128.086
 31
0.0
  0
LINE
  5
11D
330
1E
100
AcDbEntity
  8
0
100
AcDbLine
 10
72.83599999999999
 20
128.086
 30
0.0
 11
74.53199999999999
 21
126.8059999999999
 31
0.0
  0
LINE
  5
11E
330
1E
100
AcDbEntity
  8
0
100
AcDbLine
 10
76.86199999999999
 20
127.6399999999999
 30
0.0
 11
78.5
 21
127.406
 31
0.0
  0
LINE
  5
11F
330
1E
100
AcDbEntity
  8
0
100
AcDbLine
 10
76.836
 20
127.4839999999999
 30
0.0
 11
78.5
 21
127.2499999999999
 31
0.0
  0
LINE
  5
120
330
1E
100
AcDbEntity
  8
0
100
AcDbLine
 10
75.27600000000001
 20
128.108
 30
0.0
 11
76.836
 21
127.4839999999999
 31
0.0
  0
LINE
  5
121
330
1E
100
AcDbEntity
  8
0
100
AcDbLine
 10
78.5
 20
127.406
 30
0.0
 11
80.13800000000001
 21
127.6399999999999
 31
0.0
  0
LINE
  5
122
330
1E
100
AcDbEntity
  8
0
100
AcDbLine
 10
80.13800000000001
 20
127.6399999999999
 30
0.0
 11
81.646
 21
128.264
 31
0.0
  0
LINE
  5
123
330
1E
100
AcDbEntity
  8
0
100
AcDbLine
 10
78.5
 20
127.2499999999999
 30
0.0
 11
80.164
 21
127.4839999999999
 31
0.0
  0
LINE
  5
124
330
1E
100
AcDbEntity
  8
0
100
AcDbLine
 10
80.164
 20
127.4839999999999
 30
0.0
 11
81.72399999999999
 21
128.108
 31
0.0
  0
LINE
  5
125
330
1E
100
AcDbEntity
  8
0
100
AcDbLine
 10
72.99600000000001
 20
128.246
 30
0.0
 11
74.628
 21
126.9979999999999
 31
0.0
  0
LINE
  5
126
330
1E
100
AcDbEntity
  8
0
100
AcDbLine
 10
75.354
 20
128.264
 30
0.0
 11
76.86199999999999
 21
127.6399999999999
 31
0.0
  0
LINE
  5
127
330
1E
100
AcDbEntity
  8
0
100
AcDbLine
 10
74.028
 20
129.278
 30
0.0
 11
75.354
 21
128.264
 31
0.0
  0
LINE
  5
128
330
1E
100
AcDbEntity
  8
0
100
AcDbLine
 10
73.898
 20
129.1479999999999
 30
0.0
 11
75.27600000000001
 21
128.108
 31
0.0
  0
LINE
  5
129
330
1E
100
AcDbEntity
  8
0
100
AcDbLine
 10
81.646
 20
128.264
 30
0.0
 11
82.97200000000001
 21
129.278
 31
0.0
  0
LINE
  5
12A
330
1E
100
AcDbEntity
  8
0
100
AcDbLine
 10
82.97200000000001
 20
129.278
 30
0.0
 11
83.986
 21
130.6039999999999
 31
0.0
  0
LINE
  5
12B
330
1E
100
AcDbEntity
  8
0
100
AcDbLine
 10
81.72399999999999
 20
128.108
 30
0.0
 11
83.102
 21
129.1479999999999
 31
0.0
  0
LINE
  5
12C
330
1E
100
AcDbEntity
  8
0
100
AcDbLine
 10
85.42769811320759
 20
129.7603999999999
 30
0.0
 11
143.0
 21
129.7603999999999
 31
0.0
  0
LINE
  5
12D
330
1E
100
AcDbEntity
  8
0
100
AcDbLine
 10
84.00399999999999
 20
128.246
 30
0.0
 11
85.25200000000001
 21
129.8779999999999
 31
0.0
  0
LINE
  5
12E
330
1E
100
AcDbEntity
  8
0
100
AcDbLine
 10
84.16400000000001
 20
128.086
 30
0.0
 11
85.44400000000001
 21
129.782
 31
0.0
  0
LINE
  5
12F
330
1E
100
AcDbEntity
  8
0
100
AcDbLine
 10
83.102
 20
129.1479999999999
 30
0.0
 11
84.14200000000001
 21
130.526
 31
0.0
  0
LINE
  5
130
330
1E
100
AcDbEntity
  8
0
100
AcDbLine
 10
103.8
 20
127.0499999999999
 30
0.0
 11
104.1640835820899
 21
129.7603999999999
 31
0.0
  0
LINE
  5
131
330
1E
100
AcDbEntity
  8
0
100
AcDbLine
 10
157.0
 20
124.0906999999999
 30
0.0
 11
157.0
 21
73.8626
 31
0.0
  0
LINE
  5
132
330
1E
100
AcDbEntity
  8
0
100
AcDbLine
 10
144.5899999999999
 20
129.5581
 30
0.0
 11
146.072
 21
128.9653
 31
0.0
  0
LINE
  5
133
330
1E
100
AcDbEntity
  8
0
100
AcDbLine
 10
143.0
 20
129.7603999999999
 30
0.0
 11
144.5899999999999
 21
129.5581
 31
0.0
  0
LINE
  5
134
330
1E
100
AcDbEntity
  8
0
100
AcDbLine
 10
147.3439999999999
 20
128.0221
 30
0.0
 11
148.231689168224
 21
126.905356134428
 31
0.0
  0
LINE
  5
135
330
1E
100
AcDbEntity
  8
0
100
AcDbLine
 10
146.072
 20
128.9653
 30
0.0
 11
147.3439999999999
 21
128.0221
 31
0.0
  0
LINE
  5
136
330
1E
100
AcDbEntity
  8
0
100
AcDbLine
 10
148.1959999999999
 20
126.9885
 30
0.0
 11
148.7959999999999
 21
125.5907
 31
0.0
  0
LINE
  5
137
330
1E
100
AcDbEntity
  8
0
100
AcDbLine
 10
156.5229999999999
 20
127.5906999999999
 30
0.0
 11
157.0
 21
124.0906999999999
 31
0.0
  0
LINE
  5
138
330
1E
100
AcDbEntity
  8
0
100
AcDbLine
 10
148.7959999999999
 20
125.5907
 30
0.0
 11
149.0
 21
124.0906999999999
 31
0.0
  0
LINE
  5
139
330
1E
100
AcDbEntity
  8
0
100
AcDbLine
 10
149.0
 20
124.0906999999999
 30
0.0
 11
149.0
 21
73.8626
 31
0.0
  0
LINE
  5
13A
330
1E
100
AcDbEntity
  8
0
100
AcDbLine
 10
108.4
 20
125.75
 30
0.0
 11
108.95143
 21
129.7603999999999
 31
0.0
  0
LINE
  5
13B
330
1E
100
AcDbEntity
  8
0
100
AcDbLine
 10
55.8
 20
120.75
 30
0.0
 11
60.0
 21
115.25
 31
0.0
  0
LINE
  5
13C
330
1E
100
AcDbEntity
  8
0
100
AcDbLine
 10
53.2
 20
127.0499999999999
 30
0.0
 11
55.8
 21
120.75
 31
0.0
  0
LINE
  5
13D
330
1E
100
AcDbEntity
  8
0
100
AcDbLine
 10
55.8
 20
146.75
 30
0.0
 11
60.0
 21
152.2499999999999
 31
0.0
  0
LINE
  5
13E
330
1E
100
AcDbEntity
  8
0
100
AcDbLine
 10
53.2
 20
140.4499999999999
 30
0.0
 11
55.8
 21
146.75
 31
0.0
  0
LINE
  5
13F
330
1E
100
AcDbEntity
  8
0
100
AcDbLine
 10
52.8359164179105
 20
137.7396
 30
0.0
 11
53.2
 21
140.4499999999999
 31
0.0
  0
LINE
  5
140
330
1E
100
AcDbEntity
  8
0
100
AcDbLine
 10
51.7
 20
149.15
 30
0.0
 11
56.6
 21
155.6499999999999
 31
0.0
  0
LINE
  5
141
330
1E
100
AcDbEntity
  8
0
100
AcDbLine
 10
60.0
 20
152.2499999999999
 30
0.0
 11
65.5
 21
156.4499999999999
 31
0.0
  0
LINE
  5
142
330
1E
100
AcDbEntity
  8
0
100
AcDbLine
 10
56.6
 20
155.6499999999999
 30
0.0
 11
63.1
 21
160.55
 31
0.0
  0
LINE
  5
143
330
1E
100
AcDbEntity
  8
0
100
AcDbLine
 10
70.98
 20
131.734
 30
0.0
 11
71.74800000000001
 21
129.8779999999999
 31
0.0
  0
LINE
  5
144
330
1E
100
AcDbEntity
  8
0
100
AcDbLine
 10
70.788
 20
131.702
 30
0.0
 11
71.55599999999999
 21
129.782
 31
0.0
  0
LINE
  5
145
330
1E
100
AcDbEntity
  8
0
100
AcDbLine
 10
71.55599999999999
 20
129.782
 30
0.0
 11
72.83599999999999
 21
128.086
 31
0.0
  0
LINE
  5
146
330
1E
100
AcDbEntity
  8
0
100
AcDbLine
 10
70.69199999999999
 20
133.75
 30
0.0
 11
70.98
 21
135.7659999999999
 31
0.0
  0
LINE
  5
147
330
1E
100
AcDbEntity
  8
0
100
AcDbLine
 10
70.69199999999999
 20
133.75
 30
0.0
 11
70.98
 21
131.734
 31
0.0
  0
LINE
  5
148
330
1E
100
AcDbEntity
  8
0
100
AcDbLine
 10
70.98
 20
135.7659999999999
 30
0.0
 11
71.74800000000001
 21
137.622
 31
0.0
  0
LINE
  5
149
330
1E
100
AcDbEntity
  8
0
100
AcDbLine
 10
70.5
 20
133.75
 30
0.0
 11
70.788
 21
135.7979999999999
 31
0.0
  0
LINE
  5
14A
330
1E
100
AcDbEntity
  8
0
100
AcDbLine
 10
71.74800000000001
 20
129.8779999999999
 30
0.0
 11
72.99600000000001
 21
128.246
 31
0.0
  0
LINE
  5
14B
330
1E
100
AcDbEntity
  8
0
100
AcDbLine
 10
71.74800000000001
 20
137.622
 30
0.0
 11
72.99600000000001
 21
139.2539999999999
 31
0.0
  0
LINE
  5
14C
330
1E
100
AcDbEntity
  8
0
100
AcDbLine
 10
71.55599999999999
 20
137.7179999999999
 30
0.0
 11
72.83599999999999
 21
139.4139999999999
 31
0.0
  0
LINE
  5
14D
330
1E
100
AcDbEntity
  8
0
100
AcDbLine
 10
65.5
 20
156.4499999999999
 30
0.0
 11
71.79999999999999
 21
159.05
 31
0.0
  0
LINE
  5
14E
330
1E
100
AcDbEntity
  8
0
100
AcDbLine
 10
73.014
 20
130.6039999999999
 30
0.0
 11
74.028
 21
129.278
 31
0.0
  0
LINE
  5
14F
330
1E
100
AcDbEntity
  8
0
100
AcDbLine
 10
72.858
 20
130.526
 30
0.0
 11
73.898
 21
129.1479999999999
 31
0.0
  0
LINE
  5
150
330
1E
100
AcDbEntity
  8
0
100
AcDbLine
 10
72.23399999999999
 20
132.086
 30
0.0
 11
72.858
 21
130.526
 31
0.0
  0
LINE
  5
151
330
1E
100
AcDbEntity
  8
0
100
AcDbLine
 10
83.986
 20
130.6039999999999
 30
0.0
 11
84.61
 21
132.112
 31
0.0
  0
LINE
  5
152
330
1E
100
AcDbEntity
  8
0
100
AcDbLine
 10
84.14200000000001
 20
130.526
 30
0.0
 11
84.76600000000001
 21
132.086
 31
0.0
  0
LINE
  5
153
330
1E
100
AcDbEntity
  8
0
100
AcDbLine
 10
72.39
 20
132.112
 30
0.0
 11
73.014
 21
130.6039999999999
 31
0.0
  0
LINE
  5
154
330
1E
100
AcDbEntity
  8
0
100
AcDbLine
 10
73.014
 20
136.896
 30
0.0
 11
74.028
 21
138.222
 31
0.0
  0
LINE
  5
155
330
1E
100
AcDbEntity
  8
0
100
AcDbLine
 10
72.39
 20
135.3879999999999
 30
0.0
 11
73.014
 21
136.896
 31
0.0
  0
LINE
  5
156
330
1E
100
AcDbEntity
  8
0
100
AcDbLine
 10
72.23399999999999
 20
135.4139999999999
 30
0.0
 11
72.858
 21
136.9739999999999
 31
0.0
  0
LINE
  5
157
330
1E
100
AcDbEntity
  8
0
100
AcDbLine
 10
72.15600000000001
 20
133.75
 30
0.0
 11
72.39
 21
132.112
 31
0.0
  0
LINE
  5
158
330
1E
100
AcDbEntity
  8
0
100
AcDbLine
 10
72.15600000000001
 20
133.75
 30
0.0
 11
72.39
 21
135.3879999999999
 31
0.0
  0
LINE
  5
159
330
1E
100
AcDbEntity
  8
0
100
AcDbLine
 10
72.0
 20
133.75
 30
0.0
 11
72.23399999999999
 21
132.086
 31
0.0
  0
LINE
  5
15A
330
1E
100
AcDbEntity
  8
0
100
AcDbLine
 10
72.0
 20
133.75
 30
0.0
 11
72.23399999999999
 21
135.4139999999999
 31
0.0
  0
LINE
  5
15B
330
1E
100
AcDbEntity
  8
0
100
AcDbLine
 10
72.858
 20
136.9739999999999
 30
0.0
 11
73.898
 21
138.352
 31
0.0
  0
LINE
  5
15C
330
1E
100
AcDbEntity
  8
0
100
AcDbLine
 10
83.986
 20
136.896
 30
0.0
 11
84.61
 21
135.3879999999999
 31
0.0
  0
LINE
  5
15D
330
1E
100
AcDbEntity
  8
0
100
AcDbLine
 10
84.61
 20
135.3879999999999
 30
0.0
 11
84.84399999999999
 21
133.75
 31
0.0
  0
LINE
  5
15E
330
1E
100
AcDbEntity
  8
0
100
AcDbLine
 10
75.354
 20
139.2359999999999
 30
0.0
 11
76.86199999999999
 21
139.86
 31
0.0
  0
LINE
  5
15F
330
1E
100
AcDbEntity
  8
0
100
AcDbLine
 10
74.028
 20
138.222
 30
0.0
 11
75.354
 21
139.2359999999999
 31
0.0
  0
LINE
  5
160
330
1E
100
AcDbEntity
  8
0
100
AcDbLine
 10
73.898
 20
138.352
 30
0.0
 11
75.27600000000001
 21
139.392
 31
0.0
  0
LINE
  5
161
330
1E
100
AcDbEntity
  8
0
100
AcDbLine
 10
72.99600000000001
 20
139.2539999999999
 30
0.0
 11
74.628
 21
140.502
 31
0.0
  0
LINE
  5
162
330
1E
100
AcDbEntity
  8
0
100
AcDbLine
 10
75.27600000000001
 20
139.392
 30
0.0
 11
76.836
 21
140.0159999999999
 31
0.0
  0
LINE
  5
163
330
1E
100
AcDbEntity
  8
0
100
AcDbLine
 10
81.646
 20
139.2359999999999
 30
0.0
 11
82.97200000000001
 21
138.222
 31
0.0
  0
LINE
  5
164
330
1E
100
AcDbEntity
  8
0
100
AcDbLine
 10
82.97200000000001
 20
138.222
 30
0.0
 11
83.986
 21
136.896
 31
0.0
  0
LINE
  5
165
330
1E
100
AcDbEntity
  8
0
100
AcDbLine
 10
72.83599999999999
 20
139.4139999999999
 30
0.0
 11
74.53199999999999
 21
140.6939999999999
 31
0.0
  0
LINE
  5
166
330
1E
100
AcDbEntity
  8
0
100
AcDbLine
 10
76.86199999999999
 20
139.86
 30
0.0
 11
78.5
 21
140.094
 31
0.0
  0
LINE
  5
167
330
1E
100
AcDbEntity
  8
0
100
AcDbLine
 10
76.836
 20
140.0159999999999
 30
0.0
 11
78.5
 21
140.25
 31
0.0
  0
LINE
  5
168
330
1E
100
AcDbEntity
  8
0
100
AcDbLine
 10
78.5
 20
140.094
 30
0.0
 11
80.13800000000001
 21
139.86
 31
0.0
  0
LINE
  5
169
330
1E
100
AcDbEntity
  8
0
100
AcDbLine
 10
80.13800000000001
 20
139.86
 30
0.0
 11
81.646
 21
139.2359999999999
 31
0.0
  0
LINE
  5
16A
330
1E
100
AcDbEntity
  8
0
100
AcDbLine
 10
74.628
 20
140.502
 30
0.0
 11
76.48399999999999
 21
141.27
 31
0.0
  0
LINE
  5
16B
330
1E
100
AcDbEntity
  8
0
100
AcDbLine
 10
74.53199999999999
 20
140.6939999999999
 30
0.0
 11
76.45199999999999
 21
141.462
 31
0.0
  0
LINE
  5
16C
330
1E
100
AcDbEntity
  8
0
100
AcDbLine
 10
76.48399999999999
 20
141.27
 30
0.0
 11
78.5
 21
141.558
 31
0.0
  0
LINE
  5
16D
330
1E
100
AcDbEntity
  8
0
100
AcDbLine
 10
78.5
 20
141.558
 30
0.0
 11
80.516
 21
141.27
 31
0.0
  0
LINE
  5
16E
330
1E
100
AcDbEntity
  8
0
100
AcDbLine
 10
78.5
 20
141.7499999999999
 30
0.0
 11
80.548
 21
141.462
 31
0.0
  0
LINE
  5
16F
330
1E
100
AcDbEntity
  8
0
100
AcDbLine
 10
78.5
 20
140.25
 30
0.0
 11
80.164
 21
140.0159999999999
 31
0.0
  0
LINE
  5
170
330
1E
100
AcDbEntity
  8
0
100
AcDbLine
 10
82.37200000000001
 20
140.502
 30
0.0
 11
84.00399999999999
 21
139.2539999999999
 31
0.0
  0
LINE
  5
171
330
1E
100
AcDbEntity
  8
0
100
AcDbLine
 10
80.516
 20
141.27
 30
0.0
 11
82.37200000000001
 21
140.502
 31
0.0
  0
LINE
  5
172
330
1E
100
AcDbEntity
  8
0
100
AcDbLine
 10
82.46799999999998
 20
140.6939999999999
 30
0.0
 11
84.16400000000001
 21
139.4139999999999
 31
0.0
  0
LINE
  5
173
330
1E
100
AcDbEntity
  8
0
100
AcDbLine
 10
80.548
 20
141.462
 30
0.0
 11
82.46799999999998
 21
140.6939999999999
 31
0.0
  0
LINE
  5
174
330
1E
100
AcDbEntity
  8
0
100
AcDbLine
 10
80.164
 20
140.0159999999999
 30
0.0
 11
81.72399999999999
 21
139.392
 31
0.0
  0
LINE
  5
175
330
1E
100
AcDbEntity
  8
0
100
AcDbLine
 10
81.72399999999999
 20
139.392
 30
0.0
 11
83.102
 21
138.352
 31
0.0
  0
LINE
  5
176
330
1E
100
AcDbEntity
  8
0
100
AcDbLine
 10
84.00399999999999
 20
139.2539999999999
 30
0.0
 11
85.25200000000001
 21
137.622
 31
0.0
  0
LINE
  5
177
330
1E
100
AcDbEntity
  8
0
100
AcDbLine
 10
84.16400000000001
 20
139.4139999999999
 30
0.0
 11
85.44400000000001
 21
137.7179999999999
 31
0.0
  0
LINE
  5
178
330
1E
100
AcDbEntity
  8
0
100
AcDbLine
 10
83.102
 20
138.352
 30
0.0
 11
84.14200000000001
 21
136.9739999999999
 31
0.0
  0
LINE
  5
179
330
1E
100
AcDbEntity
  8
0
100
AcDbLine
 10
84.14200000000001
 20
136.9739999999999
 30
0.0
 11
84.76600000000001
 21
135.4139999999999
 31
0.0
  0
LINE
  5
17A
330
1E
100
AcDbEntity
  8
0
100
AcDbLine
 10
84.76600000000001
 20
135.4139999999999
 30
0.0
 11
85.0
 21
133.75
 31
0.0
  0
LINE
  5
17B
330
1E
100
AcDbEntity
  8
0
100
AcDbLine
 10
84.61
 20
132.112
 30
0.0
 11
84.84399999999999
 21
133.75
 31
0.0
  0
LINE
  5
17C
330
1E
100
AcDbEntity
  8
0
100
AcDbLine
 10
84.76600000000001
 20
132.086
 30
0.0
 11
85.0
 21
133.75
 31
0.0
  0
LINE
  5
17D
330
1E
100
AcDbEntity
  8
0
100
AcDbLine
 10
85.25200000000001
 20
137.622
 30
0.0
 11
86.02
 21
135.7659999999999
 31
0.0
  0
LINE
  5
17E
330
1E
100
AcDbEntity
  8
0
100
AcDbLine
 10
85.42769811320759
 20
137.7396
 30
0.0
 11
143.0
 21
137.7396
 31
0.0
  0
LINE
  5
17F
330
1E
100
AcDbEntity
  8
0
100
AcDbLine
 10
86.02
 20
135.7659999999999
 30
0.0
 11
86.30799999999998
 21
133.75
 31
0.0
  0
LINE
  5
180
330
1E
100
AcDbEntity
  8
0
100
AcDbLine
 10
86.21199999999999
 20
135.7979999999999
 30
0.0
 11
86.5
 21
133.75
 31
0.0
  0
LINE
  5
181
330
1E
100
AcDbEntity
  8
0
100
AcDbLine
 10
85.44400000000001
 20
137.7179999999999
 30
0.0
 11
86.21199999999999
 21
135.7979999999999
 31
0.0
  0
LINE
  5
182
330
1E
100
AcDbEntity
  8
0
100
AcDbLine
 10
86.02
 20
131.734
 30
0.0
 11
86.30799999999998
 21
133.75
 31
0.0
  0
LINE
  5
183
330
1E
100
AcDbEntity
  8
0
100
AcDbLine
 10
85.25200000000001
 20
129.8779999999999
 30
0.0
 11
86.02
 21
131.734
 31
0.0
  0
LINE
  5
184
330
1E
100
AcDbEntity
  8
0
100
AcDbLine
 10
91.5
 20
156.4499999999999
 30
0.0
 11
97.0
 21
152.2499999999999
 31
0.0
  0
LINE
  5
185
330
1E
100
AcDbEntity
  8
0
100
AcDbLine
 10
85.20000000000001
 20
159.05
 30
0.0
 11
91.5
 21
156.4499999999999
 31
0.0
  0
LINE
  5
186
330
1E
100
AcDbEntity
  8
0
100
AcDbLine
 10
78.5
 20
159.9499999999999
 30
0.0
 11
85.20000000000001
 21
159.05
 31
0.0
  0
LINE
  5
187
330
1E
100
AcDbEntity
  8
0
100
AcDbLine
 10
143.0
 20
137.7396
 30
0.0
 11
146.586
 21
137.2836
 31
0.0
  0
LINE
  5
188
330
1E
100
AcDbEntity
  8
0
100
AcDbLine
 10
146.586
 20
137.2836
 30
0.0
 11
149.9279999999999
 21
135.9464999999999
 31
0.0
  0
LINE
  5
189
330
1E
100
AcDbEntity
  8
0
100
AcDbLine
 10
149.9279999999999
 20
135.9464999999999
 30
0.0
 11
152.798
 21
133.8196
 31
0.0
  0
LINE
  5
18A
330
1E
100
AcDbEntity
  8
0
100
AcDbLine
 10
152.798
 20
133.8196
 30
0.0
 11
155.0
 21
131.0476999999999
 31
0.0
  0
LINE
  5
18B
330
1E
100
AcDbEntity
  8
0
100
AcDbLine
 10
155.0
 20
131.0476999999999
 30
0.0
 11
155.1239999999999
 21
130.8522
 31
0.0
  0
LINE
  5
18C
330
1E
100
AcDbEntity
  8
0
100
AcDbLine
 10
155.1239999999999
 20
130.8522
 30
0.0
 11
156.5229999999999
 21
127.5906999999999
 31
0.0
  0
LINE
  5
18D
330
1E
100
AcDbEntity
  8
0
100
AcDbLine
 10
103.8
 20
140.4499999999999
 30
0.0
 11
104.1640835820899
 21
137.7396
 31
0.0
  0
LINE
  5
18E
330
1E
100
AcDbEntity
  8
0
100
AcDbLine
 10
97.0
 20
152.2499999999999
 30
0.0
 11
101.2
 21
146.75
 31
0.0
  0
LINE
  5
18F
330
1E
100
AcDbEntity
  8
0
100
AcDbLine
 10
101.2
 20
146.75
 30
0.0
 11
103.8
 21
140.4499999999999
 31
0.0
  0
LINE
  5
190
330
1E
100
AcDbEntity
  8
0
100
AcDbLine
 10
100.4
 20
155.6499999999999
 30
0.0
 11
105.2999999999999
 21
149.15
 31
0.0
  0
LINE
  5
191
330
1E
100
AcDbEntity
  8
0
100
AcDbLine
 10
105.2999999999999
 20
149.15
 30
0.0
 11
108.4
 21
141.7499999999999
 31
0.0
  0
LINE
  5
192
330
1E
100
AcDbEntity
  8
0
100
AcDbLine
 10
108.4
 20
141.7499999999999
 30
0.0
 11
108.95143
 21
137.7396
 31
0.0
  0
LINE
  5
193
330
1E
100
AcDbEntity
  8
0
100
AcDbLine
 10
93.9
 20
160.55
 30
0.0
 11
100.4
 21
155.6499999999999
 31
0.0
  0
LINE
  5
194
330
1E
100
AcDbEntity
  8
0
100
AcDbLine
 10
86.5
 20
163.65
 30
0.0
 11
93.9
 21
160.55
 31
0.0
  0
LINE
  5
195
330
1E
100
AcDbEntity
  8
0
100
AcDbLine
 10
71.79999999999999
 20
159.05
 30
0.0
 11
78.5
 21
159.9499999999999
 31
0.0
  0
LINE
  5
196
330
1E
100
AcDbEntity
  8
0
100
AcDbLine
 10
78.5
 20
164.7499999999999
 30
0.0
 11
86.5
 21
163.65
 31
0.0
  0
LINE
  5
197
330
1E
100
AcDbEntity
  8
0
100
AcDbLine
 10
70.5
 20
163.65
 30
0.0
 11
78.5
 21
164.7499999999999
 31
0.0
  0
LINE
  5
198
330
1E
100
AcDbEntity
  8
0
100
AcDbLine
 10
63.1
 20
160.55
 30
0.0
 11
70.5
 21
163.65
 31
0.0
  0
LINE
  5
199
330
1E
100
AcDbEntity
  8
0
100
AcDbLine
 10
52.8359164179104
 20
129.7603999999999
 30
0.0
 11
53.2
 21
127.0499999999999
 31
0.0
  0
LINE
  5
19A
330
1E
100
AcDbEntity
  8
0
100
AcDbLine
 10
48.6
 20
125.75
 30
0.0
 11
51.7
 21
118.3499999999999
 31
0.0
  0
LINE
  5
19B
330
1E
100
AcDbEntity
  8
0
100
AcDbLine
 10
51.7
 20
118.3499999999999
 30
0.0
 11
56.6
 21
111.85
 31
0.0
  0
LINE
  5
19C
330
1E
100
AcDbEntity
  8
0
100
AcDbLine
 10
48.04857
 20
129.7603999999999
 30
0.0
 11
48.6
 21
125.75
 31
0.0
  0
LINE
  5
1A1
330
1E
100
AcDbEntity
  8
0
100
AcDbLine
 10
76.45199999999999
 20
141.462
 30
0.0
 11
78.5
 21
141.7499999999999
 31
0.0
  0
LINE
  5
1A2
330
1E
100
AcDbEntity
  8
0
100
AcDbLine
 10
86.5
 20
133.75
 30
0.0
 11
86.16352563940552
 21
131.6848829080641
 31
0.0
  0
LINE
  5
1A3
330
1E
100
AcDbEntity
  8
0
100
AcDbLine
 10
86.16352563940552
 20
131.6848829080641
 30
0.0
 11
85.44400000000001
 21
129.782
 31
0.0
  0
LINE
  5
1A4
330
1E
100
AcDbEntity
  8
0
100
AcDbLine
 10
70.788
 20
135.7979999999999
 30
0.0
 11
71.5723018867925
 21
137.7396
 31
0.0
  0
LINE
  5
1A5
330
1E
100
AcDbEntity
  8
0
100
AcDbLine
 10
70.5
 20
133.75
 30
0.0
 11
70.788
 21
131.702
 31
0.0
  0
LINE
  5
1A6
330
1E
100
AcDbEntity
  8
0
100
AcDbLine
 10
74.53199999999999
 20
126.8059999999999
 30
0.0
 11
76.45199999999999
 21
126.038
 31
0.0
  0
LINE
  5
1A7
330
1E
100
AcDbEntity
  8
0
100
AcDbLine
 10
78.5
 20
125.75
 30
0.0
 11
80.56289862489961
 21
126.062081110783
 31
0.0
  0
LINE
  5
1A8
330
1E
100
AcDbEntity
  8
0
100
AcDbLine
 10
80.56289862489961
 20
126.062081110783
 30
0.0
 11
82.46799999999998
 21
126.8059999999999
 31
0.0
  0
ENDSEC
  0
SECTION
  2
OBJECTS
  0
DICTIONARY
  5
C
330
0
100
AcDbDictionary
281
     1
  3
ACAD_GROUP
350
D
  3
ACAD_LAYOUT
350
19
  3
ACAD_MLINESTYLE
350
16
  3
ACAD_PLOTSETTINGS
350
18
  3
ACAD_PLOTSTYLENAME
350
E
  3
AcDbVariableDictionary
350
1A9
  0
DICTIONARY
  5
D
102
{ACAD_REACTORS
330
C
102
}
330
C
100
AcDbDictionary
281
     1
  0
DICTIONARY
  5
19
102
{ACAD_REACTORS
330
C
102
}
330
C
100
AcDbDictionary
281
     1
  3
Layout1
350
1D
  3
Model
350
21
  0
DICTIONARY
  5
16
102
{ACAD_REACTORS
330
C
102
}
330
C
100
AcDbDictionary
281
     1
  3
Standard
350
17
  0
DICTIONARY
  5
18
102
{ACAD_REACTORS
330
C
102
}
330
C
100
AcDbDictionary
281
     1
  0
ACDBDICTIONARYWDFLT
  5
E
102
{ACAD_REACTORS
330
C
102
}
330
C
100
AcDbDictionary
281
     1
  3
Normal
350
F
100
AcDbDictionaryWithDefault
340
F
  0
DICTIONARY
  5
1A9
102
{ACAD_REACTORS
330
C
102
}
330
C
100
AcDbDictionary
281
     1
  3
DIMASSOC
350
1AA
  0
LAYOUT
  5
1D
102
{ACAD_REACTORS
330
19
102
}
330
19
100
AcDbPlotSettings
  1

  2
hp deskjet 980c series
  4

  6

 40
0.0
 41
0.0
 42
0.0
 43
0.0
 44
0.0
 45
0.0
 46
0.0
 47
0.0
 48
0.0
 49
0.0
140
0.0
141
0.0
142
1.0
143
1.0
 70
   688
 72
     0
 73
     0
 74
     5
  7

 75
    16
147
1.0
148
0.0
149
0.0
100
AcDbLayout
  1
Layout1
 70
     1
 71
     1
 10
0.0
 20
0.0
 11
12.0
 21
9.0
 12
0.0
 22
0.0
 32
0.0
 14
1.000000000000000E+20
 24
1.000000000000000E+20
 34
1.000000000000000E+20
 15
-1.000000000000000E+20
 25
-1.000000000000000E+20
 35
-1.000000000000000E+20
146
0.0
 13
0.0
 23
0.0
 33
0.0
 16
1.0
 26
0.0
 36
0.0
 17
0.0
 27
1.0
 37
0.0
 76
     0
330
1A
  0
LAYOUT
  5
21
102
{ACAD_REACTORS
330
19
102
}
330
19
100
AcDbPlotSettings
  1

  2
hp deskjet 980c series
  4

  6

 40
0.0
 41
0.0
 42
0.0
 43
0.0
 44
0.0
 45
0.0
 46
0.0
 47
0.0
 48
0.0
 49
0.0
140
0.0
141
0.0
142
1.0
143
1.0
 70
  1712
 72
     0
 73
     0
 74
     0
  7

 75
     0
147
1.0
148
0.0
149
0.0
100
AcDbLayout
  1
Model
 70
     1
 71
     0
 10
0.0
 20
0.0
 11
12.0
 21
9.0
 12
0.0
 22
0.0
 32
0.0
 14
0.0
 24
0.0
 34
0.0
 15
0.0
 25
0.0
 35
0.0
146
0.0
 13
0.0
 23
0.0
 33
0.0
 16
1.0
 26
0.0
 36
0.0
 17
0.0
 27
1.0
 37
0.0
 76
     0
330
1E
  0
MLINESTYLE
  5
17
102
{ACAD_REACTORS
330
16
102
}
330
16
100
AcDbMlineStyle
  2
STANDARD
 70
     0
  3

 62
   256
 51
90.0
 52
90.0
 71
     2
 49
0.5
 62
   256
  6
BYLAYER
 49
-0.5
 62
   256
  6
BYLAYER
  0
ACDBPLACEHOLDER
  5
F
102
{ACAD_REACTORS
330
E
102
}
330
E
  0
DICTIONARYVAR
  5
1AA
102
{ACAD_REACTORS
330
1A9
102
}
330
1A9
100
DictionaryVariables
280
     0
  1
1
  0
ENDSEC
  0
EOF
