  0
SECTION
  2
HEADER
  9
$ACADVER
  1
AC1015
  9
$ACADMAINTVER
 70
    13
  9
$DWGCODEPAGE
  3
ANSI_1252
  9
$INSBASE
 10
0.0
 20
0.0
 30
0.0
  9
$EXTMIN
 10
0.0250499999999919
 20
0.250000000000004
 30
0.0
  9
$EXTMAX
 10
101.97495
 20
164.7499999999999
 30
0.0
  9
$LIMMIN
 10
0.0
 20
0.0
  9
$LIMMAX
 10
12.0
 20
9.0
  9
$ORTHOMODE
 70
     0
  9
$REGENMODE
 70
     1
  9
$FILLMODE
 70
     1
  9
$QTEXTMODE
 70
     0
  9
$MIRRTEXT
 70
     1
  9
$LTSCALE
 40
1.0
  9
$ATTMODE
 70
     1
  9
$TEXTSIZE
 40
0.2
  9
$TRACEWID
 40
0.05
  9
$TEXTSTYLE
  7
Standard
  9
$CLAYER
  8
0
  9
$CELTYPE
  6
Continuous
  9
$CECOLOR
 62
   256
  9
$CELTSCALE
 40
1.0
  9
$DISPSILH
 70
     0
  9
$DIMSCALE
 40
1.0
  9
$DIMASZ
 40
0.18
  9
$DIMEXO
 40
0.0625
  9
$DIMDLI
 40
0.38
  9
$DIMRND
 40
0.0
  9
$DIMDLE
 40
0.0
  9
$DIMEXE
 40
0.18
  9
$DIMTP
 40
0.0
  9
$DIMTM
 40
0.0
  9
$DIMTXT
 40
0.18
  9
$DIMCEN
 40
0.09
  9
$DIMTSZ
 40
0.0
  9
$DIMTOL
 70
     0
  9
$DIMLIM
 70
     0
  9
$DIMTIH
 70
     1
  9
$DIMTOH
 70
     1
  9
$DIMSE1
 70
     0
  9
$DIMSE2
 70
     0
  9
$DIMTAD
 70
     0
  9
$DIMZIN
 70
     0
  9
$DIMBLK
  1

  9
$DIMASO
 70
     1
  9
$DIMSHO
 70
     1
  9
$DIMPOST
  1

  9
$DIMAPOST
  1

  9
$DIMALT
 70
     0
  9
$DIMALTD
 70
     2
  9
$DIMALTF
 40
25.4
  9
$DIMLFAC
 40
1.0
  9
$DIMTOFL
 70
     0
  9
$DIMTVP
 40
0.0
  9
$DIMTIX
 70
     0
  9
$DIMSOXD
 70
     0
  9
$DIMSAH
 70
     0
  9
$DIMBLK1
  1

  9
$DIMBLK2
  1

  9
$DIMSTYLE
  2
Standard
  9
$DIMCLRD
 70
     0
  9
$DIMCLRE
 70
     0
  9
$DIMCLRT
 70
     0
  9
$DIMTFAC
 40
1.0
  9
$DIMGAP
 40
0.09
  9
$DIMJUST
 70
     0
  9
$DIMSD1
 70
     0
  9
$DIMSD2
 70
     0
  9
$DIMTOLJ
 70
     1
  9
$DIMTZIN
 70
     0
  9
$DIMALTZ
 70
     0
  9
$DIMALTTZ
 70
     0
  9
$DIMUPT
 70
     0
  9
$DIMDEC
 70
     4
  9
$DIMTDEC
 70
     4
  9
$DIMALTU
 70
     2
  9
$DIMALTTD
 70
     2
  9
$DIMTXSTY
  7
Standard
  9
$DIMAUNIT
 70
     0
  9
$DIMADEC
 70
     0
  9
$DIMALTRND
 40
0.0
  9
$DIMAZIN
 70
     0
  9
$DIMDSEP
 70
    46
  9
$DIMATFIT
 70
     3
  9
$DIMFRAC
 70
     0
  9
$DIMLDRBLK
  1

  9
$DIMLUNIT
 70
     2
  9
$DIMLWD
 70
    -2
  9
$DIMLWE
 70
    -2
  9
$DIMTMOVE
 70
     0
  9
$LUNITS
 70
     2
  9
$LUPREC
 70
     4
  9
$SKETCHINC
 40
0.1
  9
$FILLETRAD
 40
0.0
  9
$AUNITS
 70
     0
  9
$AUPREC
 70
     0
  9
$MENU
  1
.
  9
$ELEVATION
 40
0.0
  9
$PELEVATION
 40
0.0
  9
$THICKNESS
 40
0.0
  9
$LIMCHECK
 70
     0
  9
$CHAMFERA
 40
0.0
  9
$CHAMFERB
 40
0.0
  9
$CHAMFERC
 40
0.0
  9
$CHAMFERD
 40
0.0
  9
$SKPOLY
 70
     0
  9
$TDCREATE
 40
2454778.765791377
  9
$TDUCREATE
 40
2454778.724124710
  9
$TDUPDATE
 40
2454778.769769965
  9
$TDUUPDATE
 40
2454778.728103298
  9
$TDINDWG
 40
0.0039785880
  9
$TDUSRTIMER
 40
0.0039785880
  9
$USRTIMER
 70
     1
  9
$ANGBASE
 50
0.0
  9
$ANGDIR
 70
     0
  9
$PDMODE
 70
     0
  9
$PDSIZE
 40
0.0
  9
$PLINEWID
 40
0.0
  9
$SPLFRAME
 70
     0
  9
$SPLINETYPE
 70
     6
  9
$SPLINESEGS
 70
     8
  9
$HANDSEED
  5
19D
  9
$SURFTAB1
 70
     6
  9
$SURFTAB2
 70
     6
  9
$SURFTYPE
 70
     6
  9
$SURFU
 70
     6
  9
$SURFV
 70
     6
  9
$UCSBASE
  2

  9
$UCSNAME
  2

  9
$UCSORG
 10
0.0
 20
0.0
 30
0.0
  9
$UCSXDIR
 10
1.0
 20
0.0
 30
0.0
  9
$UCSYDIR
 10
0.0
 20
1.0
 30
0.0
  9
$UCSORTHOREF
  2

  9
$UCSORTHOVIEW
 70
     1
  9
$UCSORGTOP
 10
0.0
 20
0.0
 30
0.0
  9
$UCSORGBOTTOM
 10
0.0
 20
0.0
 30
0.0
  9
$UCSORGLEFT
 10
0.0
 20
0.0
 30
0.0
  9
$UCSORGRIGHT
 10
0.0
 20
0.0
 30
0.0
  9
$UCSORGFRONT
 10
0.0
 20
0.0
 30
0.0
  9
$UCSORGBACK
 10
0.0
 20
0.0
 30
0.0
  9
$PUCSBASE
  2

  9
$PUCSNAME
  2

  9
$PUCSORG
 10
0.0
 20
0.0
 30
0.0
  9
$PUCSXDIR
 10
1.0
 20
0.0
 30
0.0
  9
$PUCSYDIR
 10
0.0
 20
1.0
 30
0.0
  9
$PUCSORTHOREF
  2

  9
$PUCSORTHOVIEW
 70
     0
  9
$PUCSORGTOP
 10
0.0
 20
0.0
 30
0.0
  9
$PUCSORGBOTTOM
 10
0.0
 20
0.0
 30
0.0
  9
$PUCSORGLEFT
 10
0.0
 20
0.0
 30
0.0
  9
$PUCSORGRIGHT
 10
0.0
 20
0.0
 30
0.0
  9
$PUCSORGFRONT
 10
0.0
 20
0.0
 30
0.0
  9
$PUCSORGBACK
 10
0.0
 20
0.0
 30
0.0
  9
$USERI1
 70
     0
  9
$USERI2
 70
     0
  9
$USERI3
 70
     0
  9
$USERI4
 70
     0
  9
$USERI5
 70
     0
  9
$USERR1
 40
0.0
  9
$USERR2
 40
0.0
  9
$USERR3
 40
0.0
  9
$USERR4
 40
0.0
  9
$USERR5
 40
0.0
  9
$WORLDVIEW
 70
     1
  9
$SHADEDGE
 70
     3
  9
$SHADEDIF
 70
    70
  9
$TILEMODE
 70
     1
  9
$MAXACTVP
 70
    64
  9
$PINSBASE
 10
0.0
 20
0.0
 30
0.0
  9
$PLIMCHECK
 70
     0
  9
$PEXTMIN
 10
1.000000000000000E+20
 20
1.000000000000000E+20
 30
1.000000000000000E+20
  9
$PEXTMAX
 10
-1.000000000000000E+20
 20
-1.000000000000000E+20
 30
-1.000000000000000E+20
  9
$PLIMMIN
 10
0.0
 20
0.0
  9
$PLIMMAX
 10
12.0
 20
9.0
  9
$UNITMODE
 70
     0
  9
$VISRETAIN
 70
     1
  9
$PLINEGEN
 70
     0
  9
$PSLTSCALE
 70
     1
  9
$TREEDEPTH
 70
  3020
  9
$CMLSTYLE
  2
Standard
  9
$CMLJUST
 70
     0
  9
$CMLSCALE
 40
1.0
  9
$PROXYGRAPHICS
 70
     1
  9
$MEASUREMENT
 70
     0
  9
$CELWEIGHT
370
    -1
  9
$ENDCAPS
280
     0
  9
$JOINSTYLE
280
     0
  9
$LWDISPLAY
290
     0
  9
$INSUNITS
 70
     0
  9
$HYPERLINKBASE
  1

  9
$STYLESHEET
  1

  9
$XEDIT
290
     1
  9
$CEPSNTYPE
380
     0
  9
$PSTYLEMODE
290
     1
  9
$FINGERPRINTGUID
  2
{D4111856-7AD1-4219-808E-0DE1D093B7B8}
  9
$VERSIONGUID
  2
{E2E723CD-65A2-448B-9434-BDDF8F9EE37F}
  9
$EXTNAMES
290
     1
  9
$PSVPSCALE
 40
0.0
  9
$OLESTARTUP
290
     0
  0
ENDSEC
  0
SECTION
  2
CLASSES
  0
CLASS
  1
ACDBDICTIONARYWDFLT
  2
AcDbDictionaryWithDefault
  3
AutoCAD 2000
 90
        0
280
     0
281
     0
  0
CLASS
  1
ACDBPLACEHOLDER
  2
AcDbPlaceHolder
  3
AutoCAD 2000
 90
        0
280
     0
281
     0
  0
CLASS
  1
LAYOUT
  2
AcDbLayout
  3
AutoCAD 2000
 90
        0
280
     0
281
     0
  0
CLASS
  1
DICTIONARYVAR
  2
AcDbDictionaryVar
  3
AutoCAD 2000
 90
        0
280
     0
281
     0
  0
ENDSEC
  0
SECTION
  2
TABLES
  0
TABLE
  2
VPORT
  5
8
330
0
100
AcDbSymbolTable
 70
     2
  0
VPORT
  5
19C
330
8
100
AcDbSymbolTableRecord
100
AcDbViewportTableRecord
  2
*Active
 70
     0
 10
0.0
 20
0.0
 11
1.0
 21
1.0
 12
51.0
 22
82.5
 13
0.0
 23
0.0
 14
1.0
 24
1.0
 15
0.0
 25
0.0
 16
0.0
 26
0.0
 36
1.0
 17
0.0
 27
0.0
 37
0.0
 40
165.7621483375959
 41
2.078104993597951
 42
50.0
 43
0.0
 44
0.0
 50
0.0
 51
0.0
 71
     0
 72
   100
 73
     1
 74
     3
 75
     0
 76
     0
 77
     0
 78
     0
281
     0
 65
     1
110
0.0
120
0.0
130
0.0
111
1.0
121
0.0
131
0.0
112
0.0
122
1.0
132
0.0
 79
     1
146
0.0
  0
ENDTAB
  0
TABLE
  2
LTYPE
  5
5
330
0
100
AcDbSymbolTable
 70
     1
  0
LTYPE
  5
13
330
5
100
AcDbSymbolTableRecord
100
AcDbLinetypeTableRecord
  2
ByBlock
 70
     0
  3

 72
    65
 73
     0
 40
0.0
  0
LTYPE
  5
14
330
5
100
AcDbSymbolTableRecord
100
AcDbLinetypeTableRecord
  2
ByLayer
 70
     0
  3

 72
    65
 73
     0
 40
0.0
  0
LTYPE
  5
15
330
5
100
AcDbSymbolTableRecord
100
AcDbLinetypeTableRecord
  2
Continuous
 70
     0
  3
Solid line
 72
    65
 73
     0
 40
0.0
  0
ENDTAB
  0
TABLE
  2
LAYER
  5
2
330
0
100
AcDbSymbolTable
 70
     1
  0
LAYER
  5
10
330
2
100
AcDbSymbolTableRecord
100
AcDbLayerTableRecord
  2
0
 70
     0
 62
     7
  6
Continuous
370
    -3
390
F
  0
ENDTAB
  0
TABLE
  2
STYLE
  5
3
330
0
100
AcDbSymbolTable
 70
     1
  0
STYLE
  5
11
330
3
100
AcDbSymbolTableRecord
100
AcDbTextStyleTableRecord
  2
Standard
 70
     0
 40
0.0
 41
1.0
 50
0.0
 71
     0
 42
0.2
  3
txt
  4

  0
ENDTAB
  0
TABLE
  2
VIEW
  5
6
330
0
100
AcDbSymbolTable
 70
     0
  0
ENDTAB
  0
TABLE
  2
UCS
  5
7
330
0
100
AcDbSymbolTable
 70
     0
  0
ENDTAB
  0
TABLE
  2
APPID
  5
9
330
0
100
AcDbSymbolTable
 70
     1
  0
APPID
  5
12
330
9
100
AcDbSymbolTableRecord
100
AcDbRegAppTableRecord
  2
ACAD
 70
     0
  0
ENDTAB
  0
TABLE
  2
DIMSTYLE
  5
A
330
0
100
AcDbSymbolTable
 70
     1
100
AcDbDimStyleTable
 71
     0
  0
DIMSTYLE
105
193
330
A
100
AcDbSymbolTableRecord
100
AcDbDimStyleTableRecord
  2
Standard
 70
     0
340
11
  0
ENDTAB
  0
TABLE
  2
BLOCK_RECORD
  5
1
330
0
100
AcDbSymbolTable
 70
     0
  0
BLOCK_RECORD
  5
1E
330
1
100
AcDbSymbolTableRecord
100
AcDbBlockTableRecord
  2
*Model_Space
340
21
  0
BLOCK_RECORD
  5
1A
330
1
100
AcDbSymbolTableRecord
100
AcDbBlockTableRecord
  2
*Paper_Space
340
1D
  0
ENDTAB
  0
ENDSEC
  0
SECTION
  2
BLOCKS
  0
BLOCK
  5
1F
330
1E
100
AcDbEntity
  8
0
100
AcDbBlockBegin
  2
*Model_Space
 70
     0
 10
0.0
 20
0.0
 30
0.0
  3
*Model_Space
  1

  0
ENDBLK
  5
20
330
1E
100
AcDbEntity
  8
0
100
AcDbBlockEnd
  0
BLOCK
  5
1B
330
1A
100
AcDbEntity
 67
     1
  8
0
100
AcDbBlockBegin
  2
*Paper_Space
 70
     0
 10
0.0
 20
0.0
 30
0.0
  3
*Paper_Space
  1

  0
ENDBLK
  5
1C
330
1A
100
AcDbEntity
 67
     1
  8
0
100
AcDbBlockEnd
  0
ENDSEC
  0
SECTION
  2
ENTITIES
  0
LINE
  5
22
330
1E
100
AcDbEntity
  8
0
100
AcDbLine
 10
1.825749999999989
 20
37.3191
 30
0.0
 11
2.13005
 21
35.7441
 31
0.0
  0
LINE
  5
23
330
1E
100
AcDbEntity
  8
0
100
AcDbLine
 10
1.275849999999979
 20
40.1658
 30
0.0
 11
1.825749999999989
 21
37.3191
 31
0.0
  0
LINE
  5
24
330
1E
100
AcDbEntity
  8
0
100
AcDbLine
 10
1.524249999999989
 20
51.0964
 30
0.0
 11
1.899449999999989
 21
46.24699999999999
 31
0.0
  0
LINE
  5
25
330
1E
100
AcDbEntity
  8
0
100
AcDbLine
 10
1.524249999999989
 20
51.0964
 30
0.0
 11
1.768049999999989
 21
55.35399
 31
0.0
  0
LINE
  5
26
330
1E
100
AcDbEntity
  8
0
100
AcDbLine
 10
1.99015
 20
51.115
 30
0.0
 11
3.56474999999999
 21
38.1855
 31
0.0
  0
LINE
  5
27
330
1E
100
AcDbEntity
  8
0
100
AcDbLine
 10
1.99015
 20
51.115
 30
0.0
 11
4.015049999999999
 21
63.9816
 31
0.0
  0
LINE
  5
28
330
1E
100
AcDbEntity
  8
0
100
AcDbLine
 10
1.899449999999989
 20
46.24699999999999
 30
0.0
 11
2.748649999999979
 21
40.45029999999999
 31
0.0
  0
LINE
  5
29
330
1E
100
AcDbEntity
  8
0
100
AcDbLine
 10
0.4077499999999911
 20
46.10249999999999
 30
0.0
 11
1.275849999999979
 21
40.1658
 31
0.0
  0
LINE
  5
2A
330
1E
100
AcDbEntity
  8
0
100
AcDbLine
 10
0.0250499999999919
 20
51.1447
 30
0.0
 11
0.308849999999985
 21
55.59336999999999
 31
0.0
  0
LINE
  5
2B
330
1E
100
AcDbEntity
  8
0
100
AcDbLine
 10
0.0250499999999919
 20
51.1447
 30
0.0
 11
0.4077499999999911
 21
46.10249999999999
 31
0.0
  0
LINE
  5
2C
330
1E
100
AcDbEntity
  8
0
100
AcDbLine
 10
0.308849999999985
 20
55.59336999999999
 30
0.0
 11
0.859049999999989
 21
60.763932
 31
0.0
  0
LINE
  5
2D
330
1E
100
AcDbEntity
  8
0
100
AcDbLine
 10
1.768049999999989
 20
55.35399
 30
0.0
 11
2.342149999999989
 21
60.54849
 31
0.0
  0
LINE
  5
2E
330
1E
100
AcDbEntity
  8
0
100
AcDbLine
 10
0.859049999999989
 20
60.763932
 30
0.0
 11
1.813749999999989
 21
65.92116999999999
 31
0.0
  0
LINE
  5
2F
330
1E
100
AcDbEntity
  8
0
100
AcDbLine
 10
0.0250499999999919
 20
51.1447
 30
0.0
 11
0.308849999999985
 21
55.59336999999999
 31
0.0
  0
LINE
  5
30
330
1E
100
AcDbEntity
  8
0
100
AcDbLine
 10
0.0250499999999919
 20
51.1447
 30
0.0
 11
0.4077499999999911
 21
46.10249999999999
 31
0.0
  0
LINE
  5
31
330
1E
100
AcDbEntity
  8
0
100
AcDbLine
 10
8.254549999999991
 20
26.1019
 30
0.0
 11
16.07185
 21
15.5638
 31
0.0
  0
LINE
  5
32
330
1E
100
AcDbEntity
  8
0
100
AcDbLine
 10
16.07185
 20
15.5638
 30
0.0
 11
26.33065
 21
7.383499999999999
 31
0.0
  0
LINE
  5
33
330
1E
100
AcDbEntity
  8
0
100
AcDbLine
 10
41.68194999999999
 20
33.1195
 30
0.0
 11
46.54695
 21
31.0343
 31
0.0
  0
LINE
  5
34
330
1E
100
AcDbEntity
  8
0
100
AcDbLine
 10
26.33065
 20
7.383499999999999
 30
0.0
 11
38.24334999999999
 21
2.2749
 31
0.0
  0
LINE
  5
35
330
1E
100
AcDbEntity
  8
0
100
AcDbLine
 10
26.33065
 20
7.383499999999999
 30
0.0
 11
38.24334999999999
 21
2.2749
 31
0.0
  0
LINE
  5
36
330
1E
100
AcDbEntity
  8
0
100
AcDbLine
 10
38.24334999999999
 20
2.2749
 30
0.0
 11
51.10994999999999
 21
0.250000000000004
 31
0.0
  0
LINE
  5
37
330
1E
100
AcDbEntity
  8
0
100
AcDbLine
 10
38.24334999999999
 20
2.2749
 30
0.0
 11
51.10994999999999
 21
0.250000000000004
 31
0.0
  0
LINE
  5
38
330
1E
100
AcDbEntity
  8
0
100
AcDbLine
 10
2.22424999999999
 20
35.2566
 30
0.0
 11
3.69694999999999
 21
35.5411
 31
0.0
  0
LINE
  5
39
330
1E
100
AcDbEntity
  8
0
100
AcDbLine
 10
37.63865
 20
36.3906
 30
0.0
 11
41.68194999999999
 21
33.1195
 31
0.0
  0
LINE
  5
3A
330
1E
100
AcDbEntity
  8
0
100
AcDbLine
 10
3.56474999999999
 20
38.1855
 30
0.0
 11
8.254549999999991
 21
26.1019
 31
0.0
  0
LINE
  5
3B
330
1E
100
AcDbEntity
  8
0
100
AcDbLine
 10
3.29854999999999
 20
37.6036
 30
0.0
 11
3.60284999999999
 21
36.02859999999999
 31
0.0
  0
LINE
  5
3C
330
1E
100
AcDbEntity
  8
0
100
AcDbLine
 10
32.77454999999999
 20
55.67843
 30
0.0
 11
34.85974999999999
 21
60.54278
 31
0.0
  0
LINE
  5
3D
330
1E
100
AcDbEntity
  8
0
100
AcDbLine
 10
31.98565
 20
50.5914
 30
0.0
 11
32.59644999999999
 21
45.48
 31
0.0
  0
LINE
  5
3E
330
1E
100
AcDbEntity
  8
0
100
AcDbLine
 10
31.98565
 20
50.5914
 30
0.0
 11
32.77454999999999
 21
55.67843
 31
0.0
  0
LINE
  5
3F
330
1E
100
AcDbEntity
  8
0
100
AcDbLine
 10
32.59644999999999
 20
45.48
 30
0.0
 11
34.51064999999999
 21
40.5458
 31
0.0
  0
LINE
  5
40
330
1E
100
AcDbEntity
  8
0
100
AcDbLine
 10
34.85974999999999
 20
60.54278
 30
0.0
 11
38.13074999999999
 21
64.58629999999999
 31
0.0
  0
LINE
  5
41
330
1E
100
AcDbEntity
  8
0
100
AcDbLine
 10
34.51064999999999
 20
40.5458
 30
0.0
 11
37.63865
 21
36.3906
 31
0.0
  0
LINE
  5
42
330
1E
100
AcDbEntity
  8
0
100
AcDbLine
 10
2.748649999999979
 20
40.45029999999999
 30
0.0
 11
3.29854999999999
 21
37.6036
 31
0.0
  0
LINE
  5
43
330
1E
100
AcDbEntity
  8
0
100
AcDbLine
 10
2.342149999999989
 20
60.54849
 30
0.0
 11
3.28584999999999
 21
65.63311
 31
0.0
  0
LINE
  5
44
330
1E
100
AcDbEntity
  8
0
100
AcDbLine
 10
3.60284999999999
 20
36.02859999999999
 30
0.0
 11
3.69694999999999
 21
35.5411
 31
0.0
  0
LINE
  5
45
330
1E
100
AcDbEntity
  8
0
100
AcDbLine
 10
2.13005
 20
35.7441
 30
0.0
 11
2.22424999999999
 21
35.2566
 31
0.0
  0
LINE
  5
46
330
1E
100
AcDbEntity
  8
0
100
AcDbLine
 10
1.813749999999989
 20
65.92116999999999
 30
0.0
 11
3.27464999999999
 21
71.82640000000001
 31
0.0
  0
LINE
  5
47
330
1E
100
AcDbEntity
  8
0
100
AcDbLine
 10
4.015049999999999
 20
63.9816
 30
0.0
 11
9.123749999999999
 21
75.8943
 31
0.0
  0
LINE
  5
48
330
1E
100
AcDbEntity
  8
0
100
AcDbLine
 10
42.28595
 20
67.71429999999999
 30
0.0
 11
44.3546770172385
 21
68.5168436529583
 31
0.0
  0
LINE
  5
49
330
1E
100
AcDbEntity
  8
0
100
AcDbLine
 10
38.13074999999999
 20
64.58629999999999
 30
0.0
 11
42.28595
 21
67.71429999999999
 31
0.0
  0
LINE
  5
4A
330
1E
100
AcDbEntity
  8
0
100
AcDbLine
 10
4.88124999999999
 20
71.48759
 30
0.0
 11
7.404149999999999
 21
78.7293
 31
0.0
  0
LINE
  5
4B
330
1E
100
AcDbEntity
  8
0
100
AcDbLine
 10
3.28584999999999
 20
65.63311
 30
0.0
 11
4.88124999999999
 21
71.48759
 31
0.0
  0
LINE
  5
4C
330
1E
100
AcDbEntity
  8
0
100
AcDbLine
 10
5.99664999999999
 20
79.46670000000001
 30
0.0
 11
9.847349999999989
 21
87.50570000000001
 31
0.0
  0
LINE
  5
4D
330
1E
100
AcDbEntity
  8
0
100
AcDbLine
 10
9.123749999999999
 20
75.8943
 30
0.0
 11
17.30405
 21
86.15309999999999
 31
0.0
  0
LINE
  5
4E
330
1E
100
AcDbEntity
  8
0
100
AcDbLine
 10
17.30405
 20
86.15309999999999
 30
0.0
 11
27.84205
 21
93.97029999999999
 31
0.0
  0
LINE
  5
4F
330
1E
100
AcDbEntity
  8
0
100
AcDbLine
 10
9.847349999999989
 20
87.50570000000001
 30
0.0
 11
14.46145
 21
94.7474
 31
0.0
  0
LINE
  5
50
330
1E
100
AcDbEntity
  8
0
100
AcDbLine
 10
20.30394999999999
 20
102.2549
 30
0.0
 11
28.86855
 21
111.5562
 31
0.0
  0
LINE
  5
51
330
1E
100
AcDbEntity
  8
0
100
AcDbLine
 10
39.92575
 20
98.6602
 30
0.0
 11
52.85341760990039
 21
100.234613375812
 31
0.0
  0
LINE
  5
52
330
1E
100
AcDbEntity
  8
0
100
AcDbLine
 10
27.84205
 20
93.97029999999999
 30
0.0
 11
39.92575
 21
98.6602
 31
0.0
  0
LINE
  5
53
330
1E
100
AcDbEntity
  8
0
100
AcDbLine
 10
21.41274999999999
 20
101.3181
 30
0.0
 11
30.24295
 21
110.2872
 31
0.0
  0
LINE
  5
54
330
1E
100
AcDbEntity
  8
0
100
AcDbLine
 10
15.76945
 20
93.81069999999999
 30
0.0
 11
21.41274999999999
 21
101.3181
 31
0.0
  0
LINE
  5
55
330
1E
100
AcDbEntity
  8
0
100
AcDbLine
 10
14.46145
 20
94.7474
 30
0.0
 11
20.30394999999999
 21
102.2549
 31
0.0
  0
LINE
  5
56
330
1E
100
AcDbEntity
  8
0
100
AcDbLine
 10
11.38765
 20
86.83469999999999
 30
0.0
 11
15.76945
 21
93.81069999999999
 31
0.0
  0
LINE
  5
57
330
1E
100
AcDbEntity
  8
0
100
AcDbLine
 10
7.404149999999999
 20
78.7293
 30
0.0
 11
11.38765
 21
86.83469999999999
 31
0.0
  0
LINE
  5
58
330
1E
100
AcDbEntity
  8
0
100
AcDbLine
 10
3.27464999999999
 20
71.82640000000001
 30
0.0
 11
5.99664999999999
 21
79.46670000000001
 31
0.0
  0
LINE
  5
59
330
1E
100
AcDbEntity
  8
0
100
AcDbLine
 10
43.35035
 20
64.21224000000001
 30
0.0
 11
43.47274999999999
 21
63.18556
 31
0.0
  0
LINE
  5
5A
330
1E
100
AcDbEntity
  8
0
100
AcDbLine
 10
43.35035
 20
64.21224000000001
 30
0.0
 11
43.47624999999999
 21
65.23862
 31
0.0
  0
LINE
  5
5B
330
1E
100
AcDbEntity
  8
0
100
AcDbLine
 10
43.47274999999999
 20
63.18556
 30
0.0
 11
43.87154999999999
 21
62.200814
 31
0.0
  0
LINE
  5
5C
330
1E
100
AcDbEntity
  8
0
100
AcDbLine
 10
51.10994999999999
 20
0.250000000000004
 30
0.0
 11
64.03895
 21
1.8246
 31
0.0
  0
LINE
  5
5D
330
1E
100
AcDbEntity
  8
0
100
AcDbLine
 10
64.03895
 20
1.8246
 30
0.0
 11
76.12295
 21
6.5144
 31
0.0
  0
LINE
  5
5E
330
1E
100
AcDbEntity
  8
0
100
AcDbLine
 10
64.03895
 20
1.8246
 30
0.0
 11
76.12295
 21
6.5144
 31
0.0
  0
LINE
  5
5F
330
1E
100
AcDbEntity
  8
0
100
AcDbLine
 10
86.66095
 20
14.3317
 30
0.0
 11
94.84095000000001
 21
24.59049999999999
 31
0.0
  0
LINE
  5
60
330
1E
100
AcDbEntity
  8
0
100
AcDbLine
 10
76.12295
 20
6.5144
 30
0.0
 11
86.66095
 21
14.3317
 31
0.0
  0
LINE
  5
61
330
1E
100
AcDbEntity
  8
0
100
AcDbLine
 10
69.10495
 20
39.942
 30
0.0
 11
71.19095
 21
44.8063
 31
0.0
  0
LINE
  5
62
330
1E
100
AcDbEntity
  8
0
100
AcDbLine
 10
65.83395
 20
35.8984
 30
0.0
 11
69.10495
 21
39.942
 31
0.0
  0
LINE
  5
63
330
1E
100
AcDbEntity
  8
0
100
AcDbLine
 10
71.36894999999999
 20
55.00477
 30
0.0
 11
71.97995
 21
49.8933
 31
0.0
  0
LINE
  5
64
330
1E
100
AcDbEntity
  8
0
100
AcDbLine
 10
69.45395000000001
 20
59.93893
 30
0.0
 11
71.36894999999999
 21
55.00477
 31
0.0
  0
LINE
  5
65
330
1E
100
AcDbEntity
  8
0
100
AcDbLine
 10
71.19095
 20
44.8063
 30
0.0
 11
71.97995
 21
49.8933
 31
0.0
  0
LINE
  5
66
330
1E
100
AcDbEntity
  8
0
100
AcDbLine
 10
61.67895
 20
32.7705
 30
0.0
 11
65.83395
 21
35.8984
 31
0.0
  0
LINE
  5
67
330
1E
100
AcDbEntity
  8
0
100
AcDbLine
 10
56.74495
 20
30.8563
 30
0.0
 11
61.67895
 21
32.7705
 31
0.0
  0
LINE
  5
68
330
1E
100
AcDbEntity
  8
0
100
AcDbLine
 10
51.63395
 20
30.2454
 30
0.0
 11
56.74495
 21
30.8563
 31
0.0
  0
LINE
  5
69
330
1E
100
AcDbEntity
  8
0
100
AcDbLine
 10
51.10994999999999
 20
0.250000000000004
 30
0.0
 11
64.03895
 21
1.8246
 31
0.0
  0
LINE
  5
6A
330
1E
100
AcDbEntity
  8
0
100
AcDbLine
 10
46.54695
 20
31.0343
 30
0.0
 11
51.63395
 21
30.2454
 31
0.0
  0
LINE
  5
6B
330
1E
100
AcDbEntity
  8
0
100
AcDbLine
 10
48.35776
 20
60.33615000000001
 30
0.0
 11
49.3425
 21
60.73485999999999
 31
0.0
  0
LINE
  5
6C
330
1E
100
AcDbEntity
  8
0
100
AcDbLine
 10
47.33105
 20
60.2137
 30
0.0
 11
48.35776
 21
60.33615000000001
 31
0.0
  0
LINE
  5
6D
330
1E
100
AcDbEntity
  8
0
100
AcDbLine
 10
46.30474999999999
 20
60.33964
 30
0.0
 11
47.33105
 21
60.2137
 31
0.0
  0
LINE
  5
6E
330
1E
100
AcDbEntity
  8
0
100
AcDbLine
 10
43.82305
 20
66.53271
 30
0.0
 11
44.23435
 21
68.06775
 31
0.0
  0
LINE
  5
6F
330
1E
100
AcDbEntity
  8
0
100
AcDbLine
 10
44.23435
 20
68.06775
 30
0.0
 11
44.3546770172385
 21
68.5168436529583
 31
0.0
  0
LINE
  5
70
330
1E
100
AcDbEntity
  8
0
100
AcDbLine
 10
44.23435
 20
68.06775
 30
0.0
 11
44.77034999999999
 21
70.06825
 31
0.0
  0
LINE
  5
71
330
1E
100
AcDbEntity
  8
0
100
AcDbLine
 10
43.56444999999999
 20
65.56775
 30
0.0
 11
43.82305
 21
66.53271
 31
0.0
  0
LINE
  5
72
330
1E
100
AcDbEntity
  8
0
100
AcDbLine
 10
43.87154999999999
 20
62.200814
 30
0.0
 11
44.52494999999999
 21
61.36314300000001
 31
0.0
  0
LINE
  5
73
330
1E
100
AcDbEntity
  8
0
100
AcDbLine
 10
51.29187
 20
63.4972
 30
0.0
 11
51.55043
 21
64.46215999999999
 31
0.0
  0
LINE
  5
74
330
1E
100
AcDbEntity
  8
0
100
AcDbLine
 10
51.20368
 20
63.16805999999999
 30
0.0
 11
51.29187
 21
63.4972
 31
0.0
  0
LINE
  5
75
330
1E
100
AcDbEntity
  8
0
100
AcDbLine
 10
51.55043
 20
64.46215999999999
 30
0.0
 11
51.96174
 21
65.99720000000001
 31
0.0
  0
LINE
  5
76
330
1E
100
AcDbEntity
  8
0
100
AcDbLine
 10
51.96174
 20
65.99720000000001
 30
0.0
 11
52.49778
 21
67.99769000000001
 31
0.0
  0
LINE
  5
77
330
1E
100
AcDbEntity
  8
0
100
AcDbLine
 10
66.32695
 20
64.0941
 30
0.0
 11
69.45395000000001
 21
59.93893
 31
0.0
  0
LINE
  5
78
330
1E
100
AcDbEntity
  8
0
100
AcDbLine
 10
62.28295
 20
67.3652
 30
0.0
 11
66.32695
 21
64.0941
 31
0.0
  0
LINE
  5
79
330
1E
100
AcDbEntity
  8
0
100
AcDbLine
 10
57.41895
 20
69.4504
 30
0.0
 11
62.28295
 21
67.3652
 31
0.0
  0
LINE
  5
7A
330
1E
100
AcDbEntity
  8
0
100
AcDbLine
 10
52.49778
 20
67.99769000000001
 30
0.0
 11
53.122
 21
70.32732
 31
0.0
  0
LINE
  5
7B
330
1E
100
AcDbEntity
  8
0
100
AcDbLine
 10
50.79956
 20
62.21622599999999
 30
0.0
 11
51.20368
 21
63.16805999999999
 31
0.0
  0
LINE
  5
7C
330
1E
100
AcDbEntity
  8
0
100
AcDbLine
 10
50.18018
 20
61.388324
 30
0.0
 11
50.79956
 21
62.21622599999999
 31
0.0
  0
LINE
  5
7D
330
1E
100
AcDbEntity
  8
0
100
AcDbLine
 10
53.06783631853179
 20
70.1251775866543
 30
0.0
 11
57.41895
 21
69.4504
 31
0.0
  0
LINE
  5
7E
330
1E
100
AcDbEntity
  8
0
100
AcDbLine
 10
53.122
 20
70.32732
 30
0.0
 11
53.79186999999999
 21
72.82729999999999
 31
0.0
  0
LINE
  5
7F
330
1E
100
AcDbEntity
  8
0
100
AcDbLine
 10
53.79186999999999
 20
72.82729999999999
 30
0.0
 11
67.25046
 21
123.0555
 31
0.0
  0
LINE
  5
80
330
1E
100
AcDbEntity
  8
0
100
AcDbLine
 10
87.89295
 20
84.92090000000001
 30
0.0
 11
95.71094999999999
 21
74.38290000000001
 31
0.0
  0
LINE
  5
81
330
1E
100
AcDbEntity
  8
0
100
AcDbLine
 10
77.63495
 20
93.10120000000001
 30
0.0
 11
87.89295
 21
84.92090000000001
 31
0.0
  0
LINE
  5
82
330
1E
100
AcDbEntity
  8
0
100
AcDbLine
 10
65.72195
 20
98.20990000000001
 30
0.0
 11
77.63495
 21
93.10120000000001
 31
0.0
  0
LINE
  5
83
330
1E
100
AcDbEntity
  8
0
100
AcDbLine
 10
60.8006292462295
 20
98.9843759768641
 30
0.0
 11
65.72195
 21
98.20990000000001
 31
0.0
  0
LINE
  5
84
330
1E
100
AcDbEntity
  8
0
100
AcDbLine
 10
46.06444999999999
 20
74.89790000000001
 30
0.0
 11
59.52306
 21
125.126
 31
0.0
  0
LINE
  5
85
330
1E
100
AcDbEntity
  8
0
100
AcDbLine
 10
45.39455
 20
72.39790000000001
 30
0.0
 11
46.06444999999999
 21
74.89790000000001
 31
0.0
  0
LINE
  5
86
330
1E
100
AcDbEntity
  8
0
100
AcDbLine
 10
44.77034999999999
 20
70.06825
 30
0.0
 11
45.39455
 21
72.39790000000001
 31
0.0
  0
LINE
  5
87
330
1E
100
AcDbEntity
  8
0
100
AcDbLine
 10
44.52494999999999
 20
61.36314300000001
 30
0.0
 11
45.35285
 21
60.74375999999999
 31
0.0
  0
LINE
  5
88
330
1E
100
AcDbEntity
  8
0
100
AcDbLine
 10
45.35285
 20
60.74375999999999
 30
0.0
 11
46.30474999999999
 21
60.33964
 31
0.0
  0
LINE
  5
89
330
1E
100
AcDbEntity
  8
0
100
AcDbLine
 10
43.47624999999999
 20
65.23862
 30
0.0
 11
43.56444999999999
 21
65.56775
 31
0.0
  0
LINE
  5
8A
330
1E
100
AcDbEntity
  8
0
100
AcDbLine
 10
30.24295
 20
110.2872
 30
0.0
 11
38.96005
 21
118.7979
 31
0.0
  0
LINE
  5
8B
330
1E
100
AcDbEntity
  8
0
100
AcDbLine
 10
28.86855
 20
111.5562
 30
0.0
 11
37.63225
 21
120.1265999999999
 31
0.0
  0
LINE
  5
8C
330
1E
100
AcDbEntity
  8
0
100
AcDbLine
 10
38.96005
 20
118.7979
 30
0.0
 11
47.59105
 21
126.2388999999999
 31
0.0
  0
LINE
  5
8D
330
1E
100
AcDbEntity
  8
0
100
AcDbLine
 10
47.59105
 20
126.2388999999999
 30
0.0
 11
53.72861999999999
 21
131.0523
 31
0.0
  0
LINE
  5
8E
330
1E
100
AcDbEntity
  8
0
100
AcDbLine
 10
37.63225
 20
120.1265999999999
 30
0.0
 11
46.26315
 21
127.5012
 31
0.0
  0
LINE
  5
8F
330
1E
100
AcDbEntity
  8
0
100
AcDbLine
 10
46.26315
 20
127.5012
 30
0.0
 11
52.84861
 21
132.2670999999999
 31
0.0
  0
LINE
  5
90
330
1E
100
AcDbEntity
  8
0
100
AcDbLine
 10
57.97495
 20
127.6399999999999
 30
0.0
 11
57.97495
 21
127.406
 31
0.0
  0
LINE
  5
91
330
1E
100
AcDbEntity
  8
0
100
AcDbLine
 10
57.97495
 20
127.6399999999999
 30
0.0
 11
57.97495
 21
128.264
 31
0.0
  0
LINE
  5
92
330
1E
100
AcDbEntity
  8
0
100
AcDbLine
 10
57.97495
 20
127.406
 30
0.0
 11
58.159862
 21
127.2499999999999
 31
0.0
  0
LINE
  5
93
330
1E
100
AcDbEntity
  8
0
100
AcDbLine
 10
57.97495
 20
127.406
 30
0.0
 11
57.97495
 21
127.6399999999999
 31
0.0
  0
LINE
  5
94
330
1E
100
AcDbEntity
  8
0
100
AcDbLine
 10
58.159862
 20
127.2499999999999
 30
0.0
 11
58.47495
 21
127.2499999999999
 31
0.0
  0
LINE
  5
95
330
1E
100
AcDbEntity
  8
0
100
AcDbLine
 10
58.159862
 20
127.2499999999999
 30
0.0
 11
58.159862
 21
127.4839999999999
 31
0.0
  0
LINE
  5
96
330
1E
100
AcDbEntity
  8
0
100
AcDbLine
 10
58.159862
 20
127.4839999999999
 30
0.0
 11
58.159862
 21
127.2499999999999
 31
0.0
  0
LINE
  5
97
330
1E
100
AcDbEntity
  8
0
100
AcDbLine
 10
58.159862
 20
127.4839999999999
 30
0.0
 11
58.159862
 21
128.108
 31
0.0
  0
LINE
  5
98
330
1E
100
AcDbEntity
  8
0
100
AcDbLine
 10
57.97495
 20
128.264
 30
0.0
 11
57.97495
 21
127.6399999999999
 31
0.0
  0
LINE
  5
99
330
1E
100
AcDbEntity
  8
0
100
AcDbLine
 10
57.97495
 20
128.264
 30
0.0
 11
57.97495
 21
129.278
 31
0.0
  0
LINE
  5
9A
330
1E
100
AcDbEntity
  8
0
100
AcDbLine
 10
57.97495
 20
129.278
 30
0.0
 11
57.97495
 21
128.264
 31
0.0
  0
LINE
  5
9B
330
1E
100
AcDbEntity
  8
0
100
AcDbLine
 10
57.97495
 20
129.278
 30
0.0
 11
57.97495
 21
130.6039999999999
 31
0.0
  0
LINE
  5
9C
330
1E
100
AcDbEntity
  8
0
100
AcDbLine
 10
58.159862
 20
128.108
 30
0.0
 11
58.159862
 21
127.4839999999999
 31
0.0
  0
LINE
  5
9D
330
1E
100
AcDbEntity
  8
0
100
AcDbLine
 10
58.159862
 20
128.108
 30
0.0
 11
58.159862
 21
129.1479999999999
 31
0.0
  0
LINE
  5
9E
330
1E
100
AcDbEntity
  8
0
100
AcDbLine
 10
58.159862
 20
129.1479999999999
 30
0.0
 11
58.159862
 21
128.108
 31
0.0
  0
LINE
  5
9F
330
1E
100
AcDbEntity
  8
0
100
AcDbLine
 10
58.159862
 20
129.1479999999999
 30
0.0
 11
58.159862
 21
130.526
 31
0.0
  0
LINE
  5
A0
330
1E
100
AcDbEntity
  8
0
100
AcDbLine
 10
53.72861999999999
 20
131.0523
 30
0.0
 11
59.13191
 21
134.9668
 31
0.0
  0
LINE
  5
A1
330
1E
100
AcDbEntity
  8
0
100
AcDbLine
 10
57.97495
 20
130.6039999999999
 30
0.0
 11
57.97495
 21
129.278
 31
0.0
  0
LINE
  5
A2
330
1E
100
AcDbEntity
  8
0
100
AcDbLine
 10
57.97495
 20
130.6039999999999
 30
0.0
 11
57.97495
 21
132.112
 31
0.0
  0
LINE
  5
A3
330
1E
100
AcDbEntity
  8
0
100
AcDbLine
 10
52.84861
 20
132.2670999999999
 30
0.0
 11
57.97495
 21
135.980866323351
 31
0.0
  0
LINE
  5
A4
330
1E
100
AcDbEntity
  8
0
100
AcDbLine
 10
52.84861
 20
132.2670999999999
 30
0.0
 11
58.251897
 21
136.1814999999999
 31
0.0
  0
LINE
  5
A5
330
1E
100
AcDbEntity
  8
0
100
AcDbLine
 10
56.0832314510841
 20
132.758135986088
 30
0.0
 11
56.14101999999999
 21
132.8
 31
0.0
  0
LINE
  5
A6
330
1E
100
AcDbEntity
  8
0
100
AcDbLine
 10
56.14101999999999
 20
132.8
 30
0.0
 11
57.97495
 21
134.1286033187
 31
0.0
  0
LINE
  5
A7
330
1E
100
AcDbEntity
  8
0
100
AcDbLine
 10
56.14101999999999
 20
132.8
 30
0.0
 11
59.13195
 21
134.9668
 31
0.0
  0
LINE
  5
A8
330
1E
100
AcDbEntity
  8
0
100
AcDbLine
 10
57.97495
 20
132.112
 30
0.0
 11
57.97495
 21
130.6039999999999
 31
0.0
  0
LINE
  5
A9
330
1E
100
AcDbEntity
  8
0
100
AcDbLine
 10
57.97495
 20
132.112
 30
0.0
 11
57.97495
 21
133.75
 31
0.0
  0
LINE
  5
AA
330
1E
100
AcDbEntity
  8
0
100
AcDbLine
 10
57.97495
 20
133.75
 30
0.0
 11
57.97495
 21
132.112
 31
0.0
  0
LINE
  5
AB
330
1E
100
AcDbEntity
  8
0
100
AcDbLine
 10
57.97495
 20
133.75
 30
0.0
 11
57.97495
 21
134.1286033187
 31
0.0
  0
LINE
  5
AC
330
1E
100
AcDbEntity
  8
0
100
AcDbLine
 10
58.159862
 20
130.526
 30
0.0
 11
58.159862
 21
129.1479999999999
 31
0.0
  0
LINE
  5
AD
330
1E
100
AcDbEntity
  8
0
100
AcDbLine
 10
58.159862
 20
130.526
 30
0.0
 11
58.159862
 21
132.086
 31
0.0
  0
LINE
  5
AE
330
1E
100
AcDbEntity
  8
0
100
AcDbLine
 10
67.25046
 20
123.0555
 30
0.0
 11
67.92034
 21
125.5554999999999
 31
0.0
  0
LINE
  5
AF
330
1E
100
AcDbEntity
  8
0
100
AcDbLine
 10
67.92034
 20
125.5554999999999
 30
0.0
 11
68.54455
 21
127.8850999999999
 31
0.0
  0
LINE
  5
B0
330
1E
100
AcDbEntity
  8
0
100
AcDbLine
 10
59.52306
 20
125.126
 30
0.0
 11
60.19293000000001
 21
127.626
 31
0.0
  0
LINE
  5
B1
330
1E
100
AcDbEntity
  8
0
100
AcDbLine
 10
67.9724557473386
 20
125.75
 30
0.0
 11
88.97495000000001
 21
125.75
 31
0.0
  0
LINE
  5
B2
330
1E
100
AcDbEntity
  8
0
100
AcDbLine
 10
58.47495
 20
127.2499999999999
 30
0.0
 11
58.47495
 21
126.9979999999999
 31
0.0
  0
LINE
  5
B3
330
1E
100
AcDbEntity
  8
0
100
AcDbLine
 10
58.47495
 20
128.246
 30
0.0
 11
58.47495
 21
126.9979999999999
 31
0.0
  0
LINE
  5
B4
330
1E
100
AcDbEntity
  8
0
100
AcDbLine
 10
58.47495
 20
128.246
 30
0.0
 11
58.47495
 21
129.8779999999999
 31
0.0
  0
LINE
  5
B5
330
1E
100
AcDbEntity
  8
0
100
AcDbLine
 10
58.47495
 20
126.9979999999999
 30
0.0
 11
58.47495
 21
126.2299999999999
 31
0.0
  0
LINE
  5
B6
330
1E
100
AcDbEntity
  8
0
100
AcDbLine
 10
58.47495
 20
126.9979999999999
 30
0.0
 11
58.47495
 21
128.246
 31
0.0
  0
LINE
  5
B7
330
1E
100
AcDbEntity
  8
0
100
AcDbLine
 10
58.47495
 20
126.9979999999999
 30
0.0
 11
58.47495
 21
127.2499999999999
 31
0.0
  0
LINE
  5
B8
330
1E
100
AcDbEntity
  8
0
100
AcDbLine
 10
58.47495
 20
126.2299999999999
 30
0.0
 11
58.47495
 21
125.942
 31
0.0
  0
LINE
  5
B9
330
1E
100
AcDbEntity
  8
0
100
AcDbLine
 10
58.47495
 20
126.2299999999999
 30
0.0
 11
58.47495
 21
126.9979999999999
 31
0.0
  0
LINE
  5
BB
330
1E
100
AcDbEntity
  8
0
100
AcDbLine
 10
58.47495
 20
125.942
 30
0.0
 11
58.77494999999999
 21
125.75
 31
0.0
  0
LINE
  5
BC
330
1E
100
AcDbEntity
  8
0
100
AcDbLine
 10
58.47495
 20
125.942
 30
0.0
 11
58.47495
 21
126.2299999999999
 31
0.0
  0
LINE
  5
BD
330
1E
100
AcDbEntity
  8
0
100
AcDbLine
 10
58.47495
 20
133.75
 30
0.0
 11
58.47495
 21
131.734
 31
0.0
  0
LINE
  5
BE
330
1E
100
AcDbEntity
  8
0
100
AcDbLine
 10
58.47495
 20
133.75
 30
0.0
 11
58.47495
 21
134.490831789443
 31
0.0
  0
LINE
  5
BF
330
1E
100
AcDbEntity
  8
0
100
AcDbLine
 10
58.47495
 20
131.734
 30
0.0
 11
58.47495
 21
129.8779999999999
 31
0.0
  0
LINE
  5
C0
330
1E
100
AcDbEntity
  8
0
100
AcDbLine
 10
58.47495
 20
131.734
 30
0.0
 11
58.47495
 21
133.75
 31
0.0
  0
LINE
  5
C1
330
1E
100
AcDbEntity
  8
0
100
AcDbLine
 10
58.47495
 20
129.8779999999999
 30
0.0
 11
58.47495
 21
128.246
 31
0.0
  0
LINE
  5
C2
330
1E
100
AcDbEntity
  8
0
100
AcDbLine
 10
58.47495
 20
129.8779999999999
 30
0.0
 11
58.47495
 21
131.734
 31
0.0
  0
LINE
  5
C4
330
1E
100
AcDbEntity
  8
0
100
AcDbLine
 10
60.71111
 20
129.9366
 30
0.0
 11
60.7941138401867
 21
129.869724956718
 31
0.0
  0
LINE
  5
C5
330
1E
100
AcDbEntity
  8
0
100
AcDbLine
 10
59.50206999999999
 20
133.1359999999999
 30
0.0
 11
60.95698
 21
133.4486
 31
0.0
  0
LINE
  5
C6
330
1E
100
AcDbEntity
  8
0
100
AcDbLine
 10
59.50206999999999
 20
133.1359999999999
 30
0.0
 11
60.71111
 21
129.9366
 31
0.0
  0
LINE
  5
C7
330
1E
100
AcDbEntity
  8
0
100
AcDbLine
 10
68.5776271326841
 20
128.008552992415
 30
0.0
 11
69.78835
 21
128.4861999999999
 31
0.0
  0
LINE
  5
C8
330
1E
100
AcDbEntity
  8
0
100
AcDbLine
 10
68.54455
 20
127.8850999999999
 30
0.0
 11
69.08055
 21
129.8856
 31
0.0
  0
LINE
  5
C9
330
1E
100
AcDbEntity
  8
0
100
AcDbLine
 10
71.83844999999999
 20
130.9567999999999
 30
0.0
 11
72.44785
 21
134.364
 31
0.0
  0
LINE
  5
CA
330
1E
100
AcDbEntity
  8
0
100
AcDbLine
 10
69.78835
 20
128.4861999999999
 30
0.0
 11
71.83844999999999
 21
130.9567999999999
 31
0.0
  0
LINE
  5
CB
330
1E
100
AcDbEntity
  8
0
100
AcDbLine
 10
69.091409249577
 20
129.9261176181349
 30
0.0
 11
70.57705
 21
131.7538999999999
 31
0.0
  0
LINE
  5
CC
330
1E
100
AcDbEntity
  8
0
100
AcDbLine
 10
70.57705
 20
131.7538999999999
 30
0.0
 11
70.99294999999999
 21
134.0513999999999
 31
0.0
  0
LINE
  5
CD
330
1E
100
AcDbEntity
  8
0
100
AcDbLine
 10
69.49195
 20
131.4206
 30
0.0
 11
69.75045
 21
132.3856
 31
0.0
  0
LINE
  5
CE
330
1E
100
AcDbEntity
  8
0
100
AcDbLine
 10
69.08055
 20
129.8856
 30
0.0
 11
69.49195
 21
131.4206
 31
0.0
  0
LINE
  5
CF
330
1E
100
AcDbEntity
  8
0
100
AcDbLine
 10
60.95698
 20
133.4486
 30
0.0
 11
61.4177175831553
 21
132.196962695472
 31
0.0
  0
LINE
  5
D0
330
1E
100
AcDbEntity
  8
0
100
AcDbLine
 10
69.75045
 20
132.3856
 30
0.0
 11
69.83865
 21
132.7146999999999
 31
0.0
  0
LINE
  5
D1
330
1E
100
AcDbEntity
  8
0
100
AcDbLine
 10
69.83865
 20
132.7146999999999
 30
0.0
 11
69.96455
 21
133.7410999999999
 31
0.0
  0
LINE
  5
D2
330
1E
100
AcDbEntity
  8
0
100
AcDbLine
 10
61.76449999999999
 20
133.4911999999999
 30
0.0
 11
62.02306
 21
134.4560999999999
 31
0.0
  0
LINE
  5
D3
330
1E
100
AcDbEntity
  8
0
100
AcDbLine
 10
61.35318
 20
131.9560999999999
 30
0.0
 11
61.76449999999999
 21
133.4911999999999
 31
0.0
  0
LINE
  5
D4
330
1E
100
AcDbEntity
  8
0
100
AcDbLine
 10
60.81714999999999
 20
129.9557
 30
0.0
 11
61.35318
 21
131.9560999999999
 31
0.0
  0
LINE
  5
D5
330
1E
100
AcDbEntity
  8
0
100
AcDbLine
 10
60.19293000000001
 20
127.626
 30
0.0
 11
60.81714999999999
 21
129.9557
 31
0.0
  0
LINE
  5
D8
330
1E
100
AcDbEntity
  8
0
100
AcDbLine
 10
58.77494999999999
 20
125.75
 30
0.0
 11
59.690259552
 21
125.75
 31
0.0
  0
LINE
  5
D9
330
1E
100
AcDbEntity
  8
0
100
AcDbLine
 10
58.159862
 20
132.086
 30
0.0
 11
58.159862
 21
130.526
 31
0.0
  0
LINE
  5
DA
330
1E
100
AcDbEntity
  8
0
100
AcDbLine
 10
58.159862
 20
132.086
 30
0.0
 11
58.159862
 21
133.75
 31
0.0
  0
LINE
  5
DB
330
1E
100
AcDbEntity
  8
0
100
AcDbLine
 10
57.97495
 20
135.980866323351
 30
0.0
 11
57.97495
 21
136.896
 31
0.0
  0
LINE
  5
DC
330
1E
100
AcDbEntity
  8
0
100
AcDbLine
 10
57.97495
 20
136.896
 30
0.0
 11
57.97495
 21
135.980866323351
 31
0.0
  0
LINE
  5
DD
330
1E
100
AcDbEntity
  8
0
100
AcDbLine
 10
57.97495
 20
136.896
 30
0.0
 11
57.97495
 21
138.222
 31
0.0
  0
LINE
  5
DE
330
1E
100
AcDbEntity
  8
0
100
AcDbLine
 10
58.159862
 20
136.1148254361649
 30
0.0
 11
58.159862
 21
136.9739999999999
 31
0.0
  0
LINE
  5
DF
330
1E
100
AcDbEntity
  8
0
100
AcDbLine
 10
57.97495
 20
134.1286033187
 30
0.0
 11
57.97495
 21
133.75
 31
0.0
  0
LINE
  5
E0
330
1E
100
AcDbEntity
  8
0
100
AcDbLine
 10
57.97495
 20
139.2359999999999
 30
0.0
 11
57.97495
 21
138.222
 31
0.0
  0
LINE
  5
E1
330
1E
100
AcDbEntity
  8
0
100
AcDbLine
 10
57.97495
 20
139.2359999999999
 30
0.0
 11
57.97495
 21
139.86
 31
0.0
  0
LINE
  5
E2
330
1E
100
AcDbEntity
  8
0
100
AcDbLine
 10
57.97495
 20
138.222
 30
0.0
 11
57.97495
 21
136.896
 31
0.0
  0
LINE
  5
E3
330
1E
100
AcDbEntity
  8
0
100
AcDbLine
 10
57.97495
 20
138.222
 30
0.0
 11
57.97495
 21
139.2359999999999
 31
0.0
  0
LINE
  5
E4
330
1E
100
AcDbEntity
  8
0
100
AcDbLine
 10
57.97495
 20
140.094
 30
0.0
 11
57.97495
 21
139.86
 31
0.0
  0
LINE
  5
E5
330
1E
100
AcDbEntity
  8
0
100
AcDbLine
 10
57.97495
 20
140.094
 30
0.0
 11
58.159862
 21
140.25
 31
0.0
  0
LINE
  5
E6
330
1E
100
AcDbEntity
  8
0
100
AcDbLine
 10
57.97495
 20
139.86
 30
0.0
 11
57.97495
 21
139.2359999999999
 31
0.0
  0
LINE
  5
E7
330
1E
100
AcDbEntity
  8
0
100
AcDbLine
 10
57.97495
 20
139.86
 30
0.0
 11
57.97495
 21
140.094
 31
0.0
  0
LINE
  5
E8
330
1E
100
AcDbEntity
  8
0
100
AcDbLine
 10
58.159862
 20
140.25
 30
0.0
 11
58.159862
 21
140.0159999999999
 31
0.0
  0
LINE
  5
E9
330
1E
100
AcDbEntity
  8
0
100
AcDbLine
 10
58.159862
 20
140.25
 30
0.0
 11
58.47495
 21
140.25
 31
0.0
  0
LINE
  5
EA
330
1E
100
AcDbEntity
  8
0
100
AcDbLine
 10
58.159862
 20
140.0159999999999
 30
0.0
 11
58.159862
 21
139.392
 31
0.0
  0
LINE
  5
EB
330
1E
100
AcDbEntity
  8
0
100
AcDbLine
 10
58.159862
 20
140.0159999999999
 30
0.0
 11
58.159862
 21
140.25
 31
0.0
  0
LINE
  5
EC
330
1E
100
AcDbEntity
  8
0
100
AcDbLine
 10
58.159862
 20
139.392
 30
0.0
 11
58.159862
 21
138.352
 31
0.0
  0
LINE
  5
ED
330
1E
100
AcDbEntity
  8
0
100
AcDbLine
 10
58.159862
 20
139.392
 30
0.0
 11
58.159862
 21
140.0159999999999
 31
0.0
  0
LINE
  5
EE
330
1E
100
AcDbEntity
  8
0
100
AcDbLine
 10
58.159862
 20
138.352
 30
0.0
 11
58.159862
 21
136.9739999999999
 31
0.0
  0
LINE
  5
EF
330
1E
100
AcDbEntity
  8
0
100
AcDbLine
 10
58.159862
 20
138.352
 30
0.0
 11
58.159862
 21
139.392
 31
0.0
  0
LINE
  5
F0
330
1E
100
AcDbEntity
  8
0
100
AcDbLine
 10
58.159862
 20
136.9739999999999
 30
0.0
 11
58.159862
 21
136.1148254361649
 31
0.0
  0
LINE
  5
F1
330
1E
100
AcDbEntity
  8
0
100
AcDbLine
 10
58.159862
 20
136.9739999999999
 30
0.0
 11
58.159862
 21
138.352
 31
0.0
  0
LINE
  5
F2
330
1E
100
AcDbEntity
  8
0
100
AcDbLine
 10
58.251897
 20
136.1814999999999
 30
0.0
 11
61.35173
 21
138.4271999999999
 31
0.0
  0
LINE
  5
F3
330
1E
100
AcDbEntity
  8
0
100
AcDbLine
 10
58.47495
 20
136.343092615505
 30
0.0
 11
58.47495
 21
137.622
 31
0.0
  0
LINE
  5
F4
330
1E
100
AcDbEntity
  8
0
100
AcDbLine
 10
58.47495
 20
134.490831789443
 30
0.0
 11
58.47495
 21
133.75
 31
0.0
  0
LINE
  5
F5
330
1E
100
AcDbEntity
  8
0
100
AcDbLine
 10
58.47495
 20
137.622
 30
0.0
 11
58.47495
 21
136.343092615505
 31
0.0
  0
LINE
  5
F6
330
1E
100
AcDbEntity
  8
0
100
AcDbLine
 10
58.47495
 20
137.622
 30
0.0
 11
58.47495
 21
139.2539999999999
 31
0.0
  0
LINE
  5
F8
330
1E
100
AcDbEntity
  8
0
100
AcDbLine
 10
58.47495
 20
139.2539999999999
 30
0.0
 11
58.47495
 21
137.622
 31
0.0
  0
LINE
  5
F9
330
1E
100
AcDbEntity
  8
0
100
AcDbLine
 10
58.47495
 20
139.2539999999999
 30
0.0
 11
58.47495
 21
140.502
 31
0.0
  0
LINE
  5
FA
330
1E
100
AcDbEntity
  8
0
100
AcDbLine
 10
58.47495
 20
140.25
 30
0.0
 11
58.47495
 21
140.502
 31
0.0
  0
LINE
  5
FB
330
1E
100
AcDbEntity
  8
0
100
AcDbLine
 10
58.47495
 20
140.502
 30
0.0
 11
58.47495
 21
139.2539999999999
 31
0.0
  0
LINE
  5
FC
330
1E
100
AcDbEntity
  8
0
100
AcDbLine
 10
58.47495
 20
140.502
 30
0.0
 11
58.47495
 21
141.27
 31
0.0
  0
LINE
  5
FD
330
1E
100
AcDbEntity
  8
0
100
AcDbLine
 10
58.47495
 20
140.502
 30
0.0
 11
58.47495
 21
140.25
 31
0.0
  0
LINE
  5
FE
330
1E
100
AcDbEntity
  8
0
100
AcDbLine
 10
58.47495
 20
141.27
 30
0.0
 11
58.47495
 21
140.502
 31
0.0
  0
LINE
  5
FF
330
1E
100
AcDbEntity
  8
0
100
AcDbLine
 10
58.47495
 20
141.27
 30
0.0
 11
58.47495
 21
141.558
 31
0.0
  0
LINE
  5
100
330
1E
100
AcDbEntity
  8
0
100
AcDbLine
 10
58.47495
 20
141.558
 30
0.0
 11
58.47495
 21
141.27
 31
0.0
  0
LINE
  5
101
330
1E
100
AcDbEntity
  8
0
100
AcDbLine
 10
58.47495
 20
141.558
 30
0.0
 11
58.77494999999999
 21
141.7499999999999
 31
0.0
  0
LINE
  5
104
330
1E
100
AcDbEntity
  8
0
100
AcDbLine
 10
59.13195
 20
134.9668
 30
0.0
 11
62.23175
 21
137.2124
 31
0.0
  0
LINE
  5
105
330
1E
100
AcDbEntity
  8
0
100
AcDbLine
 10
59.13191
 20
134.9668
 30
0.0
 11
62.23175
 21
137.2124
 31
0.0
  0
LINE
  5
106
330
1E
100
AcDbEntity
  8
0
100
AcDbLine
 10
62.11125
 20
134.7853
 30
0.0
 11
62.51536999999999
 21
135.7371
 31
0.0
  0
LINE
  5
107
330
1E
100
AcDbEntity
  8
0
100
AcDbLine
 10
62.51536999999999
 20
135.7371
 30
0.0
 11
63.13475
 21
136.565
 31
0.0
  0
LINE
  5
108
330
1E
100
AcDbEntity
  8
0
100
AcDbLine
 10
62.23175
 20
137.2124
 30
0.0
 11
63.04157
 21
137.7991
 31
0.0
  0
LINE
  5
109
330
1E
100
AcDbEntity
  8
0
100
AcDbLine
 10
63.13475
 20
136.565
 30
0.0
 11
63.97241999999999
 21
137.2184999999999
 31
0.0
  0
LINE
  5
10A
330
1E
100
AcDbEntity
  8
0
100
AcDbLine
 10
63.97241999999999
 20
137.2184999999999
 30
0.0
 11
64.95716999999999
 21
137.6171999999999
 31
0.0
  0
LINE
  5
10B
330
1E
100
AcDbEntity
  8
0
100
AcDbLine
 10
61.35173
 20
138.4271999999999
 30
0.0
 11
62.16155
 21
139.0138
 31
0.0
  0
LINE
  5
10C
330
1E
100
AcDbEntity
  8
0
100
AcDbLine
 10
62.16155
 20
139.0138
 30
0.0
 11
65.14801
 21
140.192
 31
0.0
  0
LINE
  5
10D
330
1E
100
AcDbEntity
  8
0
100
AcDbLine
 10
65.14801
 20
140.192
 30
0.0
 11
68.57545
 21
139.7092
 31
0.0
  0
LINE
  5
10E
330
1E
100
AcDbEntity
  8
0
100
AcDbLine
 10
65.51238999999999
 20
138.7448999999999
 30
0.0
 11
67.82509000000001
 21
138.4242
 31
0.0
  0
LINE
  5
10F
330
1E
100
AcDbEntity
  8
0
100
AcDbLine
 10
63.04157
 20
137.7991
 30
0.0
 11
65.51238999999999
 21
138.7448999999999
 31
0.0
  0
LINE
  5
110
330
1E
100
AcDbEntity
  8
0
100
AcDbLine
 10
64.95716999999999
 20
137.6171999999999
 30
0.0
 11
65.98385
 21
137.7396
 31
0.0
  0
LINE
  5
111
330
1E
100
AcDbEntity
  8
0
100
AcDbLine
 10
71.23874999999999
 20
137.5634
 30
0.0
 11
72.44785
 21
134.364
 31
0.0
  0
LINE
  5
112
330
1E
100
AcDbEntity
  8
0
100
AcDbLine
 10
70.02405
 20
136.6834
 30
0.0
 11
70.99294999999999
 21
134.0513999999999
 31
0.0
  0
LINE
  5
113
330
1E
100
AcDbEntity
  8
0
100
AcDbLine
 10
68.78995
 20
136.5902
 30
0.0
 11
69.44345
 21
135.7525
 31
0.0
  0
LINE
  5
114
330
1E
100
AcDbEntity
  8
0
100
AcDbLine
 10
67.96205999999999
 20
137.2095999999999
 30
0.0
 11
68.78995
 21
136.5902
 31
0.0
  0
LINE
  5
115
330
1E
100
AcDbEntity
  8
0
100
AcDbLine
 10
68.57545
 20
139.7092
 30
0.0
 11
71.23874999999999
 21
137.5634
 31
0.0
  0
LINE
  5
116
330
1E
100
AcDbEntity
  8
0
100
AcDbLine
 10
67.82509000000001
 20
138.4242
 30
0.0
 11
70.02405
 21
136.6834
 31
0.0
  0
LINE
  5
117
330
1E
100
AcDbEntity
  8
0
100
AcDbLine
 10
67.01023000000001
 20
137.6136999999999
 30
0.0
 11
67.96205999999999
 21
137.2095999999999
 31
0.0
  0
LINE
  5
118
330
1E
100
AcDbEntity
  8
0
100
AcDbLine
 10
65.98385
 20
137.7396
 30
0.0
 11
67.01023000000001
 21
137.6136999999999
 31
0.0
  0
LINE
  5
119
330
1E
100
AcDbEntity
  8
0
100
AcDbLine
 10
62.02306
 20
134.4560999999999
 30
0.0
 11
62.11125
 21
134.7853
 31
0.0
  0
LINE
  5
11B
330
1E
100
AcDbEntity
  8
0
100
AcDbLine
 10
58.77494999999999
 20
141.7499999999999
 30
0.0
 11
88.97495000000001
 21
141.7499999999999
 31
0.0
  0
LINE
  5
11C
330
1E
100
AcDbEntity
  8
0
100
AcDbLine
 10
58.159862
 20
134.262564100664
 30
0.0
 11
58.159862
 21
133.75
 31
0.0
  0
LINE
  5
11D
330
1E
100
AcDbEntity
  8
0
100
AcDbLine
 10
58.159862
 20
133.75
 30
0.0
 11
58.159862
 21
132.086
 31
0.0
  0
LINE
  5
11E
330
1E
100
AcDbEntity
  8
0
100
AcDbLine
 10
58.159862
 20
133.75
 30
0.0
 11
58.159862
 21
134.262564100664
 31
0.0
  0
LINE
  5
11F
330
1E
100
AcDbEntity
  8
0
100
AcDbLine
 10
88.97495000000001
 20
115.7499999999999
 30
0.0
 11
88.97495000000001
 21
111.65
 31
0.0
  0
LINE
  5
120
330
1E
100
AcDbEntity
  8
0
100
AcDbLine
 10
88.97495000000001
 20
115.7499999999999
 30
0.0
 11
88.97495000000001
 21
121.0499999999999
 31
0.0
  0
LINE
  5
121
330
1E
100
AcDbEntity
  8
0
100
AcDbLine
 10
88.97495000000001
 20
111.65
 30
0.0
 11
88.97495000000001
 21
109.15
 31
0.0
  0
LINE
  5
122
330
1E
100
AcDbEntity
  8
0
100
AcDbLine
 10
88.97495000000001
 20
111.65
 30
0.0
 11
88.97495000000001
 21
115.7499999999999
 31
0.0
  0
LINE
  5
123
330
1E
100
AcDbEntity
  8
0
100
AcDbLine
 10
88.97495000000001
 20
109.15
 30
0.0
 11
88.97495000000001
 21
108.25
 31
0.0
  0
LINE
  5
124
330
1E
100
AcDbEntity
  8
0
100
AcDbLine
 10
88.97495000000001
 20
109.15
 30
0.0
 11
88.97495000000001
 21
111.65
 31
0.0
  0
LINE
  5
125
330
1E
100
AcDbEntity
  8
0
100
AcDbLine
 10
88.97495000000001
 20
108.25
 30
0.0
 11
89.27495
 21
107.5499999999999
 31
0.0
  0
LINE
  5
126
330
1E
100
AcDbEntity
  8
0
100
AcDbLine
 10
88.97495000000001
 20
108.25
 30
0.0
 11
88.97495000000001
 21
109.15
 31
0.0
  0
LINE
  5
127
330
1E
100
AcDbEntity
  8
0
100
AcDbLine
 10
95.71094999999999
 20
74.38290000000001
 30
0.0
 11
100.39995
 21
62.29919999999999
 31
0.0
  0
LINE
  5
128
330
1E
100
AcDbEntity
  8
0
100
AcDbLine
 10
100.39995
 20
62.29919999999999
 30
0.0
 11
101.97495
 21
49.3698
 31
0.0
  0
LINE
  5
129
330
1E
100
AcDbEntity
  8
0
100
AcDbLine
 10
99.94995000000001
 20
36.5031
 30
0.0
 11
101.97495
 21
49.3698
 31
0.0
  0
LINE
  5
12A
330
1E
100
AcDbEntity
  8
0
100
AcDbLine
 10
94.84095000000001
 20
24.59049999999999
 30
0.0
 11
99.94995000000001
 21
36.5031
 31
0.0
  0
LINE
  5
12B
330
1E
100
AcDbEntity
  8
0
100
AcDbLine
 10
101.97495
 20
102.75
 30
0.0
 11
101.97495
 21
103.8499999999999
 31
0.0
  0
LINE
  5
12C
330
1E
100
AcDbEntity
  8
0
100
AcDbLine
 10
88.97495000000001
 20
140.35
 30
0.0
 11
88.97495000000001
 21
133.75
 31
0.0
  0
LINE
  5
12D
330
1E
100
AcDbEntity
  8
0
100
AcDbLine
 10
88.97495000000001
 20
140.35
 30
0.0
 11
88.97495000000001
 21
146.4499999999999
 31
0.0
  0
LINE
  5
12E
330
1E
100
AcDbEntity
  8
0
100
AcDbLine
 10
88.97495000000001
 20
127.15
 30
0.0
 11
88.97495000000001
 21
133.75
 31
0.0
  0
LINE
  5
12F
330
1E
100
AcDbEntity
  8
0
100
AcDbLine
 10
88.97495000000001
 20
133.75
 30
0.0
 11
88.97495000000001
 21
127.15
 31
0.0
  0
LINE
  5
130
330
1E
100
AcDbEntity
  8
0
100
AcDbLine
 10
88.97495000000001
 20
133.75
 30
0.0
 11
88.97495000000001
 21
140.35
 31
0.0
  0
LINE
  5
131
330
1E
100
AcDbEntity
  8
0
100
AcDbLine
 10
88.97495000000001
 20
146.4499999999999
 30
0.0
 11
88.97495000000001
 21
155.8499999999999
 31
0.0
  0
LINE
  5
132
330
1E
100
AcDbEntity
  8
0
100
AcDbLine
 10
88.97495000000001
 20
146.4499999999999
 30
0.0
 11
88.97495000000001
 21
141.7499999999999
 31
0.0
  0
LINE
  5
133
330
1E
100
AcDbEntity
  8
0
100
AcDbLine
 10
88.97495000000001
 20
146.4499999999999
 30
0.0
 11
88.97495000000001
 21
140.35
 31
0.0
  0
LINE
  5
134
330
1E
100
AcDbEntity
  8
0
100
AcDbLine
 10
88.97495000000001
 20
141.7499999999999
 30
0.0
 11
88.97495000000001
 21
146.4499999999999
 31
0.0
  0
LINE
  5
135
330
1E
100
AcDbEntity
  8
0
100
AcDbLine
 10
88.97495000000001
 20
155.8499999999999
 30
0.0
 11
88.97495000000001
 21
158.3499999999999
 31
0.0
  0
LINE
  5
136
330
1E
100
AcDbEntity
  8
0
100
AcDbLine
 10
88.97495000000001
 20
155.8499999999999
 30
0.0
 11
88.97495000000001
 21
146.4499999999999
 31
0.0
  0
LINE
  5
137
330
1E
100
AcDbEntity
  8
0
100
AcDbLine
 10
88.97495000000001
 20
159.25
 30
0.0
 11
89.27495
 21
159.9499999999999
 31
0.0
  0
LINE
  5
138
330
1E
100
AcDbEntity
  8
0
100
AcDbLine
 10
88.97495000000001
 20
159.25
 30
0.0
 11
88.97495000000001
 21
158.3499999999999
 31
0.0
  0
LINE
  5
139
330
1E
100
AcDbEntity
  8
0
100
AcDbLine
 10
89.27495
 20
120.75
 30
0.0
 11
89.27495
 21
115.25
 31
0.0
  0
LINE
  5
13A
330
1E
100
AcDbEntity
  8
0
100
AcDbLine
 10
89.27495
 20
120.75
 30
0.0
 11
89.27495
 21
127.0499999999999
 31
0.0
  0
LINE
  5
13B
330
1E
100
AcDbEntity
  8
0
100
AcDbLine
 10
89.27495
 20
127.0499999999999
 30
0.0
 11
89.27495
 21
120.75
 31
0.0
  0
LINE
  5
13C
330
1E
100
AcDbEntity
  8
0
100
AcDbLine
 10
89.27495
 20
127.0499999999999
 30
0.0
 11
89.27495
 21
133.75
 31
0.0
  0
LINE
  5
13D
330
1E
100
AcDbEntity
  8
0
100
AcDbLine
 10
89.27495
 20
146.75
 30
0.0
 11
89.27495
 21
140.4499999999999
 31
0.0
  0
LINE
  5
13E
330
1E
100
AcDbEntity
  8
0
100
AcDbLine
 10
89.27495
 20
146.75
 30
0.0
 11
89.27495
 21
152.2499999999999
 31
0.0
  0
LINE
  5
13F
330
1E
100
AcDbEntity
  8
0
100
AcDbLine
 10
89.27495
 20
140.4499999999999
 30
0.0
 11
89.27495
 21
133.75
 31
0.0
  0
LINE
  5
140
330
1E
100
AcDbEntity
  8
0
100
AcDbLine
 10
89.27495
 20
140.4499999999999
 30
0.0
 11
89.27495
 21
146.75
 31
0.0
  0
LINE
  5
141
330
1E
100
AcDbEntity
  8
0
100
AcDbLine
 10
89.27495
 20
133.75
 30
0.0
 11
89.27495
 21
127.0499999999999
 31
0.0
  0
LINE
  5
142
330
1E
100
AcDbEntity
  8
0
100
AcDbLine
 10
89.27495
 20
133.75
 30
0.0
 11
89.27495
 21
140.4499999999999
 31
0.0
  0
LINE
  5
143
330
1E
100
AcDbEntity
  8
0
100
AcDbLine
 10
89.27495
 20
115.25
 30
0.0
 11
89.27495
 21
111.05
 31
0.0
  0
LINE
  5
144
330
1E
100
AcDbEntity
  8
0
100
AcDbLine
 10
89.27495
 20
115.25
 30
0.0
 11
89.27495
 21
120.75
 31
0.0
  0
LINE
  5
145
330
1E
100
AcDbEntity
  8
0
100
AcDbLine
 10
89.27495
 20
111.05
 30
0.0
 11
89.27495
 21
108.45
 31
0.0
  0
LINE
  5
146
330
1E
100
AcDbEntity
  8
0
100
AcDbLine
 10
89.27495
 20
111.05
 30
0.0
 11
89.27495
 21
115.25
 31
0.0
  0
LINE
  5
147
330
1E
100
AcDbEntity
  8
0
100
AcDbLine
 10
89.27495
 20
108.45
 30
0.0
 11
89.27495
 21
107.5499999999999
 31
0.0
  0
LINE
  5
148
330
1E
100
AcDbEntity
  8
0
100
AcDbLine
 10
89.27495
 20
108.45
 30
0.0
 11
89.27495
 21
111.05
 31
0.0
  0
LINE
  5
149
330
1E
100
AcDbEntity
  8
0
100
AcDbLine
 10
89.27495
 20
152.2499999999999
 30
0.0
 11
89.27495
 21
156.4499999999999
 31
0.0
  0
LINE
  5
14A
330
1E
100
AcDbEntity
  8
0
100
AcDbLine
 10
89.27495
 20
152.2499999999999
 30
0.0
 11
89.27495
 21
146.75
 31
0.0
  0
LINE
  5
14B
330
1E
100
AcDbEntity
  8
0
100
AcDbLine
 10
89.27495
 20
156.4499999999999
 30
0.0
 11
89.27495
 21
152.2499999999999
 31
0.0
  0
LINE
  5
14C
330
1E
100
AcDbEntity
  8
0
100
AcDbLine
 10
89.27495
 20
156.4499999999999
 30
0.0
 11
89.27495
 21
159.05
 31
0.0
  0
LINE
  5
14D
330
1E
100
AcDbEntity
  8
0
100
AcDbLine
 10
89.27495
 20
159.05
 30
0.0
 11
89.27495
 21
156.4499999999999
 31
0.0
  0
LINE
  5
14E
330
1E
100
AcDbEntity
  8
0
100
AcDbLine
 10
89.27495
 20
159.05
 30
0.0
 11
89.27495
 21
159.9499999999999
 31
0.0
  0
LINE
  5
14F
330
1E
100
AcDbEntity
  8
0
100
AcDbLine
 10
88.97495000000001
 20
158.3499999999999
 30
0.0
 11
88.97495000000001
 21
159.25
 31
0.0
  0
LINE
  5
150
330
1E
100
AcDbEntity
  8
0
100
AcDbLine
 10
88.97495000000001
 20
158.3499999999999
 30
0.0
 11
88.97495000000001
 21
155.8499999999999
 31
0.0
  0
LINE
  5
151
330
1E
100
AcDbEntity
  8
0
100
AcDbLine
 10
89.27495
 20
159.9499999999999
 30
0.0
 11
89.97495
 21
160.25
 31
0.0
  0
LINE
  5
152
330
1E
100
AcDbEntity
  8
0
100
AcDbLine
 10
89.27495
 20
159.9499999999999
 30
0.0
 11
89.27495
 21
159.05
 31
0.0
  0
LINE
  5
153
330
1E
100
AcDbEntity
  8
0
100
AcDbLine
 10
89.97495
 20
160.25
 30
0.0
 11
91.47495000000001
 21
160.7499999999999
 31
0.0
  0
LINE
  5
154
330
1E
100
AcDbEntity
  8
0
100
AcDbLine
 10
89.27495
 20
107.5499999999999
 30
0.0
 11
89.97495
 21
107.25
 31
0.0
  0
LINE
  5
155
330
1E
100
AcDbEntity
  8
0
100
AcDbLine
 10
89.27495
 20
107.5499999999999
 30
0.0
 11
89.27495
 21
108.45
 31
0.0
  0
LINE
  5
156
330
1E
100
AcDbEntity
  8
0
100
AcDbLine
 10
91.47495000000001
 20
160.7499999999999
 30
0.0
 11
93.47495
 21
161.7499999999999
 31
0.0
  0
LINE
  5
157
330
1E
100
AcDbEntity
  8
0
100
AcDbLine
 10
93.47495
 20
161.7499999999999
 30
0.0
 11
94.97495
 21
163.25
 31
0.0
  0
LINE
  5
158
330
1E
100
AcDbEntity
  8
0
100
AcDbLine
 10
89.97495
 20
107.25
 30
0.0
 11
91.47495000000001
 21
106.75
 31
0.0
  0
LINE
  5
159
330
1E
100
AcDbEntity
  8
0
100
AcDbLine
 10
91.47495000000001
 20
106.75
 30
0.0
 11
93.47495
 21
105.75
 31
0.0
  0
LINE
  5
15A
330
1E
100
AcDbEntity
  8
0
100
AcDbLine
 10
94.97495
 20
163.25
 30
0.0
 11
95.47495000000001
 21
164.25
 31
0.0
  0
LINE
  5
15B
330
1E
100
AcDbEntity
  8
0
100
AcDbLine
 10
95.47495000000001
 20
164.25
 30
0.0
 11
95.97495
 21
164.7499999999999
 31
0.0
  0
LINE
  5
15C
330
1E
100
AcDbEntity
  8
0
100
AcDbLine
 10
93.47495
 20
105.75
 30
0.0
 11
94.97495
 21
104.2499999999999
 31
0.0
  0
LINE
  5
15D
330
1E
100
AcDbEntity
  8
0
100
AcDbLine
 10
94.97495
 20
104.2499999999999
 30
0.0
 11
95.47495000000001
 21
103.2499999999999
 31
0.0
  0
LINE
  5
15E
330
1E
100
AcDbEntity
  8
0
100
AcDbLine
 10
95.97495
 20
118.3499999999999
 30
0.0
 11
95.97495
 21
111.85
 31
0.0
  0
LINE
  5
15F
330
1E
100
AcDbEntity
  8
0
100
AcDbLine
 10
95.97495
 20
118.3499999999999
 30
0.0
 11
95.97495
 21
125.75
 31
0.0
  0
LINE
  5
160
330
1E
100
AcDbEntity
  8
0
100
AcDbLine
 10
95.97495
 20
149.15
 30
0.0
 11
95.97495
 21
141.7499999999999
 31
0.0
  0
LINE
  5
161
330
1E
100
AcDbEntity
  8
0
100
AcDbLine
 10
95.97495
 20
149.15
 30
0.0
 11
95.97495
 21
155.6499999999999
 31
0.0
  0
LINE
  5
162
330
1E
100
AcDbEntity
  8
0
100
AcDbLine
 10
95.97495
 20
141.7499999999999
 30
0.0
 11
95.97495
 21
133.75
 31
0.0
  0
LINE
  5
163
330
1E
100
AcDbEntity
  8
0
100
AcDbLine
 10
95.97495
 20
141.7499999999999
 30
0.0
 11
95.97495
 21
149.15
 31
0.0
  0
LINE
  5
164
330
1E
100
AcDbEntity
  8
0
100
AcDbLine
 10
95.97495
 20
125.75
 30
0.0
 11
95.97495
 21
118.3499999999999
 31
0.0
  0
LINE
  5
165
330
1E
100
AcDbEntity
  8
0
100
AcDbLine
 10
95.97495
 20
125.75
 30
0.0
 11
95.97495
 21
133.75
 31
0.0
  0
LINE
  5
166
330
1E
100
AcDbEntity
  8
0
100
AcDbLine
 10
95.97495
 20
133.75
 30
0.0
 11
95.97495
 21
125.75
 31
0.0
  0
LINE
  5
167
330
1E
100
AcDbEntity
  8
0
100
AcDbLine
 10
95.97495
 20
133.75
 30
0.0
 11
95.97495
 21
141.7499999999999
 31
0.0
  0
LINE
  5
168
330
1E
100
AcDbEntity
  8
0
100
AcDbLine
 10
95.97495
 20
111.85
 30
0.0
 11
95.97495
 21
106.95
 31
0.0
  0
LINE
  5
169
330
1E
100
AcDbEntity
  8
0
100
AcDbLine
 10
95.97495
 20
111.85
 30
0.0
 11
95.97495
 21
118.3499999999999
 31
0.0
  0
LINE
  5
16A
330
1E
100
AcDbEntity
  8
0
100
AcDbLine
 10
95.97495
 20
106.95
 30
0.0
 11
95.97495
 21
103.8499999999999
 31
0.0
  0
LINE
  5
16B
330
1E
100
AcDbEntity
  8
0
100
AcDbLine
 10
95.97495
 20
106.95
 30
0.0
 11
95.97495
 21
111.85
 31
0.0
  0
LINE
  5
16C
330
1E
100
AcDbEntity
  8
0
100
AcDbLine
 10
95.97495
 20
103.8499999999999
 30
0.0
 11
95.97495
 21
102.75
 31
0.0
  0
LINE
  5
16D
330
1E
100
AcDbEntity
  8
0
100
AcDbLine
 10
95.97495
 20
103.8499999999999
 30
0.0
 11
95.97495
 21
106.95
 31
0.0
  0
LINE
  5
16E
330
1E
100
AcDbEntity
  8
0
100
AcDbLine
 10
101.97495
 20
118.3499999999999
 30
0.0
 11
101.97495
 21
111.85
 31
0.0
  0
LINE
  5
16F
330
1E
100
AcDbEntity
  8
0
100
AcDbLine
 10
101.97495
 20
118.3499999999999
 30
0.0
 11
101.97495
 21
125.75
 31
0.0
  0
LINE
  5
170
330
1E
100
AcDbEntity
  8
0
100
AcDbLine
 10
101.97495
 20
149.15
 30
0.0
 11
101.97495
 21
141.7499999999999
 31
0.0
  0
LINE
  5
171
330
1E
100
AcDbEntity
  8
0
100
AcDbLine
 10
101.97495
 20
149.15
 30
0.0
 11
101.97495
 21
155.6499999999999
 31
0.0
  0
LINE
  5
172
330
1E
100
AcDbEntity
  8
0
100
AcDbLine
 10
101.97495
 20
141.7499999999999
 30
0.0
 11
101.97495
 21
133.75
 31
0.0
  0
LINE
  5
173
330
1E
100
AcDbEntity
  8
0
100
AcDbLine
 10
101.97495
 20
141.7499999999999
 30
0.0
 11
101.97495
 21
149.15
 31
0.0
  0
LINE
  5
174
330
1E
100
AcDbEntity
  8
0
100
AcDbLine
 10
101.97495
 20
125.75
 30
0.0
 11
101.97495
 21
118.3499999999999
 31
0.0
  0
LINE
  5
175
330
1E
100
AcDbEntity
  8
0
100
AcDbLine
 10
101.97495
 20
125.75
 30
0.0
 11
101.97495
 21
133.75
 31
0.0
  0
LINE
  5
176
330
1E
100
AcDbEntity
  8
0
100
AcDbLine
 10
101.97495
 20
133.75
 30
0.0
 11
101.97495
 21
125.75
 31
0.0
  0
LINE
  5
177
330
1E
100
AcDbEntity
  8
0
100
AcDbLine
 10
101.97495
 20
133.75
 30
0.0
 11
101.97495
 21
141.7499999999999
 31
0.0
  0
LINE
  5
178
330
1E
100
AcDbEntity
  8
0
100
AcDbLine
 10
101.97495
 20
111.85
 30
0.0
 11
101.97495
 21
106.95
 31
0.0
  0
LINE
  5
179
330
1E
100
AcDbEntity
  8
0
100
AcDbLine
 10
101.97495
 20
111.85
 30
0.0
 11
101.97495
 21
118.3499999999999
 31
0.0
  0
LINE
  5
17A
330
1E
100
AcDbEntity
  8
0
100
AcDbLine
 10
101.97495
 20
106.95
 30
0.0
 11
101.97495
 21
103.8499999999999
 31
0.0
  0
LINE
  5
17B
330
1E
100
AcDbEntity
  8
0
100
AcDbLine
 10
101.97495
 20
106.95
 30
0.0
 11
101.97495
 21
111.85
 31
0.0
  0
LINE
  5
17C
330
1E
100
AcDbEntity
  8
0
100
AcDbLine
 10
101.97495
 20
103.8499999999999
 30
0.0
 11
101.97495
 21
102.75
 31
0.0
  0
LINE
  5
17D
330
1E
100
AcDbEntity
  8
0
100
AcDbLine
 10
101.97495
 20
103.8499999999999
 30
0.0
 11
101.97495
 21
106.95
 31
0.0
  0
LINE
  5
17E
330
1E
100
AcDbEntity
  8
0
100
AcDbLine
 10
95.97495
 20
155.6499999999999
 30
0.0
 11
95.97495
 21
160.55
 31
0.0
  0
LINE
  5
17F
330
1E
100
AcDbEntity
  8
0
100
AcDbLine
 10
95.97495
 20
155.6499999999999
 30
0.0
 11
95.97495
 21
149.15
 31
0.0
  0
LINE
  5
180
330
1E
100
AcDbEntity
  8
0
100
AcDbLine
 10
95.97495
 20
160.55
 30
0.0
 11
95.97495
 21
155.6499999999999
 31
0.0
  0
LINE
  5
181
330
1E
100
AcDbEntity
  8
0
100
AcDbLine
 10
95.97495
 20
160.55
 30
0.0
 11
95.97495
 21
163.65
 31
0.0
  0
LINE
  5
182
330
1E
100
AcDbEntity
  8
0
100
AcDbLine
 10
101.97495
 20
155.6499999999999
 30
0.0
 11
101.97495
 21
160.55
 31
0.0
  0
LINE
  5
183
330
1E
100
AcDbEntity
  8
0
100
AcDbLine
 10
101.97495
 20
155.6499999999999
 30
0.0
 11
101.97495
 21
149.15
 31
0.0
  0
LINE
  5
184
330
1E
100
AcDbEntity
  8
0
100
AcDbLine
 10
95.97495
 20
163.65
 30
0.0
 11
95.97495
 21
160.55
 31
0.0
  0
LINE
  5
185
330
1E
100
AcDbEntity
  8
0
100
AcDbLine
 10
95.97495
 20
163.65
 30
0.0
 11
95.97495
 21
164.7499999999999
 31
0.0
  0
LINE
  5
186
330
1E
100
AcDbEntity
  8
0
100
AcDbLine
 10
101.97495
 20
160.55
 30
0.0
 11
101.97495
 21
155.6499999999999
 31
0.0
  0
LINE
  5
187
330
1E
100
AcDbEntity
  8
0
100
AcDbLine
 10
101.97495
 20
160.55
 30
0.0
 11
101.97495
 21
163.65
 31
0.0
  0
LINE
  5
188
330
1E
100
AcDbEntity
  8
0
100
AcDbLine
 10
101.97495
 20
163.65
 30
0.0
 11
101.97495
 21
160.55
 31
0.0
  0
LINE
  5
189
330
1E
100
AcDbEntity
  8
0
100
AcDbLine
 10
101.97495
 20
163.65
 30
0.0
 11
101.97495
 21
164.7499999999999
 31
0.0
  0
LINE
  5
18A
330
1E
100
AcDbEntity
  8
0
100
AcDbLine
 10
101.97495
 20
164.7499999999999
 30
0.0
 11
101.97495
 21
163.65
 31
0.0
  0
LINE
  5
18B
330
1E
100
AcDbEntity
  8
0
100
AcDbLine
 10
95.97495
 20
164.7499999999999
 30
0.0
 11
101.97495
 21
164.7499999999999
 31
0.0
  0
LINE
  5
18C
330
1E
100
AcDbEntity
  8
0
100
AcDbLine
 10
95.97495
 20
164.7499999999999
 30
0.0
 11
95.97495
 21
163.65
 31
0.0
  0
LINE
  5
18D
330
1E
100
AcDbEntity
  8
0
100
AcDbLine
 10
95.47495000000001
 20
103.2499999999999
 30
0.0
 11
95.97495
 21
102.75
 31
0.0
  0
LINE
  5
18E
330
1E
100
AcDbEntity
  8
0
100
AcDbLine
 10
95.97495
 20
102.75
 30
0.0
 11
101.97495
 21
102.75
 31
0.0
  0
LINE
  5
18F
330
1E
100
AcDbEntity
  8
0
100
AcDbLine
 10
95.97495
 20
102.75
 30
0.0
 11
95.97495
 21
103.8499999999999
 31
0.0
  0
LINE
  5
190
330
1E
100
AcDbEntity
  8
0
100
AcDbLine
 10
88.97495000000001
 20
121.0499999999999
 30
0.0
 11
88.97495000000001
 21
125.75
 31
0.0
  0
LINE
  5
191
330
1E
100
AcDbEntity
  8
0
100
AcDbLine
 10
88.97495000000001
 20
121.0499999999999
 30
0.0
 11
88.97495000000001
 21
127.15
 31
0.0
  0
LINE
  5
192
330
1E
100
AcDbEntity
  8
0
100
AcDbLine
 10
88.97495000000001
 20
121.0499999999999
 30
0.0
 11
88.97495000000001
 21
115.7499999999999
 31
0.0
  0
LINE
  5
197
330
1E
100
AcDbEntity
  8
0
100
AcDbLine
 10
69.44345
 20
135.7525
 30
0.0
 11
69.87849525856063
 21
134.6734879802895
 31
0.0
  0
LINE
  5
198
330
1E
100
AcDbEntity
  8
0
100
AcDbLine
 10
69.87849525856063
 20
134.6734879802895
 30
0.0
 11
69.96455
 21
133.7410999999999
 31
0.0
  0
LINE
  5
199
330
1E
100
AcDbEntity
  8
0
100
AcDbLine
 10
49.3425
 20
60.73485999999999
 30
0.0
 11
50.18018
 21
61.388324
 31
0.0
  0
ENDSEC
  0
SECTION
  2
OBJECTS
  0
DICTIONARY
  5
C
330
0
100
AcDbDictionary
281
     1
  3
ACAD_GROUP
350
D
  3
ACAD_LAYOUT
350
19
  3
ACAD_MLINESTYLE
350
16
  3
ACAD_PLOTSETTINGS
350
18
  3
ACAD_PLOTSTYLENAME
350
E
  3
AcDbVariableDictionary
350
19A
  0
DICTIONARY
  5
D
102
{ACAD_REACTORS
330
C
102
}
330
C
100
AcDbDictionary
281
     1
  0
DICTIONARY
  5
19
102
{ACAD_REACTORS
330
C
102
}
330
C
100
AcDbDictionary
281
     1
  3
Layout1
350
1D
  3
Model
350
21
  0
DICTIONARY
  5
16
102
{ACAD_REACTORS
330
C
102
}
330
C
100
AcDbDictionary
281
     1
  3
Standard
350
17
  0
DICTIONARY
  5
18
102
{ACAD_REACTORS
330
C
102
}
330
C
100
AcDbDictionary
281
     1
  0
ACDBDICTIONARYWDFLT
  5
E
102
{ACAD_REACTORS
330
C
102
}
330
C
100
AcDbDictionary
281
     1
  3
Normal
350
F
100
AcDbDictionaryWithDefault
340
F
  0
DICTIONARY
  5
19A
102
{ACAD_REACTORS
330
C
102
}
330
C
100
AcDbDictionary
281
     1
  3
DIMASSOC
350
19B
  0
LAYOUT
  5
1D
102
{ACAD_REACTORS
330
19
102
}
330
19
100
AcDbPlotSettings
  1

  2
hp deskjet 980c series
  4

  6

 40
0.0
 41
0.0
 42
0.0
 43
0.0
 44
0.0
 45
0.0
 46
0.0
 47
0.0
 48
0.0
 49
0.0
140
0.0
141
0.0
142
1.0
143
1.0
 70
   688
 72
     0
 73
     0
 74
     5
  7

 75
    16
147
1.0
148
0.0
149
0.0
100
AcDbLayout
  1
Layout1
 70
     1
 71
     1
 10
0.0
 20
0.0
 11
12.0
 21
9.0
 12
0.0
 22
0.0
 32
0.0
 14
1.000000000000000E+20
 24
1.000000000000000E+20
 34
1.000000000000000E+20
 15
-1.000000000000000E+20
 25
-1.000000000000000E+20
 35
-1.000000000000000E+20
146
0.0
 13
0.0
 23
0.0
 33
0.0
 16
1.0
 26
0.0
 36
0.0
 17
0.0
 27
1.0
 37
0.0
 76
     0
330
1A
  0
LAYOUT
  5
21
102
{ACAD_REACTORS
330
19
102
}
330
19
100
AcDbPlotSettings
  1

  2
hp deskjet 980c series
  4

  6

 40
0.0
 41
0.0
 42
0.0
 43
0.0
 44
0.0
 45
0.0
 46
0.0
 47
0.0
 48
0.0
 49
0.0
140
0.0
141
0.0
142
1.0
143
1.0
 70
  1712
 72
     0
 73
     0
 74
     0
  7

 75
     0
147
1.0
148
0.0
149
0.0
100
AcDbLayout
  1
Model
 70
     1
 71
     0
 10
0.0
 20
0.0
 11
12.0
 21
9.0
 12
0.0
 22
0.0
 32
0.0
 14
0.0
 24
0.0
 34
0.0
 15
0.0
 25
0.0
 35
0.0
146
0.0
 13
0.0
 23
0.0
 33
0.0
 16
1.0
 26
0.0
 36
0.0
 17
0.0
 27
1.0
 37
0.0
 76
     0
330
1E
  0
MLINESTYLE
  5
17
102
{ACAD_REACTORS
330
16
102
}
330
16
100
AcDbMlineStyle
  2
STANDARD
 70
     0
  3

 62
   256
 51
90.0
 52
90.0
 71
     2
 49
0.5
 62
   256
  6
BYLAYER
 49
-0.5
 62
   256
  6
BYLAYER
  0
ACDBPLACEHOLDER
  5
F
102
{ACAD_REACTORS
330
E
102
}
330
E
  0
DICTIONARYVAR
  5
19B
102
{ACAD_REACTORS
330
19A
102
}
330
19A
100
DictionaryVariables
280
     0
  1
1
  0
ENDSEC
  0
EOF
