  0
SECTION
  2
HEADER
  9
$ACADVER
  1
AC1015
  9
$ACADMAINTVER
 70
    13
  9
$DWGCODEPAGE
  3
ANSI_1252
  9
$INSBASE
 10
0.0
 20
0.0
 30
0.0
  9
$EXTMIN
 10
-0.0000000000000131
 20
0.0000000000000036
 30
0.0
  9
$EXTMAX
 10
467.0
 20
62.0
 30
0.0
  9
$LIMMIN
 10
0.0
 20
0.0
  9
$LIMMAX
 10
12.0
 20
9.0
  9
$ORTHOMODE
 70
     0
  9
$REGENMODE
 70
     1
  9
$FILLMODE
 70
     1
  9
$QTEXTMODE
 70
     0
  9
$MIRRTEXT
 70
     1
  9
$LTSCALE
 40
1.0
  9
$ATTMODE
 70
     1
  9
$TEXTSIZE
 40
0.2
  9
$TRACEWID
 40
0.05
  9
$TEXTSTYLE
  7
Standard
  9
$CLAYER
  8
0
  9
$CELTYPE
  6
Continuous
  9
$CECOLOR
 62
   256
  9
$CELTSCALE
 40
1.0
  9
$DISPSILH
 70
     0
  9
$DIMSCALE
 40
1.0
  9
$DIMASZ
 40
0.18
  9
$DIMEXO
 40
0.0625
  9
$DIMDLI
 40
0.38
  9
$DIMRND
 40
0.0
  9
$DIMDLE
 40
0.0
  9
$DIMEXE
 40
0.18
  9
$DIMTP
 40
0.0
  9
$DIMTM
 40
0.0
  9
$DIMTXT
 40
0.18
  9
$DIMCEN
 40
0.09
  9
$DIMTSZ
 40
0.0
  9
$DIMTOL
 70
     0
  9
$DIMLIM
 70
     0
  9
$DIMTIH
 70
     1
  9
$DIMTOH
 70
     1
  9
$DIMSE1
 70
     0
  9
$DIMSE2
 70
     0
  9
$DIMTAD
 70
     0
  9
$DIMZIN
 70
     0
  9
$DIMBLK
  1

  9
$DIMASO
 70
     1
  9
$DIMSHO
 70
     1
  9
$DIMPOST
  1

  9
$DIMAPOST
  1

  9
$DIMALT
 70
     0
  9
$DIMALTD
 70
     2
  9
$DIMALTF
 40
25.4
  9
$DIMLFAC
 40
1.0
  9
$DIMTOFL
 70
     0
  9
$DIMTVP
 40
0.0
  9
$DIMTIX
 70
     0
  9
$DIMSOXD
 70
     0
  9
$DIMSAH
 70
     0
  9
$DIMBLK1
  1

  9
$DIMBLK2
  1

  9
$DIMSTYLE
  2
Standard
  9
$DIMCLRD
 70
     0
  9
$DIMCLRE
 70
     0
  9
$DIMCLRT
 70
     0
  9
$DIMTFAC
 40
1.0
  9
$DIMGAP
 40
0.09
  9
$DIMJUST
 70
     0
  9
$DIMSD1
 70
     0
  9
$DIMSD2
 70
     0
  9
$DIMTOLJ
 70
     1
  9
$DIMTZIN
 70
     0
  9
$DIMALTZ
 70
     0
  9
$DIMALTTZ
 70
     0
  9
$DIMUPT
 70
     0
  9
$DIMDEC
 70
     4
  9
$DIMTDEC
 70
     4
  9
$DIMALTU
 70
     2
  9
$DIMALTTD
 70
     2
  9
$DIMTXSTY
  7
Standard
  9
$DIMAUNIT
 70
     0
  9
$DIMADEC
 70
     0
  9
$DIMALTRND
 40
0.0
  9
$DIMAZIN
 70
     0
  9
$DIMDSEP
 70
    46
  9
$DIMATFIT
 70
     3
  9
$DIMFRAC
 70
     0
  9
$DIMLDRBLK
  1

  9
$DIMLUNIT
 70
     2
  9
$DIMLWD
 70
    -2
  9
$DIMLWE
 70
    -2
  9
$DIMTMOVE
 70
     0
  9
$LUNITS
 70
     2
  9
$LUPREC
 70
     4
  9
$SKETCHINC
 40
0.1
  9
$FILLETRAD
 40
0.0
  9
$AUNITS
 70
     0
  9
$AUPREC
 70
     0
  9
$MENU
  1
.
  9
$ELEVATION
 40
0.0
  9
$PELEVATION
 40
0.0
  9
$THICKNESS
 40
0.0
  9
$LIMCHECK
 70
     0
  9
$CHAMFERA
 40
0.0
  9
$CHAMFERB
 40
0.0
  9
$CHAMFERC
 40
0.0
  9
$CHAMFERD
 40
0.0
  9
$SKPOLY
 70
     0
  9
$TDCREATE
 40
2454778.790940208
  9
$TDUCREATE
 40
2454778.749273542
  9
$TDUPDATE
 40
2454778.808581446
  9
$TDUUPDATE
 40
2454778.766914780
  9
$TDINDWG
 40
0.0176414236
  9
$TDUSRTIMER
 40
0.0176414236
  9
$USRTIMER
 70
     1
  9
$ANGBASE
 50
0.0
  9
$ANGDIR
 70
     0
  9
$PDMODE
 70
     0
  9
$PDSIZE
 40
0.0
  9
$PLINEWID
 40
0.0
  9
$SPLFRAME
 70
     0
  9
$SPLINETYPE
 70
     6
  9
$SPLINESEGS
 70
     8
  9
$HANDSEED
  5
211
  9
$SURFTAB1
 70
     6
  9
$SURFTAB2
 70
     6
  9
$SURFTYPE
 70
     6
  9
$SURFU
 70
     6
  9
$SURFV
 70
     6
  9
$UCSBASE
  2

  9
$UCSNAME
  2

  9
$UCSORG
 10
0.0
 20
0.0
 30
0.0
  9
$UCSXDIR
 10
1.0
 20
0.0
 30
0.0
  9
$UCSYDIR
 10
0.0
 20
1.0
 30
0.0
  9
$UCSORTHOREF
  2

  9
$UCSORTHOVIEW
 70
     1
  9
$UCSORGTOP
 10
0.0
 20
0.0
 30
0.0
  9
$UCSORGBOTTOM
 10
0.0
 20
0.0
 30
0.0
  9
$UCSORGLEFT
 10
0.0
 20
0.0
 30
0.0
  9
$UCSORGRIGHT
 10
0.0
 20
0.0
 30
0.0
  9
$UCSORGFRONT
 10
0.0
 20
0.0
 30
0.0
  9
$UCSORGBACK
 10
0.0
 20
0.0
 30
0.0
  9
$PUCSBASE
  2

  9
$PUCSNAME
  2

  9
$PUCSORG
 10
0.0
 20
0.0
 30
0.0
  9
$PUCSXDIR
 10
1.0
 20
0.0
 30
0.0
  9
$PUCSYDIR
 10
0.0
 20
1.0
 30
0.0
  9
$PUCSORTHOREF
  2

  9
$PUCSORTHOVIEW
 70
     0
  9
$PUCSORGTOP
 10
0.0
 20
0.0
 30
0.0
  9
$PUCSORGBOTTOM
 10
0.0
 20
0.0
 30
0.0
  9
$PUCSORGLEFT
 10
0.0
 20
0.0
 30
0.0
  9
$PUCSORGRIGHT
 10
0.0
 20
0.0
 30
0.0
  9
$PUCSORGFRONT
 10
0.0
 20
0.0
 30
0.0
  9
$PUCSORGBACK
 10
0.0
 20
0.0
 30
0.0
  9
$USERI1
 70
     0
  9
$USERI2
 70
     0
  9
$USERI3
 70
     0
  9
$USERI4
 70
     0
  9
$USERI5
 70
     0
  9
$USERR1
 40
0.0
  9
$USERR2
 40
0.0
  9
$USERR3
 40
0.0
  9
$USERR4
 40
0.0
  9
$USERR5
 40
0.0
  9
$WORLDVIEW
 70
     1
  9
$SHADEDGE
 70
     3
  9
$SHADEDIF
 70
    70
  9
$TILEMODE
 70
     1
  9
$MAXACTVP
 70
    64
  9
$PINSBASE
 10
0.0
 20
0.0
 30
0.0
  9
$PLIMCHECK
 70
     0
  9
$PEXTMIN
 10
1.000000000000000E+20
 20
1.000000000000000E+20
 30
1.000000000000000E+20
  9
$PEXTMAX
 10
-1.000000000000000E+20
 20
-1.000000000000000E+20
 30
-1.000000000000000E+20
  9
$PLIMMIN
 10
0.0
 20
0.0
  9
$PLIMMAX
 10
12.0
 20
9.0
  9
$UNITMODE
 70
     0
  9
$VISRETAIN
 70
     1
  9
$PLINEGEN
 70
     0
  9
$PSLTSCALE
 70
     1
  9
$TREEDEPTH
 70
  3020
  9
$CMLSTYLE
  2
Standard
  9
$CMLJUST
 70
     0
  9
$CMLSCALE
 40
1.0
  9
$PROXYGRAPHICS
 70
     1
  9
$MEASUREMENT
 70
     0
  9
$CELWEIGHT
370
    -1
  9
$ENDCAPS
280
     0
  9
$JOINSTYLE
280
     0
  9
$LWDISPLAY
290
     0
  9
$INSUNITS
 70
     0
  9
$HYPERLINKBASE
  1

  9
$STYLESHEET
  1

  9
$XEDIT
290
     1
  9
$CEPSNTYPE
380
     0
  9
$PSTYLEMODE
290
     1
  9
$FINGERPRINTGUID
  2
{608AE173-6495-4E48-850C-338103677DDF}
  9
$VERSIONGUID
  2
{878A08DD-1341-4B84-B350-27AA17A9ED02}
  9
$EXTNAMES
290
     1
  9
$PSVPSCALE
 40
0.0
  9
$OLESTARTUP
290
     0
  0
ENDSEC
  0
SECTION
  2
CLASSES
  0
CLASS
  1
ACDBDICTIONARYWDFLT
  2
AcDbDictionaryWithDefault
  3
AutoCAD 2000
 90
        0
280
     0
281
     0
  0
CLASS
  1
ACDBPLACEHOLDER
  2
AcDbPlaceHolder
  3
AutoCAD 2000
 90
        0
280
     0
281
     0
  0
CLASS
  1
LAYOUT
  2
AcDbLayout
  3
AutoCAD 2000
 90
        0
280
     0
281
     0
  0
CLASS
  1
DICTIONARYVAR
  2
AcDbDictionaryVar
  3
AutoCAD 2000
 90
        0
280
     0
281
     0
  0
ENDSEC
  0
SECTION
  2
TABLES
  0
TABLE
  2
VPORT
  5
8
330
0
100
AcDbSymbolTable
 70
     2
  0
VPORT
  5
210
330
8
100
AcDbSymbolTableRecord
100
AcDbViewportTableRecord
  2
*Active
 70
     0
 10
0.0
 20
0.0
 11
1.0
 21
1.0
 12
233.4999999999999
 22
31.0
 13
0.0
 23
0.0
 14
1.0
 24
1.0
 15
0.0
 25
0.0
 16
0.0
 26
0.0
 36
1.0
 17
0.0
 27
0.0
 37
0.0
 40
225.5542289259384
 41
2.078104993597951
 42
50.0
 43
0.0
 44
0.0
 50
0.0
 51
0.0
 71
     0
 72
   100
 73
     1
 74
     3
 75
     0
 76
     0
 77
     0
 78
     0
281
     0
 65
     1
110
0.0
120
0.0
130
0.0
111
1.0
121
0.0
131
0.0
112
0.0
122
1.0
132
0.0
 79
     1
146
0.0
  0
ENDTAB
  0
TABLE
  2
LTYPE
  5
5
330
0
100
AcDbSymbolTable
 70
     1
  0
LTYPE
  5
13
330
5
100
AcDbSymbolTableRecord
100
AcDbLinetypeTableRecord
  2
ByBlock
 70
     0
  3

 72
    65
 73
     0
 40
0.0
  0
LTYPE
  5
14
330
5
100
AcDbSymbolTableRecord
100
AcDbLinetypeTableRecord
  2
ByLayer
 70
     0
  3

 72
    65
 73
     0
 40
0.0
  0
LTYPE
  5
15
330
5
100
AcDbSymbolTableRecord
100
AcDbLinetypeTableRecord
  2
Continuous
 70
     0
  3
Solid line
 72
    65
 73
     0
 40
0.0
  0
ENDTAB
  0
TABLE
  2
LAYER
  5
2
330
0
100
AcDbSymbolTable
 70
     1
  0
LAYER
  5
10
330
2
100
AcDbSymbolTableRecord
100
AcDbLayerTableRecord
  2
0
 70
     0
 62
     7
  6
Continuous
370
    -3
390
F
  0
ENDTAB
  0
TABLE
  2
STYLE
  5
3
330
0
100
AcDbSymbolTable
 70
     1
  0
STYLE
  5
11
330
3
100
AcDbSymbolTableRecord
100
AcDbTextStyleTableRecord
  2
Standard
 70
     0
 40
0.0
 41
1.0
 50
0.0
 71
     0
 42
0.2
  3
txt
  4

  0
ENDTAB
  0
TABLE
  2
VIEW
  5
6
330
0
100
AcDbSymbolTable
 70
     0
  0
ENDTAB
  0
TABLE
  2
UCS
  5
7
330
0
100
AcDbSymbolTable
 70
     0
  0
ENDTAB
  0
TABLE
  2
APPID
  5
9
330
0
100
AcDbSymbolTable
 70
     1
  0
APPID
  5
12
330
9
100
AcDbSymbolTableRecord
100
AcDbRegAppTableRecord
  2
ACAD
 70
     0
  0
ENDTAB
  0
TABLE
  2
DIMSTYLE
  5
A
330
0
100
AcDbSymbolTable
 70
     1
100
AcDbDimStyleTable
 71
     0
  0
DIMSTYLE
105
20A
330
A
100
AcDbSymbolTableRecord
100
AcDbDimStyleTableRecord
  2
Standard
 70
     0
340
11
  0
ENDTAB
  0
TABLE
  2
BLOCK_RECORD
  5
1
330
0
100
AcDbSymbolTable
 70
     0
  0
BLOCK_RECORD
  5
1E
330
1
100
AcDbSymbolTableRecord
100
AcDbBlockTableRecord
  2
*Model_Space
340
21
  0
BLOCK_RECORD
  5
1A
330
1
100
AcDbSymbolTableRecord
100
AcDbBlockTableRecord
  2
*Paper_Space
340
1D
  0
ENDTAB
  0
ENDSEC
  0
SECTION
  2
BLOCKS
  0
BLOCK
  5
1F
330
1E
100
AcDbEntity
  8
0
100
AcDbBlockBegin
  2
*Model_Space
 70
     0
 10
0.0
 20
0.0
 30
0.0
  3
*Model_Space
  1

  0
ENDBLK
  5
20
330
1E
100
AcDbEntity
  8
0
100
AcDbBlockEnd
  0
BLOCK
  5
1B
330
1A
100
AcDbEntity
 67
     1
  8
0
100
AcDbBlockBegin
  2
*Paper_Space
 70
     0
 10
0.0
 20
0.0
 30
0.0
  3
*Paper_Space
  1

  0
ENDBLK
  5
1C
330
1A
100
AcDbEntity
 67
     1
  8
0
100
AcDbBlockEnd
  0
ENDSEC
  0
SECTION
  2
ENTITIES
  0
LINE
  5
22
330
1E
100
AcDbEntity
  8
0
100
AcDbLine
 10
2.177419999999989
 20
18.5
 30
0.0
 11
2.49999999999999
 21
18.8
 31
0.0
  0
LINE
  5
23
330
1E
100
AcDbEntity
  8
0
100
AcDbLine
 10
2.177419999999989
 20
18.5
 30
0.0
 11
2.177419999999989
 21
18.94999999999999
 31
0.0
  0
LINE
  5
24
330
1E
100
AcDbEntity
  8
0
100
AcDbLine
 10
0.8225809999999869
 20
18.5
 30
0.0
 11
0.8225809999999869
 21
18.94999999999999
 31
0.0
  0
LINE
  5
25
330
1E
100
AcDbEntity
  8
0
100
AcDbLine
 10
0.8225809999999869
 20
18.5
 30
0.0
 11
2.177419999999989
 21
18.5
 31
0.0
  0
LINE
  5
26
330
1E
100
AcDbEntity
  8
0
100
AcDbLine
 10
0.4999999999999871
 20
18.8
 30
0.0
 11
0.8225809999999869
 21
18.5
 31
0.0
  0
LINE
  5
27
330
1E
100
AcDbEntity
  8
0
100
AcDbLine
 10
0.4999999999999871
 20
18.8
 30
0.0
 11
0.4999999999999871
 21
19.25
 31
0.0
  0
LINE
  5
28
330
1E
100
AcDbEntity
  8
0
100
AcDbLine
 10
2.69230999999999
 20
18.5
 30
0.0
 11
233.4999999999999
 21
18.5
 31
0.0
  0
LINE
  5
29
330
1E
100
AcDbEntity
  8
0
100
AcDbLine
 10
2.69230999999999
 20
18.5
 30
0.0
 11
2.69230999999999
 21
18.94999999999999
 31
0.0
  0
LINE
  5
2A
330
1E
100
AcDbEntity
  8
0
100
AcDbLine
 10
2.69230999999999
 20
18.5
 30
0.0
 11
233.4999999999999
 21
18.5
 31
0.0
  0
LINE
  5
2B
330
1E
100
AcDbEntity
  8
0
100
AcDbLine
 10
0.4999999999999871
 20
20.44999999999999
 30
0.0
 11
0.4999999999999871
 21
19.25
 31
0.0
  0
LINE
  5
2C
330
1E
100
AcDbEntity
  8
0
100
AcDbLine
 10
0.4999999999999871
 20
20.44999999999999
 30
0.0
 11
0.4999999999999871
 21
22.39999999999999
 31
0.0
  0
LINE
  5
2D
330
1E
100
AcDbEntity
  8
0
100
AcDbLine
 10
2.177419999999989
 20
18.94999999999999
 30
0.0
 11
2.177419999999989
 21
20.15
 31
0.0
  0
LINE
  5
2E
330
1E
100
AcDbEntity
  8
0
100
AcDbLine
 10
2.177419999999989
 20
18.94999999999999
 30
0.0
 11
2.177419999999989
 21
18.5
 31
0.0
  0
LINE
  5
2F
330
1E
100
AcDbEntity
  8
0
100
AcDbLine
 10
2.177419999999989
 20
20.15
 30
0.0
 11
2.177419999999989
 21
22.14999999999999
 31
0.0
  0
LINE
  5
30
330
1E
100
AcDbEntity
  8
0
100
AcDbLine
 10
2.177419999999989
 20
20.15
 30
0.0
 11
2.177419999999989
 21
18.94999999999999
 31
0.0
  0
LINE
  5
31
330
1E
100
AcDbEntity
  8
0
100
AcDbLine
 10
0.8225809999999869
 20
20.15
 30
0.0
 11
0.8225809999999869
 21
22.14999999999999
 31
0.0
  0
LINE
  5
32
330
1E
100
AcDbEntity
  8
0
100
AcDbLine
 10
0.8225809999999869
 20
20.15
 30
0.0
 11
0.8225809999999869
 21
18.94999999999999
 31
0.0
  0
LINE
  5
33
330
1E
100
AcDbEntity
  8
0
100
AcDbLine
 10
0.8225809999999869
 20
18.94999999999999
 30
0.0
 11
0.8225809999999869
 21
20.15
 31
0.0
  0
LINE
  5
34
330
1E
100
AcDbEntity
  8
0
100
AcDbLine
 10
0.8225809999999869
 20
18.94999999999999
 30
0.0
 11
0.8225809999999869
 21
18.5
 31
0.0
  0
LINE
  5
35
330
1E
100
AcDbEntity
  8
0
100
AcDbLine
 10
0.4999999999999871
 20
19.25
 30
0.0
 11
0.4999999999999871
 21
20.44999999999999
 31
0.0
  0
LINE
  5
36
330
1E
100
AcDbEntity
  8
0
100
AcDbLine
 10
0.4999999999999871
 20
19.25
 30
0.0
 11
0.4999999999999871
 21
18.8
 31
0.0
  0
LINE
  5
37
330
1E
100
AcDbEntity
  8
0
100
AcDbLine
 10
0.184911999999987
 20
20.5
 30
0.0
 11
0.4999999999999871
 21
20.5
 31
0.0
  0
LINE
  5
38
330
1E
100
AcDbEntity
  8
0
100
AcDbLine
 10
-0.0000000000000131
 20
22.138
 30
0.0
 11
-0.0000000000000131
 21
21.12999999999999
 31
0.0
  0
LINE
  5
39
330
1E
100
AcDbEntity
  8
0
100
AcDbLine
 10
-0.0000000000000131
 20
22.138
 30
0.0
 11
-0.0000000000000131
 21
23.776
 31
0.0
  0
LINE
  5
3A
330
1E
100
AcDbEntity
  8
0
100
AcDbLine
 10
0.184911999999987
 20
21.886
 30
0.0
 11
0.184911999999987
 21
23.56599999999999
 31
0.0
  0
LINE
  5
3B
330
1E
100
AcDbEntity
  8
0
100
AcDbLine
 10
0.184911999999987
 20
21.886
 30
0.0
 11
0.184911999999987
 21
20.878
 31
0.0
  0
LINE
  5
3C
330
1E
100
AcDbEntity
  8
0
100
AcDbLine
 10
0.184911999999987
 20
20.878
 30
0.0
 11
0.184911999999987
 21
21.886
 31
0.0
  0
LINE
  5
3D
330
1E
100
AcDbEntity
  8
0
100
AcDbLine
 10
0.184911999999987
 20
20.878
 30
0.0
 11
0.184911999999987
 21
20.5
 31
0.0
  0
LINE
  5
3E
330
1E
100
AcDbEntity
  8
0
100
AcDbLine
 10
-0.0000000000000131
 20
21.12999999999999
 30
0.0
 11
-0.0000000000000131
 21
20.752
 31
0.0
  0
LINE
  5
3F
330
1E
100
AcDbEntity
  8
0
100
AcDbLine
 10
-0.0000000000000131
 20
21.12999999999999
 30
0.0
 11
-0.0000000000000131
 21
22.138
 31
0.0
  0
LINE
  5
40
330
1E
100
AcDbEntity
  8
0
100
AcDbLine
 10
-0.0000000000000131
 20
20.752
 30
0.0
 11
0.184911999999987
 21
20.5
 31
0.0
  0
LINE
  5
41
330
1E
100
AcDbEntity
  8
0
100
AcDbLine
 10
-0.0000000000000131
 20
20.752
 30
0.0
 11
-0.0000000000000131
 21
21.12999999999999
 31
0.0
  0
LINE
  5
42
330
1E
100
AcDbEntity
  8
0
100
AcDbLine
 10
0.184911999999987
 20
20.5
 30
0.0
 11
0.4999999999999871
 21
20.5
 31
0.0
  0
LINE
  5
43
330
1E
100
AcDbEntity
  8
0
100
AcDbLine
 10
0.184911999999987
 20
20.5
 30
0.0
 11
0.184911999999987
 21
20.878
 31
0.0
  0
LINE
  5
44
330
1E
100
AcDbEntity
  8
0
100
AcDbLine
 10
0.184911999999987
 20
23.56599999999999
 30
0.0
 11
0.184911999999987
 21
25.792
 31
0.0
  0
LINE
  5
45
330
1E
100
AcDbEntity
  8
0
100
AcDbLine
 10
0.184911999999987
 20
23.56599999999999
 30
0.0
 11
0.184911999999987
 21
21.886
 31
0.0
  0
LINE
  5
46
330
1E
100
AcDbEntity
  8
0
100
AcDbLine
 10
-0.0000000000000131
 20
23.776
 30
0.0
 11
-0.0000000000000131
 21
22.138
 31
0.0
  0
LINE
  5
47
330
1E
100
AcDbEntity
  8
0
100
AcDbLine
 10
-0.0000000000000131
 20
23.776
 30
0.0
 11
-0.0000000000000131
 21
25.918
 31
0.0
  0
LINE
  5
48
330
1E
100
AcDbEntity
  8
0
100
AcDbLine
 10
0.4999999999999871
 20
24.95
 30
0.0
 11
0.4999999999999871
 21
22.39999999999999
 31
0.0
  0
LINE
  5
49
330
1E
100
AcDbEntity
  8
0
100
AcDbLine
 10
0.4999999999999871
 20
24.95
 30
0.0
 11
0.4999999999999871
 21
27.85
 31
0.0
  0
LINE
  5
4A
330
1E
100
AcDbEntity
  8
0
100
AcDbLine
 10
0.4999999999999871
 20
22.39999999999999
 30
0.0
 11
0.4999999999999871
 21
20.44999999999999
 31
0.0
  0
LINE
  5
4B
330
1E
100
AcDbEntity
  8
0
100
AcDbLine
 10
0.4999999999999871
 20
22.39999999999999
 30
0.0
 11
0.4999999999999871
 21
24.95
 31
0.0
  0
LINE
  5
4C
330
1E
100
AcDbEntity
  8
0
100
AcDbLine
 10
2.177419999999989
 20
22.14999999999999
 30
0.0
 11
2.177419999999989
 21
24.8
 31
0.0
  0
LINE
  5
4D
330
1E
100
AcDbEntity
  8
0
100
AcDbLine
 10
2.177419999999989
 20
22.14999999999999
 30
0.0
 11
2.177419999999989
 21
20.15
 31
0.0
  0
LINE
  5
4E
330
1E
100
AcDbEntity
  8
0
100
AcDbLine
 10
2.177419999999989
 20
24.8
 30
0.0
 11
2.177419999999989
 21
27.8
 31
0.0
  0
LINE
  5
4F
330
1E
100
AcDbEntity
  8
0
100
AcDbLine
 10
2.177419999999989
 20
24.8
 30
0.0
 11
2.177419999999989
 21
22.14999999999999
 31
0.0
  0
LINE
  5
50
330
1E
100
AcDbEntity
  8
0
100
AcDbLine
 10
0.8225809999999869
 20
24.8
 30
0.0
 11
0.8225809999999869
 21
27.8
 31
0.0
  0
LINE
  5
51
330
1E
100
AcDbEntity
  8
0
100
AcDbLine
 10
0.8225809999999869
 20
24.8
 30
0.0
 11
0.8225809999999869
 21
22.14999999999999
 31
0.0
  0
LINE
  5
52
330
1E
100
AcDbEntity
  8
0
100
AcDbLine
 10
0.8225809999999869
 20
22.14999999999999
 30
0.0
 11
0.8225809999999869
 21
24.8
 31
0.0
  0
LINE
  5
53
330
1E
100
AcDbEntity
  8
0
100
AcDbLine
 10
0.8225809999999869
 20
22.14999999999999
 30
0.0
 11
0.8225809999999869
 21
20.15
 31
0.0
  0
LINE
  5
54
330
1E
100
AcDbEntity
  8
0
100
AcDbLine
 10
0.184911999999987
 20
25.792
 30
0.0
 11
0.184911999999987
 21
28.31199999999999
 31
0.0
  0
LINE
  5
55
330
1E
100
AcDbEntity
  8
0
100
AcDbLine
 10
0.184911999999987
 20
25.792
 30
0.0
 11
0.184911999999987
 21
23.56599999999999
 31
0.0
  0
LINE
  5
56
330
1E
100
AcDbEntity
  8
0
100
AcDbLine
 10
-0.0000000000000131
 20
28.35399999999999
 30
0.0
 11
-0.0000000000000131
 21
31.0
 31
0.0
  0
LINE
  5
57
330
1E
100
AcDbEntity
  8
0
100
AcDbLine
 10
-0.0000000000000131
 20
28.35399999999999
 30
0.0
 11
-0.0000000000000131
 21
25.918
 31
0.0
  0
LINE
  5
58
330
1E
100
AcDbEntity
  8
0
100
AcDbLine
 10
-0.0000000000000131
 20
31.0
 30
0.0
 11
-0.0000000000000131
 21
28.35399999999999
 31
0.0
  0
LINE
  5
59
330
1E
100
AcDbEntity
  8
0
100
AcDbLine
 10
-0.0000000000000131
 20
31.0
 30
0.0
 11
-0.0000000000000131
 21
28.35399999999999
 31
0.0
  0
LINE
  5
5A
330
1E
100
AcDbEntity
  8
0
100
AcDbLine
 10
-0.0000000000000131
 20
31.0
 30
0.0
 11
-0.0000000000000131
 21
33.646
 31
0.0
  0
LINE
  5
5B
330
1E
100
AcDbEntity
  8
0
100
AcDbLine
 10
0.184911999999987
 20
31.0
 30
0.0
 11
0.184911999999987
 21
28.31199999999999
 31
0.0
  0
LINE
  5
5C
330
1E
100
AcDbEntity
  8
0
100
AcDbLine
 10
0.184911999999987
 20
31.0
 30
0.0
 11
0.184911999999987
 21
33.688
 31
0.0
  0
LINE
  5
5D
330
1E
100
AcDbEntity
  8
0
100
AcDbLine
 10
-0.0000000000000131
 20
28.35399999999999
 30
0.0
 11
-0.0000000000000131
 21
25.918
 31
0.0
  0
LINE
  5
5E
330
1E
100
AcDbEntity
  8
0
100
AcDbLine
 10
-0.0000000000000131
 20
28.35399999999999
 30
0.0
 11
-0.0000000000000131
 21
31.0
 31
0.0
  0
LINE
  5
5F
330
1E
100
AcDbEntity
  8
0
100
AcDbLine
 10
-0.0000000000000131
 20
25.918
 30
0.0
 11
-0.0000000000000131
 21
23.776
 31
0.0
  0
LINE
  5
60
330
1E
100
AcDbEntity
  8
0
100
AcDbLine
 10
-0.0000000000000131
 20
25.918
 30
0.0
 11
-0.0000000000000131
 21
28.35399999999999
 31
0.0
  0
LINE
  5
61
330
1E
100
AcDbEntity
  8
0
100
AcDbLine
 10
-0.0000000000000131
 20
25.918
 30
0.0
 11
-0.0000000000000131
 21
28.35399999999999
 31
0.0
  0
LINE
  5
62
330
1E
100
AcDbEntity
  8
0
100
AcDbLine
 10
0.184911999999987
 20
28.31199999999999
 30
0.0
 11
0.184911999999987
 21
31.0
 31
0.0
  0
LINE
  5
63
330
1E
100
AcDbEntity
  8
0
100
AcDbLine
 10
0.184911999999987
 20
28.31199999999999
 30
0.0
 11
0.184911999999987
 21
25.792
 31
0.0
  0
LINE
  5
64
330
1E
100
AcDbEntity
  8
0
100
AcDbLine
 10
0.4999999999999871
 20
31.0
 30
0.0
 11
0.4999999999999871
 21
27.85
 31
0.0
  0
LINE
  5
65
330
1E
100
AcDbEntity
  8
0
100
AcDbLine
 10
0.4999999999999871
 20
31.0
 30
0.0
 11
0.4999999999999871
 21
34.15
 31
0.0
  0
LINE
  5
66
330
1E
100
AcDbEntity
  8
0
100
AcDbLine
 10
2.177419999999989
 20
27.8
 30
0.0
 11
2.177419999999989
 21
31.0
 31
0.0
  0
LINE
  5
67
330
1E
100
AcDbEntity
  8
0
100
AcDbLine
 10
2.177419999999989
 20
27.8
 30
0.0
 11
2.177419999999989
 21
24.8
 31
0.0
  0
LINE
  5
68
330
1E
100
AcDbEntity
  8
0
100
AcDbLine
 10
2.177419999999989
 20
31.0
 30
0.0
 11
2.177419999999989
 21
27.8
 31
0.0
  0
LINE
  5
69
330
1E
100
AcDbEntity
  8
0
100
AcDbLine
 10
2.177419999999989
 20
31.0
 30
0.0
 11
2.177419999999989
 21
34.2
 31
0.0
  0
LINE
  5
6A
330
1E
100
AcDbEntity
  8
0
100
AcDbLine
 10
0.8225809999999869
 20
31.0
 30
0.0
 11
0.8225809999999869
 21
27.8
 31
0.0
  0
LINE
  5
6B
330
1E
100
AcDbEntity
  8
0
100
AcDbLine
 10
0.8225809999999869
 20
31.0
 30
0.0
 11
0.8225809999999869
 21
34.2
 31
0.0
  0
LINE
  5
6C
330
1E
100
AcDbEntity
  8
0
100
AcDbLine
 10
0.8225809999999869
 20
27.8
 30
0.0
 11
0.8225809999999869
 21
31.0
 31
0.0
  0
LINE
  5
6D
330
1E
100
AcDbEntity
  8
0
100
AcDbLine
 10
0.8225809999999869
 20
27.8
 30
0.0
 11
0.8225809999999869
 21
24.8
 31
0.0
  0
LINE
  5
6E
330
1E
100
AcDbEntity
  8
0
100
AcDbLine
 10
0.4999999999999871
 20
27.85
 30
0.0
 11
0.4999999999999871
 21
24.95
 31
0.0
  0
LINE
  5
6F
330
1E
100
AcDbEntity
  8
0
100
AcDbLine
 10
0.4999999999999871
 20
27.85
 30
0.0
 11
0.4999999999999871
 21
31.0
 31
0.0
  0
LINE
  5
70
330
1E
100
AcDbEntity
  8
0
100
AcDbLine
 10
0.184911999999987
 20
33.688
 30
0.0
 11
0.184911999999987
 21
36.208
 31
0.0
  0
LINE
  5
71
330
1E
100
AcDbEntity
  8
0
100
AcDbLine
 10
0.184911999999987
 20
33.688
 30
0.0
 11
0.184911999999987
 21
31.0
 31
0.0
  0
LINE
  5
72
330
1E
100
AcDbEntity
  8
0
100
AcDbLine
 10
-0.0000000000000131
 20
33.646
 30
0.0
 11
-0.0000000000000131
 21
31.0
 31
0.0
  0
LINE
  5
73
330
1E
100
AcDbEntity
  8
0
100
AcDbLine
 10
-0.0000000000000131
 20
33.646
 30
0.0
 11
-0.0000000000000131
 21
36.082
 31
0.0
  0
LINE
  5
74
330
1E
100
AcDbEntity
  8
0
100
AcDbLine
 10
0.4999999999999871
 20
34.15
 30
0.0
 11
0.4999999999999871
 21
31.0
 31
0.0
  0
LINE
  5
75
330
1E
100
AcDbEntity
  8
0
100
AcDbLine
 10
0.4999999999999871
 20
34.15
 30
0.0
 11
0.4999999999999871
 21
37.05
 31
0.0
  0
LINE
  5
76
330
1E
100
AcDbEntity
  8
0
100
AcDbLine
 10
0.184911999999987
 20
36.208
 30
0.0
 11
0.184911999999987
 21
38.43399999999999
 31
0.0
  0
LINE
  5
77
330
1E
100
AcDbEntity
  8
0
100
AcDbLine
 10
0.184911999999987
 20
36.208
 30
0.0
 11
0.184911999999987
 21
33.688
 31
0.0
  0
LINE
  5
78
330
1E
100
AcDbEntity
  8
0
100
AcDbLine
 10
-0.0000000000000131
 20
36.082
 30
0.0
 11
-0.0000000000000131
 21
33.646
 31
0.0
  0
LINE
  5
79
330
1E
100
AcDbEntity
  8
0
100
AcDbLine
 10
-0.0000000000000131
 20
36.082
 30
0.0
 11
-0.0000000000000131
 21
38.224
 31
0.0
  0
LINE
  5
7A
330
1E
100
AcDbEntity
  8
0
100
AcDbLine
 10
0.4999999999999871
 20
37.05
 30
0.0
 11
0.4999999999999871
 21
34.15
 31
0.0
  0
LINE
  5
7B
330
1E
100
AcDbEntity
  8
0
100
AcDbLine
 10
0.4999999999999871
 20
37.05
 30
0.0
 11
0.4999999999999871
 21
39.6
 31
0.0
  0
LINE
  5
7C
330
1E
100
AcDbEntity
  8
0
100
AcDbLine
 10
0.8225809999999869
 20
34.2
 30
0.0
 11
0.8225809999999869
 21
31.0
 31
0.0
  0
LINE
  5
7D
330
1E
100
AcDbEntity
  8
0
100
AcDbLine
 10
0.8225809999999869
 20
34.2
 30
0.0
 11
0.8225809999999869
 21
37.2
 31
0.0
  0
LINE
  5
7E
330
1E
100
AcDbEntity
  8
0
100
AcDbLine
 10
2.177419999999989
 20
34.2
 30
0.0
 11
2.177419999999989
 21
37.2
 31
0.0
  0
LINE
  5
7F
330
1E
100
AcDbEntity
  8
0
100
AcDbLine
 10
2.177419999999989
 20
34.2
 30
0.0
 11
2.177419999999989
 21
31.0
 31
0.0
  0
LINE
  5
80
330
1E
100
AcDbEntity
  8
0
100
AcDbLine
 10
0.184911999999987
 20
38.43399999999999
 30
0.0
 11
0.184911999999987
 21
40.114
 31
0.0
  0
LINE
  5
81
330
1E
100
AcDbEntity
  8
0
100
AcDbLine
 10
0.184911999999987
 20
38.43399999999999
 30
0.0
 11
0.184911999999987
 21
36.208
 31
0.0
  0
LINE
  5
82
330
1E
100
AcDbEntity
  8
0
100
AcDbLine
 10
-0.0000000000000131
 20
38.224
 30
0.0
 11
-0.0000000000000131
 21
36.082
 31
0.0
  0
LINE
  5
83
330
1E
100
AcDbEntity
  8
0
100
AcDbLine
 10
-0.0000000000000131
 20
38.224
 30
0.0
 11
-0.0000000000000131
 21
39.86199999999999
 31
0.0
  0
LINE
  5
84
330
1E
100
AcDbEntity
  8
0
100
AcDbLine
 10
0.4999999999999871
 20
39.6
 30
0.0
 11
0.4999999999999871
 21
37.05
 31
0.0
  0
LINE
  5
85
330
1E
100
AcDbEntity
  8
0
100
AcDbLine
 10
0.4999999999999871
 20
39.6
 30
0.0
 11
0.4999999999999871
 21
41.55
 31
0.0
  0
LINE
  5
86
330
1E
100
AcDbEntity
  8
0
100
AcDbLine
 10
0.8225809999999869
 20
37.2
 30
0.0
 11
0.8225809999999869
 21
34.2
 31
0.0
  0
LINE
  5
87
330
1E
100
AcDbEntity
  8
0
100
AcDbLine
 10
0.8225809999999869
 20
37.2
 30
0.0
 11
0.8225809999999869
 21
39.85
 31
0.0
  0
LINE
  5
88
330
1E
100
AcDbEntity
  8
0
100
AcDbLine
 10
2.177419999999989
 20
37.2
 30
0.0
 11
2.177419999999989
 21
39.85
 31
0.0
  0
LINE
  5
89
330
1E
100
AcDbEntity
  8
0
100
AcDbLine
 10
2.177419999999989
 20
37.2
 30
0.0
 11
2.177419999999989
 21
34.2
 31
0.0
  0
LINE
  5
8B
330
1E
100
AcDbEntity
  8
0
100
AcDbLine
 10
2.49999999999999
 20
34.15
 30
0.0
 11
2.49999999999999
 21
31.0
 31
0.0
  0
LINE
  5
8C
330
1E
100
AcDbEntity
  8
0
100
AcDbLine
 10
2.49999999999999
 20
34.15
 30
0.0
 11
2.49999999999999
 21
37.05
 31
0.0
  0
LINE
  5
8E
330
1E
100
AcDbEntity
  8
0
100
AcDbLine
 10
2.49999999999999
 20
37.05
 30
0.0
 11
2.49999999999999
 21
34.15
 31
0.0
  0
LINE
  5
8F
330
1E
100
AcDbEntity
  8
0
100
AcDbLine
 10
2.49999999999999
 20
37.05
 30
0.0
 11
2.49999999999999
 21
39.6
 31
0.0
  0
LINE
  5
90
330
1E
100
AcDbEntity
  8
0
100
AcDbLine
 10
0.8225809999999869
 20
39.85
 30
0.0
 11
0.8225809999999869
 21
37.2
 31
0.0
  0
LINE
  5
91
330
1E
100
AcDbEntity
  8
0
100
AcDbLine
 10
0.8225809999999869
 20
39.85
 30
0.0
 11
0.8225809999999869
 21
41.85
 31
0.0
  0
LINE
  5
92
330
1E
100
AcDbEntity
  8
0
100
AcDbLine
 10
-0.0000000000000131
 20
39.86199999999999
 30
0.0
 11
-0.0000000000000131
 21
38.224
 31
0.0
  0
LINE
  5
93
330
1E
100
AcDbEntity
  8
0
100
AcDbLine
 10
-0.0000000000000131
 20
39.86199999999999
 30
0.0
 11
-0.0000000000000131
 21
40.86999999999999
 31
0.0
  0
LINE
  5
94
330
1E
100
AcDbEntity
  8
0
100
AcDbLine
 10
-0.0000000000000131
 20
40.86999999999999
 30
0.0
 11
-0.0000000000000131
 21
39.86199999999999
 31
0.0
  0
LINE
  5
95
330
1E
100
AcDbEntity
  8
0
100
AcDbLine
 10
-0.0000000000000131
 20
40.86999999999999
 30
0.0
 11
-0.0000000000000131
 21
41.248
 31
0.0
  0
LINE
  5
96
330
1E
100
AcDbEntity
  8
0
100
AcDbLine
 10
-0.0000000000000131
 20
41.248
 30
0.0
 11
-0.0000000000000131
 21
40.86999999999999
 31
0.0
  0
LINE
  5
97
330
1E
100
AcDbEntity
  8
0
100
AcDbLine
 10
-0.0000000000000131
 20
41.248
 30
0.0
 11
0.184911999999987
 21
41.5
 31
0.0
  0
LINE
  5
98
330
1E
100
AcDbEntity
  8
0
100
AcDbLine
 10
0.184911999999987
 20
40.114
 30
0.0
 11
0.184911999999987
 21
41.122
 31
0.0
  0
LINE
  5
99
330
1E
100
AcDbEntity
  8
0
100
AcDbLine
 10
0.184911999999987
 20
40.114
 30
0.0
 11
0.184911999999987
 21
38.43399999999999
 31
0.0
  0
LINE
  5
9A
330
1E
100
AcDbEntity
  8
0
100
AcDbLine
 10
0.184911999999987
 20
41.5
 30
0.0
 11
0.4999999999999871
 21
41.5
 31
0.0
  0
LINE
  5
9B
330
1E
100
AcDbEntity
  8
0
100
AcDbLine
 10
0.184911999999987
 20
41.5
 30
0.0
 11
0.184911999999987
 21
41.122
 31
0.0
  0
LINE
  5
9C
330
1E
100
AcDbEntity
  8
0
100
AcDbLine
 10
0.184911999999987
 20
41.122
 30
0.0
 11
0.184911999999987
 21
41.5
 31
0.0
  0
LINE
  5
9D
330
1E
100
AcDbEntity
  8
0
100
AcDbLine
 10
0.184911999999987
 20
41.122
 30
0.0
 11
0.184911999999987
 21
40.114
 31
0.0
  0
LINE
  5
9E
330
1E
100
AcDbEntity
  8
0
100
AcDbLine
 10
0.184911999999987
 20
41.5
 30
0.0
 11
0.4999999999999871
 21
41.5
 31
0.0
  0
LINE
  5
9F
330
1E
100
AcDbEntity
  8
0
100
AcDbLine
 10
0.4999999999999871
 20
41.55
 30
0.0
 11
0.4999999999999871
 21
42.75
 31
0.0
  0
LINE
  5
A0
330
1E
100
AcDbEntity
  8
0
100
AcDbLine
 10
0.4999999999999871
 20
41.55
 30
0.0
 11
0.4999999999999871
 21
39.6
 31
0.0
  0
LINE
  5
A1
330
1E
100
AcDbEntity
  8
0
100
AcDbLine
 10
0.4999999999999871
 20
42.75
 30
0.0
 11
0.4999999999999871
 21
43.2
 31
0.0
  0
LINE
  5
A2
330
1E
100
AcDbEntity
  8
0
100
AcDbLine
 10
0.4999999999999871
 20
42.75
 30
0.0
 11
0.4999999999999871
 21
41.55
 31
0.0
  0
LINE
  5
A3
330
1E
100
AcDbEntity
  8
0
100
AcDbLine
 10
0.8225809999999869
 20
41.85
 30
0.0
 11
0.8225809999999869
 21
39.85
 31
0.0
  0
LINE
  5
A4
330
1E
100
AcDbEntity
  8
0
100
AcDbLine
 10
0.8225809999999869
 20
41.85
 30
0.0
 11
0.8225809999999869
 21
43.04999999999999
 31
0.0
  0
LINE
  5
A5
330
1E
100
AcDbEntity
  8
0
100
AcDbLine
 10
2.177419999999989
 20
39.85
 30
0.0
 11
2.177419999999989
 21
41.85
 31
0.0
  0
LINE
  5
A6
330
1E
100
AcDbEntity
  8
0
100
AcDbLine
 10
2.177419999999989
 20
39.85
 30
0.0
 11
2.177419999999989
 21
37.2
 31
0.0
  0
LINE
  5
A7
330
1E
100
AcDbEntity
  8
0
100
AcDbLine
 10
2.177419999999989
 20
41.85
 30
0.0
 11
2.177419999999989
 21
43.04999999999999
 31
0.0
  0
LINE
  5
A8
330
1E
100
AcDbEntity
  8
0
100
AcDbLine
 10
2.177419999999989
 20
41.85
 30
0.0
 11
2.177419999999989
 21
39.85
 31
0.0
  0
LINE
  5
AA
330
1E
100
AcDbEntity
  8
0
100
AcDbLine
 10
2.49999999999999
 20
39.6
 30
0.0
 11
2.49999999999999
 21
37.05
 31
0.0
  0
LINE
  5
AB
330
1E
100
AcDbEntity
  8
0
100
AcDbLine
 10
2.49999999999999
 20
39.6
 30
0.0
 11
2.49999999999999
 21
41.55
 31
0.0
  0
LINE
  5
AD
330
1E
100
AcDbEntity
  8
0
100
AcDbLine
 10
2.49999999999999
 20
41.55
 30
0.0
 11
2.49999999999999
 21
39.6
 31
0.0
  0
LINE
  5
AE
330
1E
100
AcDbEntity
  8
0
100
AcDbLine
 10
2.49999999999999
 20
41.55
 30
0.0
 11
2.49999999999999
 21
42.75
 31
0.0
  0
LINE
  5
AF
330
1E
100
AcDbEntity
  8
0
100
AcDbLine
 10
0.4999999999999871
 20
43.2
 30
0.0
 11
0.8225809999999869
 21
43.5
 31
0.0
  0
LINE
  5
B0
330
1E
100
AcDbEntity
  8
0
100
AcDbLine
 10
0.4999999999999871
 20
43.2
 30
0.0
 11
0.4999999999999871
 21
42.75
 31
0.0
  0
LINE
  5
B1
330
1E
100
AcDbEntity
  8
0
100
AcDbLine
 10
0.8225809999999869
 20
43.04999999999999
 30
0.0
 11
0.8225809999999869
 21
41.85
 31
0.0
  0
LINE
  5
B2
330
1E
100
AcDbEntity
  8
0
100
AcDbLine
 10
0.8225809999999869
 20
43.04999999999999
 30
0.0
 11
0.8225809999999869
 21
43.5
 31
0.0
  0
LINE
  5
B3
330
1E
100
AcDbEntity
  8
0
100
AcDbLine
 10
2.177419999999989
 20
43.04999999999999
 30
0.0
 11
2.177419999999989
 21
43.5
 31
0.0
  0
LINE
  5
B4
330
1E
100
AcDbEntity
  8
0
100
AcDbLine
 10
2.177419999999989
 20
43.04999999999999
 30
0.0
 11
2.177419999999989
 21
41.85
 31
0.0
  0
LINE
  5
B5
330
1E
100
AcDbEntity
  8
0
100
AcDbLine
 10
2.177419999999989
 20
43.5
 30
0.0
 11
2.49999999999999
 21
43.2
 31
0.0
  0
LINE
  5
B6
330
1E
100
AcDbEntity
  8
0
100
AcDbLine
 10
2.177419999999989
 20
43.5
 30
0.0
 11
2.177419999999989
 21
43.04999999999999
 31
0.0
  0
LINE
  5
B7
330
1E
100
AcDbEntity
  8
0
100
AcDbLine
 10
0.8225809999999869
 20
43.5
 30
0.0
 11
2.177419999999989
 21
43.5
 31
0.0
  0
LINE
  5
B8
330
1E
100
AcDbEntity
  8
0
100
AcDbLine
 10
0.8225809999999869
 20
43.5
 30
0.0
 11
0.8225809999999869
 21
43.04999999999999
 31
0.0
  0
LINE
  5
BA
330
1E
100
AcDbEntity
  8
0
100
AcDbLine
 10
2.49999999999999
 20
42.75
 30
0.0
 11
2.49999999999999
 21
41.55
 31
0.0
  0
LINE
  5
BB
330
1E
100
AcDbEntity
  8
0
100
AcDbLine
 10
2.49999999999999
 20
42.75
 30
0.0
 11
2.49999999999999
 21
43.2
 31
0.0
  0
LINE
  5
BC
330
1E
100
AcDbEntity
  8
0
100
AcDbLine
 10
2.49999999999999
 20
43.2
 30
0.0
 11
2.69230999999999
 21
43.5
 31
0.0
  0
LINE
  5
BD
330
1E
100
AcDbEntity
  8
0
100
AcDbLine
 10
2.49999999999999
 20
43.2
 30
0.0
 11
2.49999999999999
 21
42.75
 31
0.0
  0
LINE
  5
BE
330
1E
100
AcDbEntity
  8
0
100
AcDbLine
 10
2.49999999999999
 20
31.0
 30
0.0
 11
2.49999999999999
 21
27.85
 31
0.0
  0
LINE
  5
C0
330
1E
100
AcDbEntity
  8
0
100
AcDbLine
 10
2.49999999999999
 20
31.0
 30
0.0
 11
2.49999999999999
 21
34.15
 31
0.0
  0
LINE
  5
C1
330
1E
100
AcDbEntity
  8
0
100
AcDbLine
 10
2.49999999999999
 20
27.85
 30
0.0
 11
2.49999999999999
 21
24.95
 31
0.0
  0
LINE
  5
C3
330
1E
100
AcDbEntity
  8
0
100
AcDbLine
 10
2.49999999999999
 20
27.85
 30
0.0
 11
2.49999999999999
 21
31.0
 31
0.0
  0
LINE
  5
C4
330
1E
100
AcDbEntity
  8
0
100
AcDbLine
 10
2.49999999999999
 20
24.95
 30
0.0
 11
2.49999999999999
 21
22.39999999999999
 31
0.0
  0
LINE
  5
C6
330
1E
100
AcDbEntity
  8
0
100
AcDbLine
 10
2.49999999999999
 20
24.95
 30
0.0
 11
2.49999999999999
 21
27.85
 31
0.0
  0
LINE
  5
C7
330
1E
100
AcDbEntity
  8
0
100
AcDbLine
 10
2.49999999999999
 20
22.39999999999999
 30
0.0
 11
2.49999999999999
 21
20.44999999999999
 31
0.0
  0
LINE
  5
C9
330
1E
100
AcDbEntity
  8
0
100
AcDbLine
 10
2.49999999999999
 20
22.39999999999999
 30
0.0
 11
2.49999999999999
 21
24.95
 31
0.0
  0
LINE
  5
CA
330
1E
100
AcDbEntity
  8
0
100
AcDbLine
 10
2.49999999999999
 20
20.44999999999999
 30
0.0
 11
2.49999999999999
 21
19.25
 31
0.0
  0
LINE
  5
CC
330
1E
100
AcDbEntity
  8
0
100
AcDbLine
 10
2.49999999999999
 20
20.44999999999999
 30
0.0
 11
2.49999999999999
 21
22.39999999999999
 31
0.0
  0
LINE
  5
CD
330
1E
100
AcDbEntity
  8
0
100
AcDbLine
 10
2.69230999999999
 20
34.2
 30
0.0
 11
2.69230999999999
 21
31.0
 31
0.0
  0
LINE
  5
CE
330
1E
100
AcDbEntity
  8
0
100
AcDbLine
 10
2.69230999999999
 20
34.2
 30
0.0
 11
2.69230999999999
 21
37.2
 31
0.0
  0
LINE
  5
CF
330
1E
100
AcDbEntity
  8
0
100
AcDbLine
 10
2.69230999999999
 20
37.2
 30
0.0
 11
2.69230999999999
 21
34.2
 31
0.0
  0
LINE
  5
D0
330
1E
100
AcDbEntity
  8
0
100
AcDbLine
 10
2.69230999999999
 20
37.2
 30
0.0
 11
2.69230999999999
 21
39.85
 31
0.0
  0
LINE
  5
D1
330
1E
100
AcDbEntity
  8
0
100
AcDbLine
 10
2.69230999999999
 20
39.85
 30
0.0
 11
2.69230999999999
 21
37.2
 31
0.0
  0
LINE
  5
D2
330
1E
100
AcDbEntity
  8
0
100
AcDbLine
 10
2.69230999999999
 20
39.85
 30
0.0
 11
2.69230999999999
 21
41.85
 31
0.0
  0
LINE
  5
D3
330
1E
100
AcDbEntity
  8
0
100
AcDbLine
 10
2.69230999999999
 20
41.85
 30
0.0
 11
2.69230999999999
 21
39.85
 31
0.0
  0
LINE
  5
D4
330
1E
100
AcDbEntity
  8
0
100
AcDbLine
 10
2.69230999999999
 20
41.85
 30
0.0
 11
2.69230999999999
 21
43.04999999999999
 31
0.0
  0
LINE
  5
D5
330
1E
100
AcDbEntity
  8
0
100
AcDbLine
 10
2.69230999999999
 20
43.04999999999999
 30
0.0
 11
2.69230999999999
 21
41.85
 31
0.0
  0
LINE
  5
D6
330
1E
100
AcDbEntity
  8
0
100
AcDbLine
 10
2.69230999999999
 20
43.04999999999999
 30
0.0
 11
2.69230999999999
 21
43.5
 31
0.0
  0
LINE
  5
D7
330
1E
100
AcDbEntity
  8
0
100
AcDbLine
 10
2.69230999999999
 20
43.5
 30
0.0
 11
233.4999999999999
 21
43.5
 31
0.0
  0
LINE
  5
D8
330
1E
100
AcDbEntity
  8
0
100
AcDbLine
 10
2.69230999999999
 20
43.5
 30
0.0
 11
2.69230999999999
 21
43.04999999999999
 31
0.0
  0
LINE
  5
D9
330
1E
100
AcDbEntity
  8
0
100
AcDbLine
 10
2.69230999999999
 20
31.0
 30
0.0
 11
2.69230999999999
 21
27.8
 31
0.0
  0
LINE
  5
DA
330
1E
100
AcDbEntity
  8
0
100
AcDbLine
 10
2.69230999999999
 20
31.0
 30
0.0
 11
2.69230999999999
 21
34.2
 31
0.0
  0
LINE
  5
DB
330
1E
100
AcDbEntity
  8
0
100
AcDbLine
 10
2.69230999999999
 20
27.8
 30
0.0
 11
2.69230999999999
 21
31.0
 31
0.0
  0
LINE
  5
DC
330
1E
100
AcDbEntity
  8
0
100
AcDbLine
 10
2.69230999999999
 20
27.8
 30
0.0
 11
2.69230999999999
 21
24.8
 31
0.0
  0
LINE
  5
DD
330
1E
100
AcDbEntity
  8
0
100
AcDbLine
 10
2.69230999999999
 20
24.8
 30
0.0
 11
2.69230999999999
 21
27.8
 31
0.0
  0
LINE
  5
DE
330
1E
100
AcDbEntity
  8
0
100
AcDbLine
 10
2.69230999999999
 20
24.8
 30
0.0
 11
2.69230999999999
 21
22.14999999999999
 31
0.0
  0
LINE
  5
DF
330
1E
100
AcDbEntity
  8
0
100
AcDbLine
 10
2.69230999999999
 20
22.14999999999999
 30
0.0
 11
2.69230999999999
 21
24.8
 31
0.0
  0
LINE
  5
E0
330
1E
100
AcDbEntity
  8
0
100
AcDbLine
 10
2.69230999999999
 20
22.14999999999999
 30
0.0
 11
2.69230999999999
 21
20.15
 31
0.0
  0
LINE
  5
E1
330
1E
100
AcDbEntity
  8
0
100
AcDbLine
 10
2.69230999999999
 20
43.5
 30
0.0
 11
233.4999999999999
 21
43.5
 31
0.0
  0
LINE
  5
E2
330
1E
100
AcDbEntity
  8
0
100
AcDbLine
 10
2.69230999999999
 20
20.15
 30
0.0
 11
2.69230999999999
 21
22.14999999999999
 31
0.0
  0
LINE
  5
E3
330
1E
100
AcDbEntity
  8
0
100
AcDbLine
 10
2.69230999999999
 20
20.15
 30
0.0
 11
2.69230999999999
 21
18.94999999999999
 31
0.0
  0
LINE
  5
E4
330
1E
100
AcDbEntity
  8
0
100
AcDbLine
 10
2.69230999999999
 20
18.94999999999999
 30
0.0
 11
2.69230999999999
 21
20.15
 31
0.0
  0
LINE
  5
E5
330
1E
100
AcDbEntity
  8
0
100
AcDbLine
 10
2.69230999999999
 20
18.94999999999999
 30
0.0
 11
2.69230999999999
 21
18.5
 31
0.0
  0
LINE
  5
E6
330
1E
100
AcDbEntity
  8
0
100
AcDbLine
 10
2.49999999999999
 20
19.25
 30
0.0
 11
2.49999999999999
 21
18.8
 31
0.0
  0
LINE
  5
E8
330
1E
100
AcDbEntity
  8
0
100
AcDbLine
 10
2.49999999999999
 20
19.25
 30
0.0
 11
2.49999999999999
 21
20.44999999999999
 31
0.0
  0
LINE
  5
E9
330
1E
100
AcDbEntity
  8
0
100
AcDbLine
 10
2.49999999999999
 20
18.8
 30
0.0
 11
2.69230999999999
 21
18.5
 31
0.0
  0
LINE
  5
EA
330
1E
100
AcDbEntity
  8
0
100
AcDbLine
 10
2.49999999999999
 20
18.8
 30
0.0
 11
2.49999999999999
 21
19.25
 31
0.0
  0
LINE
  5
EB
330
1E
100
AcDbEntity
  8
0
100
AcDbLine
 10
75.5
 20
1.1
 30
0.0
 11
83.49999999999999
 21
0.0000000000000039
 31
0.0
  0
LINE
  5
EC
330
1E
100
AcDbEntity
  8
0
100
AcDbLine
 10
75.5
 20
1.1
 30
0.0
 11
83.49999999999999
 21
0.0000000000000039
 31
0.0
  0
LINE
  5
ED
330
1E
100
AcDbEntity
  8
0
100
AcDbLine
 10
65.0
 20
12.5
 30
0.0
 11
70.5
 21
8.3
 31
0.0
  0
LINE
  5
EE
330
1E
100
AcDbEntity
  8
0
100
AcDbLine
 10
70.5
 20
8.3
 30
0.0
 11
76.79999999999999
 21
5.7
 31
0.0
  0
LINE
  5
EF
330
1E
100
AcDbEntity
  8
0
100
AcDbLine
 10
61.6
 20
9.099999999999999
 30
0.0
 11
68.09999999999999
 21
4.2
 31
0.0
  0
LINE
  5
F0
330
1E
100
AcDbEntity
  8
0
100
AcDbLine
 10
68.09999999999999
 20
4.2
 30
0.0
 11
75.5
 21
1.1
 31
0.0
  0
LINE
  5
F1
330
1E
100
AcDbEntity
  8
0
100
AcDbLine
 10
68.09999999999999
 20
4.2
 30
0.0
 11
75.5
 21
1.1
 31
0.0
  0
LINE
  5
F2
330
1E
100
AcDbEntity
  8
0
100
AcDbLine
 10
83.49999999999999
 20
4.799999999999999
 30
0.0
 11
90.20000000000001
 21
5.7
 31
0.0
  0
LINE
  5
F3
330
1E
100
AcDbEntity
  8
0
100
AcDbLine
 10
90.20000000000001
 20
5.7
 30
0.0
 11
96.5
 21
8.3
 31
0.0
  0
LINE
  5
F4
330
1E
100
AcDbEntity
  8
0
100
AcDbLine
 10
91.5
 20
1.1
 30
0.0
 11
98.9
 21
4.2
 31
0.0
  0
LINE
  5
F5
330
1E
100
AcDbEntity
  8
0
100
AcDbLine
 10
83.49999999999999
 20
0.0000000000000039
 30
0.0
 11
91.5
 21
1.1
 31
0.0
  0
LINE
  5
F6
330
1E
100
AcDbEntity
  8
0
100
AcDbLine
 10
83.49999999999999
 20
0.0000000000000039
 30
0.0
 11
91.5
 21
1.1
 31
0.0
  0
LINE
  5
F7
330
1E
100
AcDbEntity
  8
0
100
AcDbLine
 10
375.4999999999999
 20
1.1
 30
0.0
 11
383.4999999999999
 21
0.0000000000000039
 31
0.0
  0
LINE
  5
F8
330
1E
100
AcDbEntity
  8
0
100
AcDbLine
 10
375.4999999999999
 20
1.1
 30
0.0
 11
383.4999999999999
 21
0.0000000000000039
 31
0.0
  0
LINE
  5
F9
330
1E
100
AcDbEntity
  8
0
100
AcDbLine
 10
368.1
 20
4.2
 30
0.0
 11
375.4999999999999
 21
1.1
 31
0.0
  0
LINE
  5
FA
330
1E
100
AcDbEntity
  8
0
100
AcDbLine
 10
368.1
 20
4.2
 30
0.0
 11
375.4999999999999
 21
1.1
 31
0.0
  0
LINE
  5
FB
330
1E
100
AcDbEntity
  8
0
100
AcDbLine
 10
375.4999999999999
 20
1.1
 30
0.0
 11
383.4999999999999
 21
0.0000000000000037
 31
0.0
  0
LINE
  5
FC
330
1E
100
AcDbEntity
  8
0
100
AcDbLine
 10
375.4999999999999
 20
1.1
 30
0.0
 11
383.4999999999999
 21
0.0000000000000036
 31
0.0
  0
LINE
  5
FD
330
1E
100
AcDbEntity
  8
0
100
AcDbLine
 10
383.4999999999999
 20
0.0000000000000039
 30
0.0
 11
391.5
 21
1.1
 31
0.0
  0
LINE
  5
FE
330
1E
100
AcDbEntity
  8
0
100
AcDbLine
 10
383.4999999999999
 20
0.0000000000000039
 30
0.0
 11
391.5
 21
1.1
 31
0.0
  0
LINE
  5
FF
330
1E
100
AcDbEntity
  8
0
100
AcDbLine
 10
383.4999999999999
 20
0.0000000000000037
 30
0.0
 11
391.5
 21
1.1
 31
0.0
  0
LINE
  5
100
330
1E
100
AcDbEntity
  8
0
100
AcDbLine
 10
391.5
 20
1.1
 30
0.0
 11
398.8999999999999
 21
4.2
 31
0.0
  0
LINE
  5
101
330
1E
100
AcDbEntity
  8
0
100
AcDbLine
 10
398.8999999999999
 20
4.2
 30
0.0
 11
405.4
 21
9.099999999999999
 31
0.0
  0
LINE
  5
102
330
1E
100
AcDbEntity
  8
0
100
AcDbLine
 10
391.5
 20
1.1
 30
0.0
 11
398.8999999999999
 21
4.2
 31
0.0
  0
LINE
  5
103
330
1E
100
AcDbEntity
  8
0
100
AcDbLine
 10
383.4999999999999
 20
0.0000000000000036
 30
0.0
 11
391.5
 21
1.1
 31
0.0
  0
LINE
  5
104
330
1E
100
AcDbEntity
  8
0
100
AcDbLine
 10
376.8
 20
5.7
 30
0.0
 11
383.4999999999999
 21
4.799999999999999
 31
0.0
  0
LINE
  5
105
330
1E
100
AcDbEntity
  8
0
100
AcDbLine
 10
390.2
 20
5.7
 30
0.0
 11
396.5
 21
8.3
 31
0.0
  0
LINE
  5
106
330
1E
100
AcDbEntity
  8
0
100
AcDbLine
 10
383.4999999999999
 20
4.799999999999999
 30
0.0
 11
390.2
 21
5.7
 31
0.0
  0
LINE
  5
107
330
1E
100
AcDbEntity
  8
0
100
AcDbLine
 10
98.9
 20
4.2
 30
0.0
 11
105.4
 21
9.099999999999999
 31
0.0
  0
LINE
  5
108
330
1E
100
AcDbEntity
  8
0
100
AcDbLine
 10
91.5
 20
1.1
 30
0.0
 11
98.9
 21
4.2
 31
0.0
  0
LINE
  5
109
330
1E
100
AcDbEntity
  8
0
100
AcDbLine
 10
102.0
 20
12.5
 30
0.0
 11
106.2
 21
18.0
 31
0.0
  0
LINE
  5
10A
330
1E
100
AcDbEntity
  8
0
100
AcDbLine
 10
370.5
 20
8.3
 30
0.0
 11
376.8
 21
5.7
 31
0.0
  0
LINE
  5
10B
330
1E
100
AcDbEntity
  8
0
100
AcDbLine
 10
365.0
 20
12.5
 30
0.0
 11
370.5
 21
8.3
 31
0.0
  0
LINE
  5
10C
330
1E
100
AcDbEntity
  8
0
100
AcDbLine
 10
361.6
 20
9.099999999999999
 30
0.0
 11
368.1
 21
4.2
 31
0.0
  0
LINE
  5
10D
330
1E
100
AcDbEntity
  8
0
100
AcDbLine
 10
396.5
 20
8.3
 30
0.0
 11
402.0
 21
12.5
 31
0.0
  0
LINE
  5
10E
330
1E
100
AcDbEntity
  8
0
100
AcDbLine
 10
356.7
 20
15.6
 30
0.0
 11
361.6
 21
9.099999999999999
 31
0.0
  0
LINE
  5
10F
330
1E
100
AcDbEntity
  8
0
100
AcDbLine
 10
402.0
 20
12.5
 30
0.0
 11
406.2
 21
18.0
 31
0.0
  0
LINE
  5
110
330
1E
100
AcDbEntity
  8
0
100
AcDbLine
 10
405.4
 20
9.099999999999999
 30
0.0
 11
410.2999999999999
 21
15.6
 31
0.0
  0
LINE
  5
111
330
1E
100
AcDbEntity
  8
0
100
AcDbLine
 10
410.2999999999999
 20
15.6
 30
0.0
 11
411.514864864865
 21
18.5
 31
0.0
  0
LINE
  5
112
330
1E
100
AcDbEntity
  8
0
100
AcDbLine
 10
105.4
 20
9.099999999999999
 30
0.0
 11
110.2999999999999
 21
15.6
 31
0.0
  0
LINE
  5
113
330
1E
100
AcDbEntity
  8
0
100
AcDbLine
 10
110.2999999999999
 20
15.6
 30
0.0
 11
111.514864864865
 21
18.5
 31
0.0
  0
LINE
  5
114
330
1E
100
AcDbEntity
  8
0
100
AcDbLine
 10
96.5
 20
8.3
 30
0.0
 11
102.0
 21
12.5
 31
0.0
  0
LINE
  5
115
330
1E
100
AcDbEntity
  8
0
100
AcDbLine
 10
76.79999999999999
 20
5.7
 30
0.0
 11
83.49999999999999
 21
4.799999999999999
 31
0.0
  0
LINE
  5
116
330
1E
100
AcDbEntity
  8
0
100
AcDbLine
 10
75.5
 20
1.1
 30
0.0
 11
83.49999999999999
 21
0.0000000000000036
 31
0.0
  0
LINE
  5
117
330
1E
100
AcDbEntity
  8
0
100
AcDbLine
 10
75.5
 20
1.1
 30
0.0
 11
83.49999999999999
 21
0.0000000000000037
 31
0.0
  0
LINE
  5
118
330
1E
100
AcDbEntity
  8
0
100
AcDbLine
 10
60.5936507936508
 20
43.5
 30
0.0
 11
60.8
 21
44.0
 31
0.0
  0
LINE
  5
119
330
1E
100
AcDbEntity
  8
0
100
AcDbLine
 10
56.7
 20
46.39999999999999
 30
0.0
 11
61.6
 21
52.9
 31
0.0
  0
LINE
  5
11A
330
1E
100
AcDbEntity
  8
0
100
AcDbLine
 10
55.48513513513509
 20
43.5
 30
0.0
 11
56.7
 21
46.39999999999999
 31
0.0
  0
LINE
  5
11B
330
1E
100
AcDbEntity
  8
0
100
AcDbLine
 10
360.8
 20
18.0
 30
0.0
 11
365.0
 21
12.5
 31
0.0
  0
LINE
  5
11C
330
1E
100
AcDbEntity
  8
0
100
AcDbLine
 10
406.2
 20
18.0
 30
0.0
 11
406.406349206349
 21
18.5
 31
0.0
  0
LINE
  5
11D
330
1E
100
AcDbEntity
  8
0
100
AcDbLine
 10
106.2
 20
18.0
 30
0.0
 11
106.4063492063489
 21
18.5
 31
0.0
  0
LINE
  5
11E
330
1E
100
AcDbEntity
  8
0
100
AcDbLine
 10
60.8
 20
44.0
 30
0.0
 11
65.0
 21
49.5
 31
0.0
  0
LINE
  5
11F
330
1E
100
AcDbEntity
  8
0
100
AcDbLine
 10
65.0
 20
49.5
 30
0.0
 11
70.5
 21
53.7
 31
0.0
  0
LINE
  5
120
330
1E
100
AcDbEntity
  8
0
100
AcDbLine
 10
70.5
 20
53.7
 30
0.0
 11
76.79999999999999
 21
56.29999999999999
 31
0.0
  0
LINE
  5
121
330
1E
100
AcDbEntity
  8
0
100
AcDbLine
 10
61.6
 20
52.9
 30
0.0
 11
68.09999999999999
 21
57.8
 31
0.0
  0
LINE
  5
122
330
1E
100
AcDbEntity
  8
0
100
AcDbLine
 10
68.09999999999999
 20
57.8
 30
0.0
 11
75.5
 21
60.89999999999999
 31
0.0
  0
LINE
  5
123
330
1E
100
AcDbEntity
  8
0
100
AcDbLine
 10
360.5936507936509
 20
18.5
 30
0.0
 11
360.8
 21
18.0
 31
0.0
  0
LINE
  5
124
330
1E
100
AcDbEntity
  8
0
100
AcDbLine
 10
355.4851351351349
 20
18.5
 30
0.0
 11
356.7
 21
15.6
 31
0.0
  0
LINE
  5
125
330
1E
100
AcDbEntity
  8
0
100
AcDbLine
 10
464.823
 20
18.5
 30
0.0
 11
466.1769999999999
 21
18.5
 31
0.0
  0
LINE
  5
126
330
1E
100
AcDbEntity
  8
0
100
AcDbLine
 10
464.823
 20
18.5
 30
0.0
 11
464.823
 21
18.94999999999999
 31
0.0
  0
LINE
  5
127
330
1E
100
AcDbEntity
  8
0
100
AcDbLine
 10
466.1769999999999
 20
18.5
 30
0.0
 11
466.5
 21
18.8
 31
0.0
  0
LINE
  5
128
330
1E
100
AcDbEntity
  8
0
100
AcDbLine
 10
466.1769999999999
 20
18.5
 30
0.0
 11
466.1769999999999
 21
18.94999999999999
 31
0.0
  0
LINE
  5
129
330
1E
100
AcDbEntity
  8
0
100
AcDbLine
 10
233.4999999999999
 20
18.5
 30
0.0
 11
464.308
 21
18.5
 31
0.0
  0
LINE
  5
12A
330
1E
100
AcDbEntity
  8
0
100
AcDbLine
 10
464.308
 20
34.2
 30
0.0
 11
464.308
 21
37.2
 31
0.0
  0
LINE
  5
12C
330
1E
100
AcDbEntity
  8
0
100
AcDbLine
 10
464.308
 20
34.2
 30
0.0
 11
464.308
 21
31.0
 31
0.0
  0
LINE
  5
12D
330
1E
100
AcDbEntity
  8
0
100
AcDbLine
 10
464.308
 20
37.2
 30
0.0
 11
464.308
 21
39.85
 31
0.0
  0
LINE
  5
12F
330
1E
100
AcDbEntity
  8
0
100
AcDbLine
 10
464.308
 20
37.2
 30
0.0
 11
464.308
 21
34.2
 31
0.0
  0
LINE
  5
130
330
1E
100
AcDbEntity
  8
0
100
AcDbLine
 10
464.308
 20
39.85
 30
0.0
 11
464.308
 21
41.85
 31
0.0
  0
LINE
  5
132
330
1E
100
AcDbEntity
  8
0
100
AcDbLine
 10
464.308
 20
39.85
 30
0.0
 11
464.308
 21
37.2
 31
0.0
  0
LINE
  5
133
330
1E
100
AcDbEntity
  8
0
100
AcDbLine
 10
464.308
 20
41.85
 30
0.0
 11
464.308
 21
43.04999999999999
 31
0.0
  0
LINE
  5
135
330
1E
100
AcDbEntity
  8
0
100
AcDbLine
 10
464.308
 20
41.85
 30
0.0
 11
464.308
 21
39.85
 31
0.0
  0
LINE
  5
136
330
1E
100
AcDbEntity
  8
0
100
AcDbLine
 10
360.5936507936509
 20
43.5
 30
0.0
 11
360.8
 21
44.0
 31
0.0
  0
LINE
  5
137
330
1E
100
AcDbEntity
  8
0
100
AcDbLine
 10
360.8
 20
44.0
 30
0.0
 11
365.0
 21
49.5
 31
0.0
  0
LINE
  5
138
330
1E
100
AcDbEntity
  8
0
100
AcDbLine
 10
356.7
 20
46.39999999999999
 30
0.0
 11
361.6
 21
52.9
 31
0.0
  0
LINE
  5
139
330
1E
100
AcDbEntity
  8
0
100
AcDbLine
 10
355.4851351351349
 20
43.5
 30
0.0
 11
356.7
 21
46.39999999999999
 31
0.0
  0
LINE
  5
13A
330
1E
100
AcDbEntity
  8
0
100
AcDbLine
 10
406.2
 20
44.0
 30
0.0
 11
406.406349206349
 21
43.5
 31
0.0
  0
LINE
  5
13B
330
1E
100
AcDbEntity
  8
0
100
AcDbLine
 10
410.2999999999999
 20
46.39999999999999
 30
0.0
 11
411.514864864865
 21
43.5
 31
0.0
  0
LINE
  5
13C
330
1E
100
AcDbEntity
  8
0
100
AcDbLine
 10
464.308
 20
43.5
 30
0.0
 11
464.5
 21
43.2
 31
0.0
  0
LINE
  5
13D
330
1E
100
AcDbEntity
  8
0
100
AcDbLine
 10
464.308
 20
43.5
 30
0.0
 11
464.308
 21
43.04999999999999
 31
0.0
  0
LINE
  5
13E
330
1E
100
AcDbEntity
  8
0
100
AcDbLine
 10
464.308
 20
43.04999999999999
 30
0.0
 11
464.308
 21
43.5
 31
0.0
  0
LINE
  5
140
330
1E
100
AcDbEntity
  8
0
100
AcDbLine
 10
464.308
 20
43.04999999999999
 30
0.0
 11
464.308
 21
41.85
 31
0.0
  0
LINE
  5
141
330
1E
100
AcDbEntity
  8
0
100
AcDbLine
 10
233.4999999999999
 20
43.5
 30
0.0
 11
464.308
 21
43.5
 31
0.0
  0
LINE
  5
142
330
1E
100
AcDbEntity
  8
0
100
AcDbLine
 10
464.308
 20
31.0
 30
0.0
 11
464.308
 21
27.8
 31
0.0
  0
LINE
  5
144
330
1E
100
AcDbEntity
  8
0
100
AcDbLine
 10
464.308
 20
31.0
 30
0.0
 11
464.308
 21
34.2
 31
0.0
  0
LINE
  5
145
330
1E
100
AcDbEntity
  8
0
100
AcDbLine
 10
464.308
 20
27.8
 30
0.0
 11
464.308
 21
24.8
 31
0.0
  0
LINE
  5
147
330
1E
100
AcDbEntity
  8
0
100
AcDbLine
 10
464.308
 20
27.8
 30
0.0
 11
464.308
 21
31.0
 31
0.0
  0
LINE
  5
148
330
1E
100
AcDbEntity
  8
0
100
AcDbLine
 10
464.308
 20
24.8
 30
0.0
 11
464.308
 21
22.14999999999999
 31
0.0
  0
LINE
  5
14A
330
1E
100
AcDbEntity
  8
0
100
AcDbLine
 10
464.308
 20
24.8
 30
0.0
 11
464.308
 21
27.8
 31
0.0
  0
LINE
  5
14B
330
1E
100
AcDbEntity
  8
0
100
AcDbLine
 10
464.308
 20
22.14999999999999
 30
0.0
 11
464.308
 21
20.15
 31
0.0
  0
LINE
  5
14D
330
1E
100
AcDbEntity
  8
0
100
AcDbLine
 10
464.308
 20
22.14999999999999
 30
0.0
 11
464.308
 21
24.8
 31
0.0
  0
LINE
  5
14E
330
1E
100
AcDbEntity
  8
0
100
AcDbLine
 10
464.308
 20
20.15
 30
0.0
 11
464.308
 21
18.94999999999999
 31
0.0
  0
LINE
  5
150
330
1E
100
AcDbEntity
  8
0
100
AcDbLine
 10
464.308
 20
20.15
 30
0.0
 11
464.308
 21
22.14999999999999
 31
0.0
  0
LINE
  5
151
330
1E
100
AcDbEntity
  8
0
100
AcDbLine
 10
466.5
 20
18.8
 30
0.0
 11
466.5
 21
19.25
 31
0.0
  0
LINE
  5
152
330
1E
100
AcDbEntity
  8
0
100
AcDbLine
 10
464.5
 20
34.15
 30
0.0
 11
464.5
 21
37.05
 31
0.0
  0
LINE
  5
153
330
1E
100
AcDbEntity
  8
0
100
AcDbLine
 10
464.5
 20
34.15
 30
0.0
 11
464.5
 21
31.0
 31
0.0
  0
LINE
  5
154
330
1E
100
AcDbEntity
  8
0
100
AcDbLine
 10
464.5
 20
37.05
 30
0.0
 11
464.5
 21
39.6
 31
0.0
  0
LINE
  5
155
330
1E
100
AcDbEntity
  8
0
100
AcDbLine
 10
464.5
 20
37.05
 30
0.0
 11
464.5
 21
34.15
 31
0.0
  0
LINE
  5
156
330
1E
100
AcDbEntity
  8
0
100
AcDbLine
 10
464.5
 20
39.6
 30
0.0
 11
464.5
 21
41.55
 31
0.0
  0
LINE
  5
157
330
1E
100
AcDbEntity
  8
0
100
AcDbLine
 10
464.5
 20
39.6
 30
0.0
 11
464.5
 21
37.05
 31
0.0
  0
LINE
  5
158
330
1E
100
AcDbEntity
  8
0
100
AcDbLine
 10
464.5
 20
43.2
 30
0.0
 11
464.5
 21
42.75
 31
0.0
  0
LINE
  5
159
330
1E
100
AcDbEntity
  8
0
100
AcDbLine
 10
464.5
 20
43.2
 30
0.0
 11
464.823
 21
43.5
 31
0.0
  0
LINE
  5
15A
330
1E
100
AcDbEntity
  8
0
100
AcDbLine
 10
464.5
 20
41.55
 30
0.0
 11
464.5
 21
42.75
 31
0.0
  0
LINE
  5
15B
330
1E
100
AcDbEntity
  8
0
100
AcDbLine
 10
464.5
 20
41.55
 30
0.0
 11
464.5
 21
39.6
 31
0.0
  0
LINE
  5
15C
330
1E
100
AcDbEntity
  8
0
100
AcDbLine
 10
464.5
 20
42.75
 30
0.0
 11
464.5
 21
43.2
 31
0.0
  0
LINE
  5
15D
330
1E
100
AcDbEntity
  8
0
100
AcDbLine
 10
464.5
 20
42.75
 30
0.0
 11
464.5
 21
41.55
 31
0.0
  0
LINE
  5
15E
330
1E
100
AcDbEntity
  8
0
100
AcDbLine
 10
464.5
 20
31.0
 30
0.0
 11
464.5
 21
27.85
 31
0.0
  0
LINE
  5
15F
330
1E
100
AcDbEntity
  8
0
100
AcDbLine
 10
464.5
 20
31.0
 30
0.0
 11
464.5
 21
34.15
 31
0.0
  0
LINE
  5
160
330
1E
100
AcDbEntity
  8
0
100
AcDbLine
 10
464.5
 20
27.85
 30
0.0
 11
464.5
 21
31.0
 31
0.0
  0
LINE
  5
161
330
1E
100
AcDbEntity
  8
0
100
AcDbLine
 10
464.5
 20
27.85
 30
0.0
 11
464.5
 21
24.95
 31
0.0
  0
LINE
  5
162
330
1E
100
AcDbEntity
  8
0
100
AcDbLine
 10
464.5
 20
24.95
 30
0.0
 11
464.5
 21
27.85
 31
0.0
  0
LINE
  5
163
330
1E
100
AcDbEntity
  8
0
100
AcDbLine
 10
464.5
 20
24.95
 30
0.0
 11
464.5
 21
22.39999999999999
 31
0.0
  0
LINE
  5
164
330
1E
100
AcDbEntity
  8
0
100
AcDbLine
 10
464.5
 20
22.39999999999999
 30
0.0
 11
464.5
 21
24.95
 31
0.0
  0
LINE
  5
165
330
1E
100
AcDbEntity
  8
0
100
AcDbLine
 10
464.5
 20
22.39999999999999
 30
0.0
 11
464.5
 21
20.44999999999999
 31
0.0
  0
LINE
  5
166
330
1E
100
AcDbEntity
  8
0
100
AcDbLine
 10
464.5
 20
20.44999999999999
 30
0.0
 11
464.5
 21
22.39999999999999
 31
0.0
  0
LINE
  5
167
330
1E
100
AcDbEntity
  8
0
100
AcDbLine
 10
464.5
 20
20.44999999999999
 30
0.0
 11
464.5
 21
19.25
 31
0.0
  0
LINE
  5
168
330
1E
100
AcDbEntity
  8
0
100
AcDbLine
 10
464.823
 20
18.94999999999999
 30
0.0
 11
464.823
 21
18.5
 31
0.0
  0
LINE
  5
169
330
1E
100
AcDbEntity
  8
0
100
AcDbLine
 10
464.823
 20
18.94999999999999
 30
0.0
 11
464.823
 21
20.15
 31
0.0
  0
LINE
  5
16A
330
1E
100
AcDbEntity
  8
0
100
AcDbLine
 10
464.823
 20
22.14999999999999
 30
0.0
 11
464.823
 21
20.15
 31
0.0
  0
LINE
  5
16B
330
1E
100
AcDbEntity
  8
0
100
AcDbLine
 10
464.823
 20
22.14999999999999
 30
0.0
 11
464.823
 21
24.8
 31
0.0
  0
LINE
  5
16C
330
1E
100
AcDbEntity
  8
0
100
AcDbLine
 10
464.823
 20
20.15
 30
0.0
 11
464.823
 21
18.94999999999999
 31
0.0
  0
LINE
  5
16D
330
1E
100
AcDbEntity
  8
0
100
AcDbLine
 10
464.823
 20
20.15
 30
0.0
 11
464.823
 21
22.14999999999999
 31
0.0
  0
LINE
  5
16E
330
1E
100
AcDbEntity
  8
0
100
AcDbLine
 10
464.823
 20
27.8
 30
0.0
 11
464.823
 21
24.8
 31
0.0
  0
LINE
  5
16F
330
1E
100
AcDbEntity
  8
0
100
AcDbLine
 10
464.823
 20
27.8
 30
0.0
 11
464.823
 21
31.0
 31
0.0
  0
LINE
  5
170
330
1E
100
AcDbEntity
  8
0
100
AcDbLine
 10
464.823
 20
24.8
 30
0.0
 11
464.823
 21
22.14999999999999
 31
0.0
  0
LINE
  5
171
330
1E
100
AcDbEntity
  8
0
100
AcDbLine
 10
464.823
 20
24.8
 30
0.0
 11
464.823
 21
27.8
 31
0.0
  0
LINE
  5
172
330
1E
100
AcDbEntity
  8
0
100
AcDbLine
 10
464.823
 20
34.2
 30
0.0
 11
464.823
 21
31.0
 31
0.0
  0
LINE
  5
173
330
1E
100
AcDbEntity
  8
0
100
AcDbLine
 10
464.823
 20
34.2
 30
0.0
 11
464.823
 21
37.2
 31
0.0
  0
LINE
  5
174
330
1E
100
AcDbEntity
  8
0
100
AcDbLine
 10
464.823
 20
37.2
 30
0.0
 11
464.823
 21
34.2
 31
0.0
  0
LINE
  5
175
330
1E
100
AcDbEntity
  8
0
100
AcDbLine
 10
464.823
 20
37.2
 30
0.0
 11
464.823
 21
39.85
 31
0.0
  0
LINE
  5
176
330
1E
100
AcDbEntity
  8
0
100
AcDbLine
 10
464.823
 20
39.85
 30
0.0
 11
464.823
 21
37.2
 31
0.0
  0
LINE
  5
177
330
1E
100
AcDbEntity
  8
0
100
AcDbLine
 10
464.823
 20
39.85
 30
0.0
 11
464.823
 21
41.85
 31
0.0
  0
LINE
  5
178
330
1E
100
AcDbEntity
  8
0
100
AcDbLine
 10
464.823
 20
41.85
 30
0.0
 11
464.823
 21
39.85
 31
0.0
  0
LINE
  5
179
330
1E
100
AcDbEntity
  8
0
100
AcDbLine
 10
464.823
 20
41.85
 30
0.0
 11
464.823
 21
43.04999999999999
 31
0.0
  0
LINE
  5
17A
330
1E
100
AcDbEntity
  8
0
100
AcDbLine
 10
464.823
 20
43.04999999999999
 30
0.0
 11
464.823
 21
41.85
 31
0.0
  0
LINE
  5
17B
330
1E
100
AcDbEntity
  8
0
100
AcDbLine
 10
464.823
 20
43.04999999999999
 30
0.0
 11
464.823
 21
43.5
 31
0.0
  0
LINE
  5
17C
330
1E
100
AcDbEntity
  8
0
100
AcDbLine
 10
466.1769999999999
 20
34.2
 30
0.0
 11
466.1769999999999
 21
37.2
 31
0.0
  0
LINE
  5
17D
330
1E
100
AcDbEntity
  8
0
100
AcDbLine
 10
466.1769999999999
 20
34.2
 30
0.0
 11
466.1769999999999
 21
31.0
 31
0.0
  0
LINE
  5
17E
330
1E
100
AcDbEntity
  8
0
100
AcDbLine
 10
466.1769999999999
 20
37.2
 30
0.0
 11
466.1769999999999
 21
39.85
 31
0.0
  0
LINE
  5
17F
330
1E
100
AcDbEntity
  8
0
100
AcDbLine
 10
466.1769999999999
 20
37.2
 30
0.0
 11
466.1769999999999
 21
34.2
 31
0.0
  0
LINE
  5
180
330
1E
100
AcDbEntity
  8
0
100
AcDbLine
 10
466.1769999999999
 20
39.85
 30
0.0
 11
466.1769999999999
 21
41.85
 31
0.0
  0
LINE
  5
181
330
1E
100
AcDbEntity
  8
0
100
AcDbLine
 10
466.1769999999999
 20
39.85
 30
0.0
 11
466.1769999999999
 21
37.2
 31
0.0
  0
LINE
  5
182
330
1E
100
AcDbEntity
  8
0
100
AcDbLine
 10
466.1769999999999
 20
41.85
 30
0.0
 11
466.1769999999999
 21
43.04999999999999
 31
0.0
  0
LINE
  5
183
330
1E
100
AcDbEntity
  8
0
100
AcDbLine
 10
466.1769999999999
 20
41.85
 30
0.0
 11
466.1769999999999
 21
39.85
 31
0.0
  0
LINE
  5
184
330
1E
100
AcDbEntity
  8
0
100
AcDbLine
 10
466.1769999999999
 20
43.5
 30
0.0
 11
466.5
 21
43.2
 31
0.0
  0
LINE
  5
185
330
1E
100
AcDbEntity
  8
0
100
AcDbLine
 10
466.1769999999999
 20
43.5
 30
0.0
 11
466.1769999999999
 21
43.04999999999999
 31
0.0
  0
LINE
  5
186
330
1E
100
AcDbEntity
  8
0
100
AcDbLine
 10
466.1769999999999
 20
43.04999999999999
 30
0.0
 11
466.1769999999999
 21
43.5
 31
0.0
  0
LINE
  5
187
330
1E
100
AcDbEntity
  8
0
100
AcDbLine
 10
466.1769999999999
 20
43.04999999999999
 30
0.0
 11
466.1769999999999
 21
41.85
 31
0.0
  0
LINE
  5
188
330
1E
100
AcDbEntity
  8
0
100
AcDbLine
 10
464.823
 20
43.5
 30
0.0
 11
466.1769999999999
 21
43.5
 31
0.0
  0
LINE
  5
189
330
1E
100
AcDbEntity
  8
0
100
AcDbLine
 10
464.823
 20
43.5
 30
0.0
 11
464.823
 21
43.04999999999999
 31
0.0
  0
LINE
  5
18A
330
1E
100
AcDbEntity
  8
0
100
AcDbLine
 10
464.823
 20
31.0
 30
0.0
 11
464.823
 21
27.8
 31
0.0
  0
LINE
  5
18B
330
1E
100
AcDbEntity
  8
0
100
AcDbLine
 10
464.823
 20
31.0
 30
0.0
 11
464.823
 21
34.2
 31
0.0
  0
LINE
  5
18C
330
1E
100
AcDbEntity
  8
0
100
AcDbLine
 10
466.1769999999999
 20
31.0
 30
0.0
 11
466.1769999999999
 21
27.8
 31
0.0
  0
LINE
  5
18D
330
1E
100
AcDbEntity
  8
0
100
AcDbLine
 10
466.1769999999999
 20
31.0
 30
0.0
 11
466.1769999999999
 21
34.2
 31
0.0
  0
LINE
  5
18E
330
1E
100
AcDbEntity
  8
0
100
AcDbLine
 10
466.1769999999999
 20
27.8
 30
0.0
 11
466.1769999999999
 21
24.8
 31
0.0
  0
LINE
  5
18F
330
1E
100
AcDbEntity
  8
0
100
AcDbLine
 10
466.1769999999999
 20
27.8
 30
0.0
 11
466.1769999999999
 21
31.0
 31
0.0
  0
LINE
  5
190
330
1E
100
AcDbEntity
  8
0
100
AcDbLine
 10
466.1769999999999
 20
24.8
 30
0.0
 11
466.1769999999999
 21
22.14999999999999
 31
0.0
  0
LINE
  5
191
330
1E
100
AcDbEntity
  8
0
100
AcDbLine
 10
466.1769999999999
 20
24.8
 30
0.0
 11
466.1769999999999
 21
27.8
 31
0.0
  0
LINE
  5
192
330
1E
100
AcDbEntity
  8
0
100
AcDbLine
 10
466.1769999999999
 20
22.14999999999999
 30
0.0
 11
466.1769999999999
 21
20.15
 31
0.0
  0
LINE
  5
193
330
1E
100
AcDbEntity
  8
0
100
AcDbLine
 10
466.1769999999999
 20
22.14999999999999
 30
0.0
 11
466.1769999999999
 21
24.8
 31
0.0
  0
LINE
  5
194
330
1E
100
AcDbEntity
  8
0
100
AcDbLine
 10
466.5
 20
20.5
 30
0.0
 11
466.8149999999999
 21
20.5
 31
0.0
  0
LINE
  5
195
330
1E
100
AcDbEntity
  8
0
100
AcDbLine
 10
466.5
 20
34.15
 30
0.0
 11
466.5
 21
37.05
 31
0.0
  0
LINE
  5
196
330
1E
100
AcDbEntity
  8
0
100
AcDbLine
 10
466.5
 20
34.15
 30
0.0
 11
466.5
 21
31.0
 31
0.0
  0
LINE
  5
197
330
1E
100
AcDbEntity
  8
0
100
AcDbLine
 10
466.5
 20
37.05
 30
0.0
 11
466.5
 21
39.6
 31
0.0
  0
LINE
  5
198
330
1E
100
AcDbEntity
  8
0
100
AcDbLine
 10
466.5
 20
37.05
 30
0.0
 11
466.5
 21
34.15
 31
0.0
  0
LINE
  5
199
330
1E
100
AcDbEntity
  8
0
100
AcDbLine
 10
466.5
 20
41.5
 30
0.0
 11
466.8149999999999
 21
41.5
 31
0.0
  0
LINE
  5
19A
330
1E
100
AcDbEntity
  8
0
100
AcDbLine
 10
466.5
 20
39.6
 30
0.0
 11
466.5
 21
41.55
 31
0.0
  0
LINE
  5
19B
330
1E
100
AcDbEntity
  8
0
100
AcDbLine
 10
466.5
 20
39.6
 30
0.0
 11
466.5
 21
37.05
 31
0.0
  0
LINE
  5
19C
330
1E
100
AcDbEntity
  8
0
100
AcDbLine
 10
466.5
 20
41.55
 30
0.0
 11
466.5
 21
42.75
 31
0.0
  0
LINE
  5
19D
330
1E
100
AcDbEntity
  8
0
100
AcDbLine
 10
466.5
 20
41.55
 30
0.0
 11
466.5
 21
39.6
 31
0.0
  0
LINE
  5
19E
330
1E
100
AcDbEntity
  8
0
100
AcDbLine
 10
466.5
 20
43.2
 30
0.0
 11
466.5
 21
42.75
 31
0.0
  0
LINE
  5
19F
330
1E
100
AcDbEntity
  8
0
100
AcDbLine
 10
466.5
 20
42.75
 30
0.0
 11
466.5
 21
43.2
 31
0.0
  0
LINE
  5
1A0
330
1E
100
AcDbEntity
  8
0
100
AcDbLine
 10
466.5
 20
42.75
 30
0.0
 11
466.5
 21
41.55
 31
0.0
  0
LINE
  5
1A1
330
1E
100
AcDbEntity
  8
0
100
AcDbLine
 10
466.5
 20
31.0
 30
0.0
 11
466.5
 21
27.85
 31
0.0
  0
LINE
  5
1A2
330
1E
100
AcDbEntity
  8
0
100
AcDbLine
 10
466.5
 20
31.0
 30
0.0
 11
466.5
 21
34.15
 31
0.0
  0
LINE
  5
1A3
330
1E
100
AcDbEntity
  8
0
100
AcDbLine
 10
466.5
 20
27.85
 30
0.0
 11
466.5
 21
31.0
 31
0.0
  0
LINE
  5
1A4
330
1E
100
AcDbEntity
  8
0
100
AcDbLine
 10
466.5
 20
27.85
 30
0.0
 11
466.5
 21
24.95
 31
0.0
  0
LINE
  5
1A5
330
1E
100
AcDbEntity
  8
0
100
AcDbLine
 10
466.5
 20
24.95
 30
0.0
 11
466.5
 21
27.85
 31
0.0
  0
LINE
  5
1A6
330
1E
100
AcDbEntity
  8
0
100
AcDbLine
 10
466.5
 20
24.95
 30
0.0
 11
466.5
 21
22.39999999999999
 31
0.0
  0
LINE
  5
1A7
330
1E
100
AcDbEntity
  8
0
100
AcDbLine
 10
466.5
 20
22.39999999999999
 30
0.0
 11
466.5
 21
24.95
 31
0.0
  0
LINE
  5
1A8
330
1E
100
AcDbEntity
  8
0
100
AcDbLine
 10
466.5
 20
22.39999999999999
 30
0.0
 11
466.5
 21
20.44999999999999
 31
0.0
  0
LINE
  5
1A9
330
1E
100
AcDbEntity
  8
0
100
AcDbLine
 10
466.8149999999999
 20
33.688
 30
0.0
 11
466.8149999999999
 21
36.208
 31
0.0
  0
LINE
  5
1AA
330
1E
100
AcDbEntity
  8
0
100
AcDbLine
 10
466.8149999999999
 20
33.688
 30
0.0
 11
466.8149999999999
 21
31.0
 31
0.0
  0
LINE
  5
1AB
330
1E
100
AcDbEntity
  8
0
100
AcDbLine
 10
466.8149999999999
 20
36.208
 30
0.0
 11
466.8149999999999
 21
38.43399999999999
 31
0.0
  0
LINE
  5
1AC
330
1E
100
AcDbEntity
  8
0
100
AcDbLine
 10
466.8149999999999
 20
36.208
 30
0.0
 11
466.8149999999999
 21
33.688
 31
0.0
  0
LINE
  5
1AD
330
1E
100
AcDbEntity
  8
0
100
AcDbLine
 10
466.8149999999999
 20
38.43399999999999
 30
0.0
 11
466.8149999999999
 21
40.114
 31
0.0
  0
LINE
  5
1AE
330
1E
100
AcDbEntity
  8
0
100
AcDbLine
 10
466.8149999999999
 20
38.43399999999999
 30
0.0
 11
466.8149999999999
 21
36.208
 31
0.0
  0
LINE
  5
1AF
330
1E
100
AcDbEntity
  8
0
100
AcDbLine
 10
466.8149999999999
 20
40.114
 30
0.0
 11
466.8149999999999
 21
41.122
 31
0.0
  0
LINE
  5
1B0
330
1E
100
AcDbEntity
  8
0
100
AcDbLine
 10
466.8149999999999
 20
40.114
 30
0.0
 11
466.8149999999999
 21
38.43399999999999
 31
0.0
  0
LINE
  5
1B1
330
1E
100
AcDbEntity
  8
0
100
AcDbLine
 10
466.8149999999999
 20
41.122
 30
0.0
 11
466.8149999999999
 21
41.5
 31
0.0
  0
LINE
  5
1B2
330
1E
100
AcDbEntity
  8
0
100
AcDbLine
 10
466.8149999999999
 20
41.122
 30
0.0
 11
466.8149999999999
 21
40.114
 31
0.0
  0
LINE
  5
1B3
330
1E
100
AcDbEntity
  8
0
100
AcDbLine
 10
466.8149999999999
 20
41.5
 30
0.0
 11
467.0
 21
41.248
 31
0.0
  0
LINE
  5
1B4
330
1E
100
AcDbEntity
  8
0
100
AcDbLine
 10
466.8149999999999
 20
41.5
 30
0.0
 11
466.8149999999999
 21
41.122
 31
0.0
  0
LINE
  5
1B5
330
1E
100
AcDbEntity
  8
0
100
AcDbLine
 10
466.8149999999999
 20
31.0
 30
0.0
 11
466.8149999999999
 21
28.31199999999999
 31
0.0
  0
LINE
  5
1B6
330
1E
100
AcDbEntity
  8
0
100
AcDbLine
 10
466.8149999999999
 20
31.0
 30
0.0
 11
466.8149999999999
 21
33.688
 31
0.0
  0
LINE
  5
1B7
330
1E
100
AcDbEntity
  8
0
100
AcDbLine
 10
466.8149999999999
 20
28.31199999999999
 30
0.0
 11
466.8149999999999
 21
31.0
 31
0.0
  0
LINE
  5
1B8
330
1E
100
AcDbEntity
  8
0
100
AcDbLine
 10
466.8149999999999
 20
28.31199999999999
 30
0.0
 11
466.8149999999999
 21
25.792
 31
0.0
  0
LINE
  5
1B9
330
1E
100
AcDbEntity
  8
0
100
AcDbLine
 10
466.8149999999999
 20
25.792
 30
0.0
 11
466.8149999999999
 21
28.31199999999999
 31
0.0
  0
LINE
  5
1BA
330
1E
100
AcDbEntity
  8
0
100
AcDbLine
 10
466.8149999999999
 20
25.792
 30
0.0
 11
466.8149999999999
 21
23.56599999999999
 31
0.0
  0
LINE
  5
1BB
330
1E
100
AcDbEntity
  8
0
100
AcDbLine
 10
466.8149999999999
 20
23.56599999999999
 30
0.0
 11
466.8149999999999
 21
25.792
 31
0.0
  0
LINE
  5
1BC
330
1E
100
AcDbEntity
  8
0
100
AcDbLine
 10
466.8149999999999
 20
23.56599999999999
 30
0.0
 11
466.8149999999999
 21
21.886
 31
0.0
  0
LINE
  5
1BD
330
1E
100
AcDbEntity
  8
0
100
AcDbLine
 10
466.8149999999999
 20
21.886
 30
0.0
 11
466.8149999999999
 21
23.56599999999999
 31
0.0
  0
LINE
  5
1BE
330
1E
100
AcDbEntity
  8
0
100
AcDbLine
 10
466.8149999999999
 20
21.886
 30
0.0
 11
466.8149999999999
 21
20.878
 31
0.0
  0
LINE
  5
1BF
330
1E
100
AcDbEntity
  8
0
100
AcDbLine
 10
467.0
 20
33.646
 30
0.0
 11
467.0
 21
36.082
 31
0.0
  0
LINE
  5
1C0
330
1E
100
AcDbEntity
  8
0
100
AcDbLine
 10
467.0
 20
33.646
 30
0.0
 11
467.0
 21
31.0
 31
0.0
  0
LINE
  5
1C1
330
1E
100
AcDbEntity
  8
0
100
AcDbLine
 10
467.0
 20
36.082
 30
0.0
 11
467.0
 21
38.224
 31
0.0
  0
LINE
  5
1C2
330
1E
100
AcDbEntity
  8
0
100
AcDbLine
 10
467.0
 20
36.082
 30
0.0
 11
467.0
 21
33.646
 31
0.0
  0
LINE
  5
1C3
330
1E
100
AcDbEntity
  8
0
100
AcDbLine
 10
467.0
 20
38.224
 30
0.0
 11
467.0
 21
39.86199999999999
 31
0.0
  0
LINE
  5
1C4
330
1E
100
AcDbEntity
  8
0
100
AcDbLine
 10
467.0
 20
38.224
 30
0.0
 11
467.0
 21
36.082
 31
0.0
  0
LINE
  5
1C5
330
1E
100
AcDbEntity
  8
0
100
AcDbLine
 10
467.0
 20
41.248
 30
0.0
 11
467.0
 21
40.86999999999999
 31
0.0
  0
LINE
  5
1C6
330
1E
100
AcDbEntity
  8
0
100
AcDbLine
 10
467.0
 20
39.86199999999999
 30
0.0
 11
467.0
 21
40.86999999999999
 31
0.0
  0
LINE
  5
1C7
330
1E
100
AcDbEntity
  8
0
100
AcDbLine
 10
467.0
 20
39.86199999999999
 30
0.0
 11
467.0
 21
38.224
 31
0.0
  0
LINE
  5
1C8
330
1E
100
AcDbEntity
  8
0
100
AcDbLine
 10
467.0
 20
40.86999999999999
 30
0.0
 11
467.0
 21
41.248
 31
0.0
  0
LINE
  5
1C9
330
1E
100
AcDbEntity
  8
0
100
AcDbLine
 10
467.0
 20
40.86999999999999
 30
0.0
 11
467.0
 21
39.86199999999999
 31
0.0
  0
LINE
  5
1CA
330
1E
100
AcDbEntity
  8
0
100
AcDbLine
 10
467.0
 20
31.0
 30
0.0
 11
467.0
 21
28.35399999999999
 31
0.0
  0
LINE
  5
1CB
330
1E
100
AcDbEntity
  8
0
100
AcDbLine
 10
467.0
 20
31.0
 30
0.0
 11
467.0
 21
33.646
 31
0.0
  0
LINE
  5
1CC
330
1E
100
AcDbEntity
  8
0
100
AcDbLine
 10
467.0
 20
28.35399999999999
 30
0.0
 11
467.0
 21
31.0
 31
0.0
  0
LINE
  5
1CD
330
1E
100
AcDbEntity
  8
0
100
AcDbLine
 10
467.0
 20
28.35399999999999
 30
0.0
 11
467.0
 21
25.918
 31
0.0
  0
LINE
  5
1CE
330
1E
100
AcDbEntity
  8
0
100
AcDbLine
 10
467.0
 20
25.918
 30
0.0
 11
467.0
 21
28.35399999999999
 31
0.0
  0
LINE
  5
1CF
330
1E
100
AcDbEntity
  8
0
100
AcDbLine
 10
467.0
 20
25.918
 30
0.0
 11
467.0
 21
23.776
 31
0.0
  0
LINE
  5
1D0
330
1E
100
AcDbEntity
  8
0
100
AcDbLine
 10
467.0
 20
23.776
 30
0.0
 11
467.0
 21
25.918
 31
0.0
  0
LINE
  5
1D1
330
1E
100
AcDbEntity
  8
0
100
AcDbLine
 10
467.0
 20
23.776
 30
0.0
 11
467.0
 21
22.138
 31
0.0
  0
LINE
  5
1D2
330
1E
100
AcDbEntity
  8
0
100
AcDbLine
 10
467.0
 20
22.138
 30
0.0
 11
467.0
 21
23.776
 31
0.0
  0
LINE
  5
1D3
330
1E
100
AcDbEntity
  8
0
100
AcDbLine
 10
467.0
 20
22.138
 30
0.0
 11
467.0
 21
21.12999999999999
 31
0.0
  0
LINE
  5
1D4
330
1E
100
AcDbEntity
  8
0
100
AcDbLine
 10
467.0
 20
21.12999999999999
 30
0.0
 11
467.0
 21
22.138
 31
0.0
  0
LINE
  5
1D5
330
1E
100
AcDbEntity
  8
0
100
AcDbLine
 10
467.0
 20
21.12999999999999
 30
0.0
 11
467.0
 21
20.752
 31
0.0
  0
LINE
  5
1D6
330
1E
100
AcDbEntity
  8
0
100
AcDbLine
 10
467.0
 20
20.752
 30
0.0
 11
467.0
 21
21.12999999999999
 31
0.0
  0
LINE
  5
1D7
330
1E
100
AcDbEntity
  8
0
100
AcDbLine
 10
466.8149999999999
 20
20.878
 30
0.0
 11
466.8149999999999
 21
21.886
 31
0.0
  0
LINE
  5
1D8
330
1E
100
AcDbEntity
  8
0
100
AcDbLine
 10
466.8149999999999
 20
20.878
 30
0.0
 11
466.8149999999999
 21
20.5
 31
0.0
  0
LINE
  5
1D9
330
1E
100
AcDbEntity
  8
0
100
AcDbLine
 10
466.8149999999999
 20
20.5
 30
0.0
 11
467.0
 21
20.752
 31
0.0
  0
LINE
  5
1DA
330
1E
100
AcDbEntity
  8
0
100
AcDbLine
 10
466.8149999999999
 20
20.5
 30
0.0
 11
466.8149999999999
 21
20.878
 31
0.0
  0
LINE
  5
1DB
330
1E
100
AcDbEntity
  8
0
100
AcDbLine
 10
466.5
 20
20.44999999999999
 30
0.0
 11
466.5
 21
22.39999999999999
 31
0.0
  0
LINE
  5
1DC
330
1E
100
AcDbEntity
  8
0
100
AcDbLine
 10
466.5
 20
20.44999999999999
 30
0.0
 11
466.5
 21
19.25
 31
0.0
  0
LINE
  5
1DD
330
1E
100
AcDbEntity
  8
0
100
AcDbLine
 10
466.5
 20
19.25
 30
0.0
 11
466.5
 21
20.44999999999999
 31
0.0
  0
LINE
  5
1DE
330
1E
100
AcDbEntity
  8
0
100
AcDbLine
 10
466.5
 20
19.25
 30
0.0
 11
466.5
 21
18.8
 31
0.0
  0
LINE
  5
1DF
330
1E
100
AcDbEntity
  8
0
100
AcDbLine
 10
466.1769999999999
 20
20.15
 30
0.0
 11
466.1769999999999
 21
18.94999999999999
 31
0.0
  0
LINE
  5
1E0
330
1E
100
AcDbEntity
  8
0
100
AcDbLine
 10
466.1769999999999
 20
20.15
 30
0.0
 11
466.1769999999999
 21
22.14999999999999
 31
0.0
  0
LINE
  5
1E1
330
1E
100
AcDbEntity
  8
0
100
AcDbLine
 10
466.1769999999999
 20
18.94999999999999
 30
0.0
 11
466.1769999999999
 21
18.5
 31
0.0
  0
LINE
  5
1E2
330
1E
100
AcDbEntity
  8
0
100
AcDbLine
 10
466.1769999999999
 20
18.94999999999999
 30
0.0
 11
466.1769999999999
 21
20.15
 31
0.0
  0
LINE
  5
1E3
330
1E
100
AcDbEntity
  8
0
100
AcDbLine
 10
464.5
 20
19.25
 30
0.0
 11
464.5
 21
20.44999999999999
 31
0.0
  0
LINE
  5
1E4
330
1E
100
AcDbEntity
  8
0
100
AcDbLine
 10
464.5
 20
19.25
 30
0.0
 11
464.5
 21
18.8
 31
0.0
  0
LINE
  5
1E5
330
1E
100
AcDbEntity
  8
0
100
AcDbLine
 10
464.5
 20
18.8
 30
0.0
 11
464.5
 21
19.25
 31
0.0
  0
LINE
  5
1E6
330
1E
100
AcDbEntity
  8
0
100
AcDbLine
 10
464.5
 20
18.8
 30
0.0
 11
464.823
 21
18.5
 31
0.0
  0
LINE
  5
1E7
330
1E
100
AcDbEntity
  8
0
100
AcDbLine
 10
464.308
 20
18.94999999999999
 30
0.0
 11
464.308
 21
18.5
 31
0.0
  0
LINE
  5
1E9
330
1E
100
AcDbEntity
  8
0
100
AcDbLine
 10
464.308
 20
18.94999999999999
 30
0.0
 11
464.308
 21
20.15
 31
0.0
  0
LINE
  5
1EA
330
1E
100
AcDbEntity
  8
0
100
AcDbLine
 10
464.308
 20
18.5
 30
0.0
 11
464.5
 21
18.8
 31
0.0
  0
LINE
  5
1EB
330
1E
100
AcDbEntity
  8
0
100
AcDbLine
 10
464.308
 20
18.5
 30
0.0
 11
464.308
 21
18.94999999999999
 31
0.0
  0
LINE
  5
1EC
330
1E
100
AcDbEntity
  8
0
100
AcDbLine
 10
106.2
 20
44.0
 30
0.0
 11
106.4063492063489
 21
43.5
 31
0.0
  0
LINE
  5
1ED
330
1E
100
AcDbEntity
  8
0
100
AcDbLine
 10
102.0
 20
49.5
 30
0.0
 11
106.2
 21
44.0
 31
0.0
  0
LINE
  5
1EE
330
1E
100
AcDbEntity
  8
0
100
AcDbLine
 10
365.0
 20
49.5
 30
0.0
 11
370.5
 21
53.7
 31
0.0
  0
LINE
  5
1EF
330
1E
100
AcDbEntity
  8
0
100
AcDbLine
 10
370.5
 20
53.7
 30
0.0
 11
376.8
 21
56.29999999999999
 31
0.0
  0
LINE
  5
1F0
330
1E
100
AcDbEntity
  8
0
100
AcDbLine
 10
376.8
 20
56.29999999999999
 30
0.0
 11
383.4999999999999
 21
57.2
 31
0.0
  0
LINE
  5
1F1
330
1E
100
AcDbEntity
  8
0
100
AcDbLine
 10
361.6
 20
52.9
 30
0.0
 11
368.1
 21
57.8
 31
0.0
  0
LINE
  5
1F2
330
1E
100
AcDbEntity
  8
0
100
AcDbLine
 10
402.0
 20
49.5
 30
0.0
 11
406.2
 21
44.0
 31
0.0
  0
LINE
  5
1F3
330
1E
100
AcDbEntity
  8
0
100
AcDbLine
 10
405.4
 20
52.9
 30
0.0
 11
410.2999999999999
 21
46.39999999999999
 31
0.0
  0
LINE
  5
1F4
330
1E
100
AcDbEntity
  8
0
100
AcDbLine
 10
396.5
 20
53.7
 30
0.0
 11
402.0
 21
49.5
 31
0.0
  0
LINE
  5
1F5
330
1E
100
AcDbEntity
  8
0
100
AcDbLine
 10
390.2
 20
56.29999999999999
 30
0.0
 11
396.5
 21
53.7
 31
0.0
  0
LINE
  5
1F6
330
1E
100
AcDbEntity
  8
0
100
AcDbLine
 10
105.4
 20
52.9
 30
0.0
 11
110.2999999999999
 21
46.39999999999999
 31
0.0
  0
LINE
  5
1F7
330
1E
100
AcDbEntity
  8
0
100
AcDbLine
 10
110.2999999999999
 20
46.39999999999999
 30
0.0
 11
111.514864864865
 21
43.5
 31
0.0
  0
LINE
  5
1F8
330
1E
100
AcDbEntity
  8
0
100
AcDbLine
 10
96.5
 20
53.7
 30
0.0
 11
102.0
 21
49.5
 31
0.0
  0
LINE
  5
1F9
330
1E
100
AcDbEntity
  8
0
100
AcDbLine
 10
368.1
 20
57.8
 30
0.0
 11
375.4999999999999
 21
60.89999999999999
 31
0.0
  0
LINE
  5
1FA
330
1E
100
AcDbEntity
  8
0
100
AcDbLine
 10
383.4999999999999
 20
57.2
 30
0.0
 11
390.2
 21
56.29999999999999
 31
0.0
  0
LINE
  5
1FB
330
1E
100
AcDbEntity
  8
0
100
AcDbLine
 10
398.8999999999999
 20
57.8
 30
0.0
 11
405.4
 21
52.9
 31
0.0
  0
LINE
  5
1FC
330
1E
100
AcDbEntity
  8
0
100
AcDbLine
 10
90.20000000000001
 20
56.29999999999999
 30
0.0
 11
96.5
 21
53.7
 31
0.0
  0
LINE
  5
1FD
330
1E
100
AcDbEntity
  8
0
100
AcDbLine
 10
83.49999999999999
 20
57.2
 30
0.0
 11
90.20000000000001
 21
56.29999999999999
 31
0.0
  0
LINE
  5
1FE
330
1E
100
AcDbEntity
  8
0
100
AcDbLine
 10
375.4999999999999
 20
60.89999999999999
 30
0.0
 11
383.4999999999999
 21
62.0
 31
0.0
  0
LINE
  5
1FF
330
1E
100
AcDbEntity
  8
0
100
AcDbLine
 10
391.5
 20
60.89999999999999
 30
0.0
 11
398.8999999999999
 21
57.8
 31
0.0
  0
LINE
  5
200
330
1E
100
AcDbEntity
  8
0
100
AcDbLine
 10
383.4999999999999
 20
62.0
 30
0.0
 11
391.5
 21
60.89999999999999
 31
0.0
  0
LINE
  5
201
330
1E
100
AcDbEntity
  8
0
100
AcDbLine
 10
91.5
 20
60.89999999999999
 30
0.0
 11
98.9
 21
57.8
 31
0.0
  0
LINE
  5
202
330
1E
100
AcDbEntity
  8
0
100
AcDbLine
 10
98.9
 20
57.8
 30
0.0
 11
105.4
 21
52.9
 31
0.0
  0
LINE
  5
203
330
1E
100
AcDbEntity
  8
0
100
AcDbLine
 10
76.79999999999999
 20
56.29999999999999
 30
0.0
 11
83.49999999999999
 21
57.2
 31
0.0
  0
LINE
  5
204
330
1E
100
AcDbEntity
  8
0
100
AcDbLine
 10
83.49999999999999
 20
62.0
 30
0.0
 11
91.5
 21
60.89999999999999
 31
0.0
  0
LINE
  5
205
330
1E
100
AcDbEntity
  8
0
100
AcDbLine
 10
75.5
 20
60.89999999999999
 30
0.0
 11
83.49999999999999
 21
62.0
 31
0.0
  0
LINE
  5
206
330
1E
100
AcDbEntity
  8
0
100
AcDbLine
 10
60.8
 20
18.0
 30
0.0
 11
65.0
 21
12.5
 31
0.0
  0
LINE
  5
207
330
1E
100
AcDbEntity
  8
0
100
AcDbLine
 10
60.5936507936508
 20
18.5
 30
0.0
 11
60.8
 21
18.0
 31
0.0
  0
LINE
  5
208
330
1E
100
AcDbEntity
  8
0
100
AcDbLine
 10
56.7
 20
15.6
 30
0.0
 11
61.6
 21
9.099999999999999
 31
0.0
  0
LINE
  5
209
330
1E
100
AcDbEntity
  8
0
100
AcDbLine
 10
55.48513513513509
 20
18.5
 30
0.0
 11
56.7
 21
15.6
 31
0.0
  0
ENDSEC
  0
SECTION
  2
OBJECTS
  0
DICTIONARY
  5
C
330
0
100
AcDbDictionary
281
     1
  3
ACAD_GROUP
350
D
  3
ACAD_LAYOUT
350
19
  3
ACAD_MLINESTYLE
350
16
  3
ACAD_PLOTSETTINGS
350
18
  3
ACAD_PLOTSTYLENAME
350
E
  3
AcDbVariableDictionary
350
20E
  0
DICTIONARY
  5
D
102
{ACAD_REACTORS
330
C
102
}
330
C
100
AcDbDictionary
281
     1
  0
DICTIONARY
  5
19
102
{ACAD_REACTORS
330
C
102
}
330
C
100
AcDbDictionary
281
     1
  3
Layout1
350
1D
  3
Model
350
21
  0
DICTIONARY
  5
16
102
{ACAD_REACTORS
330
C
102
}
330
C
100
AcDbDictionary
281
     1
  3
Standard
350
17
  0
DICTIONARY
  5
18
102
{ACAD_REACTORS
330
C
102
}
330
C
100
AcDbDictionary
281
     1
  0
ACDBDICTIONARYWDFLT
  5
E
102
{ACAD_REACTORS
330
C
102
}
330
C
100
AcDbDictionary
281
     1
  3
Normal
350
F
100
AcDbDictionaryWithDefault
340
F
  0
DICTIONARY
  5
20E
102
{ACAD_REACTORS
330
C
102
}
330
C
100
AcDbDictionary
281
     1
  3
DIMASSOC
350
20F
  0
LAYOUT
  5
1D
102
{ACAD_REACTORS
330
19
102
}
330
19
100
AcDbPlotSettings
  1

  2
hp deskjet 980c series
  4

  6

 40
0.0
 41
0.0
 42
0.0
 43
0.0
 44
0.0
 45
0.0
 46
0.0
 47
0.0
 48
0.0
 49
0.0
140
0.0
141
0.0
142
1.0
143
1.0
 70
   688
 72
     0
 73
     0
 74
     5
  7

 75
    16
147
1.0
148
0.0
149
0.0
100
AcDbLayout
  1
Layout1
 70
     1
 71
     1
 10
0.0
 20
0.0
 11
12.0
 21
9.0
 12
0.0
 22
0.0
 32
0.0
 14
1.000000000000000E+20
 24
1.000000000000000E+20
 34
1.000000000000000E+20
 15
-1.000000000000000E+20
 25
-1.000000000000000E+20
 35
-1.000000000000000E+20
146
0.0
 13
0.0
 23
0.0
 33
0.0
 16
1.0
 26
0.0
 36
0.0
 17
0.0
 27
1.0
 37
0.0
 76
     0
330
1A
  0
LAYOUT
  5
21
102
{ACAD_REACTORS
330
19
102
}
330
19
100
AcDbPlotSettings
  1

  2
hp deskjet 980c series
  4

  6

 40
0.0
 41
0.0
 42
0.0
 43
0.0
 44
0.0
 45
0.0
 46
0.0
 47
0.0
 48
0.0
 49
0.0
140
0.0
141
0.0
142
1.0
143
1.0
 70
  1712
 72
     0
 73
     0
 74
     0
  7

 75
     0
147
1.0
148
0.0
149
0.0
100
AcDbLayout
  1
Model
 70
     1
 71
     0
 10
0.0
 20
0.0
 11
12.0
 21
9.0
 12
0.0
 22
0.0
 32
0.0
 14
0.0
 24
0.0
 34
0.0
 15
0.0
 25
0.0
 35
0.0
146
0.0
 13
0.0
 23
0.0
 33
0.0
 16
1.0
 26
0.0
 36
0.0
 17
0.0
 27
1.0
 37
0.0
 76
     0
330
1E
  0
MLINESTYLE
  5
17
102
{ACAD_REACTORS
330
16
102
}
330
16
100
AcDbMlineStyle
  2
STANDARD
 70
     0
  3

 62
   256
 51
90.0
 52
90.0
 71
     2
 49
0.5
 62
   256
  6
BYLAYER
 49
-0.5
 62
   256
  6
BYLAYER
  0
ACDBPLACEHOLDER
  5
F
102
{ACAD_REACTORS
330
E
102
}
330
E
  0
DICTIONARYVAR
  5
20F
102
{ACAD_REACTORS
330
20E
102
}
330
20E
100
DictionaryVariables
280
     0
  1
1
  0
ENDSEC
  0
EOF
