  0
SECTION
  2
HEADER
  9
$ACADVER
  1
AC1014
  9
$ACADMAINTVER
 70
     9
  9
$DWGCODEPAGE
  3
ANSI_1252
  9
$INSBASE
 10
0.0
 20
0.0
 30
0.0
  9
$EXTMIN
 10
1.000000000000019
 20
0.0
 30
0.0
  9
$EXTMAX
 10
40.0
 20
60.0
 30
0.0
  9
$LIMMIN
 10
0.0
 20
0.0
  9
$LIMMAX
 10
12.0
 20
9.0
  9
$ORTHOMODE
 70
     0
  9
$REGENMODE
 70
     1
  9
$FILLMODE
 70
     1
  9
$QTEXTMODE
 70
     0
  9
$MIRRTEXT
 70
     1
  9
$DRAGMODE
 70
     2
  9
$LTSCALE
 40
1.0
  9
$OSMODE
 70
    37
  9
$ATTMODE
 70
     1
  9
$TEXTSIZE
 40
0.2
  9
$TRACEWID
 40
0.05
  9
$TEXTSTYLE
  7
STANDARD
  9
$CLAYER
  8
0
  9
$CELTYPE
  6
CONTINUOUS
  9
$CECOLOR
 62
   256
  9
$CELTSCALE
 40
1.0
  9
$DELOBJ
 70
     1
  9
$DISPSILH
 70
     0
  9
$DIMSCALE
 40
1.0
  9
$DIMASZ
 40
0.18
  9
$DIMEXO
 40
0.0625
  9
$DIMDLI
 40
0.38
  9
$DIMRND
 40
0.0
  9
$DIMDLE
 40
0.0
  9
$DIMEXE
 40
0.18
  9
$DIMTP
 40
0.0
  9
$DIMTM
 40
0.0
  9
$DIMTXT
 40
0.18
  9
$DIMCEN
 40
0.09
  9
$DIMTSZ
 40
0.0
  9
$DIMTOL
 70
     0
  9
$DIMLIM
 70
     0
  9
$DIMTIH
 70
     1
  9
$DIMTOH
 70
     1
  9
$DIMSE1
 70
     0
  9
$DIMSE2
 70
     0
  9
$DIMTAD
 70
     0
  9
$DIMZIN
 70
     0
  9
$DIMBLK
  1

  9
$DIMASO
 70
     1
  9
$DIMSHO
 70
     1
  9
$DIMPOST
  1

  9
$DIMAPOST
  1

  9
$DIMALT
 70
     0
  9
$DIMALTD
 70
     2
  9
$DIMALTF
 40
25.4
  9
$DIMLFAC
 40
1.0
  9
$DIMTOFL
 70
     0
  9
$DIMTVP
 40
0.0
  9
$DIMTIX
 70
     0
  9
$DIMSOXD
 70
     0
  9
$DIMSAH
 70
     0
  9
$DIMBLK1
  1

  9
$DIMBLK2
  1

  9
$DIMSTYLE
  2
STANDARD
  9
$DIMCLRD
 70
     0
  9
$DIMCLRE
 70
     0
  9
$DIMCLRT
 70
     0
  9
$DIMTFAC
 40
1.0
  9
$DIMGAP
 40
0.09
  9
$DIMJUST
 70
     0
  9
$DIMSD1
 70
     0
  9
$DIMSD2
 70
     0
  9
$DIMTOLJ
 70
     1
  9
$DIMTZIN
 70
     0
  9
$DIMALTZ
 70
     0
  9
$DIMALTTZ
 70
     0
  9
$DIMFIT
 70
     3
  9
$DIMUPT
 70
     0
  9
$DIMUNIT
 70
     2
  9
$DIMDEC
 70
     4
  9
$DIMTDEC
 70
     4
  9
$DIMALTU
 70
     2
  9
$DIMALTTD
 70
     2
  9
$DIMTXSTY
  7
STANDARD
  9
$DIMAUNIT
 70
     0
  9
$LUNITS
 70
     2
  9
$LUPREC
 70
     4
  9
$SKETCHINC
 40
0.1
  9
$FILLETRAD
 40
0.0
  9
$AUNITS
 70
     0
  9
$AUPREC
 70
     0
  9
$MENU
  1
.
  9
$ELEVATION
 40
0.0
  9
$PELEVATION
 40
0.0
  9
$THICKNESS
 40
0.0
  9
$LIMCHECK
 70
     0
  9
$BLIPMODE
 70
     0
  9
$CHAMFERA
 40
0.0
  9
$CHAMFERB
 40
0.0
  9
$CHAMFERC
 40
0.0
  9
$CHAMFERD
 40
0.0
  9
$SKPOLY
 70
     0
  9
$TDCREATE
 40
2454697.376901574
  9
$TDUPDATE
 40
2454697.377905810
  9
$TDINDWG
 40
0.0010044213
  9
$TDUSRTIMER
 40
0.0010044213
  9
$USRTIMER
 70
     1
  9
$ANGBASE
 50
0.0
  9
$ANGDIR
 70
     0
  9
$PDMODE
 70
     0
  9
$PDSIZE
 40
0.0
  9
$PLINEWID
 40
0.0
  9
$COORDS
 70
     1
  9
$SPLFRAME
 70
     0
  9
$SPLINETYPE
 70
     6
  9
$SPLINESEGS
 70
     8
  9
$ATTDIA
 70
     0
  9
$ATTREQ
 70
     1
  9
$HANDLING
 70
 22529
  9
$HANDSEED
  5
923
  9
$SURFTAB1
 70
     6
  9
$SURFTAB2
 70
     6
  9
$SURFTYPE
 70
     6
  9
$SURFU
 70
     6
  9
$SURFV
 70
     6
  9
$UCSNAME
  2

  9
$UCSORG
 10
0.0
 20
0.0
 30
0.0
  9
$UCSXDIR
 10
1.0
 20
0.0
 30
0.0
  9
$UCSYDIR
 10
0.0
 20
1.0
 30
0.0
  9
$PUCSNAME
  2

  9
$PUCSORG
 10
0.0
 20
0.0
 30
0.0
  9
$PUCSXDIR
 10
1.0
 20
0.0
 30
0.0
  9
$PUCSYDIR
 10
0.0
 20
1.0
 30
0.0
  9
$USERI1
 70
     0
  9
$USERI2
 70
     0
  9
$USERI3
 70
     0
  9
$USERI4
 70
     0
  9
$USERI5
 70
     0
  9
$USERR1
 40
0.0
  9
$USERR2
 40
0.0
  9
$USERR3
 40
0.0
  9
$USERR4
 40
0.0
  9
$USERR5
 40
0.0
  9
$WORLDVIEW
 70
     1
  9
$SHADEDGE
 70
     3
  9
$SHADEDIF
 70
    70
  9
$TILEMODE
 70
     1
  9
$MAXACTVP
 70
    64
  9
$PINSBASE
 10
0.0
 20
0.0
 30
0.0
  9
$PLIMCHECK
 70
     0
  9
$PEXTMIN
 10
1.000000000000000E+20
 20
1.000000000000000E+20
 30
1.000000000000000E+20
  9
$PEXTMAX
 10
-1.000000000000000E+20
 20
-1.000000000000000E+20
 30
-1.000000000000000E+20
  9
$PLIMMIN
 10
0.0
 20
0.0
  9
$PLIMMAX
 10
12.0
 20
9.0
  9
$UNITMODE
 70
     0
  9
$VISRETAIN
 70
     1
  9
$PLINEGEN
 70
     0
  9
$PSLTSCALE
 70
     1
  9
$TREEDEPTH
 70
  3020
  9
$PICKSTYLE
 70
     1
  9
$CMLSTYLE
  2
STANDARD
  9
$CMLJUST
 70
     0
  9
$CMLSCALE
 40
1.0
  9
$PROXYGRAPHICS
 70
     1
  9
$MEASUREMENT
 70
     0
  0
ENDSEC
  0
SECTION
  2
CLASSES
  0
CLASS
  1
ACDBDICTIONARYWDFLT
  2
AcDbDictionaryWithDefault
  3
AutoCAD 2000
 90
        0
280
     0
281
     0
  0
CLASS
  1
ACDBPLACEHOLDER
  2
AcDbPlaceHolder
  3
AutoCAD 2000
 90
        0
280
     0
281
     0
  0
CLASS
  1
LAYOUT
  2
AcDbLayout
  3
AutoCAD 2000
 90
        0
280
     0
281
     0
  0
CLASS
  1
DICTIONARYVAR
  2
AcDbDictionaryVar
  3
AutoCAD 2000
 90
        0
280
     0
281
     0
  0
CLASS
  1
LONG_TRANSACTION
  2
AcDbLongTransaction
  3
AutoCAD 2000
 90
        0
280
     0
281
     0
  0
CLASS
  1
LWPOLYLINE
  2
AcDbPolyline
  3
AutoCAD 2000
 90
        0
280
     0
281
     1
  0
CLASS
  1
HATCH
  2
AcDbHatch
  3
AutoCAD 2000
 90
        0
280
     0
281
     1
  0
CLASS
  1
XRECORD
  2
AcDbXrecord
  3
AutoCAD 2000
 90
        0
280
     0
281
     0
  0
ENDSEC
  0
SECTION
  2
TABLES
  0
TABLE
  2
VPORT
  5
8
330
0
100
AcDbSymbolTable
 70
     6
  0
VPORT
  5
8FE
330
8
100
AcDbSymbolTableRecord
100
AcDbViewportTableRecord
  2
*ACTIVE
 70
     0
 10
0.0
 20
0.0
 11
1.0
 21
1.0
 12
20.50000000000001
 22
30.0
 13
0.0
 23
0.0
 14
1.0
 24
1.0
 15
0.0
 25
0.0
 16
0.0
 26
0.0
 36
1.0
 17
0.0
 27
0.0
 37
0.0
 40
60.46035805626598
 41
2.078104993597951
 42
50.0
 43
0.0
 44
0.0
 50
0.0
 51
0.0
 71
     0
 72
   100
 73
     1
 74
     3
 75
     0
 76
     0
 77
     0
 78
     0
  0
ENDTAB
  0
TABLE
  2
LTYPE
  5
5
330
0
100
AcDbSymbolTable
 70
     1
  0
LTYPE
  5
13
330
5
100
AcDbSymbolTableRecord
100
AcDbLinetypeTableRecord
  2
BYBLOCK
 70
     0
  3

 72
    65
 73
     0
 40
0.0
  0
LTYPE
  5
14
330
5
100
AcDbSymbolTableRecord
100
AcDbLinetypeTableRecord
  2
BYLAYER
 70
     0
  3

 72
    65
 73
     0
 40
0.0
  0
LTYPE
  5
15
330
5
100
AcDbSymbolTableRecord
100
AcDbLinetypeTableRecord
  2
CONTINUOUS
 70
     0
  3
Solid line
 72
    65
 73
     0
 40
0.0
  0
ENDTAB
  0
TABLE
  2
LAYER
  5
2
330
0
100
AcDbSymbolTable
 70
     1
  0
LAYER
  5
10
330
2
100
AcDbSymbolTableRecord
100
AcDbLayerTableRecord
  2
0
 70
     0
 62
     7
  6
CONTINUOUS
  0
ENDTAB
  0
TABLE
  2
STYLE
  5
3
330
0
100
AcDbSymbolTable
 70
     1
  0
STYLE
  5
11
330
3
100
AcDbSymbolTableRecord
100
AcDbTextStyleTableRecord
  2
STANDARD
 70
     0
 40
0.0
 41
1.0
 50
0.0
 71
     0
 42
0.2
  3
txt
  4

  0
ENDTAB
  0
TABLE
  2
VIEW
  5
6
330
0
100
AcDbSymbolTable
 70
     0
  0
ENDTAB
  0
TABLE
  2
UCS
  5
7
330
0
100
AcDbSymbolTable
 70
     0
  0
ENDTAB
  0
TABLE
  2
APPID
  5
9
330
0
100
AcDbSymbolTable
 70
     1
  0
APPID
  5
12
330
9
100
AcDbSymbolTableRecord
100
AcDbRegAppTableRecord
  2
ACAD
 70
     0
  0
ENDTAB
  0
TABLE
  2
DIMSTYLE
  5
A
330
0
100
AcDbSymbolTable
 70
     1
  0
DIMSTYLE
105
606
330
A
100
AcDbSymbolTableRecord
100
AcDbDimStyleTableRecord
  2
STANDARD
 70
     0
  3

  4

  5

  6

  7

 40
1.0
 41
0.18
 42
0.0625
 43
0.38
 44
0.18
 45
0.0
 46
0.0
 47
0.0
 48
0.0
140
0.18
141
0.09
142
0.0
143
25.4
144
1.0
145
0.0
146
1.0
147
0.09
 71
     0
 72
     0
 73
     1
 74
     1
 75
     0
 76
     0
 77
     0
 78
     0
170
     0
171
     2
172
     0
173
     0
174
     0
175
     0
176
     0
177
     0
178
     0
270
     2
271
     4
272
     4
273
     2
274
     2
340
11
275
     0
280
     0
281
     0
282
     0
283
     1
284
     0
285
     0
286
     0
287
     3
288
     0
  0
ENDTAB
  0
TABLE
  2
BLOCK_RECORD
  5
1
330
0
100
AcDbSymbolTable
 70
     0
  0
BLOCK_RECORD
  5
1E
102
{ACAD_XDICTIONARY
360
921
102
}
330
1
100
AcDbSymbolTableRecord
100
AcDbBlockTableRecord
  2
*MODEL_SPACE
  0
BLOCK_RECORD
  5
1A
102
{ACAD_XDICTIONARY
360
91F
102
}
330
1
100
AcDbSymbolTableRecord
100
AcDbBlockTableRecord
  2
*PAPER_SPACE
  0
ENDTAB
  0
ENDSEC
  0
SECTION
  2
BLOCKS
  0
BLOCK
  5
1F
330
1E
100
AcDbEntity
  8
0
100
AcDbBlockBegin
  2
*MODEL_SPACE
 70
     0
 10
0.0
 20
0.0
 30
0.0
  3
*MODEL_SPACE
  1

  0
ENDBLK
  5
20
330
1E
100
AcDbEntity
  8
0
100
AcDbBlockEnd
  0
BLOCK
  5
1B
330
1A
100
AcDbEntity
 67
     1
  8
0
100
AcDbBlockBegin
  2
*PAPER_SPACE
 70
     0
 10
0.0
 20
0.0
 30
0.0
  3
*PAPER_SPACE
  1

  0
ENDBLK
  5
1C
330
1A
100
AcDbEntity
 67
     1
  8
0
100
AcDbBlockEnd
  0
ENDSEC
  0
SECTION
  2
ENTITIES
  0
LINE
  5
6D4
330
1E
100
AcDbEntity
  8
0
100
AcDbLine
 10
18.5
 20
3.0
 30
0.0
 11
22.5
 21
5.5
 31
0.0
  0
LINE
  5
6D5
330
1E
100
AcDbEntity
  8
0
100
AcDbLine
 10
18.5
 20
57.0
 30
0.0
 11
22.5
 21
54.5
 31
0.0
  0
LINE
  5
6D6
330
1E
100
AcDbEntity
  8
0
100
AcDbLine
 10
5.000000000000019
 20
30.0
 30
0.0
 11
5.000000000000019
 21
37.70000000000004
 31
0.0
  0
LINE
  5
6D7
330
1E
100
AcDbEntity
  8
0
100
AcDbLine
 10
5.000000000000019
 20
37.70000000000004
 30
0.0
 11
5.000000000000019
 21
30.0
 31
0.0
  0
LINE
  5
6D8
330
1E
100
AcDbEntity
  8
0
100
AcDbLine
 10
1.000000000000019
 20
30.0
 30
0.0
 11
1.000000000000019
 21
36.89999999999997
 31
0.0
  0
LINE
  5
6D9
330
1E
100
AcDbEntity
  8
0
100
AcDbLine
 10
1.000000000000019
 20
30.0
 30
0.0
 11
1.000000000000019
 21
30.70000000000004
 31
0.0
  0
LINE
  5
6DA
330
1E
100
AcDbEntity
  8
0
100
AcDbLine
 10
6.000000000000018
 20
0.0
 30
0.0
 11
10.0
 21
0.5
 31
0.0
  0
LINE
  5
6DB
330
1E
100
AcDbEntity
  8
0
100
AcDbLine
 10
1.000000000000019
 20
3.0
 30
0.0
 11
1.500000000000019
 21
1.5
 31
0.0
  0
LINE
  5
6DC
330
1E
100
AcDbEntity
  8
0
100
AcDbLine
 10
1.000000000000019
 20
4.0
 30
0.0
 11
1.000000000000019
 21
6.600000000000022
 31
0.0
  0
LINE
  5
6DD
330
1E
100
AcDbEntity
  8
0
100
AcDbLine
 10
1.000000000000019
 20
3.0
 30
0.0
 11
1.000000000000019
 21
4.0
 31
0.0
  0
LINE
  5
6DE
330
1E
100
AcDbEntity
  8
0
100
AcDbLine
 10
1.000000000000019
 20
16.60000000000002
 30
0.0
 11
1.000000000000019
 21
23.10000000000002
 31
0.0
  0
LINE
  5
6DF
330
1E
100
AcDbEntity
  8
0
100
AcDbLine
 10
1.000000000000019
 20
10.26649999999995
 30
0.0
 11
1.000000000000019
 21
10.89999999999997
 31
0.0
  0
LINE
  5
6E0
330
1E
100
AcDbEntity
  8
0
100
AcDbLine
 10
1.000000000000019
 20
9.745130000000017
 30
0.0
 11
1.000000000000019
 21
10.22400000000004
 31
0.0
  0
LINE
  5
6E1
330
1E
100
AcDbEntity
  8
0
100
AcDbLine
 10
1.000000000000019
 20
6.600000000000022
 30
0.0
 11
1.000000000000019
 21
7.0
 31
0.0
  0
LINE
  5
6E2
330
1E
100
AcDbEntity
  8
0
100
AcDbLine
 10
1.000000000000019
 20
8.0
 30
0.0
 11
1.000000000000019
 21
9.668779999999969
 31
0.0
  0
LINE
  5
6E3
330
1E
100
AcDbEntity
  8
0
100
AcDbLine
 10
1.000000000000019
 20
10.89999999999997
 30
0.0
 11
1.000000000000019
 21
16.60000000000002
 31
0.0
  0
LINE
  5
6E4
330
1E
100
AcDbEntity
  8
0
100
AcDbLine
 10
1.000000000000019
 20
13.78980000000001
 30
0.0
 11
1.000000000000019
 21
14.13319999999998
 31
0.0
  0
LINE
  5
6E5
330
1E
100
AcDbEntity
  8
0
100
AcDbLine
 10
1.000000000000019
 20
7.0
 30
0.0
 11
1.000000000000019
 21
7.299999999999954
 31
0.0
  0
LINE
  5
6E6
330
1E
100
AcDbEntity
  8
0
100
AcDbLine
 10
1.000000000000019
 20
7.299999999999954
 30
0.0
 11
1.000000000000019
 21
8.0
 31
0.0
  0
LINE
  5
6E7
330
1E
100
AcDbEntity
  8
0
100
AcDbLine
 10
1.000000000000019
 20
21.08730000000002
 30
0.0
 11
1.000000000000019
 21
21.76699999999994
 31
0.0
  0
LINE
  5
6E8
330
1E
100
AcDbEntity
  8
0
100
AcDbLine
 10
1.000000000000019
 20
21.08730000000002
 30
0.0
 11
1.000000000000019
 21
21.64380000000005
 31
0.0
  0
LINE
  5
6E9
330
1E
100
AcDbEntity
  8
0
100
AcDbLine
 10
1.000000000000019
 20
25.36879999999996
 30
0.0
 11
1.000000000000019
 21
26.00609999999994
 31
0.0
  0
LINE
  5
6EA
330
1E
100
AcDbEntity
  8
0
100
AcDbLine
 10
1.000000000000019
 20
23.10000000000002
 30
0.0
 11
1.000000000000019
 21
30.0
 31
0.0
  0
LINE
  5
6EB
330
1E
100
AcDbEntity
  8
0
100
AcDbLine
 10
4.00000000000002
 20
0.0
 30
0.0
 11
5.000000000000019
 21
0.0
 31
0.0
  0
LINE
  5
6EC
330
1E
100
AcDbEntity
  8
0
100
AcDbLine
 10
2.500000000000019
 20
0.5
 30
0.0
 11
4.00000000000002
 21
0.0
 31
0.0
  0
LINE
  5
6ED
330
1E
100
AcDbEntity
  8
0
100
AcDbLine
 10
1.500000000000019
 20
1.5
 30
0.0
 11
2.500000000000019
 21
0.5
 31
0.0
  0
LINE
  5
6EE
330
1E
100
AcDbEntity
  8
0
100
AcDbLine
 10
5.000000000000019
 20
0.0
 30
0.0
 11
6.000000000000018
 21
0.0
 31
0.0
  0
LINE
  5
6EF
330
1E
100
AcDbEntity
  8
0
100
AcDbLine
 10
5.000000000000019
 20
4.0
 30
0.0
 11
5.000000000000019
 21
8.799999999999954
 31
0.0
  0
LINE
  5
6F0
330
1E
100
AcDbEntity
  8
0
100
AcDbLine
 10
5.000000000000019
 20
8.799999999999954
 30
0.0
 11
5.000000000000019
 21
4.0
 31
0.0
  0
LINE
  5
6F1
330
1E
100
AcDbEntity
  8
0
100
AcDbLine
 10
5.000000000000019
 20
4.0
 30
0.0
 11
5.000000000000019
 21
1.100000000000022
 31
0.0
  0
LINE
  5
6F2
330
1E
100
AcDbEntity
  8
0
100
AcDbLine
 10
5.000000000000019
 20
1.100000000000022
 30
0.0
 11
5.000000000000019
 21
4.0
 31
0.0
  0
LINE
  5
6F3
330
1E
100
AcDbEntity
  8
0
100
AcDbLine
 10
5.000000000000019
 20
1.100000000000022
 30
0.0
 11
5.000000000000019
 21
0.0
 31
0.0
  0
LINE
  5
6F4
330
1E
100
AcDbEntity
  8
0
100
AcDbLine
 10
5.000000000000019
 20
0.0
 30
0.0
 11
5.000000000000019
 21
1.100000000000022
 31
0.0
  0
LINE
  5
6F5
330
1E
100
AcDbEntity
  8
0
100
AcDbLine
 10
5.000000000000019
 20
15.10000000000002
 30
0.0
 11
5.000000000000019
 21
22.29999999999995
 31
0.0
  0
LINE
  5
6F6
330
1E
100
AcDbEntity
  8
0
100
AcDbLine
 10
5.000000000000019
 20
22.29999999999995
 30
0.0
 11
5.000000000000019
 21
15.10000000000002
 31
0.0
  0
LINE
  5
6F7
330
1E
100
AcDbEntity
  8
0
100
AcDbLine
 10
5.000000000000019
 20
8.799999999999954
 30
0.0
 11
5.000000000000019
 21
15.10000000000002
 31
0.0
  0
LINE
  5
6F8
330
1E
100
AcDbEntity
  8
0
100
AcDbLine
 10
5.000000000000019
 20
22.29999999999995
 30
0.0
 11
5.000000000000019
 21
30.0
 31
0.0
  0
LINE
  5
6F9
330
1E
100
AcDbEntity
  8
0
100
AcDbLine
 10
10.0
 20
0.5
 30
0.0
 11
14.5
 21
1.5
 31
0.0
  0
LINE
  5
6FA
330
1E
100
AcDbEntity
  8
0
100
AcDbLine
 10
14.5
 20
1.5
 30
0.0
 11
18.5
 21
3.0
 31
0.0
  0
LINE
  5
6FB
330
1E
100
AcDbEntity
  8
0
100
AcDbLine
 10
6.000000000000018
 20
60.0
 30
0.0
 11
10.0
 21
59.5
 31
0.0
  0
LINE
  5
6FC
330
1E
100
AcDbEntity
  8
0
100
AcDbLine
 10
1.000000000000019
 20
57.0
 30
0.0
 11
1.500000000000019
 21
58.5
 31
0.0
  0
LINE
  5
6FD
330
1E
100
AcDbEntity
  8
0
100
AcDbLine
 10
1.000000000000019
 20
53.39999999999998
 30
0.0
 11
1.000000000000019
 21
56.0
 31
0.0
  0
LINE
  5
6FE
330
1E
100
AcDbEntity
  8
0
100
AcDbLine
 10
1.000000000000019
 20
36.89999999999997
 30
0.0
 11
1.000000000000019
 21
43.39999999999998
 31
0.0
  0
LINE
  5
6FF
330
1E
100
AcDbEntity
  8
0
100
AcDbLine
 10
1.000000000000019
 20
38.91269999999997
 30
0.0
 11
1.000000000000019
 21
39.64179999999998
 31
0.0
  0
LINE
  5
700
330
1E
100
AcDbEntity
  8
0
100
AcDbLine
 10
1.000000000000019
 20
34.63120000000003
 30
0.0
 11
1.000000000000019
 21
34.80510000000004
 31
0.0
  0
LINE
  5
701
330
1E
100
AcDbEntity
  8
0
100
AcDbLine
 10
1.000000000000019
 20
34.80510000000004
 30
0.0
 11
1.000000000000019
 21
35.13030000000003
 31
0.0
  0
LINE
  5
702
330
1E
100
AcDbEntity
  8
0
100
AcDbLine
 10
1.000000000000019
 20
31.0
 30
0.0
 11
1.000000000000019
 21
31.70000000000004
 31
0.0
  0
LINE
  5
703
330
1E
100
AcDbEntity
  8
0
100
AcDbLine
 10
1.000000000000019
 20
31.0
 30
0.0
 11
1.000000000000019
 21
31.5
 31
0.0
  0
LINE
  5
704
330
1E
100
AcDbEntity
  8
0
100
AcDbLine
 10
1.000000000000019
 20
52.70000000000004
 30
0.0
 11
1.000000000000019
 21
53.0
 31
0.0
  0
LINE
  5
705
330
1E
100
AcDbEntity
  8
0
100
AcDbLine
 10
1.000000000000019
 20
43.61369999999999
 30
0.0
 11
1.000000000000019
 21
44.35509999999999
 31
0.0
  0
LINE
  5
706
330
1E
100
AcDbEntity
  8
0
100
AcDbLine
 10
1.000000000000019
 20
46.9393
 30
0.0
 11
1.000000000000019
 21
47.61900000000003
 31
0.0
  0
LINE
  5
707
330
1E
100
AcDbEntity
  8
0
100
AcDbLine
 10
1.000000000000019
 20
47.61900000000003
 30
0.0
 11
1.000000000000019
 21
47.83920000000001
 31
0.0
  0
LINE
  5
708
330
1E
100
AcDbEntity
  8
0
100
AcDbLine
 10
1.000000000000019
 20
43.39999999999998
 30
0.0
 11
1.000000000000019
 21
49.10000000000002
 31
0.0
  0
LINE
  5
709
330
1E
100
AcDbEntity
  8
0
100
AcDbLine
 10
1.000000000000019
 20
43.39999999999998
 30
0.0
 11
1.000000000000019
 21
43.61369999999999
 31
0.0
  0
LINE
  5
70A
330
1E
100
AcDbEntity
  8
0
100
AcDbLine
 10
1.000000000000019
 20
49.77599999999995
 30
0.0
 11
1.000000000000019
 21
50.33119999999996
 31
0.0
  0
LINE
  5
70B
330
1E
100
AcDbEntity
  8
0
100
AcDbLine
 10
1.000000000000019
 20
51.09159999999997
 30
0.0
 11
1.000000000000019
 21
51.01530000000003
 31
0.0
  0
LINE
  5
70C
330
1E
100
AcDbEntity
  8
0
100
AcDbLine
 10
1.000000000000019
 20
51.09159999999997
 30
0.0
 11
1.000000000000019
 21
51.61289999999997
 31
0.0
  0
LINE
  5
70D
330
1E
100
AcDbEntity
  8
0
100
AcDbLine
 10
1.000000000000019
 20
51.61289999999997
 30
0.0
 11
1.000000000000019
 21
52.0
 31
0.0
  0
LINE
  5
70E
330
1E
100
AcDbEntity
  8
0
100
AcDbLine
 10
1.000000000000019
 20
52.0
 30
0.0
 11
1.000000000000019
 21
52.70000000000004
 31
0.0
  0
LINE
  5
70F
330
1E
100
AcDbEntity
  8
0
100
AcDbLine
 10
1.000000000000019
 20
49.10000000000002
 30
0.0
 11
1.000000000000019
 21
53.39999999999998
 31
0.0
  0
LINE
  5
710
330
1E
100
AcDbEntity
  8
0
100
AcDbLine
 10
1.000000000000019
 20
56.0
 30
0.0
 11
1.000000000000019
 21
57.0
 31
0.0
  0
LINE
  5
711
330
1E
100
AcDbEntity
  8
0
100
AcDbLine
 10
1.000000000000019
 20
57.0
 30
0.0
 11
1.000000000000019
 21
56.0
 31
0.0
  0
LINE
  5
712
330
1E
100
AcDbEntity
  8
0
100
AcDbLine
 10
4.00000000000002
 20
60.0
 30
0.0
 11
5.000000000000019
 21
60.0
 31
0.0
  0
LINE
  5
713
330
1E
100
AcDbEntity
  8
0
100
AcDbLine
 10
2.500000000000019
 20
59.5
 30
0.0
 11
4.00000000000002
 21
60.0
 31
0.0
  0
LINE
  5
714
330
1E
100
AcDbEntity
  8
0
100
AcDbLine
 10
1.500000000000019
 20
58.5
 30
0.0
 11
2.500000000000019
 21
59.5
 31
0.0
  0
LINE
  5
715
330
1E
100
AcDbEntity
  8
0
100
AcDbLine
 10
5.000000000000019
 20
60.0
 30
0.0
 11
6.000000000000018
 21
60.0
 31
0.0
  0
LINE
  5
716
330
1E
100
AcDbEntity
  8
0
100
AcDbLine
 10
5.000000000000019
 20
51.20000000000004
 30
0.0
 11
5.000000000000019
 21
56.0
 31
0.0
  0
LINE
  5
717
330
1E
100
AcDbEntity
  8
0
100
AcDbLine
 10
5.000000000000019
 20
56.0
 30
0.0
 11
5.000000000000019
 21
51.20000000000004
 31
0.0
  0
LINE
  5
718
330
1E
100
AcDbEntity
  8
0
100
AcDbLine
 10
5.000000000000019
 20
44.89999999999997
 30
0.0
 11
5.000000000000019
 21
37.70000000000004
 31
0.0
  0
LINE
  5
719
330
1E
100
AcDbEntity
  8
0
100
AcDbLine
 10
5.000000000000019
 20
37.70000000000004
 30
0.0
 11
5.000000000000019
 21
44.89999999999997
 31
0.0
  0
LINE
  5
71A
330
1E
100
AcDbEntity
  8
0
100
AcDbLine
 10
5.000000000000019
 20
44.89999999999997
 30
0.0
 11
5.000000000000019
 21
51.20000000000004
 31
0.0
  0
LINE
  5
71B
330
1E
100
AcDbEntity
  8
0
100
AcDbLine
 10
5.000000000000019
 20
56.0
 30
0.0
 11
5.000000000000019
 21
58.89999999999997
 31
0.0
  0
LINE
  5
71C
330
1E
100
AcDbEntity
  8
0
100
AcDbLine
 10
5.000000000000019
 20
58.89999999999997
 30
0.0
 11
5.000000000000019
 21
56.0
 31
0.0
  0
LINE
  5
71D
330
1E
100
AcDbEntity
  8
0
100
AcDbLine
 10
5.000000000000019
 20
58.89999999999997
 30
0.0
 11
5.000000000000019
 21
60.0
 31
0.0
  0
LINE
  5
71E
330
1E
100
AcDbEntity
  8
0
100
AcDbLine
 10
5.000000000000019
 20
60.0
 30
0.0
 11
5.000000000000019
 21
58.89999999999997
 31
0.0
  0
LINE
  5
71F
330
1E
100
AcDbEntity
  8
0
100
AcDbLine
 10
10.0
 20
59.5
 30
0.0
 11
14.5
 21
58.5
 31
0.0
  0
LINE
  5
720
330
1E
100
AcDbEntity
  8
0
100
AcDbLine
 10
14.5
 20
58.5
 30
0.0
 11
18.5
 21
57.0
 31
0.0
  0
LINE
  5
721
330
1E
100
AcDbEntity
  8
0
100
AcDbLine
 10
40.0
 20
30.0
 30
0.0
 11
40.0
 21
37.70000000000004
 31
0.0
  0
LINE
  5
722
330
1E
100
AcDbEntity
  8
0
100
AcDbLine
 10
40.0
 20
37.70000000000004
 30
0.0
 11
40.0
 21
30.0
 31
0.0
  0
LINE
  5
723
330
1E
100
AcDbEntity
  8
0
100
AcDbLine
 10
36.5
 20
30.0
 30
0.0
 11
36.5
 21
37.60000000000002
 31
0.0
  0
LINE
  5
724
330
1E
100
AcDbEntity
  8
0
100
AcDbLine
 10
36.0
 20
36.20000000000004
 30
0.0
 11
36.0
 21
30.0
 31
0.0
  0
LINE
  5
725
330
1E
100
AcDbEntity
  8
0
100
AcDbLine
 10
36.0
 20
30.0
 30
0.0
 11
36.0
 21
37.20000000000004
 31
0.0
  0
LINE
  5
726
330
1E
100
AcDbEntity
  8
0
100
AcDbLine
 10
36.0
 20
30.0
 30
0.0
 11
36.0
 21
36.20000000000004
 31
0.0
  0
LINE
  5
727
330
1E
100
AcDbEntity
  8
0
100
AcDbLine
 10
36.0
 20
37.20000000000004
 30
0.0
 11
36.0
 21
30.0
 31
0.0
  0
LINE
  5
728
330
1E
100
AcDbEntity
  8
0
100
AcDbLine
 10
25.0
 20
30.0
 30
0.0
 11
25.0
 21
35.70000000000004
 31
0.0
  0
LINE
  5
729
330
1E
100
AcDbEntity
  8
0
100
AcDbLine
 10
25.0
 20
35.70000000000004
 30
0.0
 11
25.0
 21
30.0
 31
0.0
  0
LINE
  5
72A
330
1E
100
AcDbEntity
  8
0
100
AcDbLine
 10
30.5
 20
6.5
 30
0.0
 11
34.5
 21
6.0
 31
0.0
  0
LINE
  5
72B
330
1E
100
AcDbEntity
  8
0
100
AcDbLine
 10
25.0
 20
8.0
 30
0.0
 11
30.5
 21
6.5
 31
0.0
  0
LINE
  5
72C
330
1E
100
AcDbEntity
  8
0
100
AcDbLine
 10
22.5
 20
5.5
 30
0.0
 11
25.0
 21
8.0
 31
0.0
  0
LINE
  5
72D
330
1E
100
AcDbEntity
  8
0
100
AcDbLine
 10
25.0
 20
14.5
 30
0.0
 11
25.0
 21
19.10000000000002
 31
0.0
  0
LINE
  5
72E
330
1E
100
AcDbEntity
  8
0
100
AcDbLine
 10
25.0
 20
19.10000000000002
 30
0.0
 11
25.0
 21
14.5
 31
0.0
  0
LINE
  5
72F
330
1E
100
AcDbEntity
  8
0
100
AcDbLine
 10
25.0
 20
10.89999999999997
 30
0.0
 11
25.0
 21
8.799999999999954
 31
0.0
  0
LINE
  5
730
330
1E
100
AcDbEntity
  8
0
100
AcDbLine
 10
25.0
 20
8.799999999999954
 30
0.0
 11
25.0
 21
8.0
 31
0.0
  0
LINE
  5
731
330
1E
100
AcDbEntity
  8
0
100
AcDbLine
 10
25.0
 20
8.799999999999954
 30
0.0
 11
25.0
 21
10.89999999999997
 31
0.0
  0
LINE
  5
732
330
1E
100
AcDbEntity
  8
0
100
AcDbLine
 10
25.0
 20
8.0
 30
0.0
 11
25.0
 21
8.799999999999954
 31
0.0
  0
LINE
  5
733
330
1E
100
AcDbEntity
  8
0
100
AcDbLine
 10
25.0
 20
10.89999999999997
 30
0.0
 11
25.0
 21
14.5
 31
0.0
  0
LINE
  5
734
330
1E
100
AcDbEntity
  8
0
100
AcDbLine
 10
25.0
 20
14.5
 30
0.0
 11
25.0
 21
10.89999999999997
 31
0.0
  0
LINE
  5
735
330
1E
100
AcDbEntity
  8
0
100
AcDbLine
 10
25.0
 20
19.10000000000002
 30
0.0
 11
25.0
 21
24.29999999999995
 31
0.0
  0
LINE
  5
736
330
1E
100
AcDbEntity
  8
0
100
AcDbLine
 10
25.0
 20
24.29999999999995
 30
0.0
 11
25.0
 21
19.10000000000002
 31
0.0
  0
LINE
  5
737
330
1E
100
AcDbEntity
  8
0
100
AcDbLine
 10
25.0
 20
24.29999999999995
 30
0.0
 11
25.0
 21
30.0
 31
0.0
  0
LINE
  5
738
330
1E
100
AcDbEntity
  8
0
100
AcDbLine
 10
25.0
 20
30.0
 30
0.0
 11
25.0
 21
24.29999999999995
 31
0.0
  0
LINE
  5
739
330
1E
100
AcDbEntity
  8
0
100
AcDbLine
 10
38.0
 20
0.0
 30
0.0
 11
40.0
 21
0.0
 31
0.0
  0
LINE
  5
73A
330
1E
100
AcDbEntity
  8
0
100
AcDbLine
 10
34.5
 20
6.0
 30
0.0
 11
36.0
 21
6.0
 31
0.0
  0
LINE
  5
73B
330
1E
100
AcDbEntity
  8
0
100
AcDbLine
 10
36.5
 20
0.5
 30
0.0
 11
38.0
 21
0.0
 31
0.0
  0
LINE
  5
73C
330
1E
100
AcDbEntity
  8
0
100
AcDbLine
 10
36.5
 20
4.5
 30
0.0
 11
36.5
 21
1.600000000000022
 31
0.0
  0
LINE
  5
73D
330
1E
100
AcDbEntity
  8
0
100
AcDbLine
 10
36.5
 20
1.600000000000022
 30
0.0
 11
36.5
 21
4.5
 31
0.0
  0
LINE
  5
73E
330
1E
100
AcDbEntity
  8
0
100
AcDbLine
 10
36.0
 20
3.0
 30
0.0
 11
36.0
 21
10.20000000000004
 31
0.0
  0
LINE
  5
73F
330
1E
100
AcDbEntity
  8
0
100
AcDbLine
 10
36.0
 20
2.0
 30
0.0
 11
36.5
 21
0.5
 31
0.0
  0
LINE
  5
740
330
1E
100
AcDbEntity
  8
0
100
AcDbLine
 10
36.0
 20
3.0
 30
0.0
 11
36.0
 21
2.0
 31
0.0
  0
LINE
  5
741
330
1E
100
AcDbEntity
  8
0
100
AcDbLine
 10
36.0
 20
2.0
 30
0.0
 11
36.0
 21
3.0
 31
0.0
  0
LINE
  5
742
330
1E
100
AcDbEntity
  8
0
100
AcDbLine
 10
36.5
 20
1.600000000000022
 30
0.0
 11
36.5
 21
0.5
 31
0.0
  0
LINE
  5
743
330
1E
100
AcDbEntity
  8
0
100
AcDbLine
 10
36.5
 20
0.5
 30
0.0
 11
36.5
 21
1.600000000000022
 31
0.0
  0
LINE
  5
744
330
1E
100
AcDbEntity
  8
0
100
AcDbLine
 10
36.0
 20
13.10000000000002
 30
0.0
 11
36.0
 21
18.10000000000002
 31
0.0
  0
LINE
  5
745
330
1E
100
AcDbEntity
  8
0
100
AcDbLine
 10
36.0
 20
18.10000000000002
 30
0.0
 11
36.0
 21
13.10000000000002
 31
0.0
  0
LINE
  5
746
330
1E
100
AcDbEntity
  8
0
100
AcDbLine
 10
36.0
 20
9.200000000000045
 30
0.0
 11
36.0
 21
6.899999999999977
 31
0.0
  0
LINE
  5
747
330
1E
100
AcDbEntity
  8
0
100
AcDbLine
 10
36.0
 20
9.200000000000045
 30
0.0
 11
36.0
 21
13.10000000000002
 31
0.0
  0
LINE
  5
748
330
1E
100
AcDbEntity
  8
0
100
AcDbLine
 10
36.0
 20
6.899999999999977
 30
0.0
 11
36.0
 21
6.0
 31
0.0
  0
LINE
  5
749
330
1E
100
AcDbEntity
  8
0
100
AcDbLine
 10
36.0
 20
6.899999999999977
 30
0.0
 11
36.0
 21
9.200000000000045
 31
0.0
  0
LINE
  5
74A
330
1E
100
AcDbEntity
  8
0
100
AcDbLine
 10
36.0
 20
13.10000000000002
 30
0.0
 11
36.0
 21
9.200000000000045
 31
0.0
  0
LINE
  5
74B
330
1E
100
AcDbEntity
  8
0
100
AcDbLine
 10
36.0
 20
10.20000000000004
 30
0.0
 11
36.0
 21
5.700000000000045
 31
0.0
  0
LINE
  5
74C
330
1E
100
AcDbEntity
  8
0
100
AcDbLine
 10
36.0
 20
6.0
 30
0.0
 11
36.0
 21
5.700000000000045
 31
0.0
  0
LINE
  5
74D
330
1E
100
AcDbEntity
  8
0
100
AcDbLine
 10
36.0
 20
6.0
 30
0.0
 11
36.0
 21
6.899999999999977
 31
0.0
  0
LINE
  5
74E
330
1E
100
AcDbEntity
  8
0
100
AcDbLine
 10
36.0
 20
5.700000000000045
 30
0.0
 11
36.0
 21
6.0
 31
0.0
  0
LINE
  5
74F
330
1E
100
AcDbEntity
  8
0
100
AcDbLine
 10
36.0
 20
10.20000000000004
 30
0.0
 11
36.0
 21
16.10000000000002
 31
0.0
  0
LINE
  5
750
330
1E
100
AcDbEntity
  8
0
100
AcDbLine
 10
36.0
 20
16.10000000000002
 30
0.0
 11
36.0
 21
10.20000000000004
 31
0.0
  0
LINE
  5
751
330
1E
100
AcDbEntity
  8
0
100
AcDbLine
 10
36.0
 20
18.10000000000002
 30
0.0
 11
36.0
 21
23.79999999999995
 31
0.0
  0
LINE
  5
752
330
1E
100
AcDbEntity
  8
0
100
AcDbLine
 10
36.0
 20
23.79999999999995
 30
0.0
 11
36.0
 21
18.10000000000002
 31
0.0
  0
LINE
  5
753
330
1E
100
AcDbEntity
  8
0
100
AcDbLine
 10
36.0
 20
23.79999999999995
 30
0.0
 11
36.0
 21
30.0
 31
0.0
  0
LINE
  5
754
330
1E
100
AcDbEntity
  8
0
100
AcDbLine
 10
36.0
 20
30.0
 30
0.0
 11
36.0
 21
23.79999999999995
 31
0.0
  0
LINE
  5
755
330
1E
100
AcDbEntity
  8
0
100
AcDbLine
 10
36.5
 20
15.29999999999995
 30
0.0
 11
36.5
 21
22.39999999999997
 31
0.0
  0
LINE
  5
756
330
1E
100
AcDbEntity
  8
0
100
AcDbLine
 10
36.5
 20
22.39999999999997
 30
0.0
 11
36.5
 21
15.29999999999995
 31
0.0
  0
LINE
  5
757
330
1E
100
AcDbEntity
  8
0
100
AcDbLine
 10
36.5
 20
4.5
 30
0.0
 11
36.5
 21
9.200000000000045
 31
0.0
  0
LINE
  5
758
330
1E
100
AcDbEntity
  8
0
100
AcDbLine
 10
36.5
 20
9.200000000000045
 30
0.0
 11
36.5
 21
4.5
 31
0.0
  0
LINE
  5
759
330
1E
100
AcDbEntity
  8
0
100
AcDbLine
 10
36.5
 20
9.200000000000045
 30
0.0
 11
36.5
 21
15.29999999999995
 31
0.0
  0
LINE
  5
75A
330
1E
100
AcDbEntity
  8
0
100
AcDbLine
 10
36.5
 20
15.29999999999995
 30
0.0
 11
36.5
 21
9.200000000000045
 31
0.0
  0
LINE
  5
75B
330
1E
100
AcDbEntity
  8
0
100
AcDbLine
 10
36.5
 20
22.39999999999997
 30
0.0
 11
36.5
 21
30.0
 31
0.0
  0
LINE
  5
75C
330
1E
100
AcDbEntity
  8
0
100
AcDbLine
 10
36.5
 20
30.0
 30
0.0
 11
36.5
 21
22.39999999999997
 31
0.0
  0
LINE
  5
75D
330
1E
100
AcDbEntity
  8
0
100
AcDbLine
 10
40.0
 20
4.0
 30
0.0
 11
40.0
 21
8.799999999999954
 31
0.0
  0
LINE
  5
75E
330
1E
100
AcDbEntity
  8
0
100
AcDbLine
 10
40.0
 20
8.799999999999954
 30
0.0
 11
40.0
 21
4.0
 31
0.0
  0
LINE
  5
75F
330
1E
100
AcDbEntity
  8
0
100
AcDbLine
 10
40.0
 20
4.0
 30
0.0
 11
40.0
 21
1.100000000000022
 31
0.0
  0
LINE
  5
760
330
1E
100
AcDbEntity
  8
0
100
AcDbLine
 10
40.0
 20
1.100000000000022
 30
0.0
 11
40.0
 21
4.0
 31
0.0
  0
LINE
  5
761
330
1E
100
AcDbEntity
  8
0
100
AcDbLine
 10
40.0
 20
0.0
 30
0.0
 11
40.0
 21
1.100000000000022
 31
0.0
  0
LINE
  5
762
330
1E
100
AcDbEntity
  8
0
100
AcDbLine
 10
40.0
 20
1.100000000000022
 30
0.0
 11
40.0
 21
0.0
 31
0.0
  0
LINE
  5
763
330
1E
100
AcDbEntity
  8
0
100
AcDbLine
 10
40.0
 20
15.10000000000002
 30
0.0
 11
40.0
 21
22.29999999999995
 31
0.0
  0
LINE
  5
764
330
1E
100
AcDbEntity
  8
0
100
AcDbLine
 10
40.0
 20
22.29999999999995
 30
0.0
 11
40.0
 21
15.10000000000002
 31
0.0
  0
LINE
  5
765
330
1E
100
AcDbEntity
  8
0
100
AcDbLine
 10
40.0
 20
8.799999999999954
 30
0.0
 11
40.0
 21
15.10000000000002
 31
0.0
  0
LINE
  5
766
330
1E
100
AcDbEntity
  8
0
100
AcDbLine
 10
40.0
 20
15.10000000000002
 30
0.0
 11
40.0
 21
8.799999999999954
 31
0.0
  0
LINE
  5
767
330
1E
100
AcDbEntity
  8
0
100
AcDbLine
 10
40.0
 20
22.29999999999995
 30
0.0
 11
40.0
 21
30.0
 31
0.0
  0
LINE
  5
768
330
1E
100
AcDbEntity
  8
0
100
AcDbLine
 10
40.0
 20
30.0
 30
0.0
 11
40.0
 21
22.29999999999995
 31
0.0
  0
LINE
  5
769
330
1E
100
AcDbEntity
  8
0
100
AcDbLine
 10
30.5
 20
53.5
 30
0.0
 11
34.5
 21
54.0
 31
0.0
  0
LINE
  5
76A
330
1E
100
AcDbEntity
  8
0
100
AcDbLine
 10
25.0
 20
52.0
 30
0.0
 11
30.5
 21
53.5
 31
0.0
  0
LINE
  5
76B
330
1E
100
AcDbEntity
  8
0
100
AcDbLine
 10
22.5
 20
54.5
 30
0.0
 11
25.0
 21
52.0
 31
0.0
  0
LINE
  5
76C
330
1E
100
AcDbEntity
  8
0
100
AcDbLine
 10
25.0
 20
40.89999999999998
 30
0.0
 11
25.0
 21
45.49999999999999
 31
0.0
  0
LINE
  5
76D
330
1E
100
AcDbEntity
  8
0
100
AcDbLine
 10
25.0
 20
45.49999999999999
 30
0.0
 11
25.0
 21
40.89999999999998
 31
0.0
  0
LINE
  5
76E
330
1E
100
AcDbEntity
  8
0
100
AcDbLine
 10
25.0
 20
40.89999999999998
 30
0.0
 11
25.0
 21
35.70000000000004
 31
0.0
  0
LINE
  5
76F
330
1E
100
AcDbEntity
  8
0
100
AcDbLine
 10
25.0
 20
35.70000000000004
 30
0.0
 11
25.0
 21
40.89999999999998
 31
0.0
  0
LINE
  5
770
330
1E
100
AcDbEntity
  8
0
100
AcDbLine
 10
25.0
 20
45.49999999999999
 30
0.0
 11
25.0
 21
49.10000000000002
 31
0.0
  0
LINE
  5
771
330
1E
100
AcDbEntity
  8
0
100
AcDbLine
 10
25.0
 20
49.10000000000002
 30
0.0
 11
25.0
 21
45.49999999999999
 31
0.0
  0
LINE
  5
772
330
1E
100
AcDbEntity
  8
0
100
AcDbLine
 10
25.0
 20
49.10000000000002
 30
0.0
 11
25.0
 21
51.20000000000004
 31
0.0
  0
LINE
  5
773
330
1E
100
AcDbEntity
  8
0
100
AcDbLine
 10
25.0
 20
51.20000000000004
 30
0.0
 11
25.0
 21
49.10000000000002
 31
0.0
  0
LINE
  5
774
330
1E
100
AcDbEntity
  8
0
100
AcDbLine
 10
25.0
 20
51.20000000000004
 30
0.0
 11
25.0
 21
52.0
 31
0.0
  0
LINE
  5
775
330
1E
100
AcDbEntity
  8
0
100
AcDbLine
 10
25.0
 20
52.0
 30
0.0
 11
25.0
 21
51.20000000000004
 31
0.0
  0
LINE
  5
776
330
1E
100
AcDbEntity
  8
0
100
AcDbLine
 10
38.0
 20
60.0
 30
0.0
 11
40.0
 21
60.0
 31
0.0
  0
LINE
  5
777
330
1E
100
AcDbEntity
  8
0
100
AcDbLine
 10
34.5
 20
54.0
 30
0.0
 11
36.0
 21
54.0
 31
0.0
  0
LINE
  5
778
330
1E
100
AcDbEntity
  8
0
100
AcDbLine
 10
36.5
 20
59.5
 30
0.0
 11
38.0
 21
60.0
 31
0.0
  0
LINE
  5
779
330
1E
100
AcDbEntity
  8
0
100
AcDbLine
 10
36.5
 20
55.5
 30
0.0
 11
36.5
 21
58.39999999999998
 31
0.0
  0
LINE
  5
77A
330
1E
100
AcDbEntity
  8
0
100
AcDbLine
 10
36.5
 20
58.39999999999998
 30
0.0
 11
36.5
 21
55.5
 31
0.0
  0
LINE
  5
77B
330
1E
100
AcDbEntity
  8
0
100
AcDbLine
 10
36.0
 20
54.29999999999996
 30
0.0
 11
36.0
 21
57.0
 31
0.0
  0
LINE
  5
77C
330
1E
100
AcDbEntity
  8
0
100
AcDbLine
 10
36.0
 20
57.0
 30
0.0
 11
36.0
 21
54.29999999999996
 31
0.0
  0
LINE
  5
77D
330
1E
100
AcDbEntity
  8
0
100
AcDbLine
 10
36.0
 20
41.89999999999997
 30
0.0
 11
36.0
 21
46.89999999999997
 31
0.0
  0
LINE
  5
77E
330
1E
100
AcDbEntity
  8
0
100
AcDbLine
 10
36.0
 20
46.89999999999997
 30
0.0
 11
36.0
 21
41.89999999999997
 31
0.0
  0
LINE
  5
77F
330
1E
100
AcDbEntity
  8
0
100
AcDbLine
 10
36.0
 20
43.89999999999997
 30
0.0
 11
36.0
 21
37.20000000000004
 31
0.0
  0
LINE
  5
780
330
1E
100
AcDbEntity
  8
0
100
AcDbLine
 10
36.0
 20
37.20000000000004
 30
0.0
 11
36.0
 21
43.89999999999997
 31
0.0
  0
LINE
  5
781
330
1E
100
AcDbEntity
  8
0
100
AcDbLine
 10
36.0
 20
36.20000000000004
 30
0.0
 11
36.0
 21
41.89999999999997
 31
0.0
  0
LINE
  5
782
330
1E
100
AcDbEntity
  8
0
100
AcDbLine
 10
36.0
 20
41.89999999999997
 30
0.0
 11
36.0
 21
36.20000000000004
 31
0.0
  0
LINE
  5
783
330
1E
100
AcDbEntity
  8
0
100
AcDbLine
 10
36.0
 20
53.10000000000002
 30
0.0
 11
36.0
 21
54.0
 31
0.0
  0
LINE
  5
784
330
1E
100
AcDbEntity
  8
0
100
AcDbLine
 10
36.0
 20
54.0
 30
0.0
 11
36.0
 21
53.10000000000002
 31
0.0
  0
LINE
  5
785
330
1E
100
AcDbEntity
  8
0
100
AcDbLine
 10
36.0
 20
46.89999999999997
 30
0.0
 11
36.0
 21
50.79999999999995
 31
0.0
  0
LINE
  5
786
330
1E
100
AcDbEntity
  8
0
100
AcDbLine
 10
36.0
 20
50.79999999999995
 30
0.0
 11
36.0
 21
46.89999999999997
 31
0.0
  0
LINE
  5
787
330
1E
100
AcDbEntity
  8
0
100
AcDbLine
 10
36.0
 20
50.79999999999995
 30
0.0
 11
36.0
 21
53.10000000000002
 31
0.0
  0
LINE
  5
788
330
1E
100
AcDbEntity
  8
0
100
AcDbLine
 10
36.0
 20
53.10000000000002
 30
0.0
 11
36.0
 21
50.79999999999995
 31
0.0
  0
LINE
  5
789
330
1E
100
AcDbEntity
  8
0
100
AcDbLine
 10
36.5
 20
37.60000000000002
 30
0.0
 11
36.5
 21
44.70000000000005
 31
0.0
  0
LINE
  5
78A
330
1E
100
AcDbEntity
  8
0
100
AcDbLine
 10
36.5
 20
44.70000000000005
 30
0.0
 11
36.5
 21
37.60000000000002
 31
0.0
  0
LINE
  5
78B
330
1E
100
AcDbEntity
  8
0
100
AcDbLine
 10
36.5
 20
44.70000000000005
 30
0.0
 11
36.5
 21
50.79999999999995
 31
0.0
  0
LINE
  5
78C
330
1E
100
AcDbEntity
  8
0
100
AcDbLine
 10
36.5
 20
50.79999999999995
 30
0.0
 11
36.5
 21
44.70000000000005
 31
0.0
  0
LINE
  5
78D
330
1E
100
AcDbEntity
  8
0
100
AcDbLine
 10
36.5
 20
50.79999999999995
 30
0.0
 11
36.5
 21
55.5
 31
0.0
  0
LINE
  5
78E
330
1E
100
AcDbEntity
  8
0
100
AcDbLine
 10
36.5
 20
55.5
 30
0.0
 11
36.5
 21
50.79999999999995
 31
0.0
  0
LINE
  5
78F
330
1E
100
AcDbEntity
  8
0
100
AcDbLine
 10
36.0
 20
58.0
 30
0.0
 11
36.5
 21
59.5
 31
0.0
  0
LINE
  5
790
330
1E
100
AcDbEntity
  8
0
100
AcDbLine
 10
36.0
 20
57.0
 30
0.0
 11
36.0
 21
58.0
 31
0.0
  0
LINE
  5
791
330
1E
100
AcDbEntity
  8
0
100
AcDbLine
 10
36.0
 20
58.0
 30
0.0
 11
36.0
 21
57.0
 31
0.0
  0
LINE
  5
792
330
1E
100
AcDbEntity
  8
0
100
AcDbLine
 10
36.5
 20
58.39999999999998
 30
0.0
 11
36.5
 21
59.5
 31
0.0
  0
LINE
  5
793
330
1E
100
AcDbEntity
  8
0
100
AcDbLine
 10
36.5
 20
59.5
 30
0.0
 11
36.5
 21
58.39999999999998
 31
0.0
  0
LINE
  5
794
330
1E
100
AcDbEntity
  8
0
100
AcDbLine
 10
40.0
 20
51.20000000000004
 30
0.0
 11
40.0
 21
56.0
 31
0.0
  0
LINE
  5
795
330
1E
100
AcDbEntity
  8
0
100
AcDbLine
 10
40.0
 20
56.0
 30
0.0
 11
40.0
 21
51.20000000000004
 31
0.0
  0
LINE
  5
796
330
1E
100
AcDbEntity
  8
0
100
AcDbLine
 10
40.0
 20
44.89999999999997
 30
0.0
 11
40.0
 21
37.70000000000004
 31
0.0
  0
LINE
  5
797
330
1E
100
AcDbEntity
  8
0
100
AcDbLine
 10
40.0
 20
37.70000000000004
 30
0.0
 11
40.0
 21
44.89999999999997
 31
0.0
  0
LINE
  5
798
330
1E
100
AcDbEntity
  8
0
100
AcDbLine
 10
40.0
 20
44.89999999999997
 30
0.0
 11
40.0
 21
51.20000000000004
 31
0.0
  0
LINE
  5
799
330
1E
100
AcDbEntity
  8
0
100
AcDbLine
 10
40.0
 20
51.20000000000004
 30
0.0
 11
40.0
 21
44.89999999999997
 31
0.0
  0
LINE
  5
79A
330
1E
100
AcDbEntity
  8
0
100
AcDbLine
 10
40.0
 20
56.0
 30
0.0
 11
40.0
 21
58.89999999999997
 31
0.0
  0
LINE
  5
79B
330
1E
100
AcDbEntity
  8
0
100
AcDbLine
 10
40.0
 20
58.89999999999997
 30
0.0
 11
40.0
 21
56.0
 31
0.0
  0
LINE
  5
79C
330
1E
100
AcDbEntity
  8
0
100
AcDbLine
 10
40.0
 20
58.89999999999997
 30
0.0
 11
40.0
 21
60.0
 31
0.0
  0
LINE
  5
79D
330
1E
100
AcDbEntity
  8
0
100
AcDbLine
 10
40.0
 20
60.0
 30
0.0
 11
40.0
 21
58.89999999999997
 31
0.0
  0
ENDSEC
  0
SECTION
  2
OBJECTS
  0
DICTIONARY
  5
C
330
0
100
AcDbDictionary
  3
ACAD_GROUP
350
D
  3
ACAD_LAYOUT
350
19
  3
ACAD_MLINESTYLE
350
16
  3
ACAD_PLOTSETTINGS
350
18
  3
ACAD_PLOTSTYLENAME
350
E
  3
ACDBHEADERROUNDTRIPXREC
350
8FF
  3
ACDBVARIABLEDICTIONARY
350
79E
  0
DICTIONARY
  5
921
330
1E
100
AcDbDictionary
280
     1
  3
ACAD_LAYOUTSELFREF
360
922
  0
DICTIONARY
  5
91F
330
1A
100
AcDbDictionary
280
     1
  3
ACAD_LAYOUTSELFREF
360
920
  0
DICTIONARY
  5
D
102
{ACAD_REACTORS
330
C
102
}
330
C
100
AcDbDictionary
  0
DICTIONARY
  5
19
102
{ACAD_REACTORS
330
C
102
}
330
C
100
AcDbDictionary
  0
DICTIONARY
  5
16
102
{ACAD_REACTORS
330
C
102
}
330
C
100
AcDbDictionary
  3
STANDARD
350
17
  0
DICTIONARY
  5
18
102
{ACAD_REACTORS
330
C
102
}
330
C
100
AcDbDictionary
  0
ACDBDICTIONARYWDFLT
  5
E
102
{ACAD_REACTORS
330
C
102
}
330
C
100
AcDbDictionary
281
     1
  3
Normal
350
F
100
AcDbDictionaryWithDefault
340
F
  0
DICTIONARY
  5
8FF
102
{ACAD_REACTORS
330
C
102
}
330
C
100
AcDbDictionary
  3
CEPSNTYPE
350
909
  3
FINGERPRINTGUID
350
90A
  3
HYPERLINKBASE
350
902
  3
INSUNITS
350
908
  3
LAYOUTDICT
350
904
  3
LWETCUNION
350
907
  3
PLOTSETDICT
350
905
  3
PLOTSTYLNAMDICT
350
906
  3
PSVPSCALE
350
90C
  3
PUCSBASE
350
90F
  3
PUCSORGBACK
350
915
  3
PUCSORGBOTTOM
350
911
  3
PUCSORGFRONT
350
914
  3
PUCSORGLEFT
350
912
  3
PUCSORGRIGHT
350
913
  3
PUCSORGTOP
350
910
  3
PUCSORTHOREF
350
90D
  3
PUCSORTHOVIEW
350
90E
  3
STYLESHEET
350
903
  3
TSTACKALIGN
350
900
  3
TSTACKSIZE
350
901
  3
UCSBASE
350
918
  3
UCSORGBACK
350
91E
  3
UCSORGBOTTOM
350
91A
  3
UCSORGFRONT
350
91D
  3
UCSORGLEFT
350
91B
  3
UCSORGRIGHT
350
91C
  3
UCSORGTOP
350
919
  3
UCSORTHOREF
350
916
  3
UCSORTHOVIEW
350
917
  3
VERSIONGUID
350
90B
  0
DICTIONARY
  5
79E
102
{ACAD_REACTORS
330
C
102
}
330
C
100
AcDbDictionary
  3
DIMASSOC
350
79F
  0
XRECORD
  5
922
102
{ACAD_REACTORS
330
921
102
}
330
921
100
AcDbXrecord
340
1E
  0
XRECORD
  5
920
102
{ACAD_REACTORS
330
91F
102
}
330
91F
100
AcDbXrecord
340
1A
  0
MLINESTYLE
  5
17
102
{ACAD_REACTORS
330
16
102
}
330
16
100
AcDbMlineStyle
  2
STANDARD
 70
     0
  3

 62
   256
 51
90.0
 52
90.0
 71
     2
 49
0.5
 62
   256
  6
BYLAYER
 49
-0.5
 62
   256
  6
BYLAYER
  0
ACDBPLACEHOLDER
  5
F
102
{ACAD_REACTORS
330
E
102
}
330
E
100
AcDbPlaceHolder
280
     0
  0
XRECORD
  5
909
102
{ACAD_REACTORS
330
8FF
102
}
330
8FF
100
AcDbXrecord
 90
        0
  0
XRECORD
  5
90A
102
{ACAD_REACTORS
330
8FF
102
}
330
8FF
100
AcDbXrecord
  1
{2266350D-3282-43B3-969D-666FA6DDA5A6}
  0
XRECORD
  5
902
102
{ACAD_REACTORS
330
8FF
102
}
330
8FF
100
AcDbXrecord
  1

  0
XRECORD
  5
908
102
{ACAD_REACTORS
330
8FF
102
}
330
8FF
100
AcDbXrecord
 90
        0
  0
XRECORD
  5
904
102
{ACAD_REACTORS
330
8FF
102
}
330
8FF
100
AcDbXrecord
340
19
  0
XRECORD
  5
907
102
{ACAD_REACTORS
330
8FF
102
}
330
8FF
100
AcDbXrecord
 90
    10781
  0
XRECORD
  5
905
102
{ACAD_REACTORS
330
8FF
102
}
330
8FF
100
AcDbXrecord
340
18
  0
XRECORD
  5
906
102
{ACAD_REACTORS
330
8FF
102
}
330
8FF
100
AcDbXrecord
340
E
  0
XRECORD
  5
90C
102
{ACAD_REACTORS
330
8FF
102
}
330
8FF
100
AcDbXrecord
 40
0.0
  0
XRECORD
  5
90F
102
{ACAD_REACTORS
330
8FF
102
}
330
8FF
100
AcDbXrecord
340
0
  0
XRECORD
  5
915
102
{ACAD_REACTORS
330
8FF
102
}
330
8FF
100
AcDbXrecord
 10
0.0
 20
0.0
 30
0.0
  0
XRECORD
  5
911
102
{ACAD_REACTORS
330
8FF
102
}
330
8FF
100
AcDbXrecord
 10
0.0
 20
0.0
 30
0.0
  0
XRECORD
  5
914
102
{ACAD_REACTORS
330
8FF
102
}
330
8FF
100
AcDbXrecord
 10
0.0
 20
0.0
 30
0.0
  0
XRECORD
  5
912
102
{ACAD_REACTORS
330
8FF
102
}
330
8FF
100
AcDbXrecord
 10
0.0
 20
0.0
 30
0.0
  0
XRECORD
  5
913
102
{ACAD_REACTORS
330
8FF
102
}
330
8FF
100
AcDbXrecord
 10
0.0
 20
0.0
 30
0.0
  0
XRECORD
  5
910
102
{ACAD_REACTORS
330
8FF
102
}
330
8FF
100
AcDbXrecord
 10
0.0
 20
0.0
 30
0.0
  0
XRECORD
  5
90D
102
{ACAD_REACTORS
330
8FF
102
}
330
8FF
100
AcDbXrecord
340
0
  0
XRECORD
  5
90E
102
{ACAD_REACTORS
330
8FF
102
}
330
8FF
100
AcDbXrecord
 70
     0
  0
XRECORD
  5
903
102
{ACAD_REACTORS
330
8FF
102
}
330
8FF
100
AcDbXrecord
  1

  0
XRECORD
  5
900
102
{ACAD_REACTORS
330
8FF
102
}
330
8FF
100
AcDbXrecord
 90
        1
  0
XRECORD
  5
901
102
{ACAD_REACTORS
330
8FF
102
}
330
8FF
100
AcDbXrecord
 90
       70
  0
XRECORD
  5
918
102
{ACAD_REACTORS
330
8FF
102
}
330
8FF
100
AcDbXrecord
340
0
  0
XRECORD
  5
91E
102
{ACAD_REACTORS
330
8FF
102
}
330
8FF
100
AcDbXrecord
 10
0.0
 20
0.0
 30
0.0
  0
XRECORD
  5
91A
102
{ACAD_REACTORS
330
8FF
102
}
330
8FF
100
AcDbXrecord
 10
0.0
 20
0.0
 30
0.0
  0
XRECORD
  5
91D
102
{ACAD_REACTORS
330
8FF
102
}
330
8FF
100
AcDbXrecord
 10
0.0
 20
0.0
 30
0.0
  0
XRECORD
  5
91B
102
{ACAD_REACTORS
330
8FF
102
}
330
8FF
100
AcDbXrecord
 10
0.0
 20
0.0
 30
0.0
  0
XRECORD
  5
91C
102
{ACAD_REACTORS
330
8FF
102
}
330
8FF
100
AcDbXrecord
 10
0.0
 20
0.0
 30
0.0
  0
XRECORD
  5
919
102
{ACAD_REACTORS
330
8FF
102
}
330
8FF
100
AcDbXrecord
 10
0.0
 20
0.0
 30
0.0
  0
XRECORD
  5
916
102
{ACAD_REACTORS
330
8FF
102
}
330
8FF
100
AcDbXrecord
340
0
  0
XRECORD
  5
917
102
{ACAD_REACTORS
330
8FF
102
}
330
8FF
100
AcDbXrecord
 70
     1
  0
XRECORD
  5
90B
102
{ACAD_REACTORS
330
8FF
102
}
330
8FF
100
AcDbXrecord
  1
{6132D645-4C4C-441E-86A9-453131FDE9E7}
  0
DICTIONARYVAR
  5
79F
102
{ACAD_REACTORS
330
79E
102
}
330
79E
100
DictionaryVariables
280
     0
  1
1
  0
ENDSEC
  0
EOF
