  0
SECTION
  2
HEADER
  9
$ACADVER
  1
AC1015
  9
$ACADMAINTVER
 70
    13
  9
$DWGCODEPAGE
  3
ANSI_1252
  9
$INSBASE
 10
0.0
 20
0.0
 30
0.0
  9
$EXTMIN
 10
-0.192319999999995
 20
-0.0548149999999923
 30
0.0
  9
$EXTMAX
 10
88.19231999999999
 20
195.0548149999999
 30
0.0
  9
$LIMMIN
 10
0.0
 20
0.0
  9
$LIMMAX
 10
12.0
 20
9.0
  9
$ORTHOMODE
 70
     0
  9
$REGENMODE
 70
     1
  9
$FILLMODE
 70
     1
  9
$QTEXTMODE
 70
     0
  9
$MIRRTEXT
 70
     1
  9
$LTSCALE
 40
1.0
  9
$ATTMODE
 70
     1
  9
$TEXTSIZE
 40
0.2
  9
$TRACEWID
 40
0.05
  9
$TEXTSTYLE
  7
Standard
  9
$CLAYER
  8
0
  9
$CELTYPE
  6
Continuous
  9
$CECOLOR
 62
   256
  9
$CELTSCALE
 40
1.0
  9
$DISPSILH
 70
     0
  9
$DIMSCALE
 40
1.0
  9
$DIMASZ
 40
0.18
  9
$DIMEXO
 40
0.0625
  9
$DIMDLI
 40
0.38
  9
$DIMRND
 40
0.0
  9
$DIMDLE
 40
0.0
  9
$DIMEXE
 40
0.18
  9
$DIMTP
 40
0.0
  9
$DIMTM
 40
0.0
  9
$DIMTXT
 40
0.18
  9
$DIMCEN
 40
0.09
  9
$DIMTSZ
 40
0.0
  9
$DIMTOL
 70
     0
  9
$DIMLIM
 70
     0
  9
$DIMTIH
 70
     1
  9
$DIMTOH
 70
     1
  9
$DIMSE1
 70
     0
  9
$DIMSE2
 70
     0
  9
$DIMTAD
 70
     0
  9
$DIMZIN
 70
     0
  9
$DIMBLK
  1

  9
$DIMASO
 70
     1
  9
$DIMSHO
 70
     1
  9
$DIMPOST
  1

  9
$DIMAPOST
  1

  9
$DIMALT
 70
     0
  9
$DIMALTD
 70
     2
  9
$DIMALTF
 40
25.4
  9
$DIMLFAC
 40
1.0
  9
$DIMTOFL
 70
     0
  9
$DIMTVP
 40
0.0
  9
$DIMTIX
 70
     0
  9
$DIMSOXD
 70
     0
  9
$DIMSAH
 70
     0
  9
$DIMBLK1
  1

  9
$DIMBLK2
  1

  9
$DIMSTYLE
  2
Standard
  9
$DIMCLRD
 70
     0
  9
$DIMCLRE
 70
     0
  9
$DIMCLRT
 70
     0
  9
$DIMTFAC
 40
1.0
  9
$DIMGAP
 40
0.09
  9
$DIMJUST
 70
     0
  9
$DIMSD1
 70
     0
  9
$DIMSD2
 70
     0
  9
$DIMTOLJ
 70
     1
  9
$DIMTZIN
 70
     0
  9
$DIMALTZ
 70
     0
  9
$DIMALTTZ
 70
     0
  9
$DIMUPT
 70
     0
  9
$DIMDEC
 70
     4
  9
$DIMTDEC
 70
     4
  9
$DIMALTU
 70
     2
  9
$DIMALTTD
 70
     2
  9
$DIMTXSTY
  7
Standard
  9
$DIMAUNIT
 70
     0
  9
$DIMADEC
 70
     0
  9
$DIMALTRND
 40
0.0
  9
$DIMAZIN
 70
     0
  9
$DIMDSEP
 70
    46
  9
$DIMATFIT
 70
     3
  9
$DIMFRAC
 70
     0
  9
$DIMLDRBLK
  1

  9
$DIMLUNIT
 70
     2
  9
$DIMLWD
 70
    -2
  9
$DIMLWE
 70
    -2
  9
$DIMTMOVE
 70
     0
  9
$LUNITS
 70
     2
  9
$LUPREC
 70
     4
  9
$SKETCHINC
 40
0.1
  9
$FILLETRAD
 40
0.0
  9
$AUNITS
 70
     0
  9
$AUPREC
 70
     0
  9
$MENU
  1
.
  9
$ELEVATION
 40
0.0
  9
$PELEVATION
 40
0.0
  9
$THICKNESS
 40
0.0
  9
$LIMCHECK
 70
     0
  9
$CHAMFERA
 40
0.0
  9
$CHAMFERB
 40
0.0
  9
$CHAMFERC
 40
0.0
  9
$CHAMFERD
 40
0.0
  9
$SKPOLY
 70
     0
  9
$TDCREATE
 40
2454762.870694618
  9
$TDUCREATE
 40
2454762.787361284
  9
$TDUPDATE
 40
2454762.871309849
  9
$TDUUPDATE
 40
2454762.787976516
  9
$TDINDWG
 40
0.0006154167
  9
$TDUSRTIMER
 40
0.0006154167
  9
$USRTIMER
 70
     1
  9
$ANGBASE
 50
0.0
  9
$ANGDIR
 70
     0
  9
$PDMODE
 70
     0
  9
$PDSIZE
 40
0.0
  9
$PLINEWID
 40
0.0
  9
$SPLFRAME
 70
     0
  9
$SPLINETYPE
 70
     6
  9
$SPLINESEGS
 70
     8
  9
$HANDSEED
  5
18C
  9
$SURFTAB1
 70
     6
  9
$SURFTAB2
 70
     6
  9
$SURFTYPE
 70
     6
  9
$SURFU
 70
     6
  9
$SURFV
 70
     6
  9
$UCSBASE
  2

  9
$UCSNAME
  2

  9
$UCSORG
 10
0.0
 20
0.0
 30
0.0
  9
$UCSXDIR
 10
1.0
 20
0.0
 30
0.0
  9
$UCSYDIR
 10
0.0
 20
1.0
 30
0.0
  9
$UCSORTHOREF
  2

  9
$UCSORTHOVIEW
 70
     1
  9
$UCSORGTOP
 10
0.0
 20
0.0
 30
0.0
  9
$UCSORGBOTTOM
 10
0.0
 20
0.0
 30
0.0
  9
$UCSORGLEFT
 10
0.0
 20
0.0
 30
0.0
  9
$UCSORGRIGHT
 10
0.0
 20
0.0
 30
0.0
  9
$UCSORGFRONT
 10
0.0
 20
0.0
 30
0.0
  9
$UCSORGBACK
 10
0.0
 20
0.0
 30
0.0
  9
$PUCSBASE
  2

  9
$PUCSNAME
  2

  9
$PUCSORG
 10
0.0
 20
0.0
 30
0.0
  9
$PUCSXDIR
 10
1.0
 20
0.0
 30
0.0
  9
$PUCSYDIR
 10
0.0
 20
1.0
 30
0.0
  9
$PUCSORTHOREF
  2

  9
$PUCSORTHOVIEW
 70
     0
  9
$PUCSORGTOP
 10
0.0
 20
0.0
 30
0.0
  9
$PUCSORGBOTTOM
 10
0.0
 20
0.0
 30
0.0
  9
$PUCSORGLEFT
 10
0.0
 20
0.0
 30
0.0
  9
$PUCSORGRIGHT
 10
0.0
 20
0.0
 30
0.0
  9
$PUCSORGFRONT
 10
0.0
 20
0.0
 30
0.0
  9
$PUCSORGBACK
 10
0.0
 20
0.0
 30
0.0
  9
$USERI1
 70
     0
  9
$USERI2
 70
     0
  9
$USERI3
 70
     0
  9
$USERI4
 70
     0
  9
$USERI5
 70
     0
  9
$USERR1
 40
0.0
  9
$USERR2
 40
0.0
  9
$USERR3
 40
0.0
  9
$USERR4
 40
0.0
  9
$USERR5
 40
0.0
  9
$WORLDVIEW
 70
     1
  9
$SHADEDGE
 70
     3
  9
$SHADEDIF
 70
    70
  9
$TILEMODE
 70
     1
  9
$MAXACTVP
 70
    64
  9
$PINSBASE
 10
0.0
 20
0.0
 30
0.0
  9
$PLIMCHECK
 70
     0
  9
$PEXTMIN
 10
1.000000000000000E+20
 20
1.000000000000000E+20
 30
1.000000000000000E+20
  9
$PEXTMAX
 10
-1.000000000000000E+20
 20
-1.000000000000000E+20
 30
-1.000000000000000E+20
  9
$PLIMMIN
 10
0.0
 20
0.0
  9
$PLIMMAX
 10
12.0
 20
9.0
  9
$UNITMODE
 70
     0
  9
$VISRETAIN
 70
     1
  9
$PLINEGEN
 70
     0
  9
$PSLTSCALE
 70
     1
  9
$TREEDEPTH
 70
  3020
  9
$CMLSTYLE
  2
Standard
  9
$CMLJUST
 70
     0
  9
$CMLSCALE
 40
1.0
  9
$PROXYGRAPHICS
 70
     1
  9
$MEASUREMENT
 70
     0
  9
$CELWEIGHT
370
    -1
  9
$ENDCAPS
280
     0
  9
$JOINSTYLE
280
     0
  9
$LWDISPLAY
290
     0
  9
$INSUNITS
 70
     0
  9
$HYPERLINKBASE
  1

  9
$STYLESHEET
  1

  9
$XEDIT
290
     1
  9
$CEPSNTYPE
380
     0
  9
$PSTYLEMODE
290
     1
  9
$FINGERPRINTGUID
  2
{18DEB6E3-73D2-4172-95EE-BD360128D8A2}
  9
$VERSIONGUID
  2
{148DC132-04B8-4975-A9AD-5F98C7464BA5}
  9
$EXTNAMES
290
     1
  9
$PSVPSCALE
 40
0.0
  9
$OLESTARTUP
290
     0
  0
ENDSEC
  0
SECTION
  2
CLASSES
  0
CLASS
  1
ACDBDICTIONARYWDFLT
  2
AcDbDictionaryWithDefault
  3
AutoCAD 2000
 90
        0
280
     0
281
     0
  0
CLASS
  1
ACDBPLACEHOLDER
  2
AcDbPlaceHolder
  3
AutoCAD 2000
 90
        0
280
     0
281
     0
  0
CLASS
  1
LAYOUT
  2
AcDbLayout
  3
AutoCAD 2000
 90
        0
280
     0
281
     0
  0
CLASS
  1
DICTIONARYVAR
  2
AcDbDictionaryVar
  3
AutoCAD 2000
 90
        0
280
     0
281
     0
  0
ENDSEC
  0
SECTION
  2
TABLES
  0
TABLE
  2
VPORT
  5
8
330
0
100
AcDbSymbolTable
 70
     2
  0
VPORT
  5
18B
330
8
100
AcDbSymbolTableRecord
100
AcDbViewportTableRecord
  2
*Active
 70
     0
 10
0.0
 20
0.0
 11
1.0
 21
1.0
 12
44.0
 22
97.5
 13
0.0
 23
0.0
 14
1.0
 24
1.0
 15
0.0
 25
0.0
 16
0.0
 26
0.0
 36
1.0
 17
0.0
 27
0.0
 37
0.0
 40
196.6066348337595
 41
2.078104993597951
 42
50.0
 43
0.0
 44
0.0
 50
0.0
 51
0.0
 71
     0
 72
   100
 73
     1
 74
     3
 75
     0
 76
     0
 77
     0
 78
     0
281
     0
 65
     1
110
0.0
120
0.0
130
0.0
111
1.0
121
0.0
131
0.0
112
0.0
122
1.0
132
0.0
 79
     1
146
0.0
  0
ENDTAB
  0
TABLE
  2
LTYPE
  5
5
330
0
100
AcDbSymbolTable
 70
     1
  0
LTYPE
  5
13
330
5
100
AcDbSymbolTableRecord
100
AcDbLinetypeTableRecord
  2
ByBlock
 70
     0
  3

 72
    65
 73
     0
 40
0.0
  0
LTYPE
  5
14
330
5
100
AcDbSymbolTableRecord
100
AcDbLinetypeTableRecord
  2
ByLayer
 70
     0
  3

 72
    65
 73
     0
 40
0.0
  0
LTYPE
  5
15
330
5
100
AcDbSymbolTableRecord
100
AcDbLinetypeTableRecord
  2
Continuous
 70
     0
  3
Solid line
 72
    65
 73
     0
 40
0.0
  0
ENDTAB
  0
TABLE
  2
LAYER
  5
2
330
0
100
AcDbSymbolTable
 70
     1
  0
LAYER
  5
10
330
2
100
AcDbSymbolTableRecord
100
AcDbLayerTableRecord
  2
0
 70
     0
 62
     7
  6
Continuous
370
    -3
390
F
  0
ENDTAB
  0
TABLE
  2
STYLE
  5
3
330
0
100
AcDbSymbolTable
 70
     1
  0
STYLE
  5
11
330
3
100
AcDbSymbolTableRecord
100
AcDbTextStyleTableRecord
  2
Standard
 70
     0
 40
0.0
 41
1.0
 50
0.0
 71
     0
 42
0.2
  3
txt
  4

  0
ENDTAB
  0
TABLE
  2
VIEW
  5
6
330
0
100
AcDbSymbolTable
 70
     0
  0
ENDTAB
  0
TABLE
  2
UCS
  5
7
330
0
100
AcDbSymbolTable
 70
     0
  0
ENDTAB
  0
TABLE
  2
APPID
  5
9
330
0
100
AcDbSymbolTable
 70
     1
  0
APPID
  5
12
330
9
100
AcDbSymbolTableRecord
100
AcDbRegAppTableRecord
  2
ACAD
 70
     0
  0
ENDTAB
  0
TABLE
  2
DIMSTYLE
  5
A
330
0
100
AcDbSymbolTable
 70
     1
100
AcDbDimStyleTable
 71
     0
  0
DIMSTYLE
105
185
330
A
100
AcDbSymbolTableRecord
100
AcDbDimStyleTableRecord
  2
Standard
 70
     0
340
11
  0
ENDTAB
  0
TABLE
  2
BLOCK_RECORD
  5
1
330
0
100
AcDbSymbolTable
 70
     0
  0
BLOCK_RECORD
  5
1E
330
1
100
AcDbSymbolTableRecord
100
AcDbBlockTableRecord
  2
*Model_Space
340
21
  0
BLOCK_RECORD
  5
1A
330
1
100
AcDbSymbolTableRecord
100
AcDbBlockTableRecord
  2
*Paper_Space
340
1D
  0
ENDTAB
  0
ENDSEC
  0
SECTION
  2
BLOCKS
  0
BLOCK
  5
1F
330
1E
100
AcDbEntity
  8
0
100
AcDbBlockBegin
  2
*Model_Space
 70
     0
 10
0.0
 20
0.0
 30
0.0
  3
*Model_Space
  1

  0
ENDBLK
  5
20
330
1E
100
AcDbEntity
  8
0
100
AcDbBlockEnd
  0
BLOCK
  5
1B
330
1A
100
AcDbEntity
 67
     1
  8
0
100
AcDbBlockBegin
  2
*Paper_Space
 70
     0
 10
0.0
 20
0.0
 30
0.0
  3
*Paper_Space
  1

  0
ENDBLK
  5
1C
330
1A
100
AcDbEntity
 67
     1
  8
0
100
AcDbBlockEnd
  0
ENDSEC
  0
SECTION
  2
ENTITIES
  0
LINE
  5
22
330
1E
100
AcDbEntity
  8
0
100
AcDbLine
 10
6.564920000000009
 20
20.81241499999999
 30
0.0
 11
7.698519999999999
 21
17.049415
 31
0.0
  0
LINE
  5
24
330
1E
100
AcDbEntity
  8
0
100
AcDbLine
 10
1.44122
 20
28.643315
 30
0.0
 11
6.564920000000009
 21
20.81241499999999
 31
0.0
  0
LINE
  5
25
330
1E
100
AcDbEntity
  8
0
100
AcDbLine
 10
1.44122
 20
28.643315
 30
0.0
 11
6.564920000000009
 21
20.81241499999999
 31
0.0
  0
LINE
  5
26
330
1E
100
AcDbEntity
  8
0
100
AcDbLine
 10
-0.192319999999995
 20
34.895115
 30
0.0
 11
0.398120000000004
 21
30.651315
 31
0.0
  0
LINE
  5
29
330
1E
100
AcDbEntity
  8
0
100
AcDbLine
 10
-0.192319999999995
 20
34.895115
 30
0.0
 11
0.398120000000004
 21
30.651315
 31
0.0
  0
LINE
  5
2A
330
1E
100
AcDbEntity
  8
0
100
AcDbLine
 10
-0.192319999999995
 20
34.895115
 30
0.0
 11
1.85049161517462
 21
40.7682314011555
 31
0.0
  0
LINE
  5
2B
330
1E
100
AcDbEntity
  8
0
100
AcDbLine
 10
0.398120000000004
 20
30.651315
 30
0.0
 11
1.44122
 21
28.643315
 31
0.0
  0
LINE
  5
2E
330
1E
100
AcDbEntity
  8
0
100
AcDbLine
 10
0.398120000000004
 20
30.651315
 30
0.0
 11
1.44122
 21
28.643315
 31
0.0
  0
LINE
  5
2F
330
1E
100
AcDbEntity
  8
0
100
AcDbLine
 10
-0.192319999999995
 20
34.895115
 30
0.0
 11
1.85049161517462
 21
40.7682314011555
 31
0.0
  0
LINE
  5
39
330
1E
100
AcDbEntity
  8
0
100
AcDbLine
 10
7.698519999999999
 20
17.049415
 30
0.0
 11
12.18022
 21
11.926215
 31
0.0
  0
LINE
  5
3A
330
1E
100
AcDbEntity
  8
0
100
AcDbLine
 10
5.462720000000009
 20
35.481115
 30
0.0
 11
9.42252
 21
27.152815
 31
0.0
  0
LINE
  5
3B
330
1E
100
AcDbEntity
  8
0
100
AcDbLine
 10
12.18022
 20
11.926215
 30
0.0
 11
21.51402
 21
5.802505000000009
 31
0.0
  0
LINE
  5
3C
330
1E
100
AcDbEntity
  8
0
100
AcDbLine
 10
12.18022
 20
11.926215
 30
0.0
 11
21.51402
 21
5.802505000000009
 31
0.0
  0
LINE
  5
3E
330
1E
100
AcDbEntity
  8
0
100
AcDbLine
 10
9.42252
 20
27.152815
 30
0.0
 11
15.71572
 21
19.988115
 31
0.0
  0
LINE
  5
3F
330
1E
100
AcDbEntity
  8
0
100
AcDbLine
 10
0.3083200000000039
 20
47.669315
 30
0.0
 11
1.85049161517462
 21
40.7682314011555
 31
0.0
  0
LINE
  5
41
330
1E
100
AcDbEntity
  8
0
100
AcDbLine
 10
0.3083200000000039
 20
47.669315
 30
0.0
 11
0.5836200000000051
 21
49.648415
 31
0.0
  0
LINE
  5
42
330
1E
100
AcDbEntity
  8
0
100
AcDbLine
 10
0.3083200000000039
 20
47.669315
 30
0.0
 11
1.85049161517462
 21
40.7682314011555
 31
0.0
  0
LINE
  5
45
330
1E
100
AcDbEntity
  8
0
100
AcDbLine
 10
0.5836200000000051
 20
49.648415
 30
0.0
 11
1.612119999999999
 21
51.763815
 31
0.0
  0
LINE
  5
47
330
1E
100
AcDbEntity
  8
0
100
AcDbLine
 10
1.612119999999999
 20
51.763815
 30
0.0
 11
4.119219999999999
 21
55.34579171743129
 31
0.0
  0
LINE
  5
4A
330
1E
100
AcDbEntity
  8
0
100
AcDbLine
 10
4.119219999999999
 20
44.483015
 30
0.0
 11
4.119219999999999
 21
66.98301500000001
 31
0.0
  0
LINE
  5
4B
330
1E
100
AcDbEntity
  8
0
100
AcDbLine
 10
4.119219999999999
 20
44.483015
 30
0.0
 11
5.462720000000009
 21
35.481115
 31
0.0
  0
LINE
  5
4C
330
1E
100
AcDbEntity
  8
0
100
AcDbLine
 10
33.60552
 20
1.108695000000009
 30
0.0
 11
44.00001999999999
 21
-0.0548149999999922
 31
0.0
  0
LINE
  5
4D
330
1E
100
AcDbEntity
  8
0
100
AcDbLine
 10
33.60552
 20
1.108695000000009
 30
0.0
 11
44.00001999999999
 21
-0.0548149999999923
 31
0.0
  0
LINE
  5
4F
330
1E
100
AcDbEntity
  8
0
100
AcDbLine
 10
23.98892
 20
4.537975000000009
 30
0.0
 11
33.60552
 21
1.108695000000009
 31
0.0
  0
LINE
  5
50
330
1E
100
AcDbEntity
  8
0
100
AcDbLine
 10
21.51402
 20
5.802505000000009
 30
0.0
 11
23.98892
 21
4.537975000000009
 31
0.0
  0
LINE
  5
52
330
1E
100
AcDbEntity
  8
0
100
AcDbLine
 10
44.00001999999999
 20
-0.0548149999999922
 30
0.0
 11
54.39451999999999
 21
1.108695000000009
 31
0.0
  0
LINE
  5
53
330
1E
100
AcDbEntity
  8
0
100
AcDbLine
 10
44.00001999999999
 20
-0.0548149999999923
 30
0.0
 11
54.39451999999999
 21
1.108695000000009
 31
0.0
  0
LINE
  5
55
330
1E
100
AcDbEntity
  8
0
100
AcDbLine
 10
54.39451999999999
 20
1.108695000000009
 30
0.0
 11
64.01111999999999
 21
4.537975000000009
 31
0.0
  0
LINE
  5
56
330
1E
100
AcDbEntity
  8
0
100
AcDbLine
 10
44.00001999999999
 20
9.945215000000009
 30
0.0
 11
54.39451999999999
 21
11.108715
 31
0.0
  0
LINE
  5
58
330
1E
100
AcDbEntity
  8
0
100
AcDbLine
 10
66.48602
 20
5.802505000000009
 30
0.0
 11
75.81981999999999
 21
11.926215
 31
0.0
  0
LINE
  5
59
330
1E
100
AcDbEntity
  8
0
100
AcDbLine
 10
66.48602
 20
5.802505000000009
 30
0.0
 11
75.81981999999999
 21
11.926215
 31
0.0
  0
LINE
  5
5A
330
1E
100
AcDbEntity
  8
0
100
AcDbLine
 10
64.01111999999999
 20
4.537975000000009
 30
0.0
 11
66.48602
 21
5.802505000000009
 31
0.0
  0
LINE
  5
5B
330
1E
100
AcDbEntity
  8
0
100
AcDbLine
 10
54.39451999999999
 20
11.108715
 30
0.0
 11
64.01111999999999
 21
14.53801499999999
 31
0.0
  0
LINE
  5
5C
330
1E
100
AcDbEntity
  8
0
100
AcDbLine
 10
64.01111999999999
 20
14.53801499999999
 30
0.0
 11
72.28431999999999
 21
19.988115
 31
0.0
  0
LINE
  5
5D
330
1E
100
AcDbEntity
  8
0
100
AcDbLine
 10
33.60552
 20
11.108715
 30
0.0
 11
44.00001999999999
 21
9.945215000000009
 31
0.0
  0
LINE
  5
5E
330
1E
100
AcDbEntity
  8
0
100
AcDbLine
 10
44.00001999999999
 20
51.999415
 30
0.0
 11
49.79832
 21
52.611815
 31
0.0
  0
LINE
  5
5F
330
1E
100
AcDbEntity
  8
0
100
AcDbLine
 10
49.79832
 20
52.611815
 30
0.0
 11
54.96021999999999
 21
54.510215
 31
0.0
  0
LINE
  5
60
330
1E
100
AcDbEntity
  8
0
100
AcDbLine
 10
54.96021999999999
 20
54.510215
 30
0.0
 11
59.55642
 21
57.510815
 31
0.0
  0
LINE
  5
61
330
1E
100
AcDbEntity
  8
0
100
AcDbLine
 10
38.20172
 20
52.611815
 30
0.0
 11
44.00001999999999
 21
51.999415
 31
0.0
  0
LINE
  5
62
330
1E
100
AcDbEntity
  8
0
100
AcDbLine
 10
38.76742
 20
57.326415
 30
0.0
 11
44.00001999999999
 21
56.714115
 31
0.0
  0
LINE
  5
63
330
1E
100
AcDbEntity
  8
0
100
AcDbLine
 10
44.00001999999999
 20
55.71411499999999
 30
0.0
 11
49.23262000000001
 21
56.326415
 31
0.0
  0
LINE
  5
64
330
1E
100
AcDbEntity
  8
0
100
AcDbLine
 10
44.00001999999999
 20
56.714115
 30
0.0
 11
49.23262000000001
 21
57.326415
 31
0.0
  0
LINE
  5
65
330
1E
100
AcDbEntity
  8
0
100
AcDbLine
 10
49.23262000000001
 20
57.326415
 30
0.0
 11
54.04091999999999
 21
59.041115
 31
0.0
  0
LINE
  5
66
330
1E
100
AcDbEntity
  8
0
100
AcDbLine
 10
49.23262000000001
 20
56.326415
 30
0.0
 11
54.04091999999999
 21
58.04111500000001
 31
0.0
  0
LINE
  5
67
330
1E
100
AcDbEntity
  8
0
100
AcDbLine
 10
38.76742
 20
56.326415
 30
0.0
 11
44.00001999999999
 21
55.71411499999999
 31
0.0
  0
LINE
  5
68
330
1E
100
AcDbEntity
  8
0
100
AcDbLine
 10
33.03981999999999
 20
54.510215
 30
0.0
 11
38.20172
 21
52.611815
 31
0.0
  0
LINE
  5
69
330
1E
100
AcDbEntity
  8
0
100
AcDbLine
 10
28.44362
 20
57.510815
 30
0.0
 11
33.03981999999999
 21
54.510215
 31
0.0
  0
LINE
  5
6A
330
1E
100
AcDbEntity
  8
0
100
AcDbLine
 10
23.98892
 20
14.53801499999999
 30
0.0
 11
33.60552
 21
11.108715
 31
0.0
  0
LINE
  5
6B
330
1E
100
AcDbEntity
  8
0
100
AcDbLine
 10
15.71572
 20
19.988115
 30
0.0
 11
23.98892
 21
14.53801499999999
 31
0.0
  0
LINE
  5
6C
330
1E
100
AcDbEntity
  8
0
100
AcDbLine
 10
44.00001999999999
 20
57.714115
 30
0.0
 11
49.23262000000001
 21
58.32641500000001
 31
0.0
  0
LINE
  5
6D
330
1E
100
AcDbEntity
  8
0
100
AcDbLine
 10
54.04091999999999
 20
58.04111500000001
 30
0.0
 11
58.14212
 21
60.735515
 31
0.0
  0
LINE
  5
6E
330
1E
100
AcDbEntity
  8
0
100
AcDbLine
 10
38.76742
 20
58.32641500000001
 30
0.0
 11
44.00001999999999
 21
57.714115
 31
0.0
  0
LINE
  5
6F
330
1E
100
AcDbEntity
  8
0
100
AcDbLine
 10
38.76742
 20
59.326415
 30
0.0
 11
44.00001999999999
 21
58.714115
 31
0.0
  0
LINE
  5
70
330
1E
100
AcDbEntity
  8
0
100
AcDbLine
 10
33.95912
 20
59.041115
 30
0.0
 11
38.76742
 21
57.326415
 31
0.0
  0
LINE
  5
71
330
1E
100
AcDbEntity
  8
0
100
AcDbLine
 10
44.00001999999999
 20
58.714115
 30
0.0
 11
49.23262000000001
 21
59.326415
 31
0.0
  0
LINE
  5
72
330
1E
100
AcDbEntity
  8
0
100
AcDbLine
 10
33.95912
 20
60.041115
 30
0.0
 11
38.76742
 21
58.32641500000001
 31
0.0
  0
LINE
  5
73
330
1E
100
AcDbEntity
  8
0
100
AcDbLine
 10
44.00001999999999
 20
59.714115
 30
0.0
 11
49.23262000000001
 21
60.326415
 31
0.0
  0
LINE
  5
74
330
1E
100
AcDbEntity
  8
0
100
AcDbLine
 10
49.23262000000001
 20
59.326415
 30
0.0
 11
54.04091999999999
 21
61.04111500000001
 31
0.0
  0
LINE
  5
75
330
1E
100
AcDbEntity
  8
0
100
AcDbLine
 10
49.23262000000001
 20
58.32641500000001
 30
0.0
 11
54.04091999999999
 21
60.041115
 31
0.0
  0
LINE
  5
76
330
1E
100
AcDbEntity
  8
0
100
AcDbLine
 10
38.76742
 20
60.326415
 30
0.0
 11
44.00001999999999
 21
59.714115
 31
0.0
  0
LINE
  5
77
330
1E
100
AcDbEntity
  8
0
100
AcDbLine
 10
44.00001999999999
 20
60.71411499999999
 30
0.0
 11
49.23262000000001
 21
61.326415
 31
0.0
  0
LINE
  5
78
330
1E
100
AcDbEntity
  8
0
100
AcDbLine
 10
49.23262000000001
 20
60.326415
 30
0.0
 11
54.04091999999999
 21
62.041115
 31
0.0
  0
LINE
  5
79
330
1E
100
AcDbEntity
  8
0
100
AcDbLine
 10
54.04091999999999
 20
60.041115
 30
0.0
 11
58.14212
 21
62.73551499999999
 31
0.0
  0
LINE
  5
7A
330
1E
100
AcDbEntity
  8
0
100
AcDbLine
 10
54.04091999999999
 20
59.041115
 30
0.0
 11
58.14212
 21
61.735515
 31
0.0
  0
LINE
  5
7B
330
1E
100
AcDbEntity
  8
0
100
AcDbLine
 10
33.95912
 20
58.04111500000001
 30
0.0
 11
38.76742
 21
56.326415
 31
0.0
  0
LINE
  5
7C
330
1E
100
AcDbEntity
  8
0
100
AcDbLine
 10
29.85792
 20
60.735515
 30
0.0
 11
33.95912
 21
58.04111500000001
 31
0.0
  0
LINE
  5
7D
330
1E
100
AcDbEntity
  8
0
100
AcDbLine
 10
4.119219999999999
 20
66.98301500000001
 30
0.0
 11
5.462720000000009
 21
75.984915
 31
0.0
  0
LINE
  5
7E
330
1E
100
AcDbEntity
  8
0
100
AcDbLine
 10
4.119219999999999
 20
66.98301500000001
 30
0.0
 11
4.119219999999999
 21
44.483015
 31
0.0
  0
LINE
  5
7F
330
1E
100
AcDbEntity
  8
0
100
AcDbLine
 10
9.42252
 20
84.31311499999999
 30
0.0
 11
9.91752000000001
 21
85.12941500000001
 31
0.0
  0
LINE
  5
80
330
1E
100
AcDbEntity
  8
0
100
AcDbLine
 10
5.462720000000009
 20
75.984915
 30
0.0
 11
9.42252
 21
84.31311499999999
 31
0.0
  0
LINE
  5
81
330
1E
100
AcDbEntity
  8
0
100
AcDbLine
 10
9.91752000000001
 20
85.12941500000001
 30
0.0
 11
16.06932
 21
92.171715
 31
0.0
  0
LINE
  5
82
330
1E
100
AcDbEntity
  8
0
100
AcDbLine
 10
16.06932
 20
92.171715
 30
0.0
 11
24.00002
 21
97.36762696428801
 31
0.0
  0
LINE
  5
83
330
1E
100
AcDbEntity
  8
0
100
AcDbLine
 10
24.76672
 20
72.45141499999999
 30
0.0
 11
26.74662
 21
68.287315
 31
0.0
  0
LINE
  5
84
330
1E
100
AcDbEntity
  8
0
100
AcDbLine
 10
24.76672
 20
71.451415
 30
0.0
 11
26.74662
 21
67.28731500000001
 31
0.0
  0
LINE
  5
85
330
1E
100
AcDbEntity
  8
0
100
AcDbLine
 10
24.76672
 20
70.45141499999999
 30
0.0
 11
26.74662
 21
66.287315
 31
0.0
  0
LINE
  5
86
330
1E
100
AcDbEntity
  8
0
100
AcDbLine
 10
24.76672
 20
69.451415
 30
0.0
 11
26.74662
 21
65.28731500000001
 31
0.0
  0
LINE
  5
87
330
1E
100
AcDbEntity
  8
0
100
AcDbLine
 10
24.76672
 20
68.451415
 30
0.0
 11
26.74662
 21
64.28731500000001
 31
0.0
  0
LINE
  5
88
330
1E
100
AcDbEntity
  8
0
100
AcDbLine
 10
22.78682
 20
65.96151500000001
 30
0.0
 11
24.97882
 21
61.491215
 31
0.0
  0
LINE
  5
89
330
1E
100
AcDbEntity
  8
0
100
AcDbLine
 10
38.76742
 20
61.326415
 30
0.0
 11
44.00001999999999
 21
60.71411499999999
 31
0.0
  0
LINE
  5
8A
330
1E
100
AcDbEntity
  8
0
100
AcDbLine
 10
33.95912
 20
61.04111500000001
 30
0.0
 11
38.76742
 21
59.326415
 31
0.0
  0
LINE
  5
8B
330
1E
100
AcDbEntity
  8
0
100
AcDbLine
 10
33.95912
 20
62.041115
 30
0.0
 11
38.76742
 21
60.326415
 31
0.0
  0
LINE
  5
8C
330
1E
100
AcDbEntity
  8
0
100
AcDbLine
 10
29.85792
 20
61.735515
 30
0.0
 11
33.95912
 21
59.041115
 31
0.0
  0
LINE
  5
8D
330
1E
100
AcDbEntity
  8
0
100
AcDbLine
 10
44.00001999999999
 20
61.714115
 30
0.0
 11
49.23262000000001
 21
62.326415
 31
0.0
  0
LINE
  5
8E
330
1E
100
AcDbEntity
  8
0
100
AcDbLine
 10
49.23262000000001
 20
61.326415
 30
0.0
 11
54.04091999999999
 21
63.04111500000001
 31
0.0
  0
LINE
  5
8F
330
1E
100
AcDbEntity
  8
0
100
AcDbLine
 10
38.76742
 20
62.326415
 30
0.0
 11
44.00001999999999
 21
61.714115
 31
0.0
  0
LINE
  5
90
330
1E
100
AcDbEntity
  8
0
100
AcDbLine
 10
29.85792
 20
62.73551499999999
 30
0.0
 11
33.95912
 21
60.041115
 31
0.0
  0
LINE
  5
91
330
1E
100
AcDbEntity
  8
0
100
AcDbLine
 10
44.00001999999999
 20
62.714115
 30
0.0
 11
49.23262000000001
 21
63.32641500000001
 31
0.0
  0
LINE
  5
92
330
1E
100
AcDbEntity
  8
0
100
AcDbLine
 10
49.23262000000001
 20
62.326415
 30
0.0
 11
54.04091999999999
 21
64.041115
 31
0.0
  0
LINE
  5
93
330
1E
100
AcDbEntity
  8
0
100
AcDbLine
 10
54.04091999999999
 20
62.041115
 30
0.0
 11
58.14212
 21
64.73551500000001
 31
0.0
  0
LINE
  5
94
330
1E
100
AcDbEntity
  8
0
100
AcDbLine
 10
54.04091999999999
 20
61.04111500000001
 30
0.0
 11
58.14212
 21
63.735515
 31
0.0
  0
LINE
  5
95
330
1E
100
AcDbEntity
  8
0
100
AcDbLine
 10
33.95912
 20
63.04111500000001
 30
0.0
 11
38.76742
 21
61.326415
 31
0.0
  0
LINE
  5
96
330
1E
100
AcDbEntity
  8
0
100
AcDbLine
 10
38.76742
 20
63.32641500000001
 30
0.0
 11
44.00001999999999
 21
62.714115
 31
0.0
  0
LINE
  5
97
330
1E
100
AcDbEntity
  8
0
100
AcDbLine
 10
33.95912
 20
64.041115
 30
0.0
 11
38.76742
 21
62.326415
 31
0.0
  0
LINE
  5
98
330
1E
100
AcDbEntity
  8
0
100
AcDbLine
 10
29.85792
 20
63.735515
 30
0.0
 11
33.95912
 21
61.04111500000001
 31
0.0
  0
LINE
  5
99
330
1E
100
AcDbEntity
  8
0
100
AcDbLine
 10
44.00001999999999
 20
63.714115
 30
0.0
 11
49.23262000000001
 21
64.32641499999999
 31
0.0
  0
LINE
  5
9A
330
1E
100
AcDbEntity
  8
0
100
AcDbLine
 10
49.23262000000001
 20
63.32641500000001
 30
0.0
 11
54.04091999999999
 21
65.041115
 31
0.0
  0
LINE
  5
9B
330
1E
100
AcDbEntity
  8
0
100
AcDbLine
 10
54.04091999999999
 20
64.041115
 30
0.0
 11
58.14212
 21
66.73551500000001
 31
0.0
  0
LINE
  5
9C
330
1E
100
AcDbEntity
  8
0
100
AcDbLine
 10
54.04091999999999
 20
63.04111500000001
 30
0.0
 11
58.14212
 21
65.735515
 31
0.0
  0
LINE
  5
9D
330
1E
100
AcDbEntity
  8
0
100
AcDbLine
 10
58.14212
 20
63.735515
 30
0.0
 11
61.25341999999999
 21
67.28731500000001
 31
0.0
  0
LINE
  5
9E
330
1E
100
AcDbEntity
  8
0
100
AcDbLine
 10
58.14212
 20
62.73551499999999
 30
0.0
 11
61.25341999999999
 21
66.287315
 31
0.0
  0
LINE
  5
9F
330
1E
100
AcDbEntity
  8
0
100
AcDbLine
 10
58.14212
 20
61.735515
 30
0.0
 11
61.25341999999999
 21
65.28731500000001
 31
0.0
  0
LINE
  5
A0
330
1E
100
AcDbEntity
  8
0
100
AcDbLine
 10
26.74662
 20
66.287315
 30
0.0
 11
29.85792
 21
62.73551499999999
 31
0.0
  0
LINE
  5
A1
330
1E
100
AcDbEntity
  8
0
100
AcDbLine
 10
26.74662
 20
65.28731500000001
 30
0.0
 11
29.85792
 21
61.735515
 31
0.0
  0
LINE
  5
A2
330
1E
100
AcDbEntity
  8
0
100
AcDbLine
 10
26.74662
 20
68.287315
 30
0.0
 11
29.85792
 21
64.73551500000001
 31
0.0
  0
LINE
  5
A3
330
1E
100
AcDbEntity
  8
0
100
AcDbLine
 10
26.74662
 20
67.28731500000001
 30
0.0
 11
29.85792
 21
63.735515
 31
0.0
  0
LINE
  5
A4
330
1E
100
AcDbEntity
  8
0
100
AcDbLine
 10
26.74662
 20
72.28731500000001
 30
0.0
 11
29.85792
 21
68.73551500000001
 31
0.0
  0
LINE
  5
A5
330
1E
100
AcDbEntity
  8
0
100
AcDbLine
 10
26.74662
 20
71.287315
 30
0.0
 11
29.85792
 21
67.735515
 31
0.0
  0
LINE
  5
A6
330
1E
100
AcDbEntity
  8
0
100
AcDbLine
 10
26.74662
 20
70.28731500000001
 30
0.0
 11
29.85792
 21
66.73551500000001
 31
0.0
  0
LINE
  5
A7
330
1E
100
AcDbEntity
  8
0
100
AcDbLine
 10
26.74662
 20
69.28731500000001
 30
0.0
 11
29.85792
 21
65.735515
 31
0.0
  0
LINE
  5
A8
330
1E
100
AcDbEntity
  8
0
100
AcDbLine
 10
29.85792
 20
69.73551500000001
 30
0.0
 11
33.95912
 21
67.041115
 31
0.0
  0
LINE
  5
A9
330
1E
100
AcDbEntity
  8
0
100
AcDbLine
 10
29.85792
 20
68.73551500000001
 30
0.0
 11
33.95912
 21
66.04111500000001
 31
0.0
  0
LINE
  5
AA
330
1E
100
AcDbEntity
  8
0
100
AcDbLine
 10
29.85792
 20
67.735515
 30
0.0
 11
33.95912
 21
65.041115
 31
0.0
  0
LINE
  5
AB
330
1E
100
AcDbEntity
  8
0
100
AcDbLine
 10
29.85792
 20
66.73551500000001
 30
0.0
 11
33.95912
 21
64.041115
 31
0.0
  0
LINE
  5
AC
330
1E
100
AcDbEntity
  8
0
100
AcDbLine
 10
33.95912
 20
67.041115
 30
0.0
 11
38.76742
 21
65.326415
 31
0.0
  0
LINE
  5
AD
330
1E
100
AcDbEntity
  8
0
100
AcDbLine
 10
33.95912
 20
66.04111500000001
 30
0.0
 11
38.76742
 21
64.32641499999999
 31
0.0
  0
LINE
  5
AE
330
1E
100
AcDbEntity
  8
0
100
AcDbLine
 10
33.95912
 20
65.041115
 30
0.0
 11
38.76742
 21
63.32641500000001
 31
0.0
  0
LINE
  5
AF
330
1E
100
AcDbEntity
  8
0
100
AcDbLine
 10
29.85792
 20
65.735515
 30
0.0
 11
33.95912
 21
63.04111500000001
 31
0.0
  0
LINE
  5
B0
330
1E
100
AcDbEntity
  8
0
100
AcDbLine
 10
29.85792
 20
64.73551500000001
 30
0.0
 11
33.95912
 21
62.041115
 31
0.0
  0
LINE
  5
B1
330
1E
100
AcDbEntity
  8
0
100
AcDbLine
 10
38.76742
 20
65.326415
 30
0.0
 11
44.00001999999999
 21
64.71411500000001
 31
0.0
  0
LINE
  5
B2
330
1E
100
AcDbEntity
  8
0
100
AcDbLine
 10
38.76742
 20
64.32641499999999
 30
0.0
 11
44.00001999999999
 21
63.714115
 31
0.0
  0
LINE
  5
B3
330
1E
100
AcDbEntity
  8
0
100
AcDbLine
 10
44.00001999999999
 20
64.71411500000001
 30
0.0
 11
49.23262000000001
 21
65.326415
 31
0.0
  0
LINE
  5
B4
330
1E
100
AcDbEntity
  8
0
100
AcDbLine
 10
49.23262000000001
 20
65.326415
 30
0.0
 11
54.04091999999999
 21
67.041115
 31
0.0
  0
LINE
  5
B5
330
1E
100
AcDbEntity
  8
0
100
AcDbLine
 10
49.23262000000001
 20
64.32641499999999
 30
0.0
 11
54.04091999999999
 21
66.04111500000001
 31
0.0
  0
LINE
  5
B6
330
1E
100
AcDbEntity
  8
0
100
AcDbLine
 10
44.00001999999999
 20
69.71411500000001
 30
0.0
 11
49.23262000000001
 21
70.326415
 31
0.0
  0
LINE
  5
B7
330
1E
100
AcDbEntity
  8
0
100
AcDbLine
 10
54.04091999999999
 20
65.041115
 30
0.0
 11
58.14212
 21
67.735515
 31
0.0
  0
LINE
  5
B8
330
1E
100
AcDbEntity
  8
0
100
AcDbLine
 10
58.14212
 20
64.73551500000001
 30
0.0
 11
61.25341999999999
 21
68.287315
 31
0.0
  0
LINE
  5
B9
330
1E
100
AcDbEntity
  8
0
100
AcDbLine
 10
54.04091999999999
 20
66.04111500000001
 30
0.0
 11
58.14212
 21
68.73551500000001
 31
0.0
  0
LINE
  5
BA
330
1E
100
AcDbEntity
  8
0
100
AcDbLine
 10
54.04091999999999
 20
67.041115
 30
0.0
 11
58.14212
 21
69.73551500000001
 31
0.0
  0
LINE
  5
BB
330
1E
100
AcDbEntity
  8
0
100
AcDbLine
 10
58.14212
 20
66.73551500000001
 30
0.0
 11
61.25341999999999
 21
70.28731500000001
 31
0.0
  0
LINE
  5
BC
330
1E
100
AcDbEntity
  8
0
100
AcDbLine
 10
58.14212
 20
65.735515
 30
0.0
 11
61.25341999999999
 21
69.28731500000001
 31
0.0
  0
LINE
  5
BD
330
1E
100
AcDbEntity
  8
0
100
AcDbLine
 10
58.14212
 20
68.73551500000001
 30
0.0
 11
61.25341999999999
 21
72.28731500000001
 31
0.0
  0
LINE
  5
BE
330
1E
100
AcDbEntity
  8
0
100
AcDbLine
 10
58.14212
 20
67.735515
 30
0.0
 11
61.25341999999999
 21
71.287315
 31
0.0
  0
LINE
  5
BF
330
1E
100
AcDbEntity
  8
0
100
AcDbLine
 10
58.14212
 20
69.73551500000001
 30
0.0
 11
61.25341999999999
 21
73.287315
 31
0.0
  0
LINE
  5
C0
330
1E
100
AcDbEntity
  8
0
100
AcDbLine
 10
61.25341999999999
 20
70.28731500000001
 30
0.0
 11
63.23331999999999
 21
74.451415
 31
0.0
  0
LINE
  5
C1
330
1E
100
AcDbEntity
  8
0
100
AcDbLine
 10
61.25341999999999
 20
69.28731500000001
 30
0.0
 11
63.23331999999999
 21
73.451415
 31
0.0
  0
LINE
  5
C2
330
1E
100
AcDbEntity
  8
0
100
AcDbLine
 10
61.25341999999999
 20
68.287315
 30
0.0
 11
63.23331999999999
 21
72.45141499999999
 31
0.0
  0
LINE
  5
C3
330
1E
100
AcDbEntity
  8
0
100
AcDbLine
 10
61.25341999999999
 20
67.28731500000001
 30
0.0
 11
63.23331999999999
 21
71.451415
 31
0.0
  0
LINE
  5
C4
330
1E
100
AcDbEntity
  8
0
100
AcDbLine
 10
61.25341999999999
 20
66.287315
 30
0.0
 11
63.23331999999999
 21
70.45141499999999
 31
0.0
  0
LINE
  5
C5
330
1E
100
AcDbEntity
  8
0
100
AcDbLine
 10
61.25341999999999
 20
65.28731500000001
 30
0.0
 11
63.23331999999999
 21
69.451415
 31
0.0
  0
LINE
  5
C6
330
1E
100
AcDbEntity
  8
0
100
AcDbLine
 10
49.23262000000001
 20
70.326415
 30
0.0
 11
54.04091999999999
 21
72.041115
 31
0.0
  0
LINE
  5
C7
330
1E
100
AcDbEntity
  8
0
100
AcDbLine
 10
61.25341999999999
 20
72.28731500000001
 30
0.0
 11
63.23331999999999
 21
76.451415
 31
0.0
  0
LINE
  5
C8
330
1E
100
AcDbEntity
  8
0
100
AcDbLine
 10
61.25341999999999
 20
71.287315
 30
0.0
 11
63.23331999999999
 21
75.45141499999999
 31
0.0
  0
LINE
  5
C9
330
1E
100
AcDbEntity
  8
0
100
AcDbLine
 10
54.04091999999999
 20
72.041115
 30
0.0
 11
58.14212
 21
74.73551500000001
 31
0.0
  0
LINE
  5
CA
330
1E
100
AcDbEntity
  8
0
100
AcDbLine
 10
38.76742
 20
70.326415
 30
0.0
 11
44.00001999999999
 21
69.71411500000001
 31
0.0
  0
LINE
  5
CB
330
1E
100
AcDbEntity
  8
0
100
AcDbLine
 10
33.95912
 20
72.041115
 30
0.0
 11
38.76742
 21
70.326415
 31
0.0
  0
LINE
  5
CC
330
1E
100
AcDbEntity
  8
0
100
AcDbLine
 10
26.74662
 20
64.28731500000001
 30
0.0
 11
29.85792
 21
60.735515
 31
0.0
  0
LINE
  5
CD
330
1E
100
AcDbEntity
  8
0
100
AcDbLine
 10
24.97882
 20
61.491215
 30
0.0
 11
28.44362
 21
57.510815
 31
0.0
  0
LINE
  5
CE
330
1E
100
AcDbEntity
  8
0
100
AcDbLine
 10
26.74662
 20
73.287315
 30
0.0
 11
29.85792
 21
69.73551500000001
 31
0.0
  0
LINE
  5
CF
330
1E
100
AcDbEntity
  8
0
100
AcDbLine
 10
24.76672
 20
73.451415
 30
0.0
 11
26.74662
 21
69.28731500000001
 31
0.0
  0
LINE
  5
D0
330
1E
100
AcDbEntity
  8
0
100
AcDbLine
 10
24.05962
 20
75.98301500000001
 30
0.0
 11
24.05962
 21
76.98301500000001
 31
0.0
  0
LINE
  5
D1
330
1E
100
AcDbEntity
  8
0
100
AcDbLine
 10
24.05962
 20
75.98301500000001
 30
0.0
 11
24.76672
 21
71.451415
 31
0.0
  0
LINE
  5
D2
330
1E
100
AcDbEntity
  8
0
100
AcDbLine
 10
24.76672
 20
75.45141499999999
 30
0.0
 11
26.74662
 21
71.287315
 31
0.0
  0
LINE
  5
D3
330
1E
100
AcDbEntity
  8
0
100
AcDbLine
 10
24.76672
 20
74.451415
 30
0.0
 11
26.74662
 21
70.28731500000001
 31
0.0
  0
LINE
  5
D4
330
1E
100
AcDbEntity
  8
0
100
AcDbLine
 10
24.05962
 20
74.98301500000001
 30
0.0
 11
24.1376396621465
 21
75.48300948312391
 31
0.0
  0
LINE
  5
D5
330
1E
100
AcDbEntity
  8
0
100
AcDbLine
 10
24.05962
 20
74.98301500000001
 30
0.0
 11
24.05962
 21
73.98301500000001
 31
0.0
  0
LINE
  5
D6
330
1E
100
AcDbEntity
  8
0
100
AcDbLine
 10
24.05962
 20
74.98301500000001
 30
0.0
 11
24.76672
 21
70.45141499999999
 31
0.0
  0
LINE
  5
D7
330
1E
100
AcDbEntity
  8
0
100
AcDbLine
 10
24.05962
 20
73.98301500000001
 30
0.0
 11
24.05962
 21
74.98301500000001
 31
0.0
  0
LINE
  5
D8
330
1E
100
AcDbEntity
  8
0
100
AcDbLine
 10
24.05962
 20
73.98301500000001
 30
0.0
 11
24.76672
 21
69.451415
 31
0.0
  0
LINE
  5
D9
330
1E
100
AcDbEntity
  8
0
100
AcDbLine
 10
61.25341999999999
 20
73.287315
 30
0.0
 11
63.23331999999999
 21
77.45141499999999
 31
0.0
  0
LINE
  5
DA
330
1E
100
AcDbEntity
  8
0
100
AcDbLine
 10
58.14212
 20
74.73551500000001
 30
0.0
 11
61.25341999999999
 21
78.287315
 31
0.0
  0
LINE
  5
DB
330
1E
100
AcDbEntity
  8
0
100
AcDbLine
 10
29.85792
 20
74.73551500000001
 30
0.0
 11
33.95912
 21
72.041115
 31
0.0
  0
LINE
  5
DC
330
1E
100
AcDbEntity
  8
0
100
AcDbLine
 10
24.05962
 20
72.983015
 30
0.0
 11
24.1376396621465
 21
73.48300948312391
 31
0.0
  0
LINE
  5
DD
330
1E
100
AcDbEntity
  8
0
100
AcDbLine
 10
24.05962
 20
72.983015
 30
0.0
 11
24.76672
 21
68.451415
 31
0.0
  0
LINE
  5
DE
330
1E
100
AcDbEntity
  8
0
100
AcDbLine
 10
22.07972
 20
70.98301500000001
 30
0.0
 11
22.78682
 21
76.00441500000009
 31
0.0
  0
LINE
  5
DF
330
1E
100
AcDbEntity
  8
0
100
AcDbLine
 10
22.07972
 20
70.98301500000001
 30
0.0
 11
22.78682
 21
65.96151500000001
 31
0.0
  0
LINE
  5
E0
330
1E
100
AcDbEntity
  8
0
100
AcDbLine
 10
24.00002
 20
108.5548149999999
 30
0.0
 11
24.00002
 21
96.41791500000001
 31
0.0
  0
LINE
  5
E1
330
1E
100
AcDbEntity
  8
0
100
AcDbLine
 10
24.00002
 20
108.5548149999999
 30
0.0
 11
24.00002
 21
121.9828149999999
 31
0.0
  0
LINE
  5
E2
330
1E
100
AcDbEntity
  8
0
100
AcDbLine
 10
24.00002
 20
121.9828149999999
 30
0.0
 11
24.00002
 21
136.294815
 31
0.0
  0
LINE
  5
E3
330
1E
100
AcDbEntity
  8
0
100
AcDbLine
 10
24.00002
 20
121.9828149999999
 30
0.0
 11
24.00002
 21
108.5548149999999
 31
0.0
  0
LINE
  5
E4
330
1E
100
AcDbEntity
  8
0
100
AcDbLine
 10
24.00002
 20
136.294815
 30
0.0
 11
24.00002
 21
151.0548149999999
 31
0.0
  0
LINE
  5
E5
330
1E
100
AcDbEntity
  8
0
100
AcDbLine
 10
24.00002
 20
136.294815
 30
0.0
 11
24.00002
 21
121.9828149999999
 31
0.0
  0
LINE
  5
E6
330
1E
100
AcDbEntity
  8
0
100
AcDbLine
 10
24.00002
 20
96.41791500000001
 30
0.0
 11
24.05962
 21
86.98301500000001
 31
0.0
  0
LINE
  5
E7
330
1E
100
AcDbEntity
  8
0
100
AcDbLine
 10
24.00002
 20
96.41791500000001
 30
0.0
 11
24.00002
 21
108.5548149999999
 31
0.0
  0
LINE
  5
E8
330
1E
100
AcDbEntity
  8
0
100
AcDbLine
 10
24.00002
 20
187.554815
 30
0.0
 11
24.00002
 21
151.0548149999999
 31
0.0
  0
LINE
  5
E9
330
1E
100
AcDbEntity
  8
0
100
AcDbLine
 10
24.00002
 20
187.554815
 30
0.0
 11
24.70002
 21
187.554815
 31
0.0
  0
LINE
  5
EA
330
1E
100
AcDbEntity
  8
0
100
AcDbLine
 10
24.76672
 20
76.451415
 30
0.0
 11
26.74662
 21
72.28731500000001
 31
0.0
  0
LINE
  5
EB
330
1E
100
AcDbEntity
  8
0
100
AcDbLine
 10
24.05962
 20
81.98301500000001
 30
0.0
 11
24.05962
 21
86.98301500000001
 31
0.0
  0
LINE
  5
EC
330
1E
100
AcDbEntity
  8
0
100
AcDbLine
 10
24.05962
 20
81.98301500000001
 30
0.0
 11
24.76672
 21
77.45141499999999
 31
0.0
  0
LINE
  5
ED
330
1E
100
AcDbEntity
  8
0
100
AcDbLine
 10
24.05962
 20
80.98301500000001
 30
0.0
 11
24.1376396621465
 21
81.48300948312391
 31
0.0
  0
LINE
  5
EE
330
1E
100
AcDbEntity
  8
0
100
AcDbLine
 10
24.05962
 20
80.98301500000001
 30
0.0
 11
24.05962
 21
79.98301500000001
 31
0.0
  0
LINE
  5
EF
330
1E
100
AcDbEntity
  8
0
100
AcDbLine
 10
24.05962
 20
80.98301500000001
 30
0.0
 11
24.76672
 21
76.451415
 31
0.0
  0
LINE
  5
F0
330
1E
100
AcDbEntity
  8
0
100
AcDbLine
 10
24.05962
 20
79.98301500000001
 30
0.0
 11
24.05962
 21
80.98301500000001
 31
0.0
  0
LINE
  5
F1
330
1E
100
AcDbEntity
  8
0
100
AcDbLine
 10
24.05962
 20
79.98301500000001
 30
0.0
 11
24.76672
 21
75.45141499999999
 31
0.0
  0
LINE
  5
F2
330
1E
100
AcDbEntity
  8
0
100
AcDbLine
 10
24.05962
 20
78.98301500000001
 30
0.0
 11
24.1376396621465
 21
79.4830094831239
 31
0.0
  0
LINE
  5
F3
330
1E
100
AcDbEntity
  8
0
100
AcDbLine
 10
24.05962
 20
78.98301500000001
 30
0.0
 11
24.05962
 21
77.983015
 31
0.0
  0
LINE
  5
F4
330
1E
100
AcDbEntity
  8
0
100
AcDbLine
 10
24.05962
 20
78.98301500000001
 30
0.0
 11
24.76672
 21
74.451415
 31
0.0
  0
LINE
  5
F5
330
1E
100
AcDbEntity
  8
0
100
AcDbLine
 10
24.76672
 20
77.45141499999999
 30
0.0
 11
26.74662
 21
73.287315
 31
0.0
  0
LINE
  5
F6
330
1E
100
AcDbEntity
  8
0
100
AcDbLine
 10
24.05962
 20
77.983015
 30
0.0
 11
24.05962
 21
78.98301500000001
 31
0.0
  0
LINE
  5
F7
330
1E
100
AcDbEntity
  8
0
100
AcDbLine
 10
24.05962
 20
77.983015
 30
0.0
 11
24.76672
 21
73.451415
 31
0.0
  0
LINE
  5
F8
330
1E
100
AcDbEntity
  8
0
100
AcDbLine
 10
24.05962
 20
76.98301500000001
 30
0.0
 11
24.1376396621465
 21
77.4830094831239
 31
0.0
  0
LINE
  5
F9
330
1E
100
AcDbEntity
  8
0
100
AcDbLine
 10
24.05962
 20
76.98301500000001
 30
0.0
 11
24.05962
 21
75.98301500000001
 31
0.0
  0
LINE
  5
FA
330
1E
100
AcDbEntity
  8
0
100
AcDbLine
 10
24.05962
 20
76.98301500000001
 30
0.0
 11
24.76672
 21
72.45141499999999
 31
0.0
  0
LINE
  5
FB
330
1E
100
AcDbEntity
  8
0
100
AcDbLine
 10
24.76672
 20
82.451415
 30
0.0
 11
26.74662
 21
78.287315
 31
0.0
  0
LINE
  5
FC
330
1E
100
AcDbEntity
  8
0
100
AcDbLine
 10
24.05962
 20
86.98301500000001
 30
0.0
 11
24.76672
 21
82.451415
 31
0.0
  0
LINE
  5
FD
330
1E
100
AcDbEntity
  8
0
100
AcDbLine
 10
24.05962
 20
86.98301500000001
 30
0.0
 11
24.05962
 21
81.98301500000001
 31
0.0
  0
LINE
  5
FE
330
1E
100
AcDbEntity
  8
0
100
AcDbLine
 10
26.74662
 20
78.287315
 30
0.0
 11
29.85792
 21
74.73551500000001
 31
0.0
  0
LINE
  5
FF
330
1E
100
AcDbEntity
  8
0
100
AcDbLine
 10
44.00001999999999
 20
187.554815
 30
0.0
 11
49.10002
 21
187.554815
 31
0.0
  0
LINE
  5
100
330
1E
100
AcDbEntity
  8
0
100
AcDbLine
 10
49.10002
 20
187.554815
 30
0.0
 11
53.90001999999999
 21
187.554815
 31
0.0
  0
LINE
  5
101
330
1E
100
AcDbEntity
  8
0
100
AcDbLine
 10
53.90001999999999
 20
187.554815
 30
0.0
 11
58.10001999999999
 21
187.554815
 31
0.0
  0
LINE
  5
102
330
1E
100
AcDbEntity
  8
0
100
AcDbLine
 10
61.25341999999999
 20
78.287315
 30
0.0
 11
63.23331999999999
 21
82.451415
 31
0.0
  0
LINE
  5
103
330
1E
100
AcDbEntity
  8
0
100
AcDbLine
 10
58.10001999999999
 20
187.554815
 30
0.0
 11
61.30002
 21
187.554815
 31
0.0
  0
LINE
  5
104
330
1E
100
AcDbEntity
  8
0
100
AcDbLine
 10
38.90001999999999
 20
187.554815
 30
0.0
 11
44.00001999999999
 21
187.554815
 31
0.0
  0
LINE
  5
105
330
1E
100
AcDbEntity
  8
0
100
AcDbLine
 10
34.10002
 20
187.554815
 30
0.0
 11
38.90001999999999
 21
187.554815
 31
0.0
  0
LINE
  5
106
330
1E
100
AcDbEntity
  8
0
100
AcDbLine
 10
29.90002
 20
187.554815
 30
0.0
 11
34.10002
 21
187.554815
 31
0.0
  0
LINE
  5
107
330
1E
100
AcDbEntity
  8
0
100
AcDbLine
 10
26.70002
 20
187.554815
 30
0.0
 11
29.90002
 21
187.554815
 31
0.0
  0
LINE
  5
108
330
1E
100
AcDbEntity
  8
0
100
AcDbLine
 10
24.70002
 20
187.554815
 30
0.0
 11
26.70002
 21
187.554815
 31
0.0
  0
LINE
  5
109
330
1E
100
AcDbEntity
  8
0
100
AcDbLine
 10
24.00002
 20
151.0548149999999
 30
0.0
 11
24.00002
 21
187.554815
 31
0.0
  0
LINE
  5
10A
330
1E
100
AcDbEntity
  8
0
100
AcDbLine
 10
24.00002
 20
151.0548149999999
 30
0.0
 11
24.00002
 21
136.294815
 31
0.0
  0
LINE
  5
10B
330
1E
100
AcDbEntity
  8
0
100
AcDbLine
 10
22.78682
 20
76.00441500000009
 30
0.0
 11
24.05962
 21
78.60012569343069
 31
0.0
  0
LINE
  5
10C
330
1E
100
AcDbEntity
  8
0
100
AcDbLine
 10
21.10002
 20
187.554815
 30
0.0
 11
24.00002
 21
187.554815
 31
0.0
  0
LINE
  5
10D
330
1E
100
AcDbEntity
  8
0
100
AcDbLine
 10
15.90002
 20
187.554815
 30
0.0
 11
21.10002
 21
187.554815
 31
0.0
  0
LINE
  5
10E
330
1E
100
AcDbEntity
  8
0
100
AcDbLine
 10
12.70002
 20
187.554815
 30
0.0
 11
15.90002
 21
187.554815
 31
0.0
  0
LINE
  5
10F
330
1E
100
AcDbEntity
  8
0
100
AcDbLine
 10
44.00001999999999
 20
188.5548149999999
 30
0.0
 11
52.90002
 21
188.5548149999999
 31
0.0
  0
LINE
  5
110
330
1E
100
AcDbEntity
  8
0
100
AcDbLine
 10
52.90002
 20
188.5548149999999
 30
0.0
 11
61.10001999999999
 21
188.5548149999999
 31
0.0
  0
LINE
  5
111
330
1E
100
AcDbEntity
  8
0
100
AcDbLine
 10
61.10001999999999
 20
188.5548149999999
 30
0.0
 11
68.40002
 21
188.5548149999999
 31
0.0
  0
LINE
  5
112
330
1E
100
AcDbEntity
  8
0
100
AcDbLine
 10
35.10002
 20
188.5548149999999
 30
0.0
 11
44.00001999999999
 21
188.5548149999999
 31
0.0
  0
LINE
  5
113
330
1E
100
AcDbEntity
  8
0
100
AcDbLine
 10
26.90002
 20
188.5548149999999
 30
0.0
 11
35.10002
 21
188.5548149999999
 31
0.0
  0
LINE
  5
114
330
1E
100
AcDbEntity
  8
0
100
AcDbLine
 10
19.60002
 20
188.5548149999999
 30
0.0
 11
26.90002
 21
188.5548149999999
 31
0.0
  0
LINE
  5
115
330
1E
100
AcDbEntity
  8
0
100
AcDbLine
 10
14.10002
 20
188.5548149999999
 30
0.0
 11
19.60002
 21
188.5548149999999
 31
0.0
  0
LINE
  5
116
330
1E
100
AcDbEntity
  8
0
100
AcDbLine
 10
10.70002
 20
188.5548149999999
 30
0.0
 11
14.10002
 21
188.5548149999999
 31
0.0
  0
LINE
  5
117
330
1E
100
AcDbEntity
  8
0
100
AcDbLine
 10
11.00001999999999
 20
187.554815
 30
0.0
 11
12.70002
 21
187.554815
 31
0.0
  0
LINE
  5
118
330
1E
100
AcDbEntity
  8
0
100
AcDbLine
 10
9.500019999999999
 20
188.5548149999999
 30
0.0
 11
11.00001999999999
 21
187.554815
 31
0.0
  0
LINE
  5
119
330
1E
100
AcDbEntity
  8
0
100
AcDbLine
 10
9.500019999999999
 20
188.5548149999999
 30
0.0
 11
10.70002
 21
188.5548149999999
 31
0.0
  0
LINE
  5
11A
330
1E
100
AcDbEntity
  8
0
100
AcDbLine
 10
44.00001999999999
 20
195.0548149999999
 30
0.0
 11
53.00001999999999
 21
195.0548149999999
 31
0.0
  0
LINE
  5
11B
330
1E
100
AcDbEntity
  8
0
100
AcDbLine
 10
53.00001999999999
 20
195.0548149999999
 30
0.0
 11
61.40001999999999
 21
195.0548149999999
 31
0.0
  0
LINE
  5
11C
330
1E
100
AcDbEntity
  8
0
100
AcDbLine
 10
35.00002
 20
195.0548149999999
 30
0.0
 11
44.00001999999999
 21
195.0548149999999
 31
0.0
  0
LINE
  5
11D
330
1E
100
AcDbEntity
  8
0
100
AcDbLine
 10
26.60002
 20
195.0548149999999
 30
0.0
 11
35.00002
 21
195.0548149999999
 31
0.0
  0
LINE
  5
11E
330
1E
100
AcDbEntity
  8
0
100
AcDbLine
 10
19.30001999999999
 20
195.0548149999999
 30
0.0
 11
26.60002
 21
195.0548149999999
 31
0.0
  0
LINE
  5
11F
330
1E
100
AcDbEntity
  8
0
100
AcDbLine
 10
13.70002
 20
195.0548149999999
 30
0.0
 11
19.30001999999999
 21
195.0548149999999
 31
0.0
  0
LINE
  5
120
330
1E
100
AcDbEntity
  8
0
100
AcDbLine
 10
10.30002
 20
195.0548149999999
 30
0.0
 11
13.70002
 21
195.0548149999999
 31
0.0
  0
LINE
  5
121
330
1E
100
AcDbEntity
  8
0
100
AcDbLine
 10
9.000019999999999
 20
195.0548149999999
 30
0.0
 11
10.30002
 21
195.0548149999999
 31
0.0
  0
LINE
  5
122
330
1E
100
AcDbEntity
  8
0
100
AcDbLine
 10
9.000019999999999
 20
195.0548149999999
 30
0.0
 11
9.000019999999999
 21
190.0548149999999
 31
0.0
  0
LINE
  5
123
330
1E
100
AcDbEntity
  8
0
100
AcDbLine
 10
9.000019999999999
 20
190.0548149999999
 30
0.0
 11
9.000019999999999
 21
195.0548149999999
 31
0.0
  0
LINE
  5
124
330
1E
100
AcDbEntity
  8
0
100
AcDbLine
 10
9.000019999999999
 20
190.0548149999999
 30
0.0
 11
9.500019999999999
 21
188.5548149999999
 31
0.0
  0
LINE
  5
125
330
1E
100
AcDbEntity
  8
0
100
AcDbLine
 10
61.40001999999999
 20
195.0548149999999
 30
0.0
 11
68.70001999999999
 21
195.0548149999999
 31
0.0
  0
LINE
  5
126
330
1E
100
AcDbEntity
  8
0
100
AcDbLine
 10
61.30002
 20
187.554815
 30
0.0
 11
63.30002
 21
187.554815
 31
0.0
  0
LINE
  5
127
330
1E
100
AcDbEntity
  8
0
100
AcDbLine
 10
61.25341999999999
 20
64.28731500000001
 30
0.0
 11
63.23331999999999
 21
68.451415
 31
0.0
  0
LINE
  5
128
330
1E
100
AcDbEntity
  8
0
100
AcDbLine
 10
58.14212
 20
60.735515
 30
0.0
 11
61.25341999999999
 21
64.28731500000001
 31
0.0
  0
LINE
  5
129
330
1E
100
AcDbEntity
  8
0
100
AcDbLine
 10
63.23331999999999
 20
77.45141499999999
 30
0.0
 11
63.94041999999999
 21
81.98301500000001
 31
0.0
  0
LINE
  5
12A
330
1E
100
AcDbEntity
  8
0
100
AcDbLine
 10
63.23331999999999
 20
76.451415
 30
0.0
 11
63.94041999999999
 21
80.98301500000001
 31
0.0
  0
LINE
  5
12B
330
1E
100
AcDbEntity
  8
0
100
AcDbLine
 10
63.23331999999999
 20
75.45141499999999
 30
0.0
 11
63.94041999999999
 21
79.98301500000001
 31
0.0
  0
LINE
  5
12C
330
1E
100
AcDbEntity
  8
0
100
AcDbLine
 10
63.23331999999999
 20
74.451415
 30
0.0
 11
63.94041999999999
 21
78.98301500000001
 31
0.0
  0
LINE
  5
12D
330
1E
100
AcDbEntity
  8
0
100
AcDbLine
 10
63.23331999999999
 20
73.451415
 30
0.0
 11
63.94041999999999
 21
77.983015
 31
0.0
  0
LINE
  5
12E
330
1E
100
AcDbEntity
  8
0
100
AcDbLine
 10
63.23331999999999
 20
72.45141499999999
 30
0.0
 11
63.94041999999999
 21
76.98301500000001
 31
0.0
  0
LINE
  5
12F
330
1E
100
AcDbEntity
  8
0
100
AcDbLine
 10
63.23331999999999
 20
71.451415
 30
0.0
 11
63.94041999999999
 21
75.98301500000001
 31
0.0
  0
LINE
  5
130
330
1E
100
AcDbEntity
  8
0
100
AcDbLine
 10
63.23331999999999
 20
70.45141499999999
 30
0.0
 11
63.94041999999999
 21
74.98301500000001
 31
0.0
  0
LINE
  5
131
330
1E
100
AcDbEntity
  8
0
100
AcDbLine
 10
63.23331999999999
 20
69.451415
 30
0.0
 11
63.94041999999999
 21
73.98301500000001
 31
0.0
  0
LINE
  5
132
330
1E
100
AcDbEntity
  8
0
100
AcDbLine
 10
63.23331999999999
 20
82.451415
 30
0.0
 11
63.94041999999999
 21
86.98301500000001
 31
0.0
  0
LINE
  5
133
330
1E
100
AcDbEntity
  8
0
100
AcDbLine
 10
63.8624003378535
 20
77.4830094831239
 30
0.0
 11
63.94041999999999
 21
76.98301500000001
 31
0.0
  0
LINE
  5
134
330
1E
100
AcDbEntity
  8
0
100
AcDbLine
 10
63.94041999999999
 20
76.98301500000001
 30
0.0
 11
63.94041999999999
 21
75.98301500000001
 31
0.0
  0
LINE
  5
135
330
1E
100
AcDbEntity
  8
0
100
AcDbLine
 10
63.8624003378535
 20
75.48300948312391
 30
0.0
 11
63.94041999999999
 21
74.98301500000001
 31
0.0
  0
LINE
  5
136
330
1E
100
AcDbEntity
  8
0
100
AcDbLine
 10
63.94041999999999
 20
74.98301500000001
 30
0.0
 11
63.94041999999999
 21
73.98301500000001
 31
0.0
  0
LINE
  5
137
330
1E
100
AcDbEntity
  8
0
100
AcDbLine
 10
63.8624003378535
 20
81.48300948312391
 30
0.0
 11
63.94041999999999
 21
80.98301500000001
 31
0.0
  0
LINE
  5
138
330
1E
100
AcDbEntity
  8
0
100
AcDbLine
 10
63.94041999999999
 20
80.98301500000001
 30
0.0
 11
63.94041999999999
 21
79.98301500000001
 31
0.0
  0
LINE
  5
139
330
1E
100
AcDbEntity
  8
0
100
AcDbLine
 10
63.8624003378535
 20
79.4830094831239
 30
0.0
 11
63.94041999999999
 21
78.98301500000001
 31
0.0
  0
LINE
  5
13A
330
1E
100
AcDbEntity
  8
0
100
AcDbLine
 10
63.94041999999999
 20
78.98301500000001
 30
0.0
 11
63.94041999999999
 21
77.983015
 31
0.0
  0
LINE
  5
13B
330
1E
100
AcDbEntity
  8
0
100
AcDbLine
 10
63.94041999999999
 20
81.98301500000001
 30
0.0
 11
63.94041999999999
 21
86.98301500000001
 31
0.0
  0
LINE
  5
13C
330
1E
100
AcDbEntity
  8
0
100
AcDbLine
 10
63.94041999999999
 20
79.98301500000001
 30
0.0
 11
63.94041999999999
 21
80.98301500000001
 31
0.0
  0
LINE
  5
13D
330
1E
100
AcDbEntity
  8
0
100
AcDbLine
 10
63.94041999999999
 20
77.983015
 30
0.0
 11
63.94041999999999
 21
78.98301500000001
 31
0.0
  0
LINE
  5
13E
330
1E
100
AcDbEntity
  8
0
100
AcDbLine
 10
63.94041999999999
 20
75.98301500000001
 30
0.0
 11
63.94041999999999
 21
76.98301500000001
 31
0.0
  0
LINE
  5
13F
330
1E
100
AcDbEntity
  8
0
100
AcDbLine
 10
63.94041999999999
 20
73.98301500000001
 30
0.0
 11
63.94041999999999
 21
74.98301500000001
 31
0.0
  0
LINE
  5
140
330
1E
100
AcDbEntity
  8
0
100
AcDbLine
 10
63.94041999999999
 20
86.98301500000001
 30
0.0
 11
64.00001999999999
 21
96.41791500000001
 31
0.0
  0
LINE
  5
141
330
1E
100
AcDbEntity
  8
0
100
AcDbLine
 10
63.94041999999999
 20
86.98301500000001
 30
0.0
 11
63.94041999999999
 21
81.98301500000001
 31
0.0
  0
LINE
  5
142
330
1E
100
AcDbEntity
  8
0
100
AcDbLine
 10
63.8624003378535
 20
73.48300948312391
 30
0.0
 11
63.94041999999999
 21
72.983015
 31
0.0
  0
LINE
  5
143
330
1E
100
AcDbEntity
  8
0
100
AcDbLine
 10
65.21321999999999
 20
76.00441500000009
 30
0.0
 11
65.92031999999999
 21
70.98301500000001
 31
0.0
  0
LINE
  5
144
330
1E
100
AcDbEntity
  8
0
100
AcDbLine
 10
63.94041999999999
 20
78.60012569343069
 30
0.0
 11
65.21321999999999
 21
76.00441500000009
 31
0.0
  0
LINE
  5
145
330
1E
100
AcDbEntity
  8
0
100
AcDbLine
 10
64.00001999999999
 20
96.41791500000001
 30
0.0
 11
64.00001999999999
 21
108.5548149999999
 31
0.0
  0
LINE
  5
146
330
1E
100
AcDbEntity
  8
0
100
AcDbLine
 10
64.00001999999999
 20
121.9828149999999
 30
0.0
 11
64.00001999999999
 21
108.5548149999999
 31
0.0
  0
LINE
  5
147
330
1E
100
AcDbEntity
  8
0
100
AcDbLine
 10
64.00001999999999
 20
121.9828149999999
 30
0.0
 11
64.00001999999999
 21
136.294815
 31
0.0
  0
LINE
  5
148
330
1E
100
AcDbEntity
  8
0
100
AcDbLine
 10
64.00001999999999
 20
136.294815
 30
0.0
 11
64.00001999999999
 21
151.0548149999999
 31
0.0
  0
LINE
  5
149
330
1E
100
AcDbEntity
  8
0
100
AcDbLine
 10
64.00001999999999
 20
136.294815
 30
0.0
 11
64.00001999999999
 21
121.9828149999999
 31
0.0
  0
LINE
  5
14A
330
1E
100
AcDbEntity
  8
0
100
AcDbLine
 10
63.30002
 20
187.554815
 30
0.0
 11
64.00001999999999
 21
187.554815
 31
0.0
  0
LINE
  5
14B
330
1E
100
AcDbEntity
  8
0
100
AcDbLine
 10
64.00001999999999
 20
151.0548149999999
 30
0.0
 11
64.00001999999999
 21
136.294815
 31
0.0
  0
LINE
  5
14C
330
1E
100
AcDbEntity
  8
0
100
AcDbLine
 10
64.00001999999999
 20
151.0548149999999
 30
0.0
 11
64.00001999999999
 21
187.554815
 31
0.0
  0
LINE
  5
14D
330
1E
100
AcDbEntity
  8
0
100
AcDbLine
 10
64.00001999999999
 20
187.554815
 30
0.0
 11
64.00001999999999
 21
151.0548149999999
 31
0.0
  0
LINE
  5
14E
330
1E
100
AcDbEntity
  8
0
100
AcDbLine
 10
64.00001999999999
 20
187.554815
 30
0.0
 11
66.90001999999999
 21
187.554815
 31
0.0
  0
LINE
  5
14F
330
1E
100
AcDbEntity
  8
0
100
AcDbLine
 10
64.00001999999999
 20
108.5548149999999
 30
0.0
 11
64.00001999999999
 21
96.41791500000001
 31
0.0
  0
LINE
  5
150
330
1E
100
AcDbEntity
  8
0
100
AcDbLine
 10
64.00001999999999
 20
108.5548149999999
 30
0.0
 11
64.00001999999999
 21
121.9828149999999
 31
0.0
  0
LINE
  5
151
330
1E
100
AcDbEntity
  8
0
100
AcDbLine
 10
66.90001999999999
 20
187.554815
 30
0.0
 11
72.10002
 21
187.554815
 31
0.0
  0
LINE
  5
152
330
1E
100
AcDbEntity
  8
0
100
AcDbLine
 10
68.40002
 20
188.5548149999999
 30
0.0
 11
73.90001999999999
 21
188.5548149999999
 31
0.0
  0
LINE
  5
153
330
1E
100
AcDbEntity
  8
0
100
AcDbLine
 10
68.70001999999999
 20
195.0548149999999
 30
0.0
 11
74.30001999999999
 21
195.0548149999999
 31
0.0
  0
LINE
  5
154
330
1E
100
AcDbEntity
  8
0
100
AcDbLine
 10
72.10002
 20
187.554815
 30
0.0
 11
75.30001999999999
 21
187.554815
 31
0.0
  0
LINE
  5
155
330
1E
100
AcDbEntity
  8
0
100
AcDbLine
 10
64.00001999999999
 20
97.36762696428801
 30
0.0
 11
71.93071999999999
 21
92.171715
 31
0.0
  0
LINE
  5
156
330
1E
100
AcDbEntity
  8
0
100
AcDbLine
 10
71.93071999999999
 20
92.171715
 30
0.0
 11
78.08261999999999
 21
85.12941500000001
 31
0.0
  0
LINE
  5
157
330
1E
100
AcDbEntity
  8
0
100
AcDbLine
 10
63.23331999999999
 20
68.451415
 30
0.0
 11
63.94041999999999
 21
72.983015
 31
0.0
  0
LINE
  5
158
330
1E
100
AcDbEntity
  8
0
100
AcDbLine
 10
65.21321999999999
 20
65.96151500000001
 30
0.0
 11
65.92031999999999
 21
70.98301500000001
 31
0.0
  0
LINE
  5
159
330
1E
100
AcDbEntity
  8
0
100
AcDbLine
 10
63.02121999999999
 20
61.491215
 30
0.0
 11
65.21321999999999
 21
65.96151500000001
 31
0.0
  0
LINE
  5
15A
330
1E
100
AcDbEntity
  8
0
100
AcDbLine
 10
59.55642
 20
57.510815
 30
0.0
 11
63.02121999999999
 21
61.491215
 31
0.0
  0
LINE
  5
15B
330
1E
100
AcDbEntity
  8
0
100
AcDbLine
 10
75.81981999999999
 20
11.926215
 30
0.0
 11
80.30151999999999
 21
17.049415
 31
0.0
  0
LINE
  5
15D
330
1E
100
AcDbEntity
  8
0
100
AcDbLine
 10
81.43511999999999
 20
20.81241499999999
 30
0.0
 11
86.55882
 21
28.643315
 31
0.0
  0
LINE
  5
15E
330
1E
100
AcDbEntity
  8
0
100
AcDbLine
 10
80.30151999999999
 20
17.049415
 30
0.0
 11
81.43511999999999
 21
20.81241499999999
 31
0.0
  0
LINE
  5
160
330
1E
100
AcDbEntity
  8
0
100
AcDbLine
 10
82.53731999999999
 20
75.984915
 30
0.0
 11
83.88082
 21
66.98301500000001
 31
0.0
  0
LINE
  5
161
330
1E
100
AcDbEntity
  8
0
100
AcDbLine
 10
77.00001999999999
 20
187.554815
 30
0.0
 11
78.50001999999999
 21
188.5548149999999
 31
0.0
  0
LINE
  5
162
330
1E
100
AcDbEntity
  8
0
100
AcDbLine
 10
73.90001999999999
 20
188.5548149999999
 30
0.0
 11
77.30001999999998
 21
188.5548149999999
 31
0.0
  0
LINE
  5
163
330
1E
100
AcDbEntity
  8
0
100
AcDbLine
 10
77.30001999999998
 20
188.5548149999999
 30
0.0
 11
78.50001999999999
 21
188.5548149999999
 31
0.0
  0
LINE
  5
164
330
1E
100
AcDbEntity
  8
0
100
AcDbLine
 10
74.30001999999999
 20
195.0548149999999
 30
0.0
 11
77.70001999999999
 21
195.0548149999999
 31
0.0
  0
LINE
  5
165
330
1E
100
AcDbEntity
  8
0
100
AcDbLine
 10
77.70001999999999
 20
195.0548149999999
 30
0.0
 11
79.00001999999999
 21
195.0548149999999
 31
0.0
  0
LINE
  5
166
330
1E
100
AcDbEntity
  8
0
100
AcDbLine
 10
75.30001999999999
 20
187.554815
 30
0.0
 11
77.00001999999999
 21
187.554815
 31
0.0
  0
LINE
  5
167
330
1E
100
AcDbEntity
  8
0
100
AcDbLine
 10
79.00001999999999
 20
190.0548149999999
 30
0.0
 11
79.00001999999999
 21
195.0548149999999
 31
0.0
  0
LINE
  5
168
330
1E
100
AcDbEntity
  8
0
100
AcDbLine
 10
78.50001999999999
 20
188.5548149999999
 30
0.0
 11
79.00001999999999
 21
190.0548149999999
 31
0.0
  0
LINE
  5
169
330
1E
100
AcDbEntity
  8
0
100
AcDbLine
 10
79.00001999999999
 20
195.0548149999999
 30
0.0
 11
79.00001999999999
 21
190.0548149999999
 31
0.0
  0
LINE
  5
16A
330
1E
100
AcDbEntity
  8
0
100
AcDbLine
 10
78.08261999999999
 20
85.12941500000001
 30
0.0
 11
78.57751999999999
 21
84.31311499999999
 31
0.0
  0
LINE
  5
16B
330
1E
100
AcDbEntity
  8
0
100
AcDbLine
 10
78.57751999999999
 20
84.31311499999999
 30
0.0
 11
82.53731999999999
 21
75.984915
 31
0.0
  0
LINE
  5
16E
330
1E
100
AcDbEntity
  8
0
100
AcDbLine
 10
86.14954361096648
 20
40.7682100385528
 30
0.0
 11
88.19231999999999
 21
34.895115
 31
0.0
  0
LINE
  5
172
330
1E
100
AcDbEntity
  8
0
100
AcDbLine
 10
86.55882
 20
28.643315
 30
0.0
 11
87.60191999999999
 21
30.651315
 31
0.0
  0
LINE
  5
174
330
1E
100
AcDbEntity
  8
0
100
AcDbLine
 10
87.60191999999999
 20
30.651315
 30
0.0
 11
88.19231999999999
 21
34.895115
 31
0.0
  0
LINE
  5
175
330
1E
100
AcDbEntity
  8
0
100
AcDbLine
 10
86.14954361096648
 20
40.7682100385528
 30
0.0
 11
87.69171999999999
 21
47.669315
 31
0.0
  0
LINE
  5
177
330
1E
100
AcDbEntity
  8
0
100
AcDbLine
 10
83.88082
 20
55.34579171743129
 30
0.0
 11
86.38792
 21
51.763815
 31
0.0
  0
LINE
  5
17A
330
1E
100
AcDbEntity
  8
0
100
AcDbLine
 10
87.41642
 20
49.648415
 30
0.0
 11
87.69171999999999
 21
47.669315
 31
0.0
  0
LINE
  5
17B
330
1E
100
AcDbEntity
  8
0
100
AcDbLine
 10
86.38792
 20
51.763815
 30
0.0
 11
87.41642
 21
49.648415
 31
0.0
  0
LINE
  5
17C
330
1E
100
AcDbEntity
  8
0
100
AcDbLine
 10
83.88082
 20
66.98301500000001
 30
0.0
 11
83.88082
 21
44.483015
 31
0.0
  0
LINE
  5
17D
330
1E
100
AcDbEntity
  8
0
100
AcDbLine
 10
83.88082
 20
44.483015
 30
0.0
 11
83.88082
 21
66.98301500000001
 31
0.0
  0
LINE
  5
17F
330
1E
100
AcDbEntity
  8
0
100
AcDbLine
 10
82.53731999999999
 20
35.481115
 30
0.0
 11
83.88082
 21
44.483015
 31
0.0
  0
LINE
  5
181
330
1E
100
AcDbEntity
  8
0
100
AcDbLine
 10
78.57751999999999
 20
27.152815
 30
0.0
 11
82.53731999999999
 21
35.481115
 31
0.0
  0
LINE
  5
182
330
1E
100
AcDbEntity
  8
0
100
AcDbLine
 10
72.28431999999999
 20
19.988115
 30
0.0
 11
78.57751999999999
 21
27.152815
 31
0.0
  0
ENDSEC
  0
SECTION
  2
OBJECTS
  0
DICTIONARY
  5
C
330
0
100
AcDbDictionary
281
     1
  3
ACAD_GROUP
350
D
  3
ACAD_LAYOUT
350
19
  3
ACAD_MLINESTYLE
350
16
  3
ACAD_PLOTSETTINGS
350
18
  3
ACAD_PLOTSTYLENAME
350
E
  3
AcDbVariableDictionary
350
189
  0
DICTIONARY
  5
D
102
{ACAD_REACTORS
330
C
102
}
330
C
100
AcDbDictionary
281
     1
  0
DICTIONARY
  5
19
102
{ACAD_REACTORS
330
C
102
}
330
C
100
AcDbDictionary
281
     1
  3
Layout1
350
1D
  3
Model
350
21
  0
DICTIONARY
  5
16
102
{ACAD_REACTORS
330
C
102
}
330
C
100
AcDbDictionary
281
     1
  3
Standard
350
17
  0
DICTIONARY
  5
18
102
{ACAD_REACTORS
330
C
102
}
330
C
100
AcDbDictionary
281
     1
  0
ACDBDICTIONARYWDFLT
  5
E
102
{ACAD_REACTORS
330
C
102
}
330
C
100
AcDbDictionary
281
     1
  3
Normal
350
F
100
AcDbDictionaryWithDefault
340
F
  0
DICTIONARY
  5
189
102
{ACAD_REACTORS
330
C
102
}
330
C
100
AcDbDictionary
281
     1
  3
DIMASSOC
350
18A
  0
LAYOUT
  5
1D
102
{ACAD_REACTORS
330
19
102
}
330
19
100
AcDbPlotSettings
  1

  2
hp deskjet 980c series
  4

  6

 40
0.0
 41
0.0
 42
0.0
 43
0.0
 44
0.0
 45
0.0
 46
0.0
 47
0.0
 48
0.0
 49
0.0
140
0.0
141
0.0
142
1.0
143
1.0
 70
   688
 72
     0
 73
     0
 74
     5
  7

 75
    16
147
1.0
148
0.0
149
0.0
100
AcDbLayout
  1
Layout1
 70
     1
 71
     1
 10
0.0
 20
0.0
 11
12.0
 21
9.0
 12
0.0
 22
0.0
 32
0.0
 14
1.000000000000000E+20
 24
1.000000000000000E+20
 34
1.000000000000000E+20
 15
-1.000000000000000E+20
 25
-1.000000000000000E+20
 35
-1.000000000000000E+20
146
0.0
 13
0.0
 23
0.0
 33
0.0
 16
1.0
 26
0.0
 36
0.0
 17
0.0
 27
1.0
 37
0.0
 76
     0
330
1A
  0
LAYOUT
  5
21
102
{ACAD_REACTORS
330
19
102
}
330
19
100
AcDbPlotSettings
  1

  2
hp deskjet 980c series
  4

  6

 40
0.0
 41
0.0
 42
0.0
 43
0.0
 44
0.0
 45
0.0
 46
0.0
 47
0.0
 48
0.0
 49
0.0
140
0.0
141
0.0
142
1.0
143
1.0
 70
  1712
 72
     0
 73
     0
 74
     0
  7

 75
     0
147
1.0
148
0.0
149
0.0
100
AcDbLayout
  1
Model
 70
     1
 71
     0
 10
0.0
 20
0.0
 11
12.0
 21
9.0
 12
0.0
 22
0.0
 32
0.0
 14
0.0
 24
0.0
 34
0.0
 15
0.0
 25
0.0
 35
0.0
146
0.0
 13
0.0
 23
0.0
 33
0.0
 16
1.0
 26
0.0
 36
0.0
 17
0.0
 27
1.0
 37
0.0
 76
     0
330
1E
  0
MLINESTYLE
  5
17
102
{ACAD_REACTORS
330
16
102
}
330
16
100
AcDbMlineStyle
  2
STANDARD
 70
     0
  3

 62
   256
 51
90.0
 52
90.0
 71
     2
 49
0.5
 62
   256
  6
BYLAYER
 49
-0.5
 62
   256
  6
BYLAYER
  0
ACDBPLACEHOLDER
  5
F
102
{ACAD_REACTORS
330
E
102
}
330
E
  0
DICTIONARYVAR
  5
18A
102
{ACAD_REACTORS
330
189
102
}
330
189
100
DictionaryVariables
280
     0
  1
1
  0
ENDSEC
  0
EOF
