  0
SECTION
  2
HEADER
  9
$ACADVER
  1
AC1015
  9
$ACADMAINTVER
 70
    13
  9
$DWGCODEPAGE
  3
ANSI_1252
  9
$INSBASE
 10
0.0
 20
0.0
 30
0.0
  9
$EXTMIN
 10
-0.192319999999995
 20
0.0332589999999947
 30
0.0
  9
$EXTMAX
 10
88.33179806631699
 20
174.9667409999999
 30
0.0
  9
$LIMMIN
 10
0.0
 20
0.0
  9
$LIMMAX
 10
12.0
 20
9.0
  9
$ORTHOMODE
 70
     0
  9
$REGENMODE
 70
     1
  9
$FILLMODE
 70
     1
  9
$QTEXTMODE
 70
     0
  9
$MIRRTEXT
 70
     1
  9
$LTSCALE
 40
1.0
  9
$ATTMODE
 70
     1
  9
$TEXTSIZE
 40
0.2
  9
$TRACEWID
 40
0.05
  9
$TEXTSTYLE
  7
Standard
  9
$CLAYER
  8
0
  9
$CELTYPE
  6
Continuous
  9
$CECOLOR
 62
   256
  9
$CELTSCALE
 40
1.0
  9
$DISPSILH
 70
     0
  9
$DIMSCALE
 40
1.0
  9
$DIMASZ
 40
0.18
  9
$DIMEXO
 40
0.0625
  9
$DIMDLI
 40
0.38
  9
$DIMRND
 40
0.0
  9
$DIMDLE
 40
0.0
  9
$DIMEXE
 40
0.18
  9
$DIMTP
 40
0.0
  9
$DIMTM
 40
0.0
  9
$DIMTXT
 40
0.18
  9
$DIMCEN
 40
0.09
  9
$DIMTSZ
 40
0.0
  9
$DIMTOL
 70
     0
  9
$DIMLIM
 70
     0
  9
$DIMTIH
 70
     1
  9
$DIMTOH
 70
     1
  9
$DIMSE1
 70
     0
  9
$DIMSE2
 70
     0
  9
$DIMTAD
 70
     0
  9
$DIMZIN
 70
     0
  9
$DIMBLK
  1

  9
$DIMASO
 70
     1
  9
$DIMSHO
 70
     1
  9
$DIMPOST
  1

  9
$DIMAPOST
  1

  9
$DIMALT
 70
     0
  9
$DIMALTD
 70
     2
  9
$DIMALTF
 40
25.4
  9
$DIMLFAC
 40
1.0
  9
$DIMTOFL
 70
     0
  9
$DIMTVP
 40
0.0
  9
$DIMTIX
 70
     0
  9
$DIMSOXD
 70
     0
  9
$DIMSAH
 70
     0
  9
$DIMBLK1
  1

  9
$DIMBLK2
  1

  9
$DIMSTYLE
  2
Standard
  9
$DIMCLRD
 70
     0
  9
$DIMCLRE
 70
     0
  9
$DIMCLRT
 70
     0
  9
$DIMTFAC
 40
1.0
  9
$DIMGAP
 40
0.09
  9
$DIMJUST
 70
     0
  9
$DIMSD1
 70
     0
  9
$DIMSD2
 70
     0
  9
$DIMTOLJ
 70
     1
  9
$DIMTZIN
 70
     0
  9
$DIMALTZ
 70
     0
  9
$DIMALTTZ
 70
     0
  9
$DIMUPT
 70
     0
  9
$DIMDEC
 70
     4
  9
$DIMTDEC
 70
     4
  9
$DIMALTU
 70
     2
  9
$DIMALTTD
 70
     2
  9
$DIMTXSTY
  7
Standard
  9
$DIMAUNIT
 70
     0
  9
$DIMADEC
 70
     0
  9
$DIMALTRND
 40
0.0
  9
$DIMAZIN
 70
     0
  9
$DIMDSEP
 70
    46
  9
$DIMATFIT
 70
     3
  9
$DIMFRAC
 70
     0
  9
$DIMLDRBLK
  1

  9
$DIMLUNIT
 70
     2
  9
$DIMLWD
 70
    -2
  9
$DIMLWE
 70
    -2
  9
$DIMTMOVE
 70
     0
  9
$LUNITS
 70
     2
  9
$LUPREC
 70
     4
  9
$SKETCHINC
 40
0.1
  9
$FILLETRAD
 40
0.0
  9
$AUNITS
 70
     0
  9
$AUPREC
 70
     0
  9
$MENU
  1
.
  9
$ELEVATION
 40
0.0
  9
$PELEVATION
 40
0.0
  9
$THICKNESS
 40
0.0
  9
$LIMCHECK
 70
     0
  9
$CHAMFERA
 40
0.0
  9
$CHAMFERB
 40
0.0
  9
$CHAMFERC
 40
0.0
  9
$CHAMFERD
 40
0.0
  9
$SKPOLY
 70
     0
  9
$TDCREATE
 40
2454762.870690104
  9
$TDUCREATE
 40
2454762.787356771
  9
$TDUPDATE
 40
2454762.873365520
  9
$TDUUPDATE
 40
2454762.790032187
  9
$TDINDWG
 40
0.0026757755
  9
$TDUSRTIMER
 40
0.0026757755
  9
$USRTIMER
 70
     1
  9
$ANGBASE
 50
0.0
  9
$ANGDIR
 70
     0
  9
$PDMODE
 70
     0
  9
$PDSIZE
 40
0.0
  9
$PLINEWID
 40
0.0
  9
$SPLFRAME
 70
     0
  9
$SPLINETYPE
 70
     6
  9
$SPLINESEGS
 70
     8
  9
$HANDSEED
  5
1C4
  9
$SURFTAB1
 70
     6
  9
$SURFTAB2
 70
     6
  9
$SURFTYPE
 70
     6
  9
$SURFU
 70
     6
  9
$SURFV
 70
     6
  9
$UCSBASE
  2

  9
$UCSNAME
  2

  9
$UCSORG
 10
0.0
 20
0.0
 30
0.0
  9
$UCSXDIR
 10
1.0
 20
0.0
 30
0.0
  9
$UCSYDIR
 10
0.0
 20
1.0
 30
0.0
  9
$UCSORTHOREF
  2

  9
$UCSORTHOVIEW
 70
     1
  9
$UCSORGTOP
 10
0.0
 20
0.0
 30
0.0
  9
$UCSORGBOTTOM
 10
0.0
 20
0.0
 30
0.0
  9
$UCSORGLEFT
 10
0.0
 20
0.0
 30
0.0
  9
$UCSORGRIGHT
 10
0.0
 20
0.0
 30
0.0
  9
$UCSORGFRONT
 10
0.0
 20
0.0
 30
0.0
  9
$UCSORGBACK
 10
0.0
 20
0.0
 30
0.0
  9
$PUCSBASE
  2

  9
$PUCSNAME
  2

  9
$PUCSORG
 10
0.0
 20
0.0
 30
0.0
  9
$PUCSXDIR
 10
1.0
 20
0.0
 30
0.0
  9
$PUCSYDIR
 10
0.0
 20
1.0
 30
0.0
  9
$PUCSORTHOREF
  2

  9
$PUCSORTHOVIEW
 70
     0
  9
$PUCSORGTOP
 10
0.0
 20
0.0
 30
0.0
  9
$PUCSORGBOTTOM
 10
0.0
 20
0.0
 30
0.0
  9
$PUCSORGLEFT
 10
0.0
 20
0.0
 30
0.0
  9
$PUCSORGRIGHT
 10
0.0
 20
0.0
 30
0.0
  9
$PUCSORGFRONT
 10
0.0
 20
0.0
 30
0.0
  9
$PUCSORGBACK
 10
0.0
 20
0.0
 30
0.0
  9
$USERI1
 70
     0
  9
$USERI2
 70
     0
  9
$USERI3
 70
     0
  9
$USERI4
 70
     0
  9
$USERI5
 70
     0
  9
$USERR1
 40
0.0
  9
$USERR2
 40
0.0
  9
$USERR3
 40
0.0
  9
$USERR4
 40
0.0
  9
$USERR5
 40
0.0
  9
$WORLDVIEW
 70
     1
  9
$SHADEDGE
 70
     3
  9
$SHADEDIF
 70
    70
  9
$TILEMODE
 70
     1
  9
$MAXACTVP
 70
    64
  9
$PINSBASE
 10
0.0
 20
0.0
 30
0.0
  9
$PLIMCHECK
 70
     0
  9
$PEXTMIN
 10
1.000000000000000E+20
 20
1.000000000000000E+20
 30
1.000000000000000E+20
  9
$PEXTMAX
 10
-1.000000000000000E+20
 20
-1.000000000000000E+20
 30
-1.000000000000000E+20
  9
$PLIMMIN
 10
0.0
 20
0.0
  9
$PLIMMAX
 10
12.0
 20
9.0
  9
$UNITMODE
 70
     0
  9
$VISRETAIN
 70
     1
  9
$PLINEGEN
 70
     0
  9
$PSLTSCALE
 70
     1
  9
$TREEDEPTH
 70
  3020
  9
$CMLSTYLE
  2
Standard
  9
$CMLJUST
 70
     0
  9
$CMLSCALE
 40
1.0
  9
$PROXYGRAPHICS
 70
     1
  9
$MEASUREMENT
 70
     0
  9
$CELWEIGHT
370
    -1
  9
$ENDCAPS
280
     0
  9
$JOINSTYLE
280
     0
  9
$LWDISPLAY
290
     0
  9
$INSUNITS
 70
     0
  9
$HYPERLINKBASE
  1

  9
$STYLESHEET
  1

  9
$XEDIT
290
     1
  9
$CEPSNTYPE
380
     0
  9
$PSTYLEMODE
290
     1
  9
$FINGERPRINTGUID
  2
{DE86A645-6BB3-47D4-9133-7B4171175659}
  9
$VERSIONGUID
  2
{4C51A76C-1E8B-41B9-B3A7-739A781043C1}
  9
$EXTNAMES
290
     1
  9
$PSVPSCALE
 40
0.0
  9
$OLESTARTUP
290
     0
  0
ENDSEC
  0
SECTION
  2
CLASSES
  0
CLASS
  1
ACDBDICTIONARYWDFLT
  2
AcDbDictionaryWithDefault
  3
AutoCAD 2000
 90
        0
280
     0
281
     0
  0
CLASS
  1
ACDBPLACEHOLDER
  2
AcDbPlaceHolder
  3
AutoCAD 2000
 90
        0
280
     0
281
     0
  0
CLASS
  1
LAYOUT
  2
AcDbLayout
  3
AutoCAD 2000
 90
        0
280
     0
281
     0
  0
CLASS
  1
DICTIONARYVAR
  2
AcDbDictionaryVar
  3
AutoCAD 2000
 90
        0
280
     0
281
     0
  0
ENDSEC
  0
SECTION
  2
TABLES
  0
TABLE
  2
VPORT
  5
8
330
0
100
AcDbSymbolTable
 70
     2
  0
VPORT
  5
1C3
330
8
100
AcDbSymbolTableRecord
100
AcDbViewportTableRecord
  2
*Active
 70
     0
 10
0.0
 20
0.0
 11
1.0
 21
1.0
 12
44.0697390331585
 22
87.5
 13
0.0
 23
0.0
 14
1.0
 24
1.0
 15
0.0
 25
0.0
 16
0.0
 26
0.0
 36
1.0
 17
0.0
 27
0.0
 37
0.0
 40
176.275682629156
 41
2.078104993597951
 42
50.0
 43
0.0
 44
0.0
 50
0.0
 51
0.0
 71
     0
 72
   100
 73
     1
 74
     3
 75
     0
 76
     0
 77
     0
 78
     0
281
     0
 65
     1
110
0.0
120
0.0
130
0.0
111
1.0
121
0.0
131
0.0
112
0.0
122
1.0
132
0.0
 79
     1
146
0.0
  0
ENDTAB
  0
TABLE
  2
LTYPE
  5
5
330
0
100
AcDbSymbolTable
 70
     1
  0
LTYPE
  5
13
330
5
100
AcDbSymbolTableRecord
100
AcDbLinetypeTableRecord
  2
ByBlock
 70
     0
  3

 72
    65
 73
     0
 40
0.0
  0
LTYPE
  5
14
330
5
100
AcDbSymbolTableRecord
100
AcDbLinetypeTableRecord
  2
ByLayer
 70
     0
  3

 72
    65
 73
     0
 40
0.0
  0
LTYPE
  5
15
330
5
100
AcDbSymbolTableRecord
100
AcDbLinetypeTableRecord
  2
Continuous
 70
     0
  3
Solid line
 72
    65
 73
     0
 40
0.0
  0
ENDTAB
  0
TABLE
  2
LAYER
  5
2
330
0
100
AcDbSymbolTable
 70
     1
  0
LAYER
  5
10
330
2
100
AcDbSymbolTableRecord
100
AcDbLayerTableRecord
  2
0
 70
     0
 62
     7
  6
Continuous
370
    -3
390
F
  0
ENDTAB
  0
TABLE
  2
STYLE
  5
3
330
0
100
AcDbSymbolTable
 70
     1
  0
STYLE
  5
11
330
3
100
AcDbSymbolTableRecord
100
AcDbTextStyleTableRecord
  2
Standard
 70
     0
 40
0.0
 41
1.0
 50
0.0
 71
     0
 42
0.2
  3
txt
  4

  0
ENDTAB
  0
TABLE
  2
VIEW
  5
6
330
0
100
AcDbSymbolTable
 70
     0
  0
ENDTAB
  0
TABLE
  2
UCS
  5
7
330
0
100
AcDbSymbolTable
 70
     0
  0
ENDTAB
  0
TABLE
  2
APPID
  5
9
330
0
100
AcDbSymbolTable
 70
     1
  0
APPID
  5
12
330
9
100
AcDbSymbolTableRecord
100
AcDbRegAppTableRecord
  2
ACAD
 70
     0
  0
ENDTAB
  0
TABLE
  2
DIMSTYLE
  5
A
330
0
100
AcDbSymbolTable
 70
     1
100
AcDbDimStyleTable
 71
     0
  0
DIMSTYLE
105
1B1
330
A
100
AcDbSymbolTableRecord
100
AcDbDimStyleTableRecord
  2
Standard
 70
     0
340
11
  0
ENDTAB
  0
TABLE
  2
BLOCK_RECORD
  5
1
330
0
100
AcDbSymbolTable
 70
     0
  0
BLOCK_RECORD
  5
1E
330
1
100
AcDbSymbolTableRecord
100
AcDbBlockTableRecord
  2
*Model_Space
340
21
  0
BLOCK_RECORD
  5
1A
330
1
100
AcDbSymbolTableRecord
100
AcDbBlockTableRecord
  2
*Paper_Space
340
1D
  0
ENDTAB
  0
ENDSEC
  0
SECTION
  2
BLOCKS
  0
BLOCK
  5
1F
330
1E
100
AcDbEntity
  8
0
100
AcDbBlockBegin
  2
*Model_Space
 70
     0
 10
0.0
 20
0.0
 30
0.0
  3
*Model_Space
  1

  0
ENDBLK
  5
20
330
1E
100
AcDbEntity
  8
0
100
AcDbBlockEnd
  0
BLOCK
  5
1B
330
1A
100
AcDbEntity
 67
     1
  8
0
100
AcDbBlockBegin
  2
*Paper_Space
 70
     0
 10
0.0
 20
0.0
 30
0.0
  3
*Paper_Space
  1

  0
ENDBLK
  5
1C
330
1A
100
AcDbEntity
 67
     1
  8
0
100
AcDbBlockEnd
  0
ENDSEC
  0
SECTION
  2
ENTITIES
  0
LINE
  5
22
330
1E
100
AcDbEntity
  8
0
100
AcDbLine
 10
5.462720000000009
 20
14.776441
 30
0.0
 11
9.42252
 21
9.968141000000001
 31
0.0
  0
LINE
  5
23
330
1E
100
AcDbEntity
  8
0
100
AcDbLine
 10
9.42252
 20
9.968141000000001
 30
0.0
 11
15.71572
 21
5.83153099999999
 31
0.0
  0
LINE
  5
24
330
1E
100
AcDbEntity
  8
0
100
AcDbLine
 10
8.361820000000008
 20
14.299341
 30
0.0
 11
12.03882
 21
9.844540999999999
 31
0.0
  0
LINE
  5
25
330
1E
100
AcDbEntity
  8
0
100
AcDbLine
 10
12.03882
 20
9.844540999999999
 30
0.0
 11
17.83702
 21
6.026170999999999
 31
0.0
  0
LINE
  5
26
330
1E
100
AcDbEntity
  8
0
100
AcDbLine
 10
7.089019999999999
 20
19.107641
 30
0.0
 11
8.361820000000008
 21
23.915941
 31
0.0
  0
LINE
  5
27
330
1E
100
AcDbEntity
  8
0
100
AcDbLine
 10
7.089019999999999
 20
19.107641
 30
0.0
 11
8.361820000000008
 21
14.299341
 31
0.0
  0
LINE
  5
28
330
1E
100
AcDbEntity
  8
0
100
AcDbLine
 10
7.089019999999999
 20
19.107641
 30
0.0
 11
7.089019999999999
 21
19.973641
 31
0.0
  0
LINE
  5
29
330
1E
100
AcDbEntity
  8
0
100
AcDbLine
 10
4.119219999999999
 20
19.973641
 30
0.0
 11
5.462720000000009
 21
25.170941
 31
0.0
  0
LINE
  5
2A
330
1E
100
AcDbEntity
  8
0
100
AcDbLine
 10
4.119219999999999
 20
19.973641
 30
0.0
 11
5.462720000000009
 21
14.776441
 31
0.0
  0
LINE
  5
2B
330
1E
100
AcDbEntity
  8
0
100
AcDbLine
 10
7.089019999999999
 20
19.973641
 30
0.0
 11
7.089019999999999
 21
19.107641
 31
0.0
  0
LINE
  5
2C
330
1E
100
AcDbEntity
  8
0
100
AcDbLine
 10
7.089019999999999
 20
19.973641
 30
0.0
 11
8.361820000000008
 21
24.782041
 31
0.0
  0
LINE
  5
2D
330
1E
100
AcDbEntity
  8
0
100
AcDbLine
 10
14.01872
 20
19.107641
 30
0.0
 11
14.01872
 21
16.50954099999999
 31
0.0
  0
LINE
  5
2E
330
1E
100
AcDbEntity
  8
0
100
AcDbLine
 10
14.01872
 20
19.107641
 30
0.0
 11
15.07932
 21
23.03204099999999
 31
0.0
  0
LINE
  5
2F
330
1E
100
AcDbEntity
  8
0
100
AcDbLine
 10
15.07932
 20
12.585141
 30
0.0
 11
18.11992
 21
9.014240999999991
 31
0.0
  0
LINE
  5
30
330
1E
100
AcDbEntity
  8
0
100
AcDbLine
 10
14.01872
 20
16.50954099999999
 30
0.0
 11
15.07932
 21
20.434041
 31
0.0
  0
LINE
  5
31
330
1E
100
AcDbEntity
  8
0
100
AcDbLine
 10
14.01872
 20
16.50954099999999
 30
0.0
 11
15.07932
 21
12.585141
 31
0.0
  0
LINE
  5
32
330
1E
100
AcDbEntity
  8
0
100
AcDbLine
 10
14.01872
 20
16.50954099999999
 30
0.0
 11
14.01872
 21
19.107641
 31
0.0
  0
LINE
  5
34
330
1E
100
AcDbEntity
  8
0
100
AcDbLine
 10
0.5836200000000051
 20
22.764941
 30
0.0
 11
5.462720000000009
 21
14.776441
 31
0.0
  0
LINE
  5
37
330
1E
100
AcDbEntity
  8
0
100
AcDbLine
 10
0.3083200000000039
 20
23.907541
 30
0.0
 11
0.5836200000000051
 21
22.764941
 31
0.0
  0
LINE
  5
3A
330
1E
100
AcDbEntity
  8
0
100
AcDbLine
 10
5.462720000000009
 20
25.170941
 30
0.0
 11
9.42252
 21
29.979241
 31
0.0
  0
LINE
  5
3B
330
1E
100
AcDbEntity
  8
0
100
AcDbLine
 10
8.361820000000008
 20
24.782041
 30
0.0
 11
12.03882
 21
29.23674099999999
 31
0.0
  0
LINE
  5
3C
330
1E
100
AcDbEntity
  8
0
100
AcDbLine
 10
8.361820000000008
 20
23.915941
 30
0.0
 11
12.03882
 21
28.370741
 31
0.0
  0
LINE
  5
3D
330
1E
100
AcDbEntity
  8
0
100
AcDbLine
 10
-0.192319999999995
 20
31.282741
 30
0.0
 11
0.398120000000004
 21
33.732841
 31
0.0
  0
LINE
  5
40
330
1E
100
AcDbEntity
  8
0
100
AcDbLine
 10
-0.192319999999995
 20
31.282741
 30
0.0
 11
0.398120000000004
 21
33.732841
 31
0.0
  0
LINE
  5
46
330
1E
100
AcDbEntity
  8
0
100
AcDbLine
 10
0.398120000000004
 20
33.732841
 30
0.0
 11
1.44122
 21
35.90704099999999
 31
0.0
  0
LINE
  5
4C
330
1E
100
AcDbEntity
  8
0
100
AcDbLine
 10
0.398120000000004
 20
33.732841
 30
0.0
 11
1.44122
 21
35.90704099999999
 31
0.0
  0
LINE
  5
4E
330
1E
100
AcDbEntity
  8
0
100
AcDbLine
 10
1.44122
 20
35.90704099999999
 30
0.0
 11
5.462720000000009
 21
42.49144099999999
 31
0.0
  0
LINE
  5
52
330
1E
100
AcDbEntity
  8
0
100
AcDbLine
 10
1.44122
 20
35.90704099999999
 30
0.0
 11
5.462720000000009
 21
42.49144099999999
 31
0.0
  0
LINE
  5
54
330
1E
100
AcDbEntity
  8
0
100
AcDbLine
 10
9.42252
 20
29.979241
 30
0.0
 11
15.71572
 21
34.11584099999999
 31
0.0
  0
LINE
  5
55
330
1E
100
AcDbEntity
  8
0
100
AcDbLine
 10
12.03882
 20
29.23674099999999
 30
0.0
 11
17.83702
 21
33.05514099999999
 31
0.0
  0
LINE
  5
56
330
1E
100
AcDbEntity
  8
0
100
AcDbLine
 10
12.03882
 20
28.370741
 30
0.0
 11
17.83702
 21
32.189141
 31
0.0
  0
LINE
  5
57
330
1E
100
AcDbEntity
  8
0
100
AcDbLine
 10
15.71572
 20
34.11584099999999
 30
0.0
 11
23.98892
 21
37.26244099999999
 31
0.0
  0
LINE
  5
58
330
1E
100
AcDbEntity
  8
0
100
AcDbLine
 10
15.07932
 20
23.03204099999999
 30
0.0
 11
18.11992
 21
26.60294099999999
 31
0.0
  0
LINE
  5
59
330
1E
100
AcDbEntity
  8
0
100
AcDbLine
 10
15.07932
 20
20.434041
 30
0.0
 11
18.11992
 21
24.00494099999999
 31
0.0
  0
LINE
  5
5A
330
1E
100
AcDbEntity
  8
0
100
AcDbLine
 10
15.71572
 20
5.83153099999999
 30
0.0
 11
23.98892
 21
2.68491099999999
 31
0.0
  0
LINE
  5
5B
330
1E
100
AcDbEntity
  8
0
100
AcDbLine
 10
15.71572
 20
5.83153099999999
 30
0.0
 11
23.98892
 21
2.684911
 31
0.0
  0
LINE
  5
5D
330
1E
100
AcDbEntity
  8
0
100
AcDbLine
 10
7.698519999999999
 20
41.585941
 30
0.0
 11
12.18022
 21
44.543841
 31
0.0
  0
LINE
  5
60
330
1E
100
AcDbEntity
  8
0
100
AcDbLine
 10
5.957720000000009
 20
83.15924100000001
 30
0.0
 11
9.91752000000001
 21
87.896841
 31
0.0
  0
LINE
  5
61
330
1E
100
AcDbEntity
  8
0
100
AcDbLine
 10
5.462720000000009
 20
81.462541
 30
0.0
 11
5.957720000000009
 21
83.15924100000001
 31
0.0
  0
LINE
  5
62
330
1E
100
AcDbEntity
  8
0
100
AcDbLine
 10
4.119219999999999
 20
76.265341
 30
0.0
 11
4.119219999999999
 21
40.2917291014547
 31
0.0
  0
LINE
  5
63
330
1E
100
AcDbEntity
  8
0
100
AcDbLine
 10
4.119219999999999
 20
76.265341
 30
0.0
 11
5.462720000000009
 21
81.462541
 31
0.0
  0
LINE
  5
64
330
1E
100
AcDbEntity
  8
0
100
AcDbLine
 10
5.462720000000009
 20
42.49144099999999
 30
0.0
 11
9.42252
 21
47.29974099999999
 31
0.0
  0
LINE
  5
66
330
1E
100
AcDbEntity
  8
0
100
AcDbLine
 10
12.18022
 20
44.543841
 30
0.0
 11
21.51402
 21
48.079341
 31
0.0
  0
LINE
  5
68
330
1E
100
AcDbEntity
  8
0
100
AcDbLine
 10
11.19021999999999
 20
88.77164099999999
 30
0.0
 11
17.12992
 21
92.73144100000001
 31
0.0
  0
LINE
  5
69
330
1E
100
AcDbEntity
  8
0
100
AcDbLine
 10
9.91752000000001
 20
87.896841
 30
0.0
 11
11.19021999999999
 21
88.77164099999999
 31
0.0
  0
LINE
  5
6A
330
1E
100
AcDbEntity
  8
0
100
AcDbLine
 10
9.42252
 20
47.29974099999999
 30
0.0
 11
15.71572
 21
51.43634099999999
 31
0.0
  0
LINE
  5
6B
330
1E
100
AcDbEntity
  8
0
100
AcDbLine
 10
4.119219999999999
 20
40.2917291014547
 30
0.0
 11
4.119219999999999
 21
76.265341
 31
0.0
  0
LINE
  5
6C
330
1E
100
AcDbEntity
  8
0
100
AcDbLine
 10
44.00001999999999
 20
0.0332589999999947
 30
0.0
 11
54.39451999999999
 21
0.7050099999999949
 31
0.0
  0
LINE
  5
6D
330
1E
100
AcDbEntity
  8
0
100
AcDbLine
 10
33.60552
 20
0.7050099999999949
 30
0.0
 11
44.00001999999999
 21
0.0332589999999947
 31
0.0
  0
LINE
  5
6E
330
1E
100
AcDbEntity
  8
0
100
AcDbLine
 10
33.60552
 20
0.7050099999999949
 30
0.0
 11
44.00001999999999
 21
0.0332589999999948
 31
0.0
  0
LINE
  5
6F
330
1E
100
AcDbEntity
  8
0
100
AcDbLine
 10
34.38331999999999
 20
1.28855099999999
 30
0.0
 11
44.00001999999999
 21
0.6521579999999951
 31
0.0
  0
LINE
  5
70
330
1E
100
AcDbEntity
  8
0
100
AcDbLine
 10
44.00001999999999
 20
0.0332589999999948
 30
0.0
 11
54.39451999999999
 21
0.7050099999999949
 31
0.0
  0
LINE
  5
71
330
1E
100
AcDbEntity
  8
0
100
AcDbLine
 10
44.00001999999999
 20
0.6521579999999951
 30
0.0
 11
53.61671999999999
 21
1.28855099999999
 31
0.0
  0
LINE
  5
72
330
1E
100
AcDbEntity
  8
0
100
AcDbLine
 10
23.98892
 20
2.684911
 30
0.0
 11
33.60552
 21
0.7050099999999949
 31
0.0
  0
LINE
  5
73
330
1E
100
AcDbEntity
  8
0
100
AcDbLine
 10
23.98892
 20
2.684911
 30
0.0
 11
33.60552
 21
0.7050099999999949
 31
0.0
  0
LINE
  5
74
330
1E
100
AcDbEntity
  8
0
100
AcDbLine
 10
25.47382
 20
3.127031
 30
0.0
 11
34.38331999999999
 21
1.288551
 31
0.0
  0
LINE
  5
75
330
1E
100
AcDbEntity
  8
0
100
AcDbLine
 10
25.47382
 20
3.127031
 30
0.0
 11
34.38331999999999
 21
1.28855099999999
 31
0.0
  0
LINE
  5
76
330
1E
100
AcDbEntity
  8
0
100
AcDbLine
 10
36.15111999999999
 20
2.049231
 30
0.0
 11
44.00001999999999
 21
1.518901
 31
0.0
  0
LINE
  5
77
330
1E
100
AcDbEntity
  8
0
100
AcDbLine
 10
29.00932
 20
3.569510999999999
 30
0.0
 11
36.15111999999999
 21
2.049231
 31
0.0
  0
LINE
  5
78
330
1E
100
AcDbEntity
  8
0
100
AcDbLine
 10
17.83702
 20
6.026170999999999
 30
0.0
 11
25.47382
 21
3.127031
 31
0.0
  0
LINE
  5
79
330
1E
100
AcDbEntity
  8
0
100
AcDbLine
 10
22.78682
 20
5.902970999999999
 30
0.0
 11
29.00932
 21
3.569510999999999
 31
0.0
  0
LINE
  5
7B
330
1E
100
AcDbEntity
  8
0
100
AcDbLine
 10
44.00001999999999
 20
1.518901
 30
0.0
 11
51.84892
 21
2.049231
 31
0.0
  0
LINE
  5
7C
330
1E
100
AcDbEntity
  8
0
100
AcDbLine
 10
53.61671999999999
 20
1.288551
 30
0.0
 11
62.52621999999999
 21
3.127031
 31
0.0
  0
LINE
  5
7D
330
1E
100
AcDbEntity
  8
0
100
AcDbLine
 10
54.39451999999999
 20
0.7050099999999949
 30
0.0
 11
64.01111999999999
 21
2.684911
 31
0.0
  0
LINE
  5
7E
330
1E
100
AcDbEntity
  8
0
100
AcDbLine
 10
64.01111999999999
 20
2.68491099999999
 30
0.0
 11
72.28431999999999
 21
5.83153099999999
 31
0.0
  0
LINE
  5
7F
330
1E
100
AcDbEntity
  8
0
100
AcDbLine
 10
54.39451999999999
 20
0.7050099999999949
 30
0.0
 11
64.01111999999999
 21
2.684911
 31
0.0
  0
LINE
  5
80
330
1E
100
AcDbEntity
  8
0
100
AcDbLine
 10
64.01111999999999
 20
2.684911
 30
0.0
 11
72.28431999999999
 21
5.83153099999999
 31
0.0
  0
LINE
  5
81
330
1E
100
AcDbEntity
  8
0
100
AcDbLine
 10
53.61671999999999
 20
1.28855099999999
 30
0.0
 11
62.52621999999999
 21
3.127031
 31
0.0
  0
LINE
  5
82
330
1E
100
AcDbEntity
  8
0
100
AcDbLine
 10
62.52621999999999
 20
3.127031
 30
0.0
 11
70.16291999999999
 21
6.026170999999999
 31
0.0
  0
LINE
  5
83
330
1E
100
AcDbEntity
  8
0
100
AcDbLine
 10
51.84892
 20
2.049231
 30
0.0
 11
58.99072
 21
3.569510999999999
 31
0.0
  0
LINE
  5
84
330
1E
100
AcDbEntity
  8
0
100
AcDbLine
 10
58.99072
 20
3.569510999999999
 30
0.0
 11
65.21321999999999
 21
5.902970999999999
 31
0.0
  0
LINE
  5
86
330
1E
100
AcDbEntity
  8
0
100
AcDbLine
 10
18.11992
 20
9.014240999999991
 30
0.0
 11
22.78682
 21
5.902970999999999
 31
0.0
  0
LINE
  5
87
330
1E
100
AcDbEntity
  8
0
100
AcDbLine
 10
17.83702
 20
33.05514099999999
 30
0.0
 11
25.47382
 21
35.95424099999999
 31
0.0
  0
LINE
  5
88
330
1E
100
AcDbEntity
  8
0
100
AcDbLine
 10
17.83702
 20
32.189141
 30
0.0
 11
25.47382
 21
35.088241
 31
0.0
  0
LINE
  5
89
330
1E
100
AcDbEntity
  8
0
100
AcDbLine
 10
23.98892
 20
37.26244099999999
 30
0.0
 11
33.60552
 21
39.24234099999999
 31
0.0
  0
LINE
  5
8A
330
1E
100
AcDbEntity
  8
0
100
AcDbLine
 10
21.51402
 20
48.079341
 30
0.0
 11
32.26202
 21
50.34214099999999
 31
0.0
  0
LINE
  5
8B
330
1E
100
AcDbEntity
  8
0
100
AcDbLine
 10
25.47382
 20
35.95424099999999
 30
0.0
 11
34.38331999999999
 21
37.792741
 31
0.0
  0
LINE
  5
8C
330
1E
100
AcDbEntity
  8
0
100
AcDbLine
 10
25.47382
 20
35.088241
 30
0.0
 11
34.38331999999999
 21
36.926741
 31
0.0
  0
LINE
  5
8D
330
1E
100
AcDbEntity
  8
0
100
AcDbLine
 10
29.00932
 20
32.04774099999999
 30
0.0
 11
36.15111999999999
 21
33.567941
 31
0.0
  0
LINE
  5
8E
330
1E
100
AcDbEntity
  8
0
100
AcDbLine
 10
22.78682
 20
29.714241
 30
0.0
 11
29.00932
 21
32.04774099999999
 31
0.0
  0
LINE
  5
8F
330
1E
100
AcDbEntity
  8
0
100
AcDbLine
 10
33.60552
 20
39.24234099999999
 30
0.0
 11
44.00001999999999
 21
39.914041
 31
0.0
  0
LINE
  5
90
330
1E
100
AcDbEntity
  8
0
100
AcDbLine
 10
32.26202
 20
50.34214099999999
 30
0.0
 11
44.00001999999999
 21
51.04924099999999
 31
0.0
  0
LINE
  5
91
330
1E
100
AcDbEntity
  8
0
100
AcDbLine
 10
29.00932
 20
29.44964099999999
 30
0.0
 11
36.15111999999999
 21
30.96994099999999
 31
0.0
  0
LINE
  5
92
330
1E
100
AcDbEntity
  8
0
100
AcDbLine
 10
22.78682
 20
27.116141
 30
0.0
 11
29.00932
 21
29.44964099999999
 31
0.0
  0
LINE
  5
93
330
1E
100
AcDbEntity
  8
0
100
AcDbLine
 10
18.11992
 20
26.60294099999999
 30
0.0
 11
22.78682
 21
29.714241
 31
0.0
  0
LINE
  5
94
330
1E
100
AcDbEntity
  8
0
100
AcDbLine
 10
18.11992
 20
24.00494099999999
 30
0.0
 11
22.78682
 21
27.116141
 31
0.0
  0
LINE
  5
95
330
1E
100
AcDbEntity
  8
0
100
AcDbLine
 10
36.15111999999999
 20
30.96994099999999
 30
0.0
 11
44.00001999999999
 21
31.50024099999999
 31
0.0
  0
LINE
  5
96
330
1E
100
AcDbEntity
  8
0
100
AcDbLine
 10
34.38331999999999
 20
36.926741
 30
0.0
 11
44.00001999999999
 21
37.56314099999999
 31
0.0
  0
LINE
  5
97
330
1E
100
AcDbEntity
  8
0
100
AcDbLine
 10
36.15111999999999
 20
33.567941
 30
0.0
 11
44.00001999999999
 21
34.09834099999999
 31
0.0
  0
LINE
  5
98
330
1E
100
AcDbEntity
  8
0
100
AcDbLine
 10
34.38331999999999
 20
37.792741
 30
0.0
 11
44.00001999999999
 21
38.42914099999999
 31
0.0
  0
LINE
  5
99
330
1E
100
AcDbEntity
  8
0
100
AcDbLine
 10
44.00001999999999
 20
37.56314099999999
 30
0.0
 11
53.61671999999999
 21
36.926741
 31
0.0
  0
LINE
  5
9A
330
1E
100
AcDbEntity
  8
0
100
AcDbLine
 10
44.00001999999999
 20
34.09834099999999
 30
0.0
 11
51.84892
 21
33.567941
 31
0.0
  0
LINE
  5
9B
330
1E
100
AcDbEntity
  8
0
100
AcDbLine
 10
44.00001999999999
 20
31.50024099999999
 30
0.0
 11
51.84892
 21
30.96994099999999
 31
0.0
  0
LINE
  5
9C
330
1E
100
AcDbEntity
  8
0
100
AcDbLine
 10
51.84892
 20
33.567941
 30
0.0
 11
58.99072
 21
32.04774099999999
 31
0.0
  0
LINE
  5
9D
330
1E
100
AcDbEntity
  8
0
100
AcDbLine
 10
51.84892
 20
30.96994099999999
 30
0.0
 11
58.99072
 21
29.44964099999999
 31
0.0
  0
LINE
  5
9E
330
1E
100
AcDbEntity
  8
0
100
AcDbLine
 10
44.00001999999999
 20
38.42914099999999
 30
0.0
 11
53.61671999999999
 21
37.792741
 31
0.0
  0
LINE
  5
9F
330
1E
100
AcDbEntity
  8
0
100
AcDbLine
 10
44.00001999999999
 20
51.04924099999999
 30
0.0
 11
55.73802
 21
50.34214099999999
 31
0.0
  0
LINE
  5
A0
330
1E
100
AcDbEntity
  8
0
100
AcDbLine
 10
44.00001999999999
 20
39.914041
 30
0.0
 11
54.39451999999999
 21
39.24234099999999
 31
0.0
  0
LINE
  5
A3
330
1E
100
AcDbEntity
  8
0
100
AcDbLine
 10
53.61671999999999
 20
36.926741
 30
0.0
 11
62.52621999999999
 21
35.088241
 31
0.0
  0
LINE
  5
A4
330
1E
100
AcDbEntity
  8
0
100
AcDbLine
 10
62.52621999999999
 20
35.088241
 30
0.0
 11
70.16291999999999
 21
32.189141
 31
0.0
  0
LINE
  5
A5
330
1E
100
AcDbEntity
  8
0
100
AcDbLine
 10
58.99072
 20
32.04774099999999
 30
0.0
 11
65.21321999999999
 21
29.714241
 31
0.0
  0
LINE
  5
A6
330
1E
100
AcDbEntity
  8
0
100
AcDbLine
 10
58.99072
 20
29.44964099999999
 30
0.0
 11
65.21321999999999
 21
27.116141
 31
0.0
  0
LINE
  5
A7
330
1E
100
AcDbEntity
  8
0
100
AcDbLine
 10
62.52621999999999
 20
35.95424099999999
 30
0.0
 11
70.16291999999999
 21
33.05514099999999
 31
0.0
  0
LINE
  5
A8
330
1E
100
AcDbEntity
  8
0
100
AcDbLine
 10
53.61671999999999
 20
37.792741
 30
0.0
 11
62.52621999999999
 21
35.95424099999999
 31
0.0
  0
LINE
  5
A9
330
1E
100
AcDbEntity
  8
0
100
AcDbLine
 10
55.73802
 20
50.34214099999999
 30
0.0
 11
66.48602
 21
48.079341
 31
0.0
  0
LINE
  5
AA
330
1E
100
AcDbEntity
  8
0
100
AcDbLine
 10
54.39451999999999
 20
39.24234099999999
 30
0.0
 11
64.01111999999999
 21
37.26244099999999
 31
0.0
  0
LINE
  5
AB
330
1E
100
AcDbEntity
  8
0
100
AcDbLine
 10
64.01111999999999
 20
37.26244099999999
 30
0.0
 11
72.28431999999999
 21
34.11584099999999
 31
0.0
  0
LINE
  5
AE
330
1E
100
AcDbEntity
  8
0
100
AcDbLine
 10
69.88011999999999
 20
9.014240999999991
 30
0.0
 11
72.92071999999999
 21
12.585141
 31
0.0
  0
LINE
  5
AF
330
1E
100
AcDbEntity
  8
0
100
AcDbLine
 10
65.21321999999999
 20
5.902970999999999
 30
0.0
 11
69.88011999999999
 21
9.014240999999991
 31
0.0
  0
LINE
  5
B0
330
1E
100
AcDbEntity
  8
0
100
AcDbLine
 10
69.88011999999999
 20
26.60294099999999
 30
0.0
 11
72.92071999999999
 21
23.03204099999999
 31
0.0
  0
LINE
  5
B1
330
1E
100
AcDbEntity
  8
0
100
AcDbLine
 10
70.16291999999999
 20
6.026170999999999
 30
0.0
 11
75.96122
 21
9.844540999999999
 31
0.0
  0
LINE
  5
B2
330
1E
100
AcDbEntity
  8
0
100
AcDbLine
 10
72.28431999999999
 20
5.83153099999999
 30
0.0
 11
78.57751999999999
 21
9.968141000000001
 31
0.0
  0
LINE
  5
B3
330
1E
100
AcDbEntity
  8
0
100
AcDbLine
 10
69.88011999999999
 20
24.00494099999999
 30
0.0
 11
72.92071999999999
 21
20.434041
 31
0.0
  0
LINE
  5
B4
330
1E
100
AcDbEntity
  8
0
100
AcDbLine
 10
66.48602
 20
48.079341
 30
0.0
 11
75.81981999999999
 21
44.543841
 31
0.0
  0
LINE
  5
B5
330
1E
100
AcDbEntity
  8
0
100
AcDbLine
 10
72.28431999999999
 20
34.11584099999999
 30
0.0
 11
78.57751999999999
 21
29.979241
 31
0.0
  0
LINE
  5
B8
330
1E
100
AcDbEntity
  8
0
100
AcDbLine
 10
70.16291999999999
 20
33.05514099999999
 30
0.0
 11
75.96122
 21
29.23674099999999
 31
0.0
  0
LINE
  5
B9
330
1E
100
AcDbEntity
  8
0
100
AcDbLine
 10
70.16291999999999
 20
32.189141
 30
0.0
 11
75.96122
 21
28.370741
 31
0.0
  0
LINE
  5
BA
330
1E
100
AcDbEntity
  8
0
100
AcDbLine
 10
65.21321999999999
 20
29.714241
 30
0.0
 11
69.88011999999999
 21
26.60294099999999
 31
0.0
  0
LINE
  5
BB
330
1E
100
AcDbEntity
  8
0
100
AcDbLine
 10
65.21321999999999
 20
27.116141
 30
0.0
 11
69.88011999999999
 21
24.00494099999999
 31
0.0
  0
LINE
  5
BC
330
1E
100
AcDbEntity
  8
0
100
AcDbLine
 10
64.01111999999999
 20
54.582941
 30
0.0
 11
72.28431999999999
 21
51.43634099999999
 31
0.0
  0
LINE
  5
BD
330
1E
100
AcDbEntity
  8
0
100
AcDbLine
 10
17.12992
 20
92.73144100000001
 30
0.0
 11
25.04952
 21
95.701341
 31
0.0
  0
LINE
  5
BE
330
1E
100
AcDbEntity
  8
0
100
AcDbLine
 10
44.00001999999999
 20
57.234541
 30
0.0
 11
54.39451999999999
 21
56.562841
 31
0.0
  0
LINE
  5
BF
330
1E
100
AcDbEntity
  8
0
100
AcDbLine
 10
54.39451999999999
 20
56.562841
 30
0.0
 11
64.01111999999999
 21
54.582941
 31
0.0
  0
LINE
  5
C0
330
1E
100
AcDbEntity
  8
0
100
AcDbLine
 10
33.60552
 20
56.562841
 30
0.0
 11
44.00001999999999
 21
57.234541
 31
0.0
  0
LINE
  5
C1
330
1E
100
AcDbEntity
  8
0
100
AcDbLine
 10
23.98892
 20
54.582941
 30
0.0
 11
33.60552
 21
56.562841
 31
0.0
  0
LINE
  5
C2
330
1E
100
AcDbEntity
  8
0
100
AcDbLine
 10
15.71572
 20
51.43634099999999
 30
0.0
 11
23.98892
 21
54.582941
 31
0.0
  0
LINE
  5
C3
330
1E
100
AcDbEntity
  8
0
100
AcDbLine
 10
24.05962
 20
97.049941
 30
0.0
 11
24.05962
 21
95.33012225031571
 31
0.0
  0
LINE
  5
C4
330
1E
100
AcDbEntity
  8
0
100
AcDbLine
 10
24.05962
 20
97.049941
 30
0.0
 11
24.76672
 21
99.666241
 31
0.0
  0
LINE
  5
C5
330
1E
100
AcDbEntity
  8
0
100
AcDbLine
 10
24.05962
 20
100.513741
 30
0.0
 11
24.05962
 21
98.78194100000001
 31
0.0
  0
LINE
  5
C6
330
1E
100
AcDbEntity
  8
0
100
AcDbLine
 10
24.05962
 20
100.513741
 30
0.0
 11
24.76672
 21
103.1307409999999
 31
0.0
  0
LINE
  5
C7
330
1E
100
AcDbEntity
  8
0
100
AcDbLine
 10
24.05962
 20
102.245741
 30
0.0
 11
24.2936534798395
 21
101.379906488248
 31
0.0
  0
LINE
  5
C8
330
1E
100
AcDbEntity
  8
0
100
AcDbLine
 10
24.05962
 20
102.245741
 30
0.0
 11
24.05962
 21
110.9067409999999
 31
0.0
  0
LINE
  5
C9
330
1E
100
AcDbEntity
  8
0
100
AcDbLine
 10
24.05962
 20
102.245741
 30
0.0
 11
24.76672
 21
104.8627409999999
 31
0.0
  0
LINE
  5
CA
330
1E
100
AcDbEntity
  8
0
100
AcDbLine
 10
24.05962
 20
98.78194100000001
 30
0.0
 11
24.2936713702557
 21
97.91594100000001
 31
0.0
  0
LINE
  5
CB
330
1E
100
AcDbEntity
  8
0
100
AcDbLine
 10
24.05962
 20
98.78194100000001
 30
0.0
 11
24.05962
 21
100.513741
 31
0.0
  0
LINE
  5
CC
330
1E
100
AcDbEntity
  8
0
100
AcDbLine
 10
24.05962
 20
98.78194100000001
 30
0.0
 11
24.76672
 21
101.3987409999999
 31
0.0
  0
LINE
  5
CD
330
1E
100
AcDbEntity
  8
0
100
AcDbLine
 10
24.0633135690011
 20
95.33150736201021
 30
0.0
 11
24.76672
 21
97.93414099999999
 31
0.0
  0
LINE
  5
CE
330
1E
100
AcDbEntity
  8
0
100
AcDbLine
 10
24.5842101670978
 20
95.52684687495121
 30
0.0
 11
24.76672
 21
96.202141
 31
0.0
  0
LINE
  5
CF
330
1E
100
AcDbEntity
  8
0
100
AcDbLine
 10
24.76672
 20
104.8627409999999
 30
0.0
 11
26.74662
 21
107.2667409999999
 31
0.0
  0
LINE
  5
D0
330
1E
100
AcDbEntity
  8
0
100
AcDbLine
 10
24.76672
 20
103.1307409999999
 30
0.0
 11
26.74662
 21
105.5347409999999
 31
0.0
  0
LINE
  5
D1
330
1E
100
AcDbEntity
  8
0
100
AcDbLine
 10
24.76672
 20
101.3987409999999
 30
0.0
 11
26.74662
 21
103.8027409999999
 31
0.0
  0
LINE
  5
D2
330
1E
100
AcDbEntity
  8
0
100
AcDbLine
 10
24.76672
 20
99.666241
 30
0.0
 11
26.74662
 21
102.0707409999999
 31
0.0
  0
LINE
  5
D3
330
1E
100
AcDbEntity
  8
0
100
AcDbLine
 10
24.76672
 20
97.93414099999999
 30
0.0
 11
26.74662
 21
100.3387409999999
 31
0.0
  0
LINE
  5
D4
330
1E
100
AcDbEntity
  8
0
100
AcDbLine
 10
24.76672
 20
96.202141
 30
0.0
 11
26.74662
 21
98.606241
 31
0.0
  0
LINE
  5
D5
330
1E
100
AcDbEntity
  8
0
100
AcDbLine
 10
24.05962
 20
95.33012225031571
 30
0.0
 11
24.05962
 21
97.049941
 31
0.0
  0
LINE
  5
D6
330
1E
100
AcDbEntity
  8
0
100
AcDbLine
 10
24.76672
 20
113.5227409999999
 30
0.0
 11
26.74662
 21
115.9267409999999
 31
0.0
  0
LINE
  5
D7
330
1E
100
AcDbEntity
  8
0
100
AcDbLine
 10
24.05962
 20
110.9067409999999
 30
0.0
 11
24.76672
 21
113.5227409999999
 31
0.0
  0
LINE
  5
D8
330
1E
100
AcDbEntity
  8
0
100
AcDbLine
 10
24.05962
 20
110.9067409999999
 30
0.0
 11
24.05962
 21
102.245741
 31
0.0
  0
LINE
  5
D9
330
1E
100
AcDbEntity
  8
0
100
AcDbLine
 10
25.93442676034489
 20
95.88799170115731
 30
0.0
 11
26.74662
 21
96.87424100000001
 31
0.0
  0
LINE
  5
DA
330
1E
100
AcDbEntity
  8
0
100
AcDbLine
 10
26.74662
 20
96.87424100000001
 30
0.0
 11
29.85792
 21
98.924841
 31
0.0
  0
LINE
  5
DB
330
1E
100
AcDbEntity
  8
0
100
AcDbLine
 10
28.7930091415658
 20
96.49094381959599
 30
0.0
 11
29.85792
 21
97.19284100000001
 31
0.0
  0
LINE
  5
DC
330
1E
100
AcDbEntity
  8
0
100
AcDbLine
 10
29.85792
 20
97.19284100000001
 30
0.0
 11
33.95912
 21
98.748441
 31
0.0
  0
LINE
  5
DD
330
1E
100
AcDbEntity
  8
0
100
AcDbLine
 10
61.25341999999999
 20
96.87424100000001
 30
0.0
 11
62.06561323965511
 21
95.88799170115731
 31
0.0
  0
LINE
  5
DE
330
1E
100
AcDbEntity
  8
0
100
AcDbLine
 10
58.14212
 20
97.19284100000001
 30
0.0
 11
59.2070308584342
 21
96.49094381959599
 31
0.0
  0
LINE
  5
DF
330
1E
100
AcDbEntity
  8
0
100
AcDbLine
 10
53.89952
 20
97.61044100000001
 30
0.0
 11
62.95052
 21
95.701341
 31
0.0
  0
LINE
  5
E0
330
1E
100
AcDbEntity
  8
0
100
AcDbLine
 10
63.94041999999999
 20
95.33012225031571
 30
0.0
 11
63.94041999999999
 21
97.049941
 31
0.0
  0
LINE
  5
E1
330
1E
100
AcDbEntity
  8
0
100
AcDbLine
 10
63.94041999999999
 20
97.049941
 30
0.0
 11
63.94041999999999
 21
95.33012225031571
 31
0.0
  0
LINE
  5
E2
330
1E
100
AcDbEntity
  8
0
100
AcDbLine
 10
63.23331999999999
 20
96.202141
 30
0.0
 11
63.4158298329022
 21
95.52684687495121
 31
0.0
  0
LINE
  5
E3
330
1E
100
AcDbEntity
  8
0
100
AcDbLine
 10
62.95052
 20
95.701341
 30
0.0
 11
70.87012
 21
92.73144100000001
 31
0.0
  0
LINE
  5
E4
330
1E
100
AcDbEntity
  8
0
100
AcDbLine
 10
38.76742
 20
98.00634100000001
 30
0.0
 11
44.00001999999999
 21
98.35984100000001
 31
0.0
  0
LINE
  5
E5
330
1E
100
AcDbEntity
  8
0
100
AcDbLine
 10
38.0903157115753
 20
97.8669293065656
 30
0.0
 11
38.76742
 21
98.00634100000001
 31
0.0
  0
LINE
  5
E6
330
1E
100
AcDbEntity
  8
0
100
AcDbLine
 10
26.74662
 20
98.606241
 30
0.0
 11
29.85792
 21
100.6567409999999
 31
0.0
  0
LINE
  5
E7
330
1E
100
AcDbEntity
  8
0
100
AcDbLine
 10
26.74662
 20
100.3387409999999
 30
0.0
 11
29.85792
 21
102.388741
 31
0.0
  0
LINE
  5
E8
330
1E
100
AcDbEntity
  8
0
100
AcDbLine
 10
29.85792
 20
100.6567409999999
 30
0.0
 11
33.95912
 21
102.212741
 31
0.0
  0
LINE
  5
E9
330
1E
100
AcDbEntity
  8
0
100
AcDbLine
 10
33.95912
 20
100.480741
 30
0.0
 11
38.76742
 21
101.4707409999999
 31
0.0
  0
LINE
  5
EA
330
1E
100
AcDbEntity
  8
0
100
AcDbLine
 10
29.85792
 20
98.924841
 30
0.0
 11
33.95912
 21
100.480741
 31
0.0
  0
LINE
  5
EB
330
1E
100
AcDbEntity
  8
0
100
AcDbLine
 10
38.76742
 20
101.4707409999999
 30
0.0
 11
44.00001999999999
 21
101.823741
 31
0.0
  0
LINE
  5
EC
330
1E
100
AcDbEntity
  8
0
100
AcDbLine
 10
38.76742
 20
99.73834100000001
 30
0.0
 11
44.00001999999999
 21
100.091741
 31
0.0
  0
LINE
  5
ED
330
1E
100
AcDbEntity
  8
0
100
AcDbLine
 10
33.95912
 20
98.748441
 30
0.0
 11
38.76742
 21
99.73834100000001
 31
0.0
  0
LINE
  5
EE
330
1E
100
AcDbEntity
  8
0
100
AcDbLine
 10
26.74662
 20
102.0707409999999
 30
0.0
 11
29.85792
 21
104.120741
 31
0.0
  0
LINE
  5
EF
330
1E
100
AcDbEntity
  8
0
100
AcDbLine
 10
26.74662
 20
103.8027409999999
 30
0.0
 11
29.85792
 21
105.8527409999999
 31
0.0
  0
LINE
  5
F0
330
1E
100
AcDbEntity
  8
0
100
AcDbLine
 10
29.85792
 20
104.120741
 30
0.0
 11
33.95912
 21
105.6767409999999
 31
0.0
  0
LINE
  5
F1
330
1E
100
AcDbEntity
  8
0
100
AcDbLine
 10
33.95912
 20
103.944741
 30
0.0
 11
38.76742
 21
104.9347409999999
 31
0.0
  0
LINE
  5
F2
330
1E
100
AcDbEntity
  8
0
100
AcDbLine
 10
29.85792
 20
102.388741
 30
0.0
 11
33.95912
 21
103.944741
 31
0.0
  0
LINE
  5
F3
330
1E
100
AcDbEntity
  8
0
100
AcDbLine
 10
38.76742
 20
104.9347409999999
 30
0.0
 11
44.00001999999999
 21
105.287741
 31
0.0
  0
LINE
  5
F4
330
1E
100
AcDbEntity
  8
0
100
AcDbLine
 10
38.76742
 20
103.2027409999999
 30
0.0
 11
44.00001999999999
 21
103.555741
 31
0.0
  0
LINE
  5
F5
330
1E
100
AcDbEntity
  8
0
100
AcDbLine
 10
33.95912
 20
102.212741
 30
0.0
 11
38.76742
 21
103.2027409999999
 31
0.0
  0
LINE
  5
F6
330
1E
100
AcDbEntity
  8
0
100
AcDbLine
 10
26.74662
 20
105.5347409999999
 30
0.0
 11
29.85792
 21
107.5847409999999
 31
0.0
  0
LINE
  5
F7
330
1E
100
AcDbEntity
  8
0
100
AcDbLine
 10
26.74662
 20
107.2667409999999
 30
0.0
 11
29.85792
 21
109.3167409999999
 31
0.0
  0
LINE
  5
F8
330
1E
100
AcDbEntity
  8
0
100
AcDbLine
 10
29.85792
 20
107.5847409999999
 30
0.0
 11
33.95912
 21
109.1407409999999
 31
0.0
  0
LINE
  5
F9
330
1E
100
AcDbEntity
  8
0
100
AcDbLine
 10
33.95912
 20
107.4087409999999
 30
0.0
 11
38.76742
 21
108.3987409999999
 31
0.0
  0
LINE
  5
FA
330
1E
100
AcDbEntity
  8
0
100
AcDbLine
 10
29.85792
 20
105.8527409999999
 30
0.0
 11
33.95912
 21
107.4087409999999
 31
0.0
  0
LINE
  5
FB
330
1E
100
AcDbEntity
  8
0
100
AcDbLine
 10
38.76742
 20
108.3987409999999
 30
0.0
 11
44.00001999999999
 21
108.751741
 31
0.0
  0
LINE
  5
FC
330
1E
100
AcDbEntity
  8
0
100
AcDbLine
 10
38.76742
 20
106.6667409999999
 30
0.0
 11
44.00001999999999
 21
107.019741
 31
0.0
  0
LINE
  5
FD
330
1E
100
AcDbEntity
  8
0
100
AcDbLine
 10
33.95912
 20
105.6767409999999
 30
0.0
 11
38.76742
 21
106.6667409999999
 31
0.0
  0
LINE
  5
FE
330
1E
100
AcDbEntity
  8
0
100
AcDbLine
 10
33.95912
 20
110.8727409999999
 30
0.0
 11
38.76742
 21
111.8627409999999
 31
0.0
  0
LINE
  5
FF
330
1E
100
AcDbEntity
  8
0
100
AcDbLine
 10
29.85792
 20
109.3167409999999
 30
0.0
 11
33.95912
 21
110.8727409999999
 31
0.0
  0
LINE
  5
100
330
1E
100
AcDbEntity
  8
0
100
AcDbLine
 10
38.76742
 20
111.8627409999999
 30
0.0
 11
44.00001999999999
 21
112.2167409999999
 31
0.0
  0
LINE
  5
101
330
1E
100
AcDbEntity
  8
0
100
AcDbLine
 10
38.76742
 20
110.1307409999999
 30
0.0
 11
44.00001999999999
 21
110.483741
 31
0.0
  0
LINE
  5
102
330
1E
100
AcDbEntity
  8
0
100
AcDbLine
 10
33.95912
 20
109.1407409999999
 30
0.0
 11
38.76742
 21
110.1307409999999
 31
0.0
  0
LINE
  5
103
330
1E
100
AcDbEntity
  8
0
100
AcDbLine
 10
44.00001999999999
 20
112.2167409999999
 30
0.0
 11
49.23262000000001
 21
111.8627409999999
 31
0.0
  0
LINE
  5
104
330
1E
100
AcDbEntity
  8
0
100
AcDbLine
 10
44.00001999999999
 20
110.483741
 30
0.0
 11
49.23262000000001
 21
110.1307409999999
 31
0.0
  0
LINE
  5
105
330
1E
100
AcDbEntity
  8
0
100
AcDbLine
 10
44.00001999999999
 20
108.751741
 30
0.0
 11
49.23262000000001
 21
108.3987409999999
 31
0.0
  0
LINE
  5
106
330
1E
100
AcDbEntity
  8
0
100
AcDbLine
 10
44.00001999999999
 20
107.019741
 30
0.0
 11
49.23262000000001
 21
106.6667409999999
 31
0.0
  0
LINE
  5
107
330
1E
100
AcDbEntity
  8
0
100
AcDbLine
 10
44.00001999999999
 20
105.287741
 30
0.0
 11
49.23262000000001
 21
104.9347409999999
 31
0.0
  0
LINE
  5
108
330
1E
100
AcDbEntity
  8
0
100
AcDbLine
 10
44.00001999999999
 20
103.555741
 30
0.0
 11
49.23262000000001
 21
103.2027409999999
 31
0.0
  0
LINE
  5
109
330
1E
100
AcDbEntity
  8
0
100
AcDbLine
 10
44.00001999999999
 20
101.823741
 30
0.0
 11
49.23262000000001
 21
101.4707409999999
 31
0.0
  0
LINE
  5
10A
330
1E
100
AcDbEntity
  8
0
100
AcDbLine
 10
44.00001999999999
 20
100.091741
 30
0.0
 11
49.23262000000001
 21
99.73834100000001
 31
0.0
  0
LINE
  5
10B
330
1E
100
AcDbEntity
  8
0
100
AcDbLine
 10
44.00001999999999
 20
98.35984100000001
 30
0.0
 11
49.23262000000001
 21
98.00634100000001
 31
0.0
  0
LINE
  5
10C
330
1E
100
AcDbEntity
  8
0
100
AcDbLine
 10
49.23262000000001
 20
99.73834100000001
 30
0.0
 11
54.04091999999999
 21
98.748441
 31
0.0
  0
LINE
  5
10D
330
1E
100
AcDbEntity
  8
0
100
AcDbLine
 10
54.04091999999999
 20
100.480741
 30
0.0
 11
58.14212
 21
98.924841
 31
0.0
  0
LINE
  5
10E
330
1E
100
AcDbEntity
  8
0
100
AcDbLine
 10
54.04091999999999
 20
98.748441
 30
0.0
 11
58.14212
 21
97.19284100000001
 31
0.0
  0
LINE
  5
10F
330
1E
100
AcDbEntity
  8
0
100
AcDbLine
 10
49.23262000000001
 20
98.00634100000001
 30
0.0
 11
49.90972428842471
 21
97.8669293065656
 31
0.0
  0
LINE
  5
110
330
1E
100
AcDbEntity
  8
0
100
AcDbLine
 10
49.23262000000001
 20
103.2027409999999
 30
0.0
 11
54.04091999999999
 21
102.212741
 31
0.0
  0
LINE
  5
111
330
1E
100
AcDbEntity
  8
0
100
AcDbLine
 10
54.04091999999999
 20
103.944741
 30
0.0
 11
58.14212
 21
102.388741
 31
0.0
  0
LINE
  5
112
330
1E
100
AcDbEntity
  8
0
100
AcDbLine
 10
54.04091999999999
 20
102.212741
 30
0.0
 11
58.14212
 21
100.6567409999999
 31
0.0
  0
LINE
  5
113
330
1E
100
AcDbEntity
  8
0
100
AcDbLine
 10
49.23262000000001
 20
101.4707409999999
 30
0.0
 11
54.04091999999999
 21
100.480741
 31
0.0
  0
LINE
  5
114
330
1E
100
AcDbEntity
  8
0
100
AcDbLine
 10
49.23262000000001
 20
106.6667409999999
 30
0.0
 11
54.04091999999999
 21
105.6767409999999
 31
0.0
  0
LINE
  5
115
330
1E
100
AcDbEntity
  8
0
100
AcDbLine
 10
54.04091999999999
 20
107.4087409999999
 30
0.0
 11
58.14212
 21
105.8527409999999
 31
0.0
  0
LINE
  5
116
330
1E
100
AcDbEntity
  8
0
100
AcDbLine
 10
54.04091999999999
 20
105.6767409999999
 30
0.0
 11
58.14212
 21
104.120741
 31
0.0
  0
LINE
  5
117
330
1E
100
AcDbEntity
  8
0
100
AcDbLine
 10
49.23262000000001
 20
104.9347409999999
 30
0.0
 11
54.04091999999999
 21
103.944741
 31
0.0
  0
LINE
  5
118
330
1E
100
AcDbEntity
  8
0
100
AcDbLine
 10
54.04091999999999
 20
110.8727409999999
 30
0.0
 11
58.14212
 21
109.3167409999999
 31
0.0
  0
LINE
  5
119
330
1E
100
AcDbEntity
  8
0
100
AcDbLine
 10
49.23262000000001
 20
110.1307409999999
 30
0.0
 11
54.04091999999999
 21
109.1407409999999
 31
0.0
  0
LINE
  5
11A
330
1E
100
AcDbEntity
  8
0
100
AcDbLine
 10
54.04091999999999
 20
109.1407409999999
 30
0.0
 11
58.14212
 21
107.5847409999999
 31
0.0
  0
LINE
  5
11B
330
1E
100
AcDbEntity
  8
0
100
AcDbLine
 10
49.23262000000001
 20
108.3987409999999
 30
0.0
 11
54.04091999999999
 21
107.4087409999999
 31
0.0
  0
LINE
  5
11C
330
1E
100
AcDbEntity
  8
0
100
AcDbLine
 10
58.14212
 20
109.3167409999999
 30
0.0
 11
61.25341999999999
 21
107.2667409999999
 31
0.0
  0
LINE
  5
11D
330
1E
100
AcDbEntity
  8
0
100
AcDbLine
 10
58.14212
 20
107.5847409999999
 30
0.0
 11
61.25341999999999
 21
105.5347409999999
 31
0.0
  0
LINE
  5
11E
330
1E
100
AcDbEntity
  8
0
100
AcDbLine
 10
58.14212
 20
105.8527409999999
 30
0.0
 11
61.25341999999999
 21
103.8027409999999
 31
0.0
  0
LINE
  5
11F
330
1E
100
AcDbEntity
  8
0
100
AcDbLine
 10
58.14212
 20
104.120741
 30
0.0
 11
61.25341999999999
 21
102.0707409999999
 31
0.0
  0
LINE
  5
120
330
1E
100
AcDbEntity
  8
0
100
AcDbLine
 10
58.14212
 20
102.388741
 30
0.0
 11
61.25341999999999
 21
100.3387409999999
 31
0.0
  0
LINE
  5
121
330
1E
100
AcDbEntity
  8
0
100
AcDbLine
 10
58.14212
 20
100.6567409999999
 30
0.0
 11
61.25341999999999
 21
98.606241
 31
0.0
  0
LINE
  5
122
330
1E
100
AcDbEntity
  8
0
100
AcDbLine
 10
63.7063686297443
 20
97.91594100000001
 30
0.0
 11
63.94041999999999
 21
98.78194100000001
 31
0.0
  0
LINE
  5
123
330
1E
100
AcDbEntity
  8
0
100
AcDbLine
 10
63.23331999999999
 20
97.93414099999999
 30
0.0
 11
63.936726430999
 21
95.33150736201021
 31
0.0
  0
LINE
  5
124
330
1E
100
AcDbEntity
  8
0
100
AcDbLine
 10
61.25341999999999
 20
107.2667409999999
 30
0.0
 11
63.23331999999999
 21
104.8627409999999
 31
0.0
  0
LINE
  5
125
330
1E
100
AcDbEntity
  8
0
100
AcDbLine
 10
61.25341999999999
 20
105.5347409999999
 30
0.0
 11
63.23331999999999
 21
103.1307409999999
 31
0.0
  0
LINE
  5
126
330
1E
100
AcDbEntity
  8
0
100
AcDbLine
 10
61.25341999999999
 20
103.8027409999999
 30
0.0
 11
63.23331999999999
 21
101.3987409999999
 31
0.0
  0
LINE
  5
127
330
1E
100
AcDbEntity
  8
0
100
AcDbLine
 10
61.25341999999999
 20
102.0707409999999
 30
0.0
 11
63.23331999999999
 21
99.666241
 31
0.0
  0
LINE
  5
128
330
1E
100
AcDbEntity
  8
0
100
AcDbLine
 10
63.94041999999999
 20
98.78194100000001
 30
0.0
 11
63.94041999999999
 21
100.513741
 31
0.0
  0
LINE
  5
129
330
1E
100
AcDbEntity
  8
0
100
AcDbLine
 10
63.23331999999999
 20
104.8627409999999
 30
0.0
 11
63.94041999999999
 21
102.245741
 31
0.0
  0
LINE
  5
12A
330
1E
100
AcDbEntity
  8
0
100
AcDbLine
 10
63.23331999999999
 20
103.1307409999999
 30
0.0
 11
63.94041999999999
 21
100.513741
 31
0.0
  0
LINE
  5
12B
330
1E
100
AcDbEntity
  8
0
100
AcDbLine
 10
63.70638652016051
 20
101.379906488248
 30
0.0
 11
63.94041999999999
 21
102.245741
 31
0.0
  0
LINE
  5
12C
330
1E
100
AcDbEntity
  8
0
100
AcDbLine
 10
63.94041999999999
 20
100.513741
 30
0.0
 11
63.94041999999999
 21
98.78194100000001
 31
0.0
  0
LINE
  5
12D
330
1E
100
AcDbEntity
  8
0
100
AcDbLine
 10
63.94041999999999
 20
102.245741
 30
0.0
 11
63.94041999999999
 21
110.9067409999999
 31
0.0
  0
LINE
  5
12E
330
1E
100
AcDbEntity
  8
0
100
AcDbLine
 10
63.23331999999999
 20
101.3987409999999
 30
0.0
 11
63.94041999999999
 21
98.78194100000001
 31
0.0
  0
LINE
  5
12F
330
1E
100
AcDbEntity
  8
0
100
AcDbLine
 10
63.23331999999999
 20
99.666241
 30
0.0
 11
63.94041999999999
 21
97.049941
 31
0.0
  0
LINE
  5
130
330
1E
100
AcDbEntity
  8
0
100
AcDbLine
 10
61.25341999999999
 20
100.3387409999999
 30
0.0
 11
63.23331999999999
 21
97.93414099999999
 31
0.0
  0
LINE
  5
131
330
1E
100
AcDbEntity
  8
0
100
AcDbLine
 10
61.25341999999999
 20
98.606241
 30
0.0
 11
63.23331999999999
 21
96.202141
 31
0.0
  0
LINE
  5
132
330
1E
100
AcDbEntity
  8
0
100
AcDbLine
 10
58.14212
 20
98.924841
 30
0.0
 11
61.25341999999999
 21
96.87424100000001
 31
0.0
  0
LINE
  5
133
330
1E
100
AcDbEntity
  8
0
100
AcDbLine
 10
49.23262000000001
 20
111.8627409999999
 30
0.0
 11
54.04091999999999
 21
110.8727409999999
 31
0.0
  0
LINE
  5
134
330
1E
100
AcDbEntity
  8
0
100
AcDbLine
 10
63.23331999999999
 20
113.5227409999999
 30
0.0
 11
63.94041999999999
 21
110.9067409999999
 31
0.0
  0
LINE
  5
135
330
1E
100
AcDbEntity
  8
0
100
AcDbLine
 10
63.94041999999999
 20
110.9067409999999
 30
0.0
 11
64.00001999999999
 21
120.0807409999999
 31
0.0
  0
LINE
  5
136
330
1E
100
AcDbEntity
  8
0
100
AcDbLine
 10
63.94041999999999
 20
110.9067409999999
 30
0.0
 11
63.94041999999999
 21
102.245741
 31
0.0
  0
LINE
  5
137
330
1E
100
AcDbEntity
  8
0
100
AcDbLine
 10
63.9489073281875
 20
112.213162959593
 30
0.0
 11
68.40002
 21
115.5667409999999
 31
0.0
  0
LINE
  5
138
330
1E
100
AcDbEntity
  8
0
100
AcDbLine
 10
68.40002
 20
115.5667409999999
 30
0.0
 11
73.90001999999999
 21
122.8667409999999
 31
0.0
  0
LINE
  5
139
330
1E
100
AcDbEntity
  8
0
100
AcDbLine
 10
68.70001999999999
 20
115.266741
 30
0.0
 11
74.30001999999999
 21
122.566741
 31
0.0
  0
LINE
  5
13A
330
1E
100
AcDbEntity
  8
0
100
AcDbLine
 10
44.00001999999999
 20
98.246841
 30
0.0
 11
53.89952
 21
97.61044100000001
 31
0.0
  0
LINE
  5
13B
330
1E
100
AcDbEntity
  8
0
100
AcDbLine
 10
34.10052
 20
97.61044100000001
 30
0.0
 11
44.00001999999999
 21
98.246841
 31
0.0
  0
LINE
  5
13C
330
1E
100
AcDbEntity
  8
0
100
AcDbLine
 10
25.04952
 20
95.701341
 30
0.0
 11
34.10052
 21
97.61044100000001
 31
0.0
  0
LINE
  5
13D
330
1E
100
AcDbEntity
  8
0
100
AcDbLine
 10
61.25341999999999
 20
115.9267409999999
 30
0.0
 11
63.23331999999999
 21
113.5227409999999
 31
0.0
  0
LINE
  5
13E
330
1E
100
AcDbEntity
  8
0
100
AcDbLine
 10
54.04091999999999
 20
119.5327409999999
 30
0.0
 11
58.14212
 21
117.977741
 31
0.0
  0
LINE
  5
13F
330
1E
100
AcDbEntity
  8
0
100
AcDbLine
 10
58.14212
 20
117.977741
 30
0.0
 11
61.25341999999999
 21
115.9267409999999
 31
0.0
  0
LINE
  5
140
330
1E
100
AcDbEntity
  8
0
100
AcDbLine
 10
44.00001999999999
 20
120.8767409999999
 30
0.0
 11
49.23262000000001
 21
120.5227409999999
 31
0.0
  0
LINE
  5
141
330
1E
100
AcDbEntity
  8
0
100
AcDbLine
 10
49.23262000000001
 20
120.5227409999999
 30
0.0
 11
54.04091999999999
 21
119.5327409999999
 31
0.0
  0
LINE
  5
142
330
1E
100
AcDbEntity
  8
0
100
AcDbLine
 10
64.00001999999999
 20
120.0807409999999
 30
0.0
 11
64.00001999999999
 21
128.5787409999999
 31
0.0
  0
LINE
  5
143
330
1E
100
AcDbEntity
  8
0
100
AcDbLine
 10
38.76742
 20
120.5227409999999
 30
0.0
 11
44.00001999999999
 21
120.8767409999999
 31
0.0
  0
LINE
  5
144
330
1E
100
AcDbEntity
  8
0
100
AcDbLine
 10
33.95912
 20
119.5327409999999
 30
0.0
 11
38.76742
 21
120.5227409999999
 31
0.0
  0
LINE
  5
145
330
1E
100
AcDbEntity
  8
0
100
AcDbLine
 10
29.85792
 20
117.977741
 30
0.0
 11
33.95912
 21
119.5327409999999
 31
0.0
  0
LINE
  5
146
330
1E
100
AcDbEntity
  8
0
100
AcDbLine
 10
26.74662
 20
115.9267409999999
 30
0.0
 11
29.85792
 21
117.977741
 31
0.0
  0
LINE
  5
147
330
1E
100
AcDbEntity
  8
0
100
AcDbLine
 10
24.00002
 20
120.0807409999999
 30
0.0
 11
24.05962
 21
110.9067409999999
 31
0.0
  0
LINE
  5
148
330
1E
100
AcDbEntity
  8
0
100
AcDbLine
 10
24.00002
 20
120.0807409999999
 30
0.0
 11
24.00002
 21
128.5787409999999
 31
0.0
  0
LINE
  5
149
330
1E
100
AcDbEntity
  8
0
100
AcDbLine
 10
19.60002
 20
115.5667409999999
 30
0.0
 11
24.0511326718125
 21
112.213162959593
 31
0.0
  0
LINE
  5
14A
330
1E
100
AcDbEntity
  8
0
100
AcDbLine
 10
19.30001999999999
 20
115.266741
 30
0.0
 11
24.0549921311643
 21
111.619091145956
 31
0.0
  0
LINE
  5
14B
330
1E
100
AcDbEntity
  8
0
100
AcDbLine
 10
10.30002
 20
148.9667409999999
 30
0.0
 11
13.70002
 21
157.3667409999999
 31
0.0
  0
LINE
  5
14C
330
1E
100
AcDbEntity
  8
0
100
AcDbLine
 10
9.500019999999999
 20
139.9667409999999
 30
0.0
 11
10.70002
 21
131.0667409999999
 31
0.0
  0
LINE
  5
14D
330
1E
100
AcDbEntity
  8
0
100
AcDbLine
 10
9.500019999999999
 20
139.9667409999999
 30
0.0
 11
10.70002
 21
148.8667409999999
 31
0.0
  0
LINE
  5
14E
330
1E
100
AcDbEntity
  8
0
100
AcDbLine
 10
64.00001999999999
 20
128.5787409999999
 30
0.0
 11
64.00001999999999
 21
120.0807409999999
 31
0.0
  0
LINE
  5
14F
330
1E
100
AcDbEntity
  8
0
100
AcDbLine
 10
64.00001999999999
 20
128.5787409999999
 30
0.0
 11
64.00001999999999
 21
134.8407409999999
 31
0.0
  0
LINE
  5
150
330
1E
100
AcDbEntity
  8
0
100
AcDbLine
 10
24.00002
 20
128.5787409999999
 30
0.0
 11
24.00002
 21
120.0807409999999
 31
0.0
  0
LINE
  5
151
330
1E
100
AcDbEntity
  8
0
100
AcDbLine
 10
24.00002
 20
128.5787409999999
 30
0.0
 11
24.00002
 21
134.8407409999999
 31
0.0
  0
LINE
  5
152
330
1E
100
AcDbEntity
  8
0
100
AcDbLine
 10
14.10002
 20
122.8667409999999
 30
0.0
 11
19.60002
 21
115.5667409999999
 31
0.0
  0
LINE
  5
153
330
1E
100
AcDbEntity
  8
0
100
AcDbLine
 10
10.70002
 20
148.8667409999999
 30
0.0
 11
14.10002
 21
157.0667409999999
 31
0.0
  0
LINE
  5
154
330
1E
100
AcDbEntity
  8
0
100
AcDbLine
 10
24.00002
 20
134.8407409999999
 30
0.0
 11
24.00002
 21
138.6757409999999
 31
0.0
  0
LINE
  5
155
330
1E
100
AcDbEntity
  8
0
100
AcDbLine
 10
24.00002
 20
134.8407409999999
 30
0.0
 11
24.00002
 21
128.5787409999999
 31
0.0
  0
LINE
  5
156
330
1E
100
AcDbEntity
  8
0
100
AcDbLine
 10
24.00002
 20
138.6757409999999
 30
0.0
 11
24.00002
 21
139.9667409999999
 31
0.0
  0
LINE
  5
157
330
1E
100
AcDbEntity
  8
0
100
AcDbLine
 10
24.00002
 20
138.6757409999999
 30
0.0
 11
24.00002
 21
134.8407409999999
 31
0.0
  0
LINE
  5
158
330
1E
100
AcDbEntity
  8
0
100
AcDbLine
 10
64.00001999999999
 20
134.8407409999999
 30
0.0
 11
64.00001999999999
 21
128.5787409999999
 31
0.0
  0
LINE
  5
159
330
1E
100
AcDbEntity
  8
0
100
AcDbLine
 10
64.00001999999999
 20
134.8407409999999
 30
0.0
 11
64.00001999999999
 21
138.6757409999999
 31
0.0
  0
LINE
  5
15A
330
1E
100
AcDbEntity
  8
0
100
AcDbLine
 10
64.00001999999999
 20
138.6757409999999
 30
0.0
 11
64.00001999999999
 21
139.9667409999999
 31
0.0
  0
LINE
  5
15B
330
1E
100
AcDbEntity
  8
0
100
AcDbLine
 10
64.00001999999999
 20
138.6757409999999
 30
0.0
 11
64.00001999999999
 21
134.8407409999999
 31
0.0
  0
LINE
  5
15C
330
1E
100
AcDbEntity
  8
0
100
AcDbLine
 10
63.30002
 20
145.0667409999999
 30
0.0
 11
64.00001999999999
 21
139.9667409999999
 31
0.0
  0
LINE
  5
15D
330
1E
100
AcDbEntity
  8
0
100
AcDbLine
 10
64.00001999999999
 20
139.9667409999999
 30
0.0
 11
64.00001999999999
 21
138.6757409999999
 31
0.0
  0
LINE
  5
15E
330
1E
100
AcDbEntity
  8
0
100
AcDbLine
 10
26.70002
 20
149.8667409999999
 30
0.0
 11
29.90002
 21
154.0667409999999
 31
0.0
  0
LINE
  5
15F
330
1E
100
AcDbEntity
  8
0
100
AcDbLine
 10
58.10001999999999
 20
154.0667409999999
 30
0.0
 11
61.30002
 21
149.8667409999999
 31
0.0
  0
LINE
  5
160
330
1E
100
AcDbEntity
  8
0
100
AcDbLine
 10
61.30002
 20
149.8667409999999
 30
0.0
 11
63.30002
 21
145.0667409999999
 31
0.0
  0
LINE
  5
161
330
1E
100
AcDbEntity
  8
0
100
AcDbLine
 10
68.40002
 20
164.3667409999999
 30
0.0
 11
73.90001999999999
 21
157.0667409999999
 31
0.0
  0
LINE
  5
162
330
1E
100
AcDbEntity
  8
0
100
AcDbLine
 10
44.00001999999999
 20
159.9667409999999
 30
0.0
 11
49.10002
 21
159.2667409999999
 31
0.0
  0
LINE
  5
163
330
1E
100
AcDbEntity
  8
0
100
AcDbLine
 10
49.10002
 20
159.2667409999999
 30
0.0
 11
53.90001999999999
 21
157.266741
 31
0.0
  0
LINE
  5
164
330
1E
100
AcDbEntity
  8
0
100
AcDbLine
 10
38.90001999999999
 20
159.2667409999999
 30
0.0
 11
44.00001999999999
 21
159.9667409999999
 31
0.0
  0
LINE
  5
165
330
1E
100
AcDbEntity
  8
0
100
AcDbLine
 10
34.10002
 20
157.266741
 30
0.0
 11
38.90001999999999
 21
159.2667409999999
 31
0.0
  0
LINE
  5
166
330
1E
100
AcDbEntity
  8
0
100
AcDbLine
 10
24.70002
 20
145.0667409999999
 30
0.0
 11
26.70002
 21
149.8667409999999
 31
0.0
  0
LINE
  5
167
330
1E
100
AcDbEntity
  8
0
100
AcDbLine
 10
24.00002
 20
139.9667409999999
 30
0.0
 11
24.70002
 21
145.0667409999999
 31
0.0
  0
LINE
  5
168
330
1E
100
AcDbEntity
  8
0
100
AcDbLine
 10
24.00002
 20
139.9667409999999
 30
0.0
 11
24.00002
 21
138.6757409999999
 31
0.0
  0
LINE
  5
169
330
1E
100
AcDbEntity
  8
0
100
AcDbLine
 10
61.10001999999999
 20
169.8667409999999
 30
0.0
 11
68.40002
 21
164.3667409999999
 31
0.0
  0
LINE
  5
16A
330
1E
100
AcDbEntity
  8
0
100
AcDbLine
 10
26.90002
 20
169.8667409999999
 30
0.0
 11
35.10002
 21
173.2667409999999
 31
0.0
  0
LINE
  5
16B
330
1E
100
AcDbEntity
  8
0
100
AcDbLine
 10
19.60002
 20
164.3667409999999
 30
0.0
 11
26.90002
 21
169.8667409999999
 31
0.0
  0
LINE
  5
16C
330
1E
100
AcDbEntity
  8
0
100
AcDbLine
 10
14.10002
 20
157.0667409999999
 30
0.0
 11
19.60002
 21
164.3667409999999
 31
0.0
  0
LINE
  5
16D
330
1E
100
AcDbEntity
  8
0
100
AcDbLine
 10
52.90002
 20
173.2667409999999
 30
0.0
 11
61.10001999999999
 21
169.8667409999999
 31
0.0
  0
LINE
  5
16E
330
1E
100
AcDbEntity
  8
0
100
AcDbLine
 10
44.00001999999999
 20
174.4667409999999
 30
0.0
 11
52.90002
 21
173.2667409999999
 31
0.0
  0
LINE
  5
16F
330
1E
100
AcDbEntity
  8
0
100
AcDbLine
 10
44.00001999999999
 20
174.9667409999999
 30
0.0
 11
53.00001999999999
 21
173.666741
 31
0.0
  0
LINE
  5
170
330
1E
100
AcDbEntity
  8
0
100
AcDbLine
 10
53.00001999999999
 20
173.666741
 30
0.0
 11
61.40001999999999
 21
170.266741
 31
0.0
  0
LINE
  5
171
330
1E
100
AcDbEntity
  8
0
100
AcDbLine
 10
35.10002
 20
173.2667409999999
 30
0.0
 11
44.00001999999999
 21
174.4667409999999
 31
0.0
  0
LINE
  5
172
330
1E
100
AcDbEntity
  8
0
100
AcDbLine
 10
35.00002
 20
173.666741
 30
0.0
 11
44.00001999999999
 21
174.9667409999999
 31
0.0
  0
LINE
  5
173
330
1E
100
AcDbEntity
  8
0
100
AcDbLine
 10
26.60002
 20
170.266741
 30
0.0
 11
35.00002
 21
173.666741
 31
0.0
  0
LINE
  5
174
330
1E
100
AcDbEntity
  8
0
100
AcDbLine
 10
13.70002
 20
157.3667409999999
 30
0.0
 11
19.30001999999999
 21
164.666741
 31
0.0
  0
LINE
  5
175
330
1E
100
AcDbEntity
  8
0
100
AcDbLine
 10
10.70002
 20
131.0667409999999
 30
0.0
 11
14.10002
 21
122.8667409999999
 31
0.0
  0
LINE
  5
176
330
1E
100
AcDbEntity
  8
0
100
AcDbLine
 10
10.30002
 20
130.9667409999999
 30
0.0
 11
13.70002
 21
122.566741
 31
0.0
  0
LINE
  5
177
330
1E
100
AcDbEntity
  8
0
100
AcDbLine
 10
13.70002
 20
122.566741
 30
0.0
 11
19.30001999999999
 21
115.266741
 31
0.0
  0
LINE
  5
178
330
1E
100
AcDbEntity
  8
0
100
AcDbLine
 10
9.000019999999999
 20
139.9667409999999
 30
0.0
 11
10.30002
 21
130.9667409999999
 31
0.0
  0
LINE
  5
179
330
1E
100
AcDbEntity
  8
0
100
AcDbLine
 10
9.000019999999999
 20
139.9667409999999
 30
0.0
 11
10.30002
 21
148.9667409999999
 31
0.0
  0
LINE
  5
17A
330
1E
100
AcDbEntity
  8
0
100
AcDbLine
 10
70.87012
 20
92.73144100000001
 30
0.0
 11
76.80982
 21
88.77164099999999
 31
0.0
  0
LINE
  5
17B
330
1E
100
AcDbEntity
  8
0
100
AcDbLine
 10
73.98132
 20
19.107641
 30
0.0
 11
73.98132
 21
16.50954099999999
 31
0.0
  0
LINE
  5
17C
330
1E
100
AcDbEntity
  8
0
100
AcDbLine
 10
72.92071999999999
 20
12.585141
 30
0.0
 11
73.98132
 21
16.50954099999999
 31
0.0
  0
LINE
  5
17D
330
1E
100
AcDbEntity
  8
0
100
AcDbLine
 10
75.96122
 20
9.844540999999999
 30
0.0
 11
79.63821999999999
 21
14.299341
 31
0.0
  0
LINE
  5
17E
330
1E
100
AcDbEntity
  8
0
100
AcDbLine
 10
79.63821999999999
 20
14.299341
 30
0.0
 11
80.91101999999999
 21
19.107641
 31
0.0
  0
LINE
  5
17F
330
1E
100
AcDbEntity
  8
0
100
AcDbLine
 10
82.53731999999999
 20
14.776441
 30
0.0
 11
83.88082
 21
19.973641
 31
0.0
  0
LINE
  5
180
330
1E
100
AcDbEntity
  8
0
100
AcDbLine
 10
82.53731999999999
 20
14.776441
 30
0.0
 11
87.41642
 21
22.764941
 31
0.0
  0
LINE
  5
182
330
1E
100
AcDbEntity
  8
0
100
AcDbLine
 10
78.57751999999999
 20
9.968141000000001
 30
0.0
 11
82.53731999999999
 21
14.776441
 31
0.0
  0
LINE
  5
184
330
1E
100
AcDbEntity
  8
0
100
AcDbLine
 10
80.91101999999999
 20
19.973641
 30
0.0
 11
80.91101999999999
 21
19.107641
 31
0.0
  0
LINE
  5
185
330
1E
100
AcDbEntity
  8
0
100
AcDbLine
 10
80.91101999999999
 20
19.107641
 30
0.0
 11
80.91101999999999
 21
19.973641
 31
0.0
  0
LINE
  5
186
330
1E
100
AcDbEntity
  8
0
100
AcDbLine
 10
73.98132
 20
16.50954099999999
 30
0.0
 11
73.98132
 21
19.107641
 31
0.0
  0
LINE
  5
187
330
1E
100
AcDbEntity
  8
0
100
AcDbLine
 10
79.63821999999999
 20
24.782041
 30
0.0
 11
80.91101999999999
 21
19.973641
 31
0.0
  0
LINE
  5
188
330
1E
100
AcDbEntity
  8
0
100
AcDbLine
 10
82.53731999999999
 20
25.170941
 30
0.0
 11
83.88082
 21
19.973641
 31
0.0
  0
LINE
  5
18A
330
1E
100
AcDbEntity
  8
0
100
AcDbLine
 10
79.63821999999999
 20
23.915941
 30
0.0
 11
80.91101999999999
 21
19.107641
 31
0.0
  0
LINE
  5
18B
330
1E
100
AcDbEntity
  8
0
100
AcDbLine
 10
75.81981999999999
 20
44.543841
 30
0.0
 11
80.30151999999999
 21
41.585941
 31
0.0
  0
LINE
  5
18C
330
1E
100
AcDbEntity
  8
0
100
AcDbLine
 10
82.53731999999999
 20
42.49144099999999
 30
0.0
 11
86.55882
 21
35.90704099999999
 31
0.0
  0
LINE
  5
191
330
1E
100
AcDbEntity
  8
0
100
AcDbLine
 10
78.57751999999999
 20
29.979241
 30
0.0
 11
82.53731999999999
 21
25.170941
 31
0.0
  0
LINE
  5
192
330
1E
100
AcDbEntity
  8
0
100
AcDbLine
 10
75.96122
 20
29.23674099999999
 30
0.0
 11
79.63821999999999
 21
24.782041
 31
0.0
  0
LINE
  5
193
330
1E
100
AcDbEntity
  8
0
100
AcDbLine
 10
75.96122
 20
28.370741
 30
0.0
 11
79.63821999999999
 21
23.915941
 31
0.0
  0
LINE
  5
194
330
1E
100
AcDbEntity
  8
0
100
AcDbLine
 10
72.92071999999999
 20
23.03204099999999
 30
0.0
 11
73.98132
 21
19.107641
 31
0.0
  0
LINE
  5
195
330
1E
100
AcDbEntity
  8
0
100
AcDbLine
 10
72.92071999999999
 20
20.434041
 30
0.0
 11
73.98132
 21
16.50954099999999
 31
0.0
  0
LINE
  5
197
330
1E
100
AcDbEntity
  8
0
100
AcDbLine
 10
86.55882
 20
35.90704099999999
 30
0.0
 11
87.60191999999999
 21
33.732841
 31
0.0
  0
LINE
  5
19A
330
1E
100
AcDbEntity
  8
0
100
AcDbLine
 10
87.60191999999999
 20
33.732841
 30
0.0
 11
88.19231999999999
 21
31.282741
 31
0.0
  0
LINE
  5
1A1
330
1E
100
AcDbEntity
  8
0
100
AcDbLine
 10
83.88082
 20
40.2917291014547
 30
0.0
 11
83.88082
 21
76.265341
 31
0.0
  0
LINE
  5
1A2
330
1E
100
AcDbEntity
  8
0
100
AcDbLine
 10
73.90001999999999
 20
157.0667409999999
 30
0.0
 11
77.30001999999998
 21
148.8667409999999
 31
0.0
  0
LINE
  5
1A3
330
1E
100
AcDbEntity
  8
0
100
AcDbLine
 10
74.30001999999999
 20
157.3667409999999
 30
0.0
 11
77.70001999999999
 21
148.9667409999999
 31
0.0
  0
LINE
  5
1A4
330
1E
100
AcDbEntity
  8
0
100
AcDbLine
 10
73.90001999999999
 20
122.8667409999999
 30
0.0
 11
77.30001999999998
 21
131.0667409999999
 31
0.0
  0
LINE
  5
1A5
330
1E
100
AcDbEntity
  8
0
100
AcDbLine
 10
77.30001999999998
 20
148.8667409999999
 30
0.0
 11
78.50001999999999
 21
139.9667409999999
 31
0.0
  0
LINE
  5
1A6
330
1E
100
AcDbEntity
  8
0
100
AcDbLine
 10
77.30001999999998
 20
131.0667409999999
 30
0.0
 11
78.50001999999999
 21
139.9667409999999
 31
0.0
  0
LINE
  5
1A7
330
1E
100
AcDbEntity
  8
0
100
AcDbLine
 10
74.30001999999999
 20
122.566741
 30
0.0
 11
77.70001999999999
 21
130.9667409999999
 31
0.0
  0
LINE
  5
1A8
330
1E
100
AcDbEntity
  8
0
100
AcDbLine
 10
76.80982
 20
88.77164099999999
 30
0.0
 11
78.08261999999999
 21
87.896841
 31
0.0
  0
LINE
  5
1A9
330
1E
100
AcDbEntity
  8
0
100
AcDbLine
 10
78.08261999999999
 20
87.896841
 30
0.0
 11
82.04231999999999
 21
83.15924100000001
 31
0.0
  0
LINE
  5
1AA
330
1E
100
AcDbEntity
  8
0
100
AcDbLine
 10
82.04231999999999
 20
83.15924100000001
 30
0.0
 11
82.53731999999999
 21
81.462541
 31
0.0
  0
LINE
  5
1AB
330
1E
100
AcDbEntity
  8
0
100
AcDbLine
 10
83.88082
 20
76.265341
 30
0.0
 11
83.88082
 21
40.2917291014547
 31
0.0
  0
LINE
  5
1AC
330
1E
100
AcDbEntity
  8
0
100
AcDbLine
 10
82.53731999999999
 20
81.462541
 30
0.0
 11
83.88082
 21
76.265341
 31
0.0
  0
LINE
  5
1AD
330
1E
100
AcDbEntity
  8
0
100
AcDbLine
 10
78.57751999999999
 20
47.29974099999999
 30
0.0
 11
82.53731999999999
 21
42.49144099999999
 31
0.0
  0
LINE
  5
1AE
330
1E
100
AcDbEntity
  8
0
100
AcDbLine
 10
72.28431999999999
 20
51.43634099999999
 30
0.0
 11
78.57751999999999
 21
47.29974099999999
 31
0.0
  0
LINE
  5
1B5
330
1E
100
AcDbEntity
  8
0
100
AcDbLine
 10
26.60002
 20
170.266741
 30
0.0
 11
19.30001999999999
 21
164.666741
 31
0.0
  0
LINE
  5
1B6
330
1E
100
AcDbEntity
  8
0
100
AcDbLine
 10
34.10002
 20
157.266741
 30
0.0
 11
29.90002
 21
154.0667409999999
 31
0.0
  0
LINE
  5
1B7
330
1E
100
AcDbEntity
  8
0
100
AcDbLine
 10
53.90001999999999
 20
157.266741
 30
0.0
 11
58.10001999999999
 21
154.0667409999999
 31
0.0
  0
LINE
  5
1B8
330
1E
100
AcDbEntity
  8
0
100
AcDbLine
 10
61.40001999999999
 20
170.266741
 30
0.0
 11
68.73110155800691
 21
164.6348169340101
 31
0.0
  0
LINE
  5
1B9
330
1E
100
AcDbEntity
  8
0
100
AcDbLine
 10
68.73110155800691
 20
164.6348169340101
 30
0.0
 11
74.30001999999999
 21
157.3667409999999
 31
0.0
  0
LINE
  5
1BA
330
1E
100
AcDbEntity
  8
0
100
AcDbLine
 10
77.70001999999999
 20
148.9667409999999
 30
0.0
 11
79.26397686989298
 21
140.0849885880552
 31
0.0
  0
LINE
  5
1BB
330
1E
100
AcDbEntity
  8
0
100
AcDbLine
 10
79.26397686989298
 20
140.0849885880552
 30
0.0
 11
77.70001999999999
 21
130.9667409999999
 31
0.0
  0
LINE
  5
1BC
330
1E
100
AcDbEntity
  8
0
100
AcDbLine
 10
0.3083200000000039
 20
23.907541
 30
0.0
 11
-0.192319999999995
 21
31.282741
 31
0.0
  0
LINE
  5
1BD
330
1E
100
AcDbEntity
  8
0
100
AcDbLine
 10
7.698519999999999
 20
41.585941
 30
0.0
 11
1.44122
 21
35.90704099999999
 31
0.0
  0
LINE
  5
1BE
330
1E
100
AcDbEntity
  8
0
100
AcDbLine
 10
88.19231999999999
 20
31.282741
 30
0.0
 11
88.33179806631699
 21
26.50231372410525
 31
0.0
  0
LINE
  5
1BF
330
1E
100
AcDbEntity
  8
0
100
AcDbLine
 10
88.33179806631699
 20
26.50231372410525
 30
0.0
 11
87.41642
 21
22.764941
 31
0.0
  0
LINE
  5
1C0
330
1E
100
AcDbEntity
  8
0
100
AcDbLine
 10
80.30151999999999
 20
41.585941
 30
0.0
 11
86.55882
 21
35.90704099999999
 31
0.0
  0
ENDSEC
  0
SECTION
  2
OBJECTS
  0
DICTIONARY
  5
C
330
0
100
AcDbDictionary
281
     1
  3
ACAD_GROUP
350
D
  3
ACAD_LAYOUT
350
19
  3
ACAD_MLINESTYLE
350
16
  3
ACAD_PLOTSETTINGS
350
18
  3
ACAD_PLOTSTYLENAME
350
E
  3
AcDbVariableDictionary
350
1C1
  0
DICTIONARY
  5
D
102
{ACAD_REACTORS
330
C
102
}
330
C
100
AcDbDictionary
281
     1
  0
DICTIONARY
  5
19
102
{ACAD_REACTORS
330
C
102
}
330
C
100
AcDbDictionary
281
     1
  3
Layout1
350
1D
  3
Model
350
21
  0
DICTIONARY
  5
16
102
{ACAD_REACTORS
330
C
102
}
330
C
100
AcDbDictionary
281
     1
  3
Standard
350
17
  0
DICTIONARY
  5
18
102
{ACAD_REACTORS
330
C
102
}
330
C
100
AcDbDictionary
281
     1
  0
ACDBDICTIONARYWDFLT
  5
E
102
{ACAD_REACTORS
330
C
102
}
330
C
100
AcDbDictionary
281
     1
  3
Normal
350
F
100
AcDbDictionaryWithDefault
340
F
  0
DICTIONARY
  5
1C1
102
{ACAD_REACTORS
330
C
102
}
330
C
100
AcDbDictionary
281
     1
  3
DIMASSOC
350
1C2
  0
LAYOUT
  5
1D
102
{ACAD_REACTORS
330
19
102
}
330
19
100
AcDbPlotSettings
  1

  2
hp deskjet 980c series
  4

  6

 40
0.0
 41
0.0
 42
0.0
 43
0.0
 44
0.0
 45
0.0
 46
0.0
 47
0.0
 48
0.0
 49
0.0
140
0.0
141
0.0
142
1.0
143
1.0
 70
   688
 72
     0
 73
     0
 74
     5
  7

 75
    16
147
1.0
148
0.0
149
0.0
100
AcDbLayout
  1
Layout1
 70
     1
 71
     1
 10
0.0
 20
0.0
 11
12.0
 21
9.0
 12
0.0
 22
0.0
 32
0.0
 14
1.000000000000000E+20
 24
1.000000000000000E+20
 34
1.000000000000000E+20
 15
-1.000000000000000E+20
 25
-1.000000000000000E+20
 35
-1.000000000000000E+20
146
0.0
 13
0.0
 23
0.0
 33
0.0
 16
1.0
 26
0.0
 36
0.0
 17
0.0
 27
1.0
 37
0.0
 76
     0
330
1A
  0
LAYOUT
  5
21
102
{ACAD_REACTORS
330
19
102
}
330
19
100
AcDbPlotSettings
  1

  2
hp deskjet 980c series
  4

  6

 40
0.0
 41
0.0
 42
0.0
 43
0.0
 44
0.0
 45
0.0
 46
0.0
 47
0.0
 48
0.0
 49
0.0
140
0.0
141
0.0
142
1.0
143
1.0
 70
  1712
 72
     0
 73
     0
 74
     0
  7

 75
     0
147
1.0
148
0.0
149
0.0
100
AcDbLayout
  1
Model
 70
     1
 71
     0
 10
0.0
 20
0.0
 11
12.0
 21
9.0
 12
0.0
 22
0.0
 32
0.0
 14
0.0
 24
0.0
 34
0.0
 15
0.0
 25
0.0
 35
0.0
146
0.0
 13
0.0
 23
0.0
 33
0.0
 16
1.0
 26
0.0
 36
0.0
 17
0.0
 27
1.0
 37
0.0
 76
     0
330
1E
  0
MLINESTYLE
  5
17
102
{ACAD_REACTORS
330
16
102
}
330
16
100
AcDbMlineStyle
  2
STANDARD
 70
     0
  3

 62
   256
 51
90.0
 52
90.0
 71
     2
 49
0.5
 62
   256
  6
BYLAYER
 49
-0.5
 62
   256
  6
BYLAYER
  0
ACDBPLACEHOLDER
  5
F
102
{ACAD_REACTORS
330
E
102
}
330
E
  0
DICTIONARYVAR
  5
1C2
102
{ACAD_REACTORS
330
1C1
102
}
330
1C1
100
DictionaryVariables
280
     0
  1
1
  0
ENDSEC
  0
EOF
