  0
SECTION
  2
HEADER
  9
$ACADVER
  1
AC1014
  9
$ACADMAINTVER
 70
     9
  9
$DWGCODEPAGE
  3
ANSI_1252
  9
$INSBASE
 10
0.0
 20
0.0
 30
0.0
  9
$EXTMIN
 10
0.000000000000002
 20
0.0408749999999825
 30
0.0
  9
$EXTMAX
 10
72.0
 20
153.9591249999999
 30
0.0
  9
$LIMMIN
 10
0.0
 20
0.0
  9
$LIMMAX
 10
12.0
 20
9.0
  9
$ORTHOMODE
 70
     0
  9
$REGENMODE
 70
     1
  9
$FILLMODE
 70
     1
  9
$QTEXTMODE
 70
     0
  9
$MIRRTEXT
 70
     1
  9
$DRAGMODE
 70
     2
  9
$LTSCALE
 40
1.0
  9
$OSMODE
 70
    37
  9
$ATTMODE
 70
     1
  9
$TEXTSIZE
 40
0.2
  9
$TRACEWID
 40
0.05
  9
$TEXTSTYLE
  7
STANDARD
  9
$CLAYER
  8
0
  9
$CELTYPE
  6
CONTINUOUS
  9
$CECOLOR
 62
   256
  9
$CELTSCALE
 40
1.0
  9
$DELOBJ
 70
     1
  9
$DISPSILH
 70
     0
  9
$DIMSCALE
 40
1.0
  9
$DIMASZ
 40
0.18
  9
$DIMEXO
 40
0.0625
  9
$DIMDLI
 40
0.38
  9
$DIMRND
 40
0.0
  9
$DIMDLE
 40
0.0
  9
$DIMEXE
 40
0.18
  9
$DIMTP
 40
0.0
  9
$DIMTM
 40
0.0
  9
$DIMTXT
 40
0.18
  9
$DIMCEN
 40
0.09
  9
$DIMTSZ
 40
0.0
  9
$DIMTOL
 70
     0
  9
$DIMLIM
 70
     0
  9
$DIMTIH
 70
     1
  9
$DIMTOH
 70
     1
  9
$DIMSE1
 70
     0
  9
$DIMSE2
 70
     0
  9
$DIMTAD
 70
     0
  9
$DIMZIN
 70
     0
  9
$DIMBLK
  1

  9
$DIMASO
 70
     1
  9
$DIMSHO
 70
     1
  9
$DIMPOST
  1

  9
$DIMAPOST
  1

  9
$DIMALT
 70
     0
  9
$DIMALTD
 70
     2
  9
$DIMALTF
 40
25.4
  9
$DIMLFAC
 40
1.0
  9
$DIMTOFL
 70
     0
  9
$DIMTVP
 40
0.0
  9
$DIMTIX
 70
     0
  9
$DIMSOXD
 70
     0
  9
$DIMSAH
 70
     0
  9
$DIMBLK1
  1

  9
$DIMBLK2
  1

  9
$DIMSTYLE
  2
STANDARD
  9
$DIMCLRD
 70
     0
  9
$DIMCLRE
 70
     0
  9
$DIMCLRT
 70
     0
  9
$DIMTFAC
 40
1.0
  9
$DIMGAP
 40
0.09
  9
$DIMJUST
 70
     0
  9
$DIMSD1
 70
     0
  9
$DIMSD2
 70
     0
  9
$DIMTOLJ
 70
     1
  9
$DIMTZIN
 70
     0
  9
$DIMALTZ
 70
     0
  9
$DIMALTTZ
 70
     0
  9
$DIMFIT
 70
     3
  9
$DIMUPT
 70
     0
  9
$DIMUNIT
 70
     2
  9
$DIMDEC
 70
     4
  9
$DIMTDEC
 70
     4
  9
$DIMALTU
 70
     2
  9
$DIMALTTD
 70
     2
  9
$DIMTXSTY
  7
STANDARD
  9
$DIMAUNIT
 70
     0
  9
$LUNITS
 70
     2
  9
$LUPREC
 70
     4
  9
$SKETCHINC
 40
0.1
  9
$FILLETRAD
 40
0.0
  9
$AUNITS
 70
     0
  9
$AUPREC
 70
     0
  9
$MENU
  1
.
  9
$ELEVATION
 40
0.0
  9
$PELEVATION
 40
0.0
  9
$THICKNESS
 40
0.0
  9
$LIMCHECK
 70
     0
  9
$BLIPMODE
 70
     0
  9
$CHAMFERA
 40
0.0
  9
$CHAMFERB
 40
0.0
  9
$CHAMFERC
 40
0.0
  9
$CHAMFERD
 40
0.0
  9
$SKPOLY
 70
     0
  9
$TDCREATE
 40
2454698.437072835
  9
$TDUPDATE
 40
2454698.440910011
  9
$TDINDWG
 40
0.0038373495
  9
$TDUSRTIMER
 40
0.0038373495
  9
$USRTIMER
 70
     1
  9
$ANGBASE
 50
0.0
  9
$ANGDIR
 70
     0
  9
$PDMODE
 70
     0
  9
$PDSIZE
 40
0.0
  9
$PLINEWID
 40
0.0
  9
$COORDS
 70
     1
  9
$SPLFRAME
 70
     0
  9
$SPLINETYPE
 70
     6
  9
$SPLINESEGS
 70
     8
  9
$ATTDIA
 70
     0
  9
$ATTREQ
 70
     1
  9
$HANDLING
 70
 22529
  9
$HANDSEED
  5
149
  9
$SURFTAB1
 70
     6
  9
$SURFTAB2
 70
     6
  9
$SURFTYPE
 70
     6
  9
$SURFU
 70
     6
  9
$SURFV
 70
     6
  9
$UCSNAME
  2

  9
$UCSORG
 10
0.0
 20
0.0
 30
0.0
  9
$UCSXDIR
 10
1.0
 20
0.0
 30
0.0
  9
$UCSYDIR
 10
0.0
 20
1.0
 30
0.0
  9
$PUCSNAME
  2

  9
$PUCSORG
 10
0.0
 20
0.0
 30
0.0
  9
$PUCSXDIR
 10
1.0
 20
0.0
 30
0.0
  9
$PUCSYDIR
 10
0.0
 20
1.0
 30
0.0
  9
$USERI1
 70
     0
  9
$USERI2
 70
     0
  9
$USERI3
 70
     0
  9
$USERI4
 70
     0
  9
$USERI5
 70
     0
  9
$USERR1
 40
0.0
  9
$USERR2
 40
0.0
  9
$USERR3
 40
0.0
  9
$USERR4
 40
0.0
  9
$USERR5
 40
0.0
  9
$WORLDVIEW
 70
     1
  9
$SHADEDGE
 70
     3
  9
$SHADEDIF
 70
    70
  9
$TILEMODE
 70
     1
  9
$MAXACTVP
 70
    64
  9
$PINSBASE
 10
0.0
 20
0.0
 30
0.0
  9
$PLIMCHECK
 70
     0
  9
$PEXTMIN
 10
1.000000000000000E+20
 20
1.000000000000000E+20
 30
1.000000000000000E+20
  9
$PEXTMAX
 10
-1.000000000000000E+20
 20
-1.000000000000000E+20
 30
-1.000000000000000E+20
  9
$PLIMMIN
 10
0.0
 20
0.0
  9
$PLIMMAX
 10
12.0
 20
9.0
  9
$UNITMODE
 70
     0
  9
$VISRETAIN
 70
     1
  9
$PLINEGEN
 70
     0
  9
$PSLTSCALE
 70
     1
  9
$TREEDEPTH
 70
  3020
  9
$PICKSTYLE
 70
     1
  9
$CMLSTYLE
  2
STANDARD
  9
$CMLJUST
 70
     0
  9
$CMLSCALE
 40
1.0
  9
$PROXYGRAPHICS
 70
     1
  9
$MEASUREMENT
 70
     0
  0
ENDSEC
  0
SECTION
  2
CLASSES
  0
CLASS
  1
ACDBDICTIONARYWDFLT
  2
AcDbDictionaryWithDefault
  3
AutoCAD 2000
 90
        0
280
     0
281
     0
  0
CLASS
  1
ACDBPLACEHOLDER
  2
AcDbPlaceHolder
  3
AutoCAD 2000
 90
        0
280
     0
281
     0
  0
CLASS
  1
LAYOUT
  2
AcDbLayout
  3
AutoCAD 2000
 90
        0
280
     0
281
     0
  0
CLASS
  1
DICTIONARYVAR
  2
AcDbDictionaryVar
  3
AutoCAD 2000
 90
        0
280
     0
281
     0
  0
CLASS
  1
LONG_TRANSACTION
  2
AcDbLongTransaction
  3
AutoCAD 2000
 90
        0
280
     0
281
     0
  0
CLASS
  1
LWPOLYLINE
  2
AcDbPolyline
  3
AutoCAD 2000
 90
        0
280
     0
281
     1
  0
CLASS
  1
HATCH
  2
AcDbHatch
  3
AutoCAD 2000
 90
        0
280
     0
281
     1
  0
CLASS
  1
XRECORD
  2
AcDbXrecord
  3
AutoCAD 2000
 90
        0
280
     0
281
     0
  0
ENDSEC
  0
SECTION
  2
TABLES
  0
TABLE
  2
VPORT
  5
8
330
0
100
AcDbSymbolTable
 70
     2
  0
VPORT
  5
124
330
8
100
AcDbSymbolTableRecord
100
AcDbViewportTableRecord
  2
*ACTIVE
 70
     0
 10
0.0
 20
0.0
 11
1.0
 21
1.0
 12
36.0
 22
77.0
 13
0.0
 23
0.0
 14
1.0
 24
1.0
 15
0.0
 25
0.0
 16
0.0
 26
0.0
 36
1.0
 17
0.0
 27
0.0
 37
0.0
 40
155.0992084398977
 41
2.078104993597951
 42
50.0
 43
0.0
 44
0.0
 50
0.0
 51
0.0
 71
     0
 72
   100
 73
     1
 74
     3
 75
     0
 76
     0
 77
     0
 78
     0
  0
ENDTAB
  0
TABLE
  2
LTYPE
  5
5
330
0
100
AcDbSymbolTable
 70
     1
  0
LTYPE
  5
13
330
5
100
AcDbSymbolTableRecord
100
AcDbLinetypeTableRecord
  2
BYBLOCK
 70
     0
  3

 72
    65
 73
     0
 40
0.0
  0
LTYPE
  5
14
330
5
100
AcDbSymbolTableRecord
100
AcDbLinetypeTableRecord
  2
BYLAYER
 70
     0
  3

 72
    65
 73
     0
 40
0.0
  0
LTYPE
  5
15
330
5
100
AcDbSymbolTableRecord
100
AcDbLinetypeTableRecord
  2
CONTINUOUS
 70
     0
  3
Solid line
 72
    65
 73
     0
 40
0.0
  0
ENDTAB
  0
TABLE
  2
LAYER
  5
2
330
0
100
AcDbSymbolTable
 70
     1
  0
LAYER
  5
10
330
2
100
AcDbSymbolTableRecord
100
AcDbLayerTableRecord
  2
0
 70
     0
 62
     7
  6
CONTINUOUS
  0
ENDTAB
  0
TABLE
  2
STYLE
  5
3
330
0
100
AcDbSymbolTable
 70
     1
  0
STYLE
  5
11
330
3
100
AcDbSymbolTableRecord
100
AcDbTextStyleTableRecord
  2
STANDARD
 70
     0
 40
0.0
 41
1.0
 50
0.0
 71
     0
 42
0.2
  3
txt
  4

  0
ENDTAB
  0
TABLE
  2
VIEW
  5
6
330
0
100
AcDbSymbolTable
 70
     0
  0
ENDTAB
  0
TABLE
  2
UCS
  5
7
330
0
100
AcDbSymbolTable
 70
     0
  0
ENDTAB
  0
TABLE
  2
APPID
  5
9
330
0
100
AcDbSymbolTable
 70
     1
  0
APPID
  5
12
330
9
100
AcDbSymbolTableRecord
100
AcDbRegAppTableRecord
  2
ACAD
 70
     0
  0
ENDTAB
  0
TABLE
  2
DIMSTYLE
  5
A
330
0
100
AcDbSymbolTable
 70
     1
  0
DIMSTYLE
105
118
330
A
100
AcDbSymbolTableRecord
100
AcDbDimStyleTableRecord
  2
STANDARD
 70
     0
  3

  4

  5

  6

  7

 40
1.0
 41
0.18
 42
0.0625
 43
0.38
 44
0.18
 45
0.0
 46
0.0
 47
0.0
 48
0.0
140
0.18
141
0.09
142
0.0
143
25.4
144
1.0
145
0.0
146
1.0
147
0.09
 71
     0
 72
     0
 73
     1
 74
     1
 75
     0
 76
     0
 77
     0
 78
     0
170
     0
171
     2
172
     0
173
     0
174
     0
175
     0
176
     0
177
     0
178
     0
270
     2
271
     4
272
     4
273
     2
274
     2
340
11
275
     0
280
     0
281
     0
282
     0
283
     1
284
     0
285
     0
286
     0
287
     3
288
     0
  0
ENDTAB
  0
TABLE
  2
BLOCK_RECORD
  5
1
330
0
100
AcDbSymbolTable
 70
     0
  0
BLOCK_RECORD
  5
1E
102
{ACAD_XDICTIONARY
360
147
102
}
330
1
100
AcDbSymbolTableRecord
100
AcDbBlockTableRecord
  2
*MODEL_SPACE
  0
BLOCK_RECORD
  5
1A
102
{ACAD_XDICTIONARY
360
145
102
}
330
1
100
AcDbSymbolTableRecord
100
AcDbBlockTableRecord
  2
*PAPER_SPACE
  0
ENDTAB
  0
ENDSEC
  0
SECTION
  2
BLOCKS
  0
BLOCK
  5
1F
330
1E
100
AcDbEntity
  8
0
100
AcDbBlockBegin
  2
*MODEL_SPACE
 70
     0
 10
0.0
 20
0.0
 30
0.0
  3
*MODEL_SPACE
  1

  0
ENDBLK
  5
20
330
1E
100
AcDbEntity
  8
0
100
AcDbBlockEnd
  0
BLOCK
  5
1B
330
1A
100
AcDbEntity
 67
     1
  8
0
100
AcDbBlockBegin
  2
*PAPER_SPACE
 70
     0
 10
0.0
 20
0.0
 30
0.0
  3
*PAPER_SPACE
  1

  0
ENDBLK
  5
1C
330
1A
100
AcDbEntity
 67
     1
  8
0
100
AcDbBlockEnd
  0
ENDSEC
  0
SECTION
  2
ENTITIES
  0
LINE
  5
22
330
1E
100
AcDbEntity
  8
0
100
AcDbLine
 10
0.200000000000002
 20
116.447125
 30
0.0
 11
0.6000000000000022
 21
114.975125
 31
0.0
  0
LINE
  5
23
330
1E
100
AcDbEntity
  8
0
100
AcDbLine
 10
0.200000000000002
 20
119.0451249999999
 30
0.0
 11
0.6000000000000022
 21
120.517125
 31
0.0
  0
LINE
  5
24
330
1E
100
AcDbEntity
  8
0
100
AcDbLine
 10
0.200000000000002
 20
119.0451249999999
 30
0.0
 11
0.6000000000000022
 21
120.517125
 31
0.0
  0
LINE
  5
25
330
1E
100
AcDbEntity
  8
0
100
AcDbLine
 10
0.000000000000002
 20
117.746125
 30
0.0
 11
0.200000000000002
 21
116.447125
 31
0.0
  0
LINE
  5
26
330
1E
100
AcDbEntity
  8
0
100
AcDbLine
 10
0.000000000000002
 20
117.746125
 30
0.0
 11
0.200000000000002
 21
119.0451249999999
 31
0.0
  0
LINE
  5
27
330
1E
100
AcDbEntity
  8
0
100
AcDbLine
 10
0.6000000000000022
 20
120.517125
 30
0.0
 11
1.9
 21
125.067125
 31
0.0
  0
LINE
  5
28
330
1E
100
AcDbEntity
  8
0
100
AcDbLine
 10
0.200000000000002
 20
116.447125
 30
0.0
 11
0.6000000000000022
 21
114.975125
 31
0.0
  0
LINE
  5
29
330
1E
100
AcDbEntity
  8
0
100
AcDbLine
 10
0.6000000000000022
 20
114.975125
 30
0.0
 11
1.9
 21
110.4251249999999
 31
0.0
  0
LINE
  5
2A
330
1E
100
AcDbEntity
  8
0
100
AcDbLine
 10
1.9
 20
125.067125
 30
0.0
 11
2.5
 21
126.526125
 31
0.0
  0
LINE
  5
2B
330
1E
100
AcDbEntity
  8
0
100
AcDbLine
 10
1.9
 20
110.4251249999999
 30
0.0
 11
2.5
 21
108.966125
 31
0.0
  0
LINE
  5
2C
330
1E
100
AcDbEntity
  8
0
100
AcDbLine
 10
2.5
 20
108.966125
 30
0.0
 11
5.9
 21
104.7661249999999
 31
0.0
  0
LINE
  5
2D
330
1E
100
AcDbEntity
  8
0
100
AcDbLine
 10
1.7
 20
112.983125
 30
0.0
 11
2.9
 21
108.583125
 31
0.0
  0
LINE
  5
2E
330
1E
100
AcDbEntity
  8
0
100
AcDbLine
 10
1.7
 20
112.983125
 30
0.0
 11
2.9
 21
117.383125
 31
0.0
  0
LINE
  5
2F
330
1E
100
AcDbEntity
  8
0
100
AcDbLine
 10
1.7
 20
125.107125
 30
0.0
 11
2.9
 21
129.507125
 31
0.0
  0
LINE
  5
30
330
1E
100
AcDbEntity
  8
0
100
AcDbLine
 10
39.0
 20
0.287284999999983
 30
0.0
 11
41.79999999999999
 21
0.853324999999984
 31
0.0
  0
LINE
  5
31
330
1E
100
AcDbEntity
  8
0
100
AcDbLine
 10
39.0
 20
0.287284999999983
 30
0.0
 11
41.79999999999999
 21
0.853324999999984
 31
0.0
  0
LINE
  5
32
330
1E
100
AcDbEntity
  8
0
100
AcDbLine
 10
36.0
 20
0.0408749999999825
 30
0.0
 11
39.0
 21
0.287284999999983
 31
0.0
  0
LINE
  5
33
330
1E
100
AcDbEntity
  8
0
100
AcDbLine
 10
29.8
 20
1.24352499999998
 30
0.0
 11
32.79999999999999
 21
0.6774749999999841
 31
0.0
  0
LINE
  5
34
330
1E
100
AcDbEntity
  8
0
100
AcDbLine
 10
7.9
 20
104.883125
 30
0.0
 11
13.0
 21
101.483125
 31
0.0
  0
LINE
  5
35
330
1E
100
AcDbEntity
  8
0
100
AcDbLine
 10
8.230000000001099
 20
103.219852272727
 30
0.0
 11
11.4
 21
101.116125
 31
0.0
  0
LINE
  5
36
330
1E
100
AcDbEntity
  8
0
100
AcDbLine
 10
6.299999999999999
 20
104.483125
 30
0.0
 11
11.8
 21
100.883125
 31
0.0
  0
LINE
  5
37
330
1E
100
AcDbEntity
  8
0
100
AcDbLine
 10
7.9
 20
121.083125
 30
0.0
 11
13.0
 21
124.483125
 31
0.0
  0
LINE
  5
38
330
1E
100
AcDbEntity
  8
0
100
AcDbLine
 10
4.7
 20
117.183125
 30
0.0
 11
7.9
 21
121.083125
 31
0.0
  0
LINE
  5
39
330
1E
100
AcDbEntity
  8
0
100
AcDbLine
 10
4.7
 20
108.783125
 30
0.0
 11
7.9
 21
104.883125
 31
0.0
  0
LINE
  5
3A
330
1E
100
AcDbEntity
  8
0
100
AcDbLine
 10
3.5
 20
112.983125
 30
0.0
 11
4.7
 21
108.783125
 31
0.0
  0
LINE
  5
3B
330
1E
100
AcDbEntity
  8
0
100
AcDbLine
 10
3.5
 20
112.983125
 30
0.0
 11
4.7
 21
117.183125
 31
0.0
  0
LINE
  5
3C
330
1E
100
AcDbEntity
  8
0
100
AcDbLine
 10
6.299999999999999
 20
121.483125
 30
0.0
 11
11.8
 21
125.083125
 31
0.0
  0
LINE
  5
3D
330
1E
100
AcDbEntity
  8
0
100
AcDbLine
 10
2.9
 20
117.383125
 30
0.0
 11
6.299999999999999
 21
121.483125
 31
0.0
  0
LINE
  5
3E
330
1E
100
AcDbEntity
  8
0
100
AcDbLine
 10
2.9
 20
108.583125
 30
0.0
 11
6.299999999999999
 21
104.483125
 31
0.0
  0
LINE
  5
3F
330
1E
100
AcDbEntity
  8
0
100
AcDbLine
 10
16.2
 20
100.052125
 30
0.0
 11
22.1
 21
97.80212500000001
 31
0.0
  0
LINE
  5
40
330
1E
100
AcDbEntity
  8
0
100
AcDbLine
 10
13.0
 20
124.483125
 30
0.0
 11
19.8
 21
127.0331249999999
 31
0.0
  0
LINE
  5
41
330
1E
100
AcDbEntity
  8
0
100
AcDbLine
 10
13.0
 20
101.483125
 30
0.0
 11
16.2
 21
100.052125
 31
0.0
  0
LINE
  5
42
330
1E
100
AcDbEntity
  8
0
100
AcDbLine
 10
11.8
 20
125.083125
 30
0.0
 11
19.0
 21
127.8331249999999
 31
0.0
  0
LINE
  5
43
330
1E
100
AcDbEntity
  8
0
100
AcDbLine
 10
11.8
 20
100.883125
 30
0.0
 11
19.0
 21
98.13312500000002
 31
0.0
  0
LINE
  5
44
330
1E
100
AcDbEntity
  8
0
100
AcDbLine
 10
11.4
 20
101.116125
 30
0.0
 11
11.8
 21
100.883125
 31
0.0
  0
LINE
  5
45
330
1E
100
AcDbEntity
  8
0
100
AcDbLine
 10
19.0
 20
98.13312500000002
 30
0.0
 11
27.2
 21
96.433125
 31
0.0
  0
LINE
  5
46
330
1E
100
AcDbEntity
  8
0
100
AcDbLine
 10
20.0
 20
97.9258079268293
 30
0.0
 11
20.0
 21
84.123225
 31
0.0
  0
LINE
  5
47
330
1E
100
AcDbEntity
  8
0
100
AcDbLine
 10
20.0
 20
84.123225
 30
0.0
 11
20.0
 21
70.78422500000001
 31
0.0
  0
LINE
  5
48
330
1E
100
AcDbEntity
  8
0
100
AcDbLine
 10
20.0
 20
84.123225
 30
0.0
 11
20.0
 21
97.9258079268293
 31
0.0
  0
LINE
  5
49
330
1E
100
AcDbEntity
  8
0
100
AcDbLine
 10
20.0
 20
70.78422500000001
 30
0.0
 11
20.0
 21
54.886425
 31
0.0
  0
LINE
  5
4A
330
1E
100
AcDbEntity
  8
0
100
AcDbLine
 10
20.0
 20
70.78422500000001
 30
0.0
 11
20.0
 21
84.123225
 31
0.0
  0
LINE
  5
4B
330
1E
100
AcDbEntity
  8
0
100
AcDbLine
 10
20.0
 20
54.886425
 30
0.0
 11
20.5
 21
41.341225
 31
0.0
  0
LINE
  5
4C
330
1E
100
AcDbEntity
  8
0
100
AcDbLine
 10
20.0
 20
54.886425
 30
0.0
 11
20.0
 21
70.78422500000001
 31
0.0
  0
LINE
  5
4E
330
1E
100
AcDbEntity
  8
0
100
AcDbLine
 10
20.5
 20
41.341225
 30
0.0
 11
21.3
 21
27.486225
 31
0.0
  0
LINE
  5
52
330
1E
100
AcDbEntity
  8
0
100
AcDbLine
 10
21.3
 20
27.486225
 30
0.0
 11
21.9157
 21
21.18842499999999
 31
0.0
  0
LINE
  5
53
330
1E
100
AcDbEntity
  8
0
100
AcDbLine
 10
21.9157
 20
21.18842499999999
 30
0.0
 11
22.0529
 21
23.027925
 31
0.0
  0
LINE
  5
54
330
1E
100
AcDbEntity
  8
0
100
AcDbLine
 10
21.9157
 20
21.18842499999999
 30
0.0
 11
22.2262091299654
 21
20.5349883470523
 31
0.0
  0
LINE
  5
55
330
1E
100
AcDbEntity
  8
0
100
AcDbLine
 10
22.1
 20
97.80212500000001
 30
0.0
 11
28.8
 21
96.45212499999999
 31
0.0
  0
LINE
  5
57
330
1E
100
AcDbEntity
  8
0
100
AcDbLine
 10
22.0529
 20
23.027925
 30
0.0
 11
23.2447
 21
24.87882499999999
 31
0.0
  0
LINE
  5
58
330
1E
100
AcDbEntity
  8
0
100
AcDbLine
 10
22.2
 20
21.18362499999999
 30
0.0
 11
22.39999999999999
 21
16.233925
 31
0.0
  0
LINE
  5
59
330
1E
100
AcDbEntity
  8
0
100
AcDbLine
 10
22.2
 20
21.18362499999999
 30
0.0
 11
22.5
 21
23.016625
 31
0.0
  0
LINE
  5
5A
330
1E
100
AcDbEntity
  8
0
100
AcDbLine
 10
23.2447
 20
24.87882499999999
 30
0.0
 11
25.4416
 21
26.543925
 31
0.0
  0
LINE
  5
5C
330
1E
100
AcDbEntity
  8
0
100
AcDbLine
 10
23.8
 20
24.878325
 30
0.0
 11
25.8
 21
26.35252499999999
 31
0.0
  0
LINE
  5
5D
330
1E
100
AcDbEntity
  8
0
100
AcDbLine
 10
22.5
 20
23.016625
 30
0.0
 11
23.8
 21
24.878325
 31
0.0
  0
LINE
  5
5E
330
1E
100
AcDbEntity
  8
0
100
AcDbLine
 10
22.39999999999999
 20
16.233925
 30
0.0
 11
23.5
 21
6.684124999999981
 31
0.0
  0
LINE
  5
5F
330
1E
100
AcDbEntity
  8
0
100
AcDbLine
 10
23.5
 20
6.684124999999981
 30
0.0
 11
24.0
 21
5.05922499999998
 31
0.0
  0
LINE
  5
64
330
1E
100
AcDbEntity
  8
0
100
AcDbLine
 10
25.4416
 20
26.543925
 30
0.0
 11
28.4978
 21
27.86682499999999
 31
0.0
  0
LINE
  5
65
330
1E
100
AcDbEntity
  8
0
100
AcDbLine
 10
25.8
 20
26.35252499999999
 30
0.0
 11
29.0
 21
27.701725
 31
0.0
  0
LINE
  5
66
330
1E
100
AcDbEntity
  8
0
100
AcDbLine
 10
24.0
 20
5.05922499999998
 30
0.0
 11
25.2
 21
3.557624999999979
 31
0.0
  0
LINE
  5
67
330
1E
100
AcDbEntity
  8
0
100
AcDbLine
 10
25.2
 20
3.557624999999979
 30
0.0
 11
27.2
 21
2.30232499999998
 31
0.0
  0
LINE
  5
68
330
1E
100
AcDbEntity
  8
0
100
AcDbLine
 10
25.2
 20
3.557624999999979
 30
0.0
 11
26.0
 21
2.921024999999979
 31
0.0
  0
LINE
  5
69
330
1E
100
AcDbEntity
  8
0
100
AcDbLine
 10
27.2
 20
96.433125
 30
0.0
 11
36.0
 21
95.83312499999999
 31
0.0
  0
LINE
  5
6A
330
1E
100
AcDbEntity
  8
0
100
AcDbLine
 10
27.9618756936737
 20
96.38117892997678
 30
0.0
 11
28.0
 21
96.31612500000001
 31
0.0
  0
LINE
  5
6B
330
1E
100
AcDbEntity
  8
0
100
AcDbLine
 10
28.0
 20
96.37857954545451
 30
0.0
 11
28.0
 21
96.31612500000001
 31
0.0
  0
LINE
  5
6E
330
1E
100
AcDbEntity
  8
0
100
AcDbLine
 10
28.0
 20
96.31612500000001
 30
0.0
 11
28.0
 21
96.37857954545451
 31
0.0
  0
LINE
  5
71
330
1E
100
AcDbEntity
  8
0
100
AcDbLine
 10
28.8
 20
96.45212499999999
 30
0.0
 11
36.0
 21
95.952125
 31
0.0
  0
LINE
  5
76
330
1E
100
AcDbEntity
  8
0
100
AcDbLine
 10
28.4978
 20
27.86682499999999
 30
0.0
 11
32.07609999999999
 21
28.690525
 31
0.0
  0
LINE
  5
77
330
1E
100
AcDbEntity
  8
0
100
AcDbLine
 10
29.0
 20
27.701725
 30
0.0
 11
32.07609999999999
 21
28.455825
 31
0.0
  0
LINE
  5
78
330
1E
100
AcDbEntity
  8
0
100
AcDbLine
 10
27.2
 20
2.30232499999998
 30
0.0
 11
29.8
 21
1.24352499999998
 31
0.0
  0
LINE
  5
79
330
1E
100
AcDbEntity
  8
0
100
AcDbLine
 10
26.0
 20
2.921024999999979
 30
0.0
 11
27.8
 21
1.78892499999998
 31
0.0
  0
LINE
  5
7A
330
1E
100
AcDbEntity
  8
0
100
AcDbLine
 10
27.8
 20
1.78892499999998
 30
0.0
 11
30.2
 21
0.853324999999984
 31
0.0
  0
LINE
  5
7B
330
1E
100
AcDbEntity
  8
0
100
AcDbLine
 10
39.2
 20
0.6774749999999841
 30
0.0
 11
42.2
 21
1.24352499999998
 31
0.0
  0
LINE
  5
7C
330
1E
100
AcDbEntity
  8
0
100
AcDbLine
 10
36.0
 20
0.431064999999983
 30
0.0
 11
39.2
 21
0.6774749999999841
 31
0.0
  0
LINE
  5
7D
330
1E
100
AcDbEntity
  8
0
100
AcDbLine
 10
35.0
 20
94.099125
 30
0.0
 11
35.0
 21
93.83112500000001
 31
0.0
  0
LINE
  5
7E
330
1E
100
AcDbEntity
  8
0
100
AcDbLine
 10
35.0
 20
94.099125
 30
0.0
 11
35.0
 21
95.90130681818179
 31
0.0
  0
LINE
  5
7F
330
1E
100
AcDbEntity
  8
0
100
AcDbLine
 10
37.0
 20
93.83112500000001
 30
0.0
 11
37.0
 21
94.099125
 31
0.0
  0
LINE
  5
80
330
1E
100
AcDbEntity
  8
0
100
AcDbLine
 10
37.0
 20
94.099125
 30
0.0
 11
37.0
 21
95.90130681818179
 31
0.0
  0
LINE
  5
81
330
1E
100
AcDbEntity
  8
0
100
AcDbLine
 10
37.0
 20
94.099125
 30
0.0
 11
37.0
 21
93.83112500000001
 31
0.0
  0
LINE
  5
82
330
1E
100
AcDbEntity
  8
0
100
AcDbLine
 10
36.0
 20
93.83112500000001
 30
0.0
 11
37.0
 21
93.83112500000001
 31
0.0
  0
LINE
  5
83
330
1E
100
AcDbEntity
  8
0
100
AcDbLine
 10
35.0
 20
93.83112500000001
 30
0.0
 11
35.0
 21
94.746125
 31
0.0
  0
LINE
  5
84
330
1E
100
AcDbEntity
  8
0
100
AcDbLine
 10
35.0
 20
93.83112500000001
 30
0.0
 11
36.0
 21
93.83112500000001
 31
0.0
  0
LINE
  5
85
330
1E
100
AcDbEntity
  8
0
100
AcDbLine
 10
35.0
 20
93.83112500000001
 30
0.0
 11
35.0
 21
94.099125
 31
0.0
  0
LINE
  5
86
330
1E
100
AcDbEntity
  8
0
100
AcDbLine
 10
35.0
 20
95.983125
 30
0.0
 11
35.5536
 21
95.983125
 31
0.0
  0
LINE
  5
87
330
1E
100
AcDbEntity
  8
0
100
AcDbLine
 10
37.0
 20
95.90130681818179
 30
0.0
 11
37.0
 21
94.099125
 31
0.0
  0
LINE
  5
88
330
1E
100
AcDbEntity
  8
0
100
AcDbLine
 10
36.44639999999999
 20
95.983125
 30
0.0
 11
37.0
 21
95.983125
 31
0.0
  0
LINE
  5
89
330
1E
100
AcDbEntity
  8
0
100
AcDbLine
 10
36.0
 20
95.952125
 30
0.0
 11
43.2
 21
96.45212499999999
 31
0.0
  0
LINE
  5
8A
330
1E
100
AcDbEntity
  8
0
100
AcDbLine
 10
36.0
 20
95.83312499999999
 30
0.0
 11
44.79999999999999
 21
96.433125
 31
0.0
  0
LINE
  5
8B
330
1E
100
AcDbEntity
  8
0
100
AcDbLine
 10
35.0
 20
95.90130681818179
 30
0.0
 11
35.0
 21
94.099125
 31
0.0
  0
LINE
  5
8C
330
1E
100
AcDbEntity
  8
0
100
AcDbLine
 10
35.0
 20
95.90130681818179
 30
0.0
 11
35.0
 21
94.746125
 31
0.0
  0
LINE
  5
8D
330
1E
100
AcDbEntity
  8
0
100
AcDbLine
 10
35.0
 20
94.746125
 30
0.0
 11
35.0
 21
95.90130681818179
 31
0.0
  0
LINE
  5
8E
330
1E
100
AcDbEntity
  8
0
100
AcDbLine
 10
35.0
 20
94.746125
 30
0.0
 11
35.0
 21
93.83112500000001
 31
0.0
  0
LINE
  5
8F
330
1E
100
AcDbEntity
  8
0
100
AcDbLine
 10
42.2
 20
1.24352499999998
 30
0.0
 11
44.79999999999999
 21
2.30232499999998
 31
0.0
  0
LINE
  5
90
330
1E
100
AcDbEntity
  8
0
100
AcDbLine
 10
41.79999999999999
 20
0.853324999999984
 30
0.0
 11
44.2
 21
1.78892499999998
 31
0.0
  0
LINE
  5
91
330
1E
100
AcDbEntity
  8
0
100
AcDbLine
 10
39.9239
 20
28.455825
 30
0.0
 11
43.0
 21
27.701725
 31
0.0
  0
LINE
  5
92
330
1E
100
AcDbEntity
  8
0
100
AcDbLine
 10
43.0
 20
27.701725
 30
0.0
 11
46.2
 21
26.35252499999999
 31
0.0
  0
LINE
  5
93
330
1E
100
AcDbEntity
  8
0
100
AcDbLine
 10
48.0
 20
5.05922499999998
 30
0.0
 11
48.5
 21
6.684124999999981
 31
0.0
  0
LINE
  5
94
330
1E
100
AcDbEntity
  8
0
100
AcDbLine
 10
46.79999999999999
 20
3.557624999999979
 30
0.0
 11
48.0
 21
5.05922499999998
 31
0.0
  0
LINE
  5
95
330
1E
100
AcDbEntity
  8
0
100
AcDbLine
 10
46.0
 20
2.921024999999979
 30
0.0
 11
46.79999999999999
 21
3.557624999999979
 31
0.0
  0
LINE
  5
96
330
1E
100
AcDbEntity
  8
0
100
AcDbLine
 10
44.79999999999999
 20
2.30232499999998
 30
0.0
 11
46.79999999999999
 21
3.557624999999979
 31
0.0
  0
LINE
  5
97
330
1E
100
AcDbEntity
  8
0
100
AcDbLine
 10
44.2
 20
1.78892499999998
 30
0.0
 11
46.0
 21
2.921024999999979
 31
0.0
  0
LINE
  5
98
330
1E
100
AcDbEntity
  8
0
100
AcDbLine
 10
46.2
 20
26.35252499999999
 30
0.0
 11
48.2
 21
24.878325
 31
0.0
  0
LINE
  5
99
330
1E
100
AcDbEntity
  8
0
100
AcDbLine
 10
48.5
 20
6.684124999999981
 30
0.0
 11
49.6
 21
16.233925
 31
0.0
  0
LINE
  5
9A
330
1E
100
AcDbEntity
  8
0
100
AcDbLine
 10
48.2
 20
24.878325
 30
0.0
 11
49.5
 21
23.016625
 31
0.0
  0
LINE
  5
9B
330
1E
100
AcDbEntity
  8
0
100
AcDbLine
 10
46.5584
 20
26.543925
 30
0.0
 11
48.7553
 21
24.87882499999999
 31
0.0
  0
LINE
  5
9C
330
1E
100
AcDbEntity
  8
0
100
AcDbLine
 10
43.5022
 20
27.86682499999999
 30
0.0
 11
46.5584
 21
26.543925
 31
0.0
  0
LINE
  5
A4
330
1E
100
AcDbEntity
  8
0
100
AcDbLine
 10
39.9239
 20
28.690525
 30
0.0
 11
43.5022
 21
27.86682499999999
 31
0.0
  0
LINE
  5
A5
330
1E
100
AcDbEntity
  8
0
100
AcDbLine
 10
49.6
 20
16.233925
 30
0.0
 11
49.8
 21
21.18362499999999
 31
0.0
  0
LINE
  5
A6
330
1E
100
AcDbEntity
  8
0
100
AcDbLine
 10
49.7737908700346
 20
20.5349883470523
 30
0.0
 11
50.0843
 21
21.18842499999999
 31
0.0
  0
LINE
  5
A7
330
1E
100
AcDbEntity
  8
0
100
AcDbLine
 10
49.5
 20
23.016625
 30
0.0
 11
49.8
 21
21.18362499999999
 31
0.0
  0
LINE
  5
AA
330
1E
100
AcDbEntity
  8
0
100
AcDbLine
 10
52.0
 20
84.123225
 30
0.0
 11
52.0
 21
70.78422500000001
 31
0.0
  0
LINE
  5
AB
330
1E
100
AcDbEntity
  8
0
100
AcDbLine
 10
52.0
 20
84.123225
 30
0.0
 11
52.0
 21
97.9258079268293
 31
0.0
  0
LINE
  5
AC
330
1E
100
AcDbEntity
  8
0
100
AcDbLine
 10
52.0
 20
70.78422500000001
 30
0.0
 11
52.0
 21
54.886425
 31
0.0
  0
LINE
  5
AD
330
1E
100
AcDbEntity
  8
0
100
AcDbLine
 10
52.0
 20
70.78422500000001
 30
0.0
 11
52.0
 21
84.123225
 31
0.0
  0
LINE
  5
AE
330
1E
100
AcDbEntity
  8
0
100
AcDbLine
 10
52.0
 20
54.886425
 30
0.0
 11
52.0
 21
70.78422500000001
 31
0.0
  0
LINE
  5
AF
330
1E
100
AcDbEntity
  8
0
100
AcDbLine
 10
51.5
 20
41.341225
 30
0.0
 11
52.0
 21
54.886425
 31
0.0
  0
LINE
  5
B1
330
1E
100
AcDbEntity
  8
0
100
AcDbLine
 10
50.7
 20
27.486225
 30
0.0
 11
51.5
 21
41.341225
 31
0.0
  0
LINE
  5
B3
330
1E
100
AcDbEntity
  8
0
100
AcDbLine
 10
49.9471
 20
23.027925
 30
0.0
 11
50.0843
 21
21.18842499999999
 31
0.0
  0
LINE
  5
B4
330
1E
100
AcDbEntity
  8
0
100
AcDbLine
 10
50.0843
 20
21.18842499999999
 30
0.0
 11
50.7
 21
27.486225
 31
0.0
  0
LINE
  5
B5
330
1E
100
AcDbEntity
  8
0
100
AcDbLine
 10
48.7553
 20
24.87882499999999
 30
0.0
 11
49.9471
 21
23.027925
 31
0.0
  0
LINE
  5
B8
330
1E
100
AcDbEntity
  8
0
100
AcDbLine
 10
43.2
 20
96.45212499999999
 30
0.0
 11
49.9
 21
97.80212500000001
 31
0.0
  0
LINE
  5
B9
330
1E
100
AcDbEntity
  8
0
100
AcDbLine
 10
44.0
 20
96.37857954545451
 30
0.0
 11
44.0
 21
96.31612500000001
 31
0.0
  0
LINE
  5
BA
330
1E
100
AcDbEntity
  8
0
100
AcDbLine
 10
44.79999999999999
 20
96.433125
 30
0.0
 11
53.0
 21
98.13312500000002
 31
0.0
  0
LINE
  5
BB
330
1E
100
AcDbEntity
  8
0
100
AcDbLine
 10
49.9
 20
97.80212500000001
 30
0.0
 11
55.8
 21
100.052125
 31
0.0
  0
LINE
  5
BD
330
1E
100
AcDbEntity
  8
0
100
AcDbLine
 10
59.0
 20
101.483125
 30
0.0
 11
64.1
 21
104.883125
 31
0.0
  0
LINE
  5
BE
330
1E
100
AcDbEntity
  8
0
100
AcDbLine
 10
55.8
 20
100.052125
 30
0.0
 11
59.0
 21
101.483125
 31
0.0
  0
LINE
  5
BF
330
1E
100
AcDbEntity
  8
0
100
AcDbLine
 10
64.1
 20
104.883125
 30
0.0
 11
67.3
 21
108.783125
 31
0.0
  0
LINE
  5
C0
330
1E
100
AcDbEntity
  8
0
100
AcDbLine
 10
60.6
 20
101.116125
 30
0.0
 11
63.7699999999985
 21
103.219852272726
 31
0.0
  0
LINE
  5
C1
330
1E
100
AcDbEntity
  8
0
100
AcDbLine
 10
66.09999999999999
 20
104.7661249999999
 30
0.0
 11
69.5
 21
108.966125
 31
0.0
  0
LINE
  5
C2
330
1E
100
AcDbEntity
  8
0
100
AcDbLine
 10
65.7
 20
104.483125
 30
0.0
 11
69.1
 21
108.583125
 31
0.0
  0
LINE
  5
C3
330
1E
100
AcDbEntity
  8
0
100
AcDbLine
 10
67.3
 20
117.183125
 30
0.0
 11
68.5
 21
112.983125
 31
0.0
  0
LINE
  5
C4
330
1E
100
AcDbEntity
  8
0
100
AcDbLine
 10
67.3
 20
108.783125
 30
0.0
 11
68.5
 21
112.983125
 31
0.0
  0
LINE
  5
C5
330
1E
100
AcDbEntity
  8
0
100
AcDbLine
 10
64.1
 20
121.083125
 30
0.0
 11
67.3
 21
117.183125
 31
0.0
  0
LINE
  5
C6
330
1E
100
AcDbEntity
  8
0
100
AcDbLine
 10
65.7
 20
121.483125
 30
0.0
 11
69.1
 21
117.383125
 31
0.0
  0
LINE
  5
C7
330
1E
100
AcDbEntity
  8
0
100
AcDbLine
 10
69.1
 20
117.383125
 30
0.0
 11
70.3
 21
112.983125
 31
0.0
  0
LINE
  5
C8
330
1E
100
AcDbEntity
  8
0
100
AcDbLine
 10
71.4
 20
120.517125
 30
0.0
 11
71.79999999999999
 21
119.0451249999999
 31
0.0
  0
LINE
  5
C9
330
1E
100
AcDbEntity
  8
0
100
AcDbLine
 10
71.79999999999999
 20
119.0451249999999
 30
0.0
 11
72.0
 21
117.746125
 31
0.0
  0
LINE
  5
CA
330
1E
100
AcDbEntity
  8
0
100
AcDbLine
 10
71.79999999999999
 20
116.447125
 30
0.0
 11
72.0
 21
117.746125
 31
0.0
  0
LINE
  5
CB
330
1E
100
AcDbEntity
  8
0
100
AcDbLine
 10
71.4
 20
114.975125
 30
0.0
 11
71.79999999999999
 21
116.447125
 31
0.0
  0
LINE
  5
CC
330
1E
100
AcDbEntity
  8
0
100
AcDbLine
 10
70.09999999999999
 20
110.4251249999999
 30
0.0
 11
71.4
 21
114.975125
 31
0.0
  0
LINE
  5
CD
330
1E
100
AcDbEntity
  8
0
100
AcDbLine
 10
69.5
 20
108.966125
 30
0.0
 11
70.09999999999999
 21
110.4251249999999
 31
0.0
  0
LINE
  5
CE
330
1E
100
AcDbEntity
  8
0
100
AcDbLine
 10
69.1
 20
108.583125
 30
0.0
 11
70.3
 21
112.983125
 31
0.0
  0
LINE
  5
CF
330
1E
100
AcDbEntity
  8
0
100
AcDbLine
 10
60.2
 20
100.883125
 30
0.0
 11
60.6
 21
101.116125
 31
0.0
  0
LINE
  5
D0
330
1E
100
AcDbEntity
  8
0
100
AcDbLine
 10
60.2
 20
100.883125
 30
0.0
 11
65.7
 21
104.483125
 31
0.0
  0
LINE
  5
D1
330
1E
100
AcDbEntity
  8
0
100
AcDbLine
 10
53.0
 20
98.13312500000002
 30
0.0
 11
60.2
 21
100.883125
 31
0.0
  0
LINE
  5
D2
330
1E
100
AcDbEntity
  8
0
100
AcDbLine
 10
52.0
 20
97.9258079268293
 30
0.0
 11
52.0
 21
84.123225
 31
0.0
  0
LINE
  5
D3
330
1E
100
AcDbEntity
  8
0
100
AcDbLine
 10
59.0
 20
124.483125
 30
0.0
 11
64.1
 21
121.083125
 31
0.0
  0
LINE
  5
D4
330
1E
100
AcDbEntity
  8
0
100
AcDbLine
 10
69.5
 20
126.526125
 30
0.0
 11
70.09999999999999
 21
125.067125
 31
0.0
  0
LINE
  5
D5
330
1E
100
AcDbEntity
  8
0
100
AcDbLine
 10
70.09999999999999
 20
125.067125
 30
0.0
 11
71.4
 21
120.517125
 31
0.0
  0
LINE
  5
D6
330
1E
100
AcDbEntity
  8
0
100
AcDbLine
 10
60.2
 20
125.083125
 30
0.0
 11
65.7
 21
121.483125
 31
0.0
  0
LINE
  5
D7
330
1E
100
AcDbEntity
  8
0
100
AcDbLine
 10
69.7
 20
126.749125
 30
0.0
 11
71.0
 21
122.249125
 31
0.0
  0
LINE
  5
D8
330
1E
100
AcDbEntity
  8
0
100
AcDbLine
 10
70.3
 20
125.107125
 30
0.0
 11
71.0
 21
122.249125
 31
0.0
  0
LINE
  5
D9
330
1E
100
AcDbEntity
  8
0
100
AcDbLine
 10
70.95230939226521
 20
122.084042127072
 30
0.0
 11
71.0
 21
122.249125
 31
0.0
  0
LINE
  5
DA
330
1E
100
AcDbEntity
  8
0
100
AcDbLine
 10
44.0
 20
96.31612500000001
 30
0.0
 11
44.0
 21
96.37857954545451
 31
0.0
  0
LINE
  5
DB
330
1E
100
AcDbEntity
  8
0
100
AcDbLine
 10
44.0
 20
96.31612500000001
 30
0.0
 11
44.03812430632629
 21
96.38117892997678
 31
0.0
  0
LINE
  5
E0
330
1E
100
AcDbEntity
  8
0
100
AcDbLine
 10
32.79999999999999
 20
0.6774749999999841
 30
0.0
 11
36.0
 21
0.431064999999983
 31
0.0
  0
LINE
  5
E1
330
1E
100
AcDbEntity
  8
0
100
AcDbLine
 10
30.2
 20
0.853324999999984
 30
0.0
 11
33.0
 21
0.287284999999983
 31
0.0
  0
LINE
  5
E2
330
1E
100
AcDbEntity
  8
0
100
AcDbLine
 10
30.2
 20
0.853324999999984
 30
0.0
 11
33.0
 21
0.287284999999983
 31
0.0
  0
LINE
  5
E3
330
1E
100
AcDbEntity
  8
0
100
AcDbLine
 10
33.0
 20
0.287284999999983
 30
0.0
 11
36.0
 21
0.0408749999999825
 31
0.0
  0
LINE
  5
E4
330
1E
100
AcDbEntity
  8
0
100
AcDbLine
 10
2.5
 20
126.526125
 30
0.0
 11
5.9
 21
130.726125
 31
0.0
  0
LINE
  5
E5
330
1E
100
AcDbEntity
  8
0
100
AcDbLine
 10
4.7
 20
134.503125
 30
0.0
 11
7.599999999999999
 21
139.299125
 31
0.0
  0
LINE
  5
E6
330
1E
100
AcDbEntity
  8
0
100
AcDbLine
 10
2.9
 20
129.507125
 30
0.0
 11
4.7
 21
134.503125
 31
0.0
  0
LINE
  5
E7
330
1E
100
AcDbEntity
  8
0
100
AcDbLine
 10
52.2
 20
127.0331249999999
 30
0.0
 11
59.0
 21
124.483125
 31
0.0
  0
LINE
  5
E8
330
1E
100
AcDbEntity
  8
0
100
AcDbLine
 10
44.4
 20
128.633125
 30
0.0
 11
52.2
 21
127.0331249999999
 31
0.0
  0
LINE
  5
E9
330
1E
100
AcDbEntity
  8
0
100
AcDbLine
 10
53.0
 20
127.8331249999999
 30
0.0
 11
60.2
 21
125.083125
 31
0.0
  0
LINE
  5
EA
330
1E
100
AcDbEntity
  8
0
100
AcDbLine
 10
19.8
 20
127.0331249999999
 30
0.0
 11
27.6
 21
128.633125
 31
0.0
  0
LINE
  5
EB
330
1E
100
AcDbEntity
  8
0
100
AcDbLine
 10
36.0
 20
129.2331249999999
 30
0.0
 11
44.4
 21
128.633125
 31
0.0
  0
LINE
  5
EC
330
1E
100
AcDbEntity
  8
0
100
AcDbLine
 10
44.79999999999999
 20
129.533125
 30
0.0
 11
53.0
 21
127.8331249999999
 31
0.0
  0
LINE
  5
ED
330
1E
100
AcDbEntity
  8
0
100
AcDbLine
 10
27.6
 20
128.633125
 30
0.0
 11
36.0
 21
129.2331249999999
 31
0.0
  0
LINE
  5
EE
330
1E
100
AcDbEntity
  8
0
100
AcDbLine
 10
19.0
 20
127.8331249999999
 30
0.0
 11
27.2
 21
129.533125
 31
0.0
  0
LINE
  5
EF
330
1E
100
AcDbEntity
  8
0
100
AcDbLine
 10
36.0
 20
130.133125
 30
0.0
 11
44.79999999999999
 21
129.533125
 31
0.0
  0
LINE
  5
F0
330
1E
100
AcDbEntity
  8
0
100
AcDbLine
 10
27.2
 20
129.533125
 30
0.0
 11
36.0
 21
130.133125
 31
0.0
  0
LINE
  5
F1
330
1E
100
AcDbEntity
  8
0
100
AcDbLine
 10
69.1
 20
129.507125
 30
0.0
 11
70.3
 21
125.107125
 31
0.0
  0
LINE
  5
F2
330
1E
100
AcDbEntity
  8
0
100
AcDbLine
 10
66.09999999999999
 20
130.726125
 30
0.0
 11
69.5
 21
126.526125
 31
0.0
  0
LINE
  5
F3
330
1E
100
AcDbEntity
  8
0
100
AcDbLine
 10
11.4
 20
134.376125
 30
0.0
 11
18.7
 21
137.126125
 31
0.0
  0
LINE
  5
F4
330
1E
100
AcDbEntity
  8
0
100
AcDbLine
 10
11.3
 20
134.5991249999999
 30
0.0
 11
18.6
 21
137.3991249999999
 31
0.0
  0
LINE
  5
F5
330
1E
100
AcDbEntity
  8
0
100
AcDbLine
 10
18.7
 20
137.126125
 30
0.0
 11
27.1
 21
138.826125
 31
0.0
  0
LINE
  5
F6
330
1E
100
AcDbEntity
  8
0
100
AcDbLine
 10
18.6
 20
137.3991249999999
 30
0.0
 11
27.0
 21
139.0991249999999
 31
0.0
  0
LINE
  5
F7
330
1E
100
AcDbEntity
  8
0
100
AcDbLine
 10
53.39999999999999
 20
137.3991249999999
 30
0.0
 11
60.7
 21
134.5991249999999
 31
0.0
  0
LINE
  5
F8
330
1E
100
AcDbEntity
  8
0
100
AcDbLine
 10
53.3
 20
137.126125
 30
0.0
 11
60.6
 21
134.376125
 31
0.0
  0
LINE
  5
F9
330
1E
100
AcDbEntity
  8
0
100
AcDbLine
 10
44.9
 20
138.826125
 30
0.0
 11
53.3
 21
137.126125
 31
0.0
  0
LINE
  5
FA
330
1E
100
AcDbEntity
  8
0
100
AcDbLine
 10
60.7
 20
134.5991249999999
 30
0.0
 11
66.29999999999999
 21
130.949125
 31
0.0
  0
LINE
  5
FB
330
1E
100
AcDbEntity
  8
0
100
AcDbLine
 10
60.6
 20
134.376125
 30
0.0
 11
66.09999999999999
 21
130.726125
 31
0.0
  0
LINE
  5
FC
330
1E
100
AcDbEntity
  8
0
100
AcDbLine
 10
67.3
 20
134.503125
 30
0.0
 11
69.1
 21
129.507125
 31
0.0
  0
LINE
  5
FD
330
1E
100
AcDbEntity
  8
0
100
AcDbLine
 10
66.29999999999999
 20
130.949125
 30
0.0
 11
69.7
 21
126.749125
 31
0.0
  0
LINE
  5
FE
330
1E
100
AcDbEntity
  8
0
100
AcDbLine
 10
36.0
 20
139.4761249999999
 30
0.0
 11
44.9
 21
138.826125
 31
0.0
  0
LINE
  5
FF
330
1E
100
AcDbEntity
  8
0
100
AcDbLine
 10
45.0
 20
139.0991249999999
 30
0.0
 11
53.39999999999999
 21
137.3991249999999
 31
0.0
  0
LINE
  5
100
330
1E
100
AcDbEntity
  8
0
100
AcDbLine
 10
36.0
 20
139.7491249999999
 30
0.0
 11
45.0
 21
139.0991249999999
 31
0.0
  0
LINE
  5
101
330
1E
100
AcDbEntity
  8
0
100
AcDbLine
 10
61.5
 20
142.8491249999999
 30
0.0
 11
64.40000000000001
 21
139.299125
 31
0.0
  0
LINE
  5
102
330
1E
100
AcDbEntity
  8
0
100
AcDbLine
 10
64.40000000000001
 20
139.299125
 30
0.0
 11
67.3
 21
134.503125
 31
0.0
  0
LINE
  5
103
330
1E
100
AcDbEntity
  8
0
100
AcDbLine
 10
27.1
 20
138.826125
 30
0.0
 11
36.0
 21
139.4761249999999
 31
0.0
  0
LINE
  5
104
330
1E
100
AcDbEntity
  8
0
100
AcDbLine
 10
27.0
 20
139.0991249999999
 30
0.0
 11
36.0
 21
139.7491249999999
 31
0.0
  0
LINE
  5
105
330
1E
100
AcDbEntity
  8
0
100
AcDbLine
 10
52.9
 20
149.579125
 30
0.0
 11
56.79999999999999
 21
147.0791249999999
 31
0.0
  0
LINE
  5
106
330
1E
100
AcDbEntity
  8
0
100
AcDbLine
 10
56.79999999999999
 20
147.0791249999999
 30
0.0
 11
61.5
 21
142.8491249999999
 31
0.0
  0
LINE
  5
107
330
1E
100
AcDbEntity
  8
0
100
AcDbLine
 10
24.1
 20
151.5291249999999
 30
0.0
 11
27.5
 21
152.8091249999999
 31
0.0
  0
LINE
  5
108
330
1E
100
AcDbEntity
  8
0
100
AcDbLine
 10
27.5
 20
152.8091249999999
 30
0.0
 11
31.6
 21
153.6591249999999
 31
0.0
  0
LINE
  5
109
330
1E
100
AcDbEntity
  8
0
100
AcDbLine
 10
40.4
 20
153.6591249999999
 30
0.0
 11
44.5
 21
152.8091249999999
 31
0.0
  0
LINE
  5
10A
330
1E
100
AcDbEntity
  8
0
100
AcDbLine
 10
44.5
 20
152.8091249999999
 30
0.0
 11
47.9
 21
151.5291249999999
 31
0.0
  0
LINE
  5
10B
330
1E
100
AcDbEntity
  8
0
100
AcDbLine
 10
36.0
 20
153.9591249999999
 30
0.0
 11
40.4
 21
153.6591249999999
 31
0.0
  0
LINE
  5
10C
330
1E
100
AcDbEntity
  8
0
100
AcDbLine
 10
47.9
 20
151.5291249999999
 30
0.0
 11
52.9
 21
149.579125
 31
0.0
  0
LINE
  5
10D
330
1E
100
AcDbEntity
  8
0
100
AcDbLine
 10
31.6
 20
153.6591249999999
 30
0.0
 11
36.0
 21
153.9591249999999
 31
0.0
  0
LINE
  5
10E
330
1E
100
AcDbEntity
  8
0
100
AcDbLine
 10
19.1
 20
149.579125
 30
0.0
 11
24.1
 21
151.5291249999999
 31
0.0
  0
LINE
  5
10F
330
1E
100
AcDbEntity
  8
0
100
AcDbLine
 10
15.2
 20
147.0791249999999
 30
0.0
 11
19.1
 21
149.579125
 31
0.0
  0
LINE
  5
110
330
1E
100
AcDbEntity
  8
0
100
AcDbLine
 10
10.5
 20
142.8491249999999
 30
0.0
 11
15.2
 21
147.0791249999999
 31
0.0
  0
LINE
  5
111
330
1E
100
AcDbEntity
  8
0
100
AcDbLine
 10
7.599999999999999
 20
139.299125
 30
0.0
 11
10.5
 21
142.8491249999999
 31
0.0
  0
LINE
  5
112
330
1E
100
AcDbEntity
  8
0
100
AcDbLine
 10
5.9
 20
130.726125
 30
0.0
 11
11.4
 21
134.376125
 31
0.0
  0
LINE
  5
113
330
1E
100
AcDbEntity
  8
0
100
AcDbLine
 10
5.7
 20
130.949125
 30
0.0
 11
11.3
 21
134.5991249999999
 31
0.0
  0
LINE
  5
114
330
1E
100
AcDbEntity
  8
0
100
AcDbLine
 10
2.299999999999999
 20
126.749125
 30
0.0
 11
5.7
 21
130.949125
 31
0.0
  0
LINE
  5
115
330
1E
100
AcDbEntity
  8
0
100
AcDbLine
 10
1.0
 20
122.249125
 30
0.0
 11
1.04769060773481
 21
122.084042127072
 31
0.0
  0
LINE
  5
116
330
1E
100
AcDbEntity
  8
0
100
AcDbLine
 10
1.0
 20
122.249125
 30
0.0
 11
1.7
 21
125.107125
 31
0.0
  0
LINE
  5
117
330
1E
100
AcDbEntity
  8
0
100
AcDbLine
 10
1.0
 20
122.249125
 30
0.0
 11
2.299999999999999
 21
126.749125
 31
0.0
  0
LINE
  5
11C
330
1E
100
AcDbEntity
  8
0
100
AcDbLine
 10
32.07609999999999
 20
28.690525
 30
0.0
 11
34.95120196819357
 21
29.05956539293759
 31
0.0
  0
LINE
  5
11D
330
1E
100
AcDbEntity
  8
0
100
AcDbLine
 10
34.95120196819357
 20
29.05956539293759
 30
0.0
 11
36.95737316819895
 21
29.08629682771925
 31
0.0
  0
LINE
  5
11E
330
1E
100
AcDbEntity
  8
0
100
AcDbLine
 10
36.95737316819895
 20
29.08629682771925
 30
0.0
 11
39.9239
 21
28.690525
 31
0.0
  0
LINE
  5
11F
330
1E
100
AcDbEntity
  8
0
100
AcDbLine
 10
32.07609999999999
 20
28.455825
 30
0.0
 11
34.89386218605386
 21
28.85576925891706
 31
0.0
  0
LINE
  5
120
330
1E
100
AcDbEntity
  8
0
100
AcDbLine
 10
34.89386218605386
 20
28.85576925891706
 30
0.0
 11
36.96113513458817
 21
28.91901121707178
 31
0.0
  0
LINE
  5
121
330
1E
100
AcDbEntity
  8
0
100
AcDbLine
 10
36.96113513458817
 20
28.91901121707178
 30
0.0
 11
39.9239
 21
28.455825
 31
0.0
  0
ENDSEC
  0
SECTION
  2
OBJECTS
  0
DICTIONARY
  5
C
330
0
100
AcDbDictionary
  3
ACAD_GROUP
350
D
  3
ACAD_LAYOUT
350
19
  3
ACAD_MLINESTYLE
350
16
  3
ACAD_PLOTSETTINGS
350
18
  3
ACAD_PLOTSTYLENAME
350
E
  3
ACDBHEADERROUNDTRIPXREC
350
125
  3
ACDBVARIABLEDICTIONARY
350
122
  0
DICTIONARY
  5
147
330
1E
100
AcDbDictionary
280
     1
  3
ACAD_LAYOUTSELFREF
360
148
  0
DICTIONARY
  5
145
330
1A
100
AcDbDictionary
280
     1
  3
ACAD_LAYOUTSELFREF
360
146
  0
DICTIONARY
  5
D
102
{ACAD_REACTORS
330
C
102
}
330
C
100
AcDbDictionary
  0
DICTIONARY
  5
19
102
{ACAD_REACTORS
330
C
102
}
330
C
100
AcDbDictionary
  0
DICTIONARY
  5
16
102
{ACAD_REACTORS
330
C
102
}
330
C
100
AcDbDictionary
  3
STANDARD
350
17
  0
DICTIONARY
  5
18
102
{ACAD_REACTORS
330
C
102
}
330
C
100
AcDbDictionary
  0
ACDBDICTIONARYWDFLT
  5
E
102
{ACAD_REACTORS
330
C
102
}
330
C
100
AcDbDictionary
281
     1
  3
Normal
350
F
100
AcDbDictionaryWithDefault
340
F
  0
DICTIONARY
  5
125
102
{ACAD_REACTORS
330
C
102
}
330
C
100
AcDbDictionary
  3
CEPSNTYPE
350
12F
  3
FINGERPRINTGUID
350
130
  3
HYPERLINKBASE
350
128
  3
INSUNITS
350
12E
  3
LAYOUTDICT
350
12A
  3
LWETCUNION
350
12D
  3
PLOTSETDICT
350
12B
  3
PLOTSTYLNAMDICT
350
12C
  3
PSVPSCALE
350
132
  3
PUCSBASE
350
135
  3
PUCSORGBACK
350
13B
  3
PUCSORGBOTTOM
350
137
  3
PUCSORGFRONT
350
13A
  3
PUCSORGLEFT
350
138
  3
PUCSORGRIGHT
350
139
  3
PUCSORGTOP
350
136
  3
PUCSORTHOREF
350
133
  3
PUCSORTHOVIEW
350
134
  3
STYLESHEET
350
129
  3
TSTACKALIGN
350
126
  3
TSTACKSIZE
350
127
  3
UCSBASE
350
13E
  3
UCSORGBACK
350
144
  3
UCSORGBOTTOM
350
140
  3
UCSORGFRONT
350
143
  3
UCSORGLEFT
350
141
  3
UCSORGRIGHT
350
142
  3
UCSORGTOP
350
13F
  3
UCSORTHOREF
350
13C
  3
UCSORTHOVIEW
350
13D
  3
VERSIONGUID
350
131
  0
DICTIONARY
  5
122
102
{ACAD_REACTORS
330
C
102
}
330
C
100
AcDbDictionary
  3
DIMASSOC
350
123
  0
XRECORD
  5
148
102
{ACAD_REACTORS
330
147
102
}
330
147
100
AcDbXrecord
340
1E
  0
XRECORD
  5
146
102
{ACAD_REACTORS
330
145
102
}
330
145
100
AcDbXrecord
340
1A
  0
MLINESTYLE
  5
17
102
{ACAD_REACTORS
330
16
102
}
330
16
100
AcDbMlineStyle
  2
STANDARD
 70
     0
  3

 62
   256
 51
90.0
 52
90.0
 71
     2
 49
0.5
 62
   256
  6
BYLAYER
 49
-0.5
 62
   256
  6
BYLAYER
  0
ACDBPLACEHOLDER
  5
F
102
{ACAD_REACTORS
330
E
102
}
330
E
100
AcDbPlaceHolder
280
     0
  0
XRECORD
  5
12F
102
{ACAD_REACTORS
330
125
102
}
330
125
100
AcDbXrecord
 90
        0
  0
XRECORD
  5
130
102
{ACAD_REACTORS
330
125
102
}
330
125
100
AcDbXrecord
  1
{7B8C5A9A-428D-4A06-91F3-DC3207FCBEF7}
  0
XRECORD
  5
128
102
{ACAD_REACTORS
330
125
102
}
330
125
100
AcDbXrecord
  1

  0
XRECORD
  5
12E
102
{ACAD_REACTORS
330
125
102
}
330
125
100
AcDbXrecord
 90
        0
  0
XRECORD
  5
12A
102
{ACAD_REACTORS
330
125
102
}
330
125
100
AcDbXrecord
340
19
  0
XRECORD
  5
12D
102
{ACAD_REACTORS
330
125
102
}
330
125
100
AcDbXrecord
 90
    10781
  0
XRECORD
  5
12B
102
{ACAD_REACTORS
330
125
102
}
330
125
100
AcDbXrecord
340
18
  0
XRECORD
  5
12C
102
{ACAD_REACTORS
330
125
102
}
330
125
100
AcDbXrecord
340
E
  0
XRECORD
  5
132
102
{ACAD_REACTORS
330
125
102
}
330
125
100
AcDbXrecord
 40
0.0
  0
XRECORD
  5
135
102
{ACAD_REACTORS
330
125
102
}
330
125
100
AcDbXrecord
340
0
  0
XRECORD
  5
13B
102
{ACAD_REACTORS
330
125
102
}
330
125
100
AcDbXrecord
 10
0.0
 20
0.0
 30
0.0
  0
XRECORD
  5
137
102
{ACAD_REACTORS
330
125
102
}
330
125
100
AcDbXrecord
 10
0.0
 20
0.0
 30
0.0
  0
XRECORD
  5
13A
102
{ACAD_REACTORS
330
125
102
}
330
125
100
AcDbXrecord
 10
0.0
 20
0.0
 30
0.0
  0
XRECORD
  5
138
102
{ACAD_REACTORS
330
125
102
}
330
125
100
AcDbXrecord
 10
0.0
 20
0.0
 30
0.0
  0
XRECORD
  5
139
102
{ACAD_REACTORS
330
125
102
}
330
125
100
AcDbXrecord
 10
0.0
 20
0.0
 30
0.0
  0
XRECORD
  5
136
102
{ACAD_REACTORS
330
125
102
}
330
125
100
AcDbXrecord
 10
0.0
 20
0.0
 30
0.0
  0
XRECORD
  5
133
102
{ACAD_REACTORS
330
125
102
}
330
125
100
AcDbXrecord
340
0
  0
XRECORD
  5
134
102
{ACAD_REACTORS
330
125
102
}
330
125
100
AcDbXrecord
 70
     0
  0
XRECORD
  5
129
102
{ACAD_REACTORS
330
125
102
}
330
125
100
AcDbXrecord
  1

  0
XRECORD
  5
126
102
{ACAD_REACTORS
330
125
102
}
330
125
100
AcDbXrecord
 90
        1
  0
XRECORD
  5
127
102
{ACAD_REACTORS
330
125
102
}
330
125
100
AcDbXrecord
 90
       70
  0
XRECORD
  5
13E
102
{ACAD_REACTORS
330
125
102
}
330
125
100
AcDbXrecord
340
0
  0
XRECORD
  5
144
102
{ACAD_REACTORS
330
125
102
}
330
125
100
AcDbXrecord
 10
0.0
 20
0.0
 30
0.0
  0
XRECORD
  5
140
102
{ACAD_REACTORS
330
125
102
}
330
125
100
AcDbXrecord
 10
0.0
 20
0.0
 30
0.0
  0
XRECORD
  5
143
102
{ACAD_REACTORS
330
125
102
}
330
125
100
AcDbXrecord
 10
0.0
 20
0.0
 30
0.0
  0
XRECORD
  5
141
102
{ACAD_REACTORS
330
125
102
}
330
125
100
AcDbXrecord
 10
0.0
 20
0.0
 30
0.0
  0
XRECORD
  5
142
102
{ACAD_REACTORS
330
125
102
}
330
125
100
AcDbXrecord
 10
0.0
 20
0.0
 30
0.0
  0
XRECORD
  5
13F
102
{ACAD_REACTORS
330
125
102
}
330
125
100
AcDbXrecord
 10
0.0
 20
0.0
 30
0.0
  0
XRECORD
  5
13C
102
{ACAD_REACTORS
330
125
102
}
330
125
100
AcDbXrecord
340
0
  0
XRECORD
  5
13D
102
{ACAD_REACTORS
330
125
102
}
330
125
100
AcDbXrecord
 70
     1
  0
XRECORD
  5
131
102
{ACAD_REACTORS
330
125
102
}
330
125
100
AcDbXrecord
  1
{70478381-F6FD-42C4-ACEE-E075CCEC8733}
  0
DICTIONARYVAR
  5
123
102
{ACAD_REACTORS
330
122
102
}
330
122
100
DictionaryVariables
280
     0
  1
1
  0
ENDSEC
  0
EOF
