  0
SECTION
  2
HEADER
  9
$ACADVER
  1
AC1014
  9
$ACADMAINTVER
 70
     9
  9
$DWGCODEPAGE
  3
ANSI_1252
  9
$INSBASE
 10
0.0
 20
0.0
 30
0.0
  9
$EXTMIN
 10
0.0000000000000006
 20
-0.170974999999996
 30
0.0
  9
$EXTMAX
 10
85.0
 20
189.170975
 30
0.0
  9
$LIMMIN
 10
0.0
 20
0.0
  9
$LIMMAX
 10
12.0
 20
9.0
  9
$ORTHOMODE
 70
     0
  9
$REGENMODE
 70
     1
  9
$FILLMODE
 70
     1
  9
$QTEXTMODE
 70
     0
  9
$MIRRTEXT
 70
     1
  9
$DRAGMODE
 70
     2
  9
$LTSCALE
 40
1.0
  9
$OSMODE
 70
    37
  9
$ATTMODE
 70
     1
  9
$TEXTSIZE
 40
0.2
  9
$TRACEWID
 40
0.05
  9
$TEXTSTYLE
  7
STANDARD
  9
$CLAYER
  8
0
  9
$CELTYPE
  6
CONTINUOUS
  9
$CECOLOR
 62
   256
  9
$CELTSCALE
 40
1.0
  9
$DELOBJ
 70
     1
  9
$DISPSILH
 70
     0
  9
$DIMSCALE
 40
1.0
  9
$DIMASZ
 40
0.18
  9
$DIMEXO
 40
0.0625
  9
$DIMDLI
 40
0.38
  9
$DIMRND
 40
0.0
  9
$DIMDLE
 40
0.0
  9
$DIMEXE
 40
0.18
  9
$DIMTP
 40
0.0
  9
$DIMTM
 40
0.0
  9
$DIMTXT
 40
0.18
  9
$DIMCEN
 40
0.09
  9
$DIMTSZ
 40
0.0
  9
$DIMTOL
 70
     0
  9
$DIMLIM
 70
     0
  9
$DIMTIH
 70
     1
  9
$DIMTOH
 70
     1
  9
$DIMSE1
 70
     0
  9
$DIMSE2
 70
     0
  9
$DIMTAD
 70
     0
  9
$DIMZIN
 70
     0
  9
$DIMBLK
  1

  9
$DIMASO
 70
     1
  9
$DIMSHO
 70
     1
  9
$DIMPOST
  1

  9
$DIMAPOST
  1

  9
$DIMALT
 70
     0
  9
$DIMALTD
 70
     2
  9
$DIMALTF
 40
25.4
  9
$DIMLFAC
 40
1.0
  9
$DIMTOFL
 70
     0
  9
$DIMTVP
 40
0.0
  9
$DIMTIX
 70
     0
  9
$DIMSOXD
 70
     0
  9
$DIMSAH
 70
     0
  9
$DIMBLK1
  1

  9
$DIMBLK2
  1

  9
$DIMSTYLE
  2
STANDARD
  9
$DIMCLRD
 70
     0
  9
$DIMCLRE
 70
     0
  9
$DIMCLRT
 70
     0
  9
$DIMTFAC
 40
1.0
  9
$DIMGAP
 40
0.09
  9
$DIMJUST
 70
     0
  9
$DIMSD1
 70
     0
  9
$DIMSD2
 70
     0
  9
$DIMTOLJ
 70
     1
  9
$DIMTZIN
 70
     0
  9
$DIMALTZ
 70
     0
  9
$DIMALTTZ
 70
     0
  9
$DIMFIT
 70
     3
  9
$DIMUPT
 70
     0
  9
$DIMUNIT
 70
     2
  9
$DIMDEC
 70
     4
  9
$DIMTDEC
 70
     4
  9
$DIMALTU
 70
     2
  9
$DIMALTTD
 70
     2
  9
$DIMTXSTY
  7
STANDARD
  9
$DIMAUNIT
 70
     0
  9
$LUNITS
 70
     2
  9
$LUPREC
 70
     4
  9
$SKETCHINC
 40
0.1
  9
$FILLETRAD
 40
0.0
  9
$AUNITS
 70
     0
  9
$AUPREC
 70
     0
  9
$MENU
  1
.
  9
$ELEVATION
 40
0.0
  9
$PELEVATION
 40
0.0
  9
$THICKNESS
 40
0.0
  9
$LIMCHECK
 70
     0
  9
$BLIPMODE
 70
     0
  9
$CHAMFERA
 40
0.0
  9
$CHAMFERB
 40
0.0
  9
$CHAMFERC
 40
0.0
  9
$CHAMFERD
 40
0.0
  9
$SKPOLY
 70
     0
  9
$TDCREATE
 40
2454699.399040254
  9
$TDUPDATE
 40
2454699.404822951
  9
$TDINDWG
 40
0.0057826968
  9
$TDUSRTIMER
 40
0.0057826968
  9
$USRTIMER
 70
     1
  9
$ANGBASE
 50
0.0
  9
$ANGDIR
 70
     0
  9
$PDMODE
 70
     0
  9
$PDSIZE
 40
0.0
  9
$PLINEWID
 40
0.0
  9
$COORDS
 70
     1
  9
$SPLFRAME
 70
     0
  9
$SPLINETYPE
 70
     6
  9
$SPLINESEGS
 70
     8
  9
$ATTDIA
 70
     0
  9
$ATTREQ
 70
     1
  9
$HANDLING
 70
 22529
  9
$HANDSEED
  5
11E
  9
$SURFTAB1
 70
     6
  9
$SURFTAB2
 70
     6
  9
$SURFTYPE
 70
     6
  9
$SURFU
 70
     6
  9
$SURFV
 70
     6
  9
$UCSNAME
  2

  9
$UCSORG
 10
0.0
 20
0.0
 30
0.0
  9
$UCSXDIR
 10
1.0
 20
0.0
 30
0.0
  9
$UCSYDIR
 10
0.0
 20
1.0
 30
0.0
  9
$PUCSNAME
  2

  9
$PUCSORG
 10
0.0
 20
0.0
 30
0.0
  9
$PUCSXDIR
 10
1.0
 20
0.0
 30
0.0
  9
$PUCSYDIR
 10
0.0
 20
1.0
 30
0.0
  9
$USERI1
 70
     0
  9
$USERI2
 70
     0
  9
$USERI3
 70
     0
  9
$USERI4
 70
     0
  9
$USERI5
 70
     0
  9
$USERR1
 40
0.0
  9
$USERR2
 40
0.0
  9
$USERR3
 40
0.0
  9
$USERR4
 40
0.0
  9
$USERR5
 40
0.0
  9
$WORLDVIEW
 70
     1
  9
$SHADEDGE
 70
     3
  9
$SHADEDIF
 70
    70
  9
$TILEMODE
 70
     1
  9
$MAXACTVP
 70
    64
  9
$PINSBASE
 10
0.0
 20
0.0
 30
0.0
  9
$PLIMCHECK
 70
     0
  9
$PEXTMIN
 10
1.000000000000000E+20
 20
1.000000000000000E+20
 30
1.000000000000000E+20
  9
$PEXTMAX
 10
-1.000000000000000E+20
 20
-1.000000000000000E+20
 30
-1.000000000000000E+20
  9
$PLIMMIN
 10
0.0
 20
0.0
  9
$PLIMMAX
 10
12.0
 20
9.0
  9
$UNITMODE
 70
     0
  9
$VISRETAIN
 70
     1
  9
$PLINEGEN
 70
     0
  9
$PSLTSCALE
 70
     1
  9
$TREEDEPTH
 70
  3020
  9
$PICKSTYLE
 70
     1
  9
$CMLSTYLE
  2
STANDARD
  9
$CMLJUST
 70
     0
  9
$CMLSCALE
 40
1.0
  9
$PROXYGRAPHICS
 70
     1
  9
$MEASUREMENT
 70
     0
  0
ENDSEC
  0
SECTION
  2
CLASSES
  0
CLASS
  1
ACDBDICTIONARYWDFLT
  2
AcDbDictionaryWithDefault
  3
AutoCAD 2000
 90
        0
280
     0
281
     0
  0
CLASS
  1
ACDBPLACEHOLDER
  2
AcDbPlaceHolder
  3
AutoCAD 2000
 90
        0
280
     0
281
     0
  0
CLASS
  1
LAYOUT
  2
AcDbLayout
  3
AutoCAD 2000
 90
        0
280
     0
281
     0
  0
CLASS
  1
DICTIONARYVAR
  2
AcDbDictionaryVar
  3
AutoCAD 2000
 90
        0
280
     0
281
     0
  0
CLASS
  1
LONG_TRANSACTION
  2
AcDbLongTransaction
  3
AutoCAD 2000
 90
        0
280
     0
281
     0
  0
CLASS
  1
LWPOLYLINE
  2
AcDbPolyline
  3
AutoCAD 2000
 90
        0
280
     0
281
     1
  0
CLASS
  1
HATCH
  2
AcDbHatch
  3
AutoCAD 2000
 90
        0
280
     0
281
     1
  0
CLASS
  1
XRECORD
  2
AcDbXrecord
  3
AutoCAD 2000
 90
        0
280
     0
281
     0
  0
ENDSEC
  0
SECTION
  2
TABLES
  0
TABLE
  2
VPORT
  5
8
330
0
100
AcDbSymbolTable
 70
     4
  0
VPORT
  5
F9
330
8
100
AcDbSymbolTableRecord
100
AcDbViewportTableRecord
  2
*ACTIVE
 70
     0
 10
0.0
 20
0.0
 11
1.0
 21
1.0
 12
42.5
 22
94.50000000000001
 13
0.0
 23
0.0
 14
1.0
 24
1.0
 15
0.0
 25
0.0
 16
0.0
 26
0.0
 36
1.0
 17
0.0
 27
0.0
 37
0.0
 40
190.7947015345268
 41
2.078104993597951
 42
50.0
 43
0.0
 44
0.0
 50
0.0
 51
0.0
 71
     0
 72
   100
 73
     1
 74
     3
 75
     0
 76
     0
 77
     0
 78
     0
  0
ENDTAB
  0
TABLE
  2
LTYPE
  5
5
330
0
100
AcDbSymbolTable
 70
     1
  0
LTYPE
  5
13
330
5
100
AcDbSymbolTableRecord
100
AcDbLinetypeTableRecord
  2
BYBLOCK
 70
     0
  3

 72
    65
 73
     0
 40
0.0
  0
LTYPE
  5
14
330
5
100
AcDbSymbolTableRecord
100
AcDbLinetypeTableRecord
  2
BYLAYER
 70
     0
  3

 72
    65
 73
     0
 40
0.0
  0
LTYPE
  5
15
330
5
100
AcDbSymbolTableRecord
100
AcDbLinetypeTableRecord
  2
CONTINUOUS
 70
     0
  3
Solid line
 72
    65
 73
     0
 40
0.0
  0
ENDTAB
  0
TABLE
  2
LAYER
  5
2
330
0
100
AcDbSymbolTable
 70
     1
  0
LAYER
  5
10
330
2
100
AcDbSymbolTableRecord
100
AcDbLayerTableRecord
  2
0
 70
     0
 62
     7
  6
CONTINUOUS
  0
ENDTAB
  0
TABLE
  2
STYLE
  5
3
330
0
100
AcDbSymbolTable
 70
     1
  0
STYLE
  5
11
330
3
100
AcDbSymbolTableRecord
100
AcDbTextStyleTableRecord
  2
STANDARD
 70
     0
 40
0.0
 41
1.0
 50
0.0
 71
     0
 42
0.2
  3
txt
  4

  0
ENDTAB
  0
TABLE
  2
VIEW
  5
6
330
0
100
AcDbSymbolTable
 70
     0
  0
ENDTAB
  0
TABLE
  2
UCS
  5
7
330
0
100
AcDbSymbolTable
 70
     0
  0
ENDTAB
  0
TABLE
  2
APPID
  5
9
330
0
100
AcDbSymbolTable
 70
     1
  0
APPID
  5
12
330
9
100
AcDbSymbolTableRecord
100
AcDbRegAppTableRecord
  2
ACAD
 70
     0
  0
ENDTAB
  0
TABLE
  2
DIMSTYLE
  5
A
330
0
100
AcDbSymbolTable
 70
     1
  0
DIMSTYLE
105
A9
330
A
100
AcDbSymbolTableRecord
100
AcDbDimStyleTableRecord
  2
STANDARD
 70
     0
  3

  4

  5

  6

  7

 40
1.0
 41
0.18
 42
0.0625
 43
0.38
 44
0.18
 45
0.0
 46
0.0
 47
0.0
 48
0.0
140
0.18
141
0.09
142
0.0
143
25.4
144
1.0
145
0.0
146
1.0
147
0.09
 71
     0
 72
     0
 73
     1
 74
     1
 75
     0
 76
     0
 77
     0
 78
     0
170
     0
171
     2
172
     0
173
     0
174
     0
175
     0
176
     0
177
     0
178
     0
270
     2
271
     4
272
     4
273
     2
274
     2
340
11
275
     0
280
     0
281
     0
282
     0
283
     1
284
     0
285
     0
286
     0
287
     3
288
     0
  0
ENDTAB
  0
TABLE
  2
BLOCK_RECORD
  5
1
330
0
100
AcDbSymbolTable
 70
     0
  0
BLOCK_RECORD
  5
1E
102
{ACAD_XDICTIONARY
360
11C
102
}
330
1
100
AcDbSymbolTableRecord
100
AcDbBlockTableRecord
  2
*MODEL_SPACE
  0
BLOCK_RECORD
  5
1A
102
{ACAD_XDICTIONARY
360
11A
102
}
330
1
100
AcDbSymbolTableRecord
100
AcDbBlockTableRecord
  2
*PAPER_SPACE
  0
ENDTAB
  0
ENDSEC
  0
SECTION
  2
BLOCKS
  0
BLOCK
  5
1F
330
1E
100
AcDbEntity
  8
0
100
AcDbBlockBegin
  2
*MODEL_SPACE
 70
     0
 10
0.0
 20
0.0
 30
0.0
  3
*MODEL_SPACE
  1

  0
ENDBLK
  5
20
330
1E
100
AcDbEntity
  8
0
100
AcDbBlockEnd
  0
BLOCK
  5
1B
330
1A
100
AcDbEntity
 67
     1
  8
0
100
AcDbBlockBegin
  2
*PAPER_SPACE
 70
     0
 10
0.0
 20
0.0
 30
0.0
  3
*PAPER_SPACE
  1

  0
ENDBLK
  5
1C
330
1A
100
AcDbEntity
 67
     1
  8
0
100
AcDbBlockEnd
  0
ENDSEC
  0
SECTION
  2
ENTITIES
  0
LINE
  5
22
330
1E
100
AcDbEntity
  8
0
100
AcDbLine
 10
0.0000000000000006
 20
38.653075
 30
0.0
 11
1.5
 21
29.21337499999999
 31
0.0
  0
LINE
  5
23
330
1E
100
AcDbEntity
  8
0
100
AcDbLine
 10
0.0000000000000006
 20
38.653075
 30
0.0
 11
0.0000000000000006
 21
41.153075
 31
0.0
  0
LINE
  5
24
330
1E
100
AcDbEntity
  8
0
100
AcDbLine
 10
0.0000000000000006
 20
41.153075
 30
0.0
 11
1.5
 21
31.71337499999999
 31
0.0
  0
LINE
  5
25
330
1E
100
AcDbEntity
  8
0
100
AcDbLine
 10
0.0000000000000006
 20
41.153075
 30
0.0
 11
0.0000000000000006
 21
38.653075
 31
0.0
  0
LINE
  5
26
330
1E
100
AcDbEntity
  8
0
100
AcDbLine
 10
0.0000000000000006
 20
41.153075
 30
0.0
 11
0.0397258387448759
 21
41.403075
 31
0.0
  0
LINE
  5
27
330
1E
100
AcDbEntity
  8
0
100
AcDbLine
 10
0.0000000000000006
 20
41.153075
 30
0.0
 11
0.0397258387448759
 21
41.403075
 31
0.0
  0
LINE
  5
28
330
1E
100
AcDbEntity
  8
0
100
AcDbLine
 10
2.5
 20
26.886575
 30
0.0
 11
6.599999999999999
 21
18.312975
 31
0.0
  0
LINE
  5
29
330
1E
100
AcDbEntity
  8
0
100
AcDbLine
 10
2.37027873784718
 20
27.3829923260064
 30
0.0
 11
2.5
 21
26.886575
 31
0.0
  0
LINE
  5
2A
330
1E
100
AcDbEntity
  8
0
100
AcDbLine
 10
5.7
 20
20.37987499999999
 30
0.0
 11
12.5
 21
12.672275
 31
0.0
  0
LINE
  5
2B
330
1E
100
AcDbEntity
  8
0
100
AcDbLine
 10
1.5
 20
29.21337499999999
 30
0.0
 11
5.7
 21
20.37987499999999
 31
0.0
  0
LINE
  5
2C
330
1E
100
AcDbEntity
  8
0
100
AcDbLine
 10
5.7
 20
22.87987499999999
 30
0.0
 11
12.5
 21
15.172275
 31
0.0
  0
LINE
  5
2D
330
1E
100
AcDbEntity
  8
0
100
AcDbLine
 10
1.5
 20
31.71337499999999
 30
0.0
 11
5.7
 21
22.87987499999999
 31
0.0
  0
LINE
  5
2E
330
1E
100
AcDbEntity
  8
0
100
AcDbLine
 10
22.5
 20
4.505575
 30
0.0
 11
32.1
 21
1.128074999999999
 31
0.0
  0
LINE
  5
2F
330
1E
100
AcDbEntity
  8
0
100
AcDbLine
 10
22.5
 20
4.505575
 30
0.0
 11
32.1
 21
1.128074999999999
 31
0.0
  0
LINE
  5
30
330
1E
100
AcDbEntity
  8
0
100
AcDbLine
 10
31.6
 20
3.145974999999999
 30
0.0
 11
42.5
 21
1.846975
 31
0.0
  0
LINE
  5
31
330
1E
100
AcDbEntity
  8
0
100
AcDbLine
 10
42.5
 20
-0.170974999999996
 30
0.0
 11
52.9
 21
1.128074999999999
 31
0.0
  0
LINE
  5
32
330
1E
100
AcDbEntity
  8
0
100
AcDbLine
 10
42.5
 20
-0.170974999999996
 30
0.0
 11
52.9
 21
1.128074999999999
 31
0.0
  0
LINE
  5
34
330
1E
100
AcDbEntity
  8
0
100
AcDbLine
 10
32.1
 20
1.128074999999999
 30
0.0
 11
42.5
 21
-0.170974999999996
 31
0.0
  0
LINE
  5
35
330
1E
100
AcDbEntity
  8
0
100
AcDbLine
 10
32.1
 20
1.128074999999999
 30
0.0
 11
42.5
 21
-0.170974999999996
 31
0.0
  0
LINE
  5
37
330
1E
100
AcDbEntity
  8
0
100
AcDbLine
 10
42.5
 20
1.846975
 30
0.0
 11
53.39999999999999
 21
3.145974999999999
 31
0.0
  0
LINE
  5
38
330
1E
100
AcDbEntity
  8
0
100
AcDbLine
 10
52.9
 20
1.128074999999999
 30
0.0
 11
62.5
 21
4.505575
 31
0.0
  0
LINE
  5
39
330
1E
100
AcDbEntity
  8
0
100
AcDbLine
 10
52.9
 20
1.128074999999999
 30
0.0
 11
62.5
 21
4.505575
 31
0.0
  0
LINE
  5
3B
330
1E
100
AcDbEntity
  8
0
100
AcDbLine
 10
62.5
 20
4.505575
 30
0.0
 11
71.09999999999999
 21
10.134775
 31
0.0
  0
LINE
  5
3C
330
1E
100
AcDbEntity
  8
0
100
AcDbLine
 10
53.39999999999999
 20
3.145974999999999
 30
0.0
 11
63.6
 21
6.783274999999999
 31
0.0
  0
LINE
  5
3D
330
1E
100
AcDbEntity
  8
0
100
AcDbLine
 10
42.5
 20
4.346974999999999
 30
0.0
 11
53.39999999999999
 21
5.645974999999999
 31
0.0
  0
LINE
  5
3E
330
1E
100
AcDbEntity
  8
0
100
AcDbLine
 10
53.39999999999999
 20
5.645974999999999
 30
0.0
 11
63.6
 21
9.283274999999999
 31
0.0
  0
LINE
  5
3F
330
1E
100
AcDbEntity
  8
0
100
AcDbLine
 10
53.39999999999999
 20
6.145974999999999
 30
0.0
 11
63.6
 21
9.783274999999999
 31
0.0
  0
LINE
  5
40
330
1E
100
AcDbEntity
  8
0
100
AcDbLine
 10
42.5
 20
4.846974999999999
 30
0.0
 11
53.39999999999999
 21
6.145974999999999
 31
0.0
  0
LINE
  5
41
330
1E
100
AcDbEntity
  8
0
100
AcDbLine
 10
31.6
 20
5.645974999999999
 30
0.0
 11
42.5
 21
4.346974999999999
 31
0.0
  0
LINE
  5
42
330
1E
100
AcDbEntity
  8
0
100
AcDbLine
 10
13.9
 20
10.134775
 30
0.0
 11
22.5
 21
4.505575
 31
0.0
  0
LINE
  5
44
330
1E
100
AcDbEntity
  8
0
100
AcDbLine
 10
13.2
 20
10.778475
 30
0.0
 11
13.9
 21
10.134775
 31
0.0
  0
LINE
  5
46
330
1E
100
AcDbEntity
  8
0
100
AcDbLine
 10
12.5
 20
12.672275
 30
0.0
 11
21.4
 21
6.783274999999999
 31
0.0
  0
LINE
  5
47
330
1E
100
AcDbEntity
  8
0
100
AcDbLine
 10
21.4
 20
6.783274999999999
 30
0.0
 11
31.6
 21
3.145974999999999
 31
0.0
  0
LINE
  5
48
330
1E
100
AcDbEntity
  8
0
100
AcDbLine
 10
12.5
 20
15.172275
 30
0.0
 11
21.4
 21
9.283274999999999
 31
0.0
  0
LINE
  5
49
330
1E
100
AcDbEntity
  8
0
100
AcDbLine
 10
21.4
 20
9.283274999999999
 30
0.0
 11
31.6
 21
5.645974999999999
 31
0.0
  0
LINE
  5
4A
330
1E
100
AcDbEntity
  8
0
100
AcDbLine
 10
6.599999999999999
 20
18.312975
 30
0.0
 11
13.2
 21
10.778475
 31
0.0
  0
LINE
  5
4B
330
1E
100
AcDbEntity
  8
0
100
AcDbLine
 10
12.5
 20
15.672275
 30
0.0
 11
21.4
 21
9.783274999999999
 31
0.0
  0
LINE
  5
4E
330
1E
100
AcDbEntity
  8
0
100
AcDbLine
 10
63.6
 20
6.783274999999999
 30
0.0
 11
72.5
 21
12.672275
 31
0.0
  0
LINE
  5
4F
330
1E
100
AcDbEntity
  8
0
100
AcDbLine
 10
63.6
 20
9.283274999999999
 30
0.0
 11
72.5
 21
15.172275
 31
0.0
  0
LINE
  5
50
330
1E
100
AcDbEntity
  8
0
100
AcDbLine
 10
71.09999999999999
 20
10.134775
 30
0.0
 11
71.79999999999999
 21
10.778475
 31
0.0
  0
LINE
  5
51
330
1E
100
AcDbEntity
  8
0
100
AcDbLine
 10
71.79999999999999
 20
10.778475
 30
0.0
 11
78.4
 21
18.312975
 31
0.0
  0
LINE
  5
53
330
1E
100
AcDbEntity
  8
0
100
AcDbLine
 10
72.5
 20
12.672275
 30
0.0
 11
79.29999999999999
 21
20.37987499999999
 31
0.0
  0
LINE
  5
54
330
1E
100
AcDbEntity
  8
0
100
AcDbLine
 10
72.5
 20
15.172275
 30
0.0
 11
79.29999999999999
 21
22.87987499999999
 31
0.0
  0
LINE
  5
55
330
1E
100
AcDbEntity
  8
0
100
AcDbLine
 10
78.4
 20
18.312975
 30
0.0
 11
82.5
 21
26.886575
 31
0.0
  0
LINE
  5
56
330
1E
100
AcDbEntity
  8
0
100
AcDbLine
 10
79.29999999999999
 20
20.37987499999999
 30
0.0
 11
83.49999999999999
 21
29.21337499999999
 31
0.0
  0
LINE
  5
57
330
1E
100
AcDbEntity
  8
0
100
AcDbLine
 10
79.29999999999999
 20
22.87987499999999
 30
0.0
 11
83.49999999999999
 21
31.71337499999999
 31
0.0
  0
LINE
  5
58
330
1E
100
AcDbEntity
  8
0
100
AcDbLine
 10
72.5
 20
15.672275
 30
0.0
 11
79.29999999999999
 21
23.379875
 31
0.0
  0
LINE
  5
59
330
1E
100
AcDbEntity
  8
0
100
AcDbLine
 10
82.5
 20
26.886575
 30
0.0
 11
82.62972126215279
 21
27.3829923260064
 31
0.0
  0
LINE
  5
5A
330
1E
100
AcDbEntity
  8
0
100
AcDbLine
 10
83.49999999999999
 20
29.21337499999999
 30
0.0
 11
85.0
 21
38.653075
 31
0.0
  0
LINE
  5
5B
330
1E
100
AcDbEntity
  8
0
100
AcDbLine
 10
83.49999999999999
 20
31.71337499999999
 30
0.0
 11
85.0
 21
41.153075
 31
0.0
  0
LINE
  5
5C
330
1E
100
AcDbEntity
  8
0
100
AcDbLine
 10
79.29999999999999
 20
23.379875
 30
0.0
 11
83.49999999999999
 21
32.213375
 31
0.0
  0
LINE
  5
5D
330
1E
100
AcDbEntity
  8
0
100
AcDbLine
 10
83.49999999999999
 20
32.213375
 30
0.0
 11
85.0
 21
41.65307499999999
 31
0.0
  0
LINE
  5
5E
330
1E
100
AcDbEntity
  8
0
100
AcDbLine
 10
63.6
 20
9.783274999999999
 30
0.0
 11
72.5
 21
15.672275
 31
0.0
  0
LINE
  5
5F
330
1E
100
AcDbEntity
  8
0
100
AcDbLine
 10
21.4
 20
9.783274999999999
 30
0.0
 11
31.6
 21
6.145974999999999
 31
0.0
  0
LINE
  5
60
330
1E
100
AcDbEntity
  8
0
100
AcDbLine
 10
31.6
 20
6.145974999999999
 30
0.0
 11
42.5
 21
4.846974999999999
 31
0.0
  0
LINE
  5
61
330
1E
100
AcDbEntity
  8
0
100
AcDbLine
 10
5.7
 20
23.379875
 30
0.0
 11
12.5
 21
15.672275
 31
0.0
  0
LINE
  5
62
330
1E
100
AcDbEntity
  8
0
100
AcDbLine
 10
1.5
 20
51.09277500000001
 30
0.0
 11
5.7
 21
59.926175
 31
0.0
  0
LINE
  5
63
330
1E
100
AcDbEntity
  8
0
100
AcDbLine
 10
85.0
 20
41.153075
 30
0.0
 11
85.0
 21
38.653075
 31
0.0
  0
LINE
  5
64
330
1E
100
AcDbEntity
  8
0
100
AcDbLine
 10
84.96027416125508
 20
41.403075
 30
0.0
 11
85.0
 21
41.153075
 31
0.0
  0
LINE
  5
65
330
1E
100
AcDbEntity
  8
0
100
AcDbLine
 10
5.7
 20
59.926175
 30
0.0
 11
12.5
 21
67.633775
 31
0.0
  0
LINE
  5
66
330
1E
100
AcDbEntity
  8
0
100
AcDbLine
 10
12.5
 20
67.633775
 30
0.0
 11
19.7883134149665
 21
72.4563455281728
 31
0.0
  0
LINE
  5
67
330
1E
100
AcDbEntity
  8
0
100
AcDbLine
 10
19.7883134149665
 20
72.4563455281728
 30
0.0
 11
21.3941
 21
75.046075
 31
0.0
  0
LINE
  5
68
330
1E
100
AcDbEntity
  8
0
100
AcDbLine
 10
24.30330410828
 20
82.1672075626342
 30
0.0
 11
25.8354
 21
88.184175
 31
0.0
  0
LINE
  5
69
330
1E
100
AcDbEntity
  8
0
100
AcDbLine
 10
24.30330410828
 20
82.1672075626342
 30
0.0
 11
25.8354
 21
88.184175
 31
0.0
  0
LINE
  5
6A
330
1E
100
AcDbEntity
  8
0
100
AcDbLine
 10
21.3941
 20
75.046075
 30
0.0
 11
24.30330410828
 21
82.1672075626342
 31
0.0
  0
LINE
  5
6B
330
1E
100
AcDbEntity
  8
0
100
AcDbLine
 10
25.8354
 20
88.184175
 30
0.0
 11
27.4743
 21
95.769975
 31
0.0
  0
LINE
  5
6C
330
1E
100
AcDbEntity
  8
0
100
AcDbLine
 10
27.4743
 20
95.769975
 30
0.0
 11
28.3683
 21
105.165975
 31
0.0
  0
LINE
  5
6D
330
1E
100
AcDbEntity
  8
0
100
AcDbLine
 10
27.4743
 20
128.297975
 30
0.0
 11
27.7723
 21
122.3789749999999
 31
0.0
  0
LINE
  5
6E
330
1E
100
AcDbEntity
  8
0
100
AcDbLine
 10
27.4743
 20
141.9339749999999
 30
0.0
 11
27.6978
 21
149.573975
 31
0.0
  0
LINE
  5
6F
330
1E
100
AcDbEntity
  8
0
100
AcDbLine
 10
27.7723
 20
122.3789749999999
 30
0.0
 11
28.51729999999999
 21
113.1539749999999
 31
0.0
  0
LINE
  5
70
330
1E
100
AcDbEntity
  8
0
100
AcDbLine
 10
27.3253
 20
135.8969749999999
 30
0.0
 11
27.4743
 21
128.297975
 31
0.0
  0
LINE
  5
71
330
1E
100
AcDbEntity
  8
0
100
AcDbLine
 10
27.3253
 20
135.8969749999999
 30
0.0
 11
27.4743
 21
141.9339749999999
 31
0.0
  0
LINE
  5
72
330
1E
100
AcDbEntity
  8
0
100
AcDbLine
 10
27.6978
 20
149.573975
 30
0.0
 11
27.9958
 21
157.736975
 31
0.0
  0
LINE
  5
73
330
1E
100
AcDbEntity
  8
0
100
AcDbLine
 10
60.69669589172
 20
82.1672075626342
 30
0.0
 11
63.6059
 21
75.046075
 31
0.0
  0
LINE
  5
74
330
1E
100
AcDbEntity
  8
0
100
AcDbLine
 10
57.5257
 20
95.769975
 30
0.0
 11
59.1646
 21
88.184175
 31
0.0
  0
LINE
  5
75
330
1E
100
AcDbEntity
  8
0
100
AcDbLine
 10
56.6317
 20
105.165975
 30
0.0
 11
57.5257
 21
95.769975
 31
0.0
  0
LINE
  5
76
330
1E
100
AcDbEntity
  8
0
100
AcDbLine
 10
59.1646
 20
88.184175
 30
0.0
 11
60.69669589172
 21
82.1672075626342
 31
0.0
  0
LINE
  5
77
330
1E
100
AcDbEntity
  8
0
100
AcDbLine
 10
63.6059
 20
75.046075
 30
0.0
 11
65.21168658503341
 21
72.45634552817287
 31
0.0
  0
LINE
  5
78
330
1E
100
AcDbEntity
  8
0
100
AcDbLine
 10
56.2593
 20
166.9789749999999
 30
0.0
 11
57.0042
 21
157.736975
 31
0.0
  0
LINE
  5
79
330
1E
100
AcDbEntity
  8
0
100
AcDbLine
 10
57.3022
 20
149.573975
 30
0.0
 11
57.5257
 21
141.9339749999999
 31
0.0
  0
LINE
  5
7A
330
1E
100
AcDbEntity
  8
0
100
AcDbLine
 10
57.0042
 20
157.736975
 30
0.0
 11
57.3022
 21
149.573975
 31
0.0
  0
LINE
  5
7B
330
1E
100
AcDbEntity
  8
0
100
AcDbLine
 10
57.5257
 20
141.9339749999999
 30
0.0
 11
57.6747
 21
135.8969749999999
 31
0.0
  0
LINE
  5
7C
330
1E
100
AcDbEntity
  8
0
100
AcDbLine
 10
57.5257
 20
128.297975
 30
0.0
 11
57.6747
 21
135.8969749999999
 31
0.0
  0
LINE
  5
7D
330
1E
100
AcDbEntity
  8
0
100
AcDbLine
 10
57.2277
 20
122.3789749999999
 30
0.0
 11
57.5257
 21
128.297975
 31
0.0
  0
LINE
  5
7E
330
1E
100
AcDbEntity
  8
0
100
AcDbLine
 10
56.4827
 20
113.1539749999999
 30
0.0
 11
56.6317
 21
105.165975
 31
0.0
  0
LINE
  5
7F
330
1E
100
AcDbEntity
  8
0
100
AcDbLine
 10
56.4827
 20
113.1539749999999
 30
0.0
 11
57.2277
 21
122.3789749999999
 31
0.0
  0
LINE
  5
80
330
1E
100
AcDbEntity
  8
0
100
AcDbLine
 10
28.3683
 20
105.165975
 30
0.0
 11
28.51729999999999
 21
113.1539749999999
 31
0.0
  0
LINE
  5
81
330
1E
100
AcDbEntity
  8
0
100
AcDbLine
 10
27.9958
 20
157.736975
 30
0.0
 11
28.7407
 21
166.9789749999999
 31
0.0
  0
LINE
  5
82
330
1E
100
AcDbEntity
  8
0
100
AcDbLine
 10
55.03199999999999
 20
178.149975
 30
0.0
 11
55.5
 21
175.455975
 31
0.0
  0
LINE
  5
83
330
1E
100
AcDbEntity
  8
0
100
AcDbLine
 10
55.5
 20
175.455975
 30
0.0
 11
56.2593
 21
166.9789749999999
 31
0.0
  0
LINE
  5
84
330
1E
100
AcDbEntity
  8
0
100
AcDbLine
 10
32.7514415216512
 20
182.322621863618
 30
0.0
 11
32.86
 21
182.9549749999999
 31
0.0
  0
LINE
  5
85
330
1E
100
AcDbEntity
  8
0
100
AcDbLine
 10
32.7514415216512
 20
182.322621863618
 30
0.0
 11
32.86
 21
182.9549749999999
 31
0.0
  0
LINE
  5
86
330
1E
100
AcDbEntity
  8
0
100
AcDbLine
 10
53.784
 20
180.6749749999999
 30
0.0
 11
55.03199999999999
 21
178.149975
 31
0.0
  0
LINE
  5
87
330
1E
100
AcDbEntity
  8
0
100
AcDbLine
 10
51.70399999999999
 20
182.906975
 30
0.0
 11
53.784
 21
180.6749749999999
 31
0.0
  0
LINE
  5
88
330
1E
100
AcDbEntity
  8
0
100
AcDbLine
 10
32.86
 20
182.9549749999999
 30
0.0
 11
33.82
 21
184.9209749999999
 31
0.0
  0
LINE
  5
89
330
1E
100
AcDbEntity
  8
0
100
AcDbLine
 10
35.559465648855
 20
186.7471333969469
 30
0.0
 11
35.61999999999999
 21
186.8119749999999
 31
0.0
  0
LINE
  5
8A
330
1E
100
AcDbEntity
  8
0
100
AcDbLine
 10
35.61999999999999
 20
186.8119749999999
 30
0.0
 11
37.66
 21
188.089975
 31
0.0
  0
LINE
  5
8B
330
1E
100
AcDbEntity
  8
0
100
AcDbLine
 10
35.42
 20
186.6579749999999
 30
0.0
 11
35.61999999999999
 21
186.8119749999999
 31
0.0
  0
LINE
  5
8C
330
1E
100
AcDbEntity
  8
0
100
AcDbLine
 10
33.82
 20
184.9209749999999
 30
0.0
 11
35.42
 21
186.6579749999999
 31
0.0
  0
LINE
  5
8D
330
1E
100
AcDbEntity
  8
0
100
AcDbLine
 10
52.14
 20
182.9549749999999
 30
0.0
 11
52.2485584783488
 21
182.322621863618
 31
0.0
  0
LINE
  5
8E
330
1E
100
AcDbEntity
  8
0
100
AcDbLine
 10
51.18
 20
184.9209749999999
 30
0.0
 11
52.14
 21
182.9549749999999
 31
0.0
  0
LINE
  5
8F
330
1E
100
AcDbEntity
  8
0
100
AcDbLine
 10
48.948
 20
184.589975
 30
0.0
 11
51.70399999999999
 21
182.906975
 31
0.0
  0
LINE
  5
90
330
1E
100
AcDbEntity
  8
0
100
AcDbLine
 10
45.828
 20
185.600975
 30
0.0
 11
48.948
 21
184.589975
 31
0.0
  0
LINE
  5
91
330
1E
100
AcDbEntity
  8
0
100
AcDbLine
 10
37.66
 20
188.089975
 30
0.0
 11
39.97999999999999
 21
188.875975
 31
0.0
  0
LINE
  5
92
330
1E
100
AcDbEntity
  8
0
100
AcDbLine
 10
42.5
 20
189.170975
 30
0.0
 11
45.02
 21
188.875975
 31
0.0
  0
LINE
  5
93
330
1E
100
AcDbEntity
  8
0
100
AcDbLine
 10
39.97999999999999
 20
188.875975
 30
0.0
 11
42.5
 21
189.170975
 31
0.0
  0
LINE
  5
94
330
1E
100
AcDbEntity
  8
0
100
AcDbLine
 10
49.38
 20
186.8119749999999
 30
0.0
 11
49.58
 21
186.6579749999999
 31
0.0
  0
LINE
  5
95
330
1E
100
AcDbEntity
  8
0
100
AcDbLine
 10
49.38
 20
186.8119749999999
 30
0.0
 11
49.440534351145
 21
186.7471333969469
 31
0.0
  0
LINE
  5
96
330
1E
100
AcDbEntity
  8
0
100
AcDbLine
 10
47.34
 20
188.089975
 30
0.0
 11
49.38
 21
186.8119749999999
 31
0.0
  0
LINE
  5
97
330
1E
100
AcDbEntity
  8
0
100
AcDbLine
 10
45.02
 20
188.875975
 30
0.0
 11
47.34
 21
188.089975
 31
0.0
  0
LINE
  5
98
330
1E
100
AcDbEntity
  8
0
100
AcDbLine
 10
49.58
 20
186.6579749999999
 30
0.0
 11
51.18
 21
184.9209749999999
 31
0.0
  0
LINE
  5
99
330
1E
100
AcDbEntity
  8
0
100
AcDbLine
 10
42.5
 20
185.979975
 30
0.0
 11
45.828
 21
185.600975
 31
0.0
  0
LINE
  5
9A
330
1E
100
AcDbEntity
  8
0
100
AcDbLine
 10
39.17199999999999
 20
185.600975
 30
0.0
 11
42.5
 21
185.979975
 31
0.0
  0
LINE
  5
9B
330
1E
100
AcDbEntity
  8
0
100
AcDbLine
 10
36.05199999999999
 20
184.589975
 30
0.0
 11
39.17199999999999
 21
185.600975
 31
0.0
  0
LINE
  5
9C
330
1E
100
AcDbEntity
  8
0
100
AcDbLine
 10
33.296
 20
182.906975
 30
0.0
 11
36.05199999999999
 21
184.589975
 31
0.0
  0
LINE
  5
9D
330
1E
100
AcDbEntity
  8
0
100
AcDbLine
 10
31.21599999999999
 20
180.6749749999999
 30
0.0
 11
33.296
 21
182.906975
 31
0.0
  0
LINE
  5
9E
330
1E
100
AcDbEntity
  8
0
100
AcDbLine
 10
29.968
 20
178.149975
 30
0.0
 11
31.21599999999999
 21
180.6749749999999
 31
0.0
  0
LINE
  5
9F
330
1E
100
AcDbEntity
  8
0
100
AcDbLine
 10
29.5
 20
175.455975
 30
0.0
 11
29.968
 21
178.149975
 31
0.0
  0
LINE
  5
A0
330
1E
100
AcDbEntity
  8
0
100
AcDbLine
 10
28.7407
 20
166.9789749999999
 30
0.0
 11
29.5
 21
175.455975
 31
0.0
  0
LINE
  5
A1
330
1E
100
AcDbEntity
  8
0
100
AcDbLine
 10
65.2116865850335
 20
72.4563455281728
 30
0.0
 11
72.5
 21
67.633775
 31
0.0
  0
LINE
  5
A2
330
1E
100
AcDbEntity
  8
0
100
AcDbLine
 10
72.5
 20
67.633775
 30
0.0
 11
79.29999999999999
 21
59.926175
 31
0.0
  0
LINE
  5
A3
330
1E
100
AcDbEntity
  8
0
100
AcDbLine
 10
79.29999999999999
 20
59.926175
 30
0.0
 11
83.49999999999999
 21
51.09277500000001
 31
0.0
  0
LINE
  5
A4
330
1E
100
AcDbEntity
  8
0
100
AcDbLine
 10
83.49999999999999
 20
51.09277500000001
 30
0.0
 11
85.0
 21
41.65307499999999
 31
0.0
  0
LINE
  5
A5
330
1E
100
AcDbEntity
  8
0
100
AcDbLine
 10
85.0
 20
38.653075
 30
0.0
 11
85.0
 21
41.153075
 31
0.0
  0
LINE
  5
A6
330
1E
100
AcDbEntity
  8
0
100
AcDbLine
 10
1.5
 20
32.213375
 30
0.0
 11
5.7
 21
23.379875
 31
0.0
  0
LINE
  5
A7
330
1E
100
AcDbEntity
  8
0
100
AcDbLine
 10
0.0000000000000006
 20
41.65307499999999
 30
0.0
 11
1.5
 21
32.213375
 31
0.0
  0
LINE
  5
A8
330
1E
100
AcDbEntity
  8
0
100
AcDbLine
 10
0.0000000000000006
 20
41.65307499999999
 30
0.0
 11
1.5
 21
51.09277500000001
 31
0.0
  0
ENDSEC
  0
SECTION
  2
OBJECTS
  0
DICTIONARY
  5
C
330
0
100
AcDbDictionary
  3
ACAD_GROUP
350
D
  3
ACAD_LAYOUT
350
19
  3
ACAD_MLINESTYLE
350
16
  3
ACAD_PLOTSETTINGS
350
18
  3
ACAD_PLOTSTYLENAME
350
E
  3
ACDBHEADERROUNDTRIPXREC
350
FA
  3
ACDBVARIABLEDICTIONARY
350
AD
  0
DICTIONARY
  5
11C
330
1E
100
AcDbDictionary
280
     1
  3
ACAD_LAYOUTSELFREF
360
11D
  0
DICTIONARY
  5
11A
330
1A
100
AcDbDictionary
280
     1
  3
ACAD_LAYOUTSELFREF
360
11B
  0
DICTIONARY
  5
D
102
{ACAD_REACTORS
330
C
102
}
330
C
100
AcDbDictionary
  0
DICTIONARY
  5
19
102
{ACAD_REACTORS
330
C
102
}
330
C
100
AcDbDictionary
  0
DICTIONARY
  5
16
102
{ACAD_REACTORS
330
C
102
}
330
C
100
AcDbDictionary
  3
STANDARD
350
17
  0
DICTIONARY
  5
18
102
{ACAD_REACTORS
330
C
102
}
330
C
100
AcDbDictionary
  0
ACDBDICTIONARYWDFLT
  5
E
102
{ACAD_REACTORS
330
C
102
}
330
C
100
AcDbDictionary
281
     1
  3
Normal
350
F
100
AcDbDictionaryWithDefault
340
F
  0
DICTIONARY
  5
FA
102
{ACAD_REACTORS
330
C
102
}
330
C
100
AcDbDictionary
  3
CEPSNTYPE
350
104
  3
FINGERPRINTGUID
350
105
  3
HYPERLINKBASE
350
FD
  3
INSUNITS
350
103
  3
LAYOUTDICT
350
FF
  3
LWETCUNION
350
102
  3
PLOTSETDICT
350
100
  3
PLOTSTYLNAMDICT
350
101
  3
PSVPSCALE
350
107
  3
PUCSBASE
350
10A
  3
PUCSORGBACK
350
110
  3
PUCSORGBOTTOM
350
10C
  3
PUCSORGFRONT
350
10F
  3
PUCSORGLEFT
350
10D
  3
PUCSORGRIGHT
350
10E
  3
PUCSORGTOP
350
10B
  3
PUCSORTHOREF
350
108
  3
PUCSORTHOVIEW
350
109
  3
STYLESHEET
350
FE
  3
TSTACKALIGN
350
FB
  3
TSTACKSIZE
350
FC
  3
UCSBASE
350
113
  3
UCSORGBACK
350
119
  3
UCSORGBOTTOM
350
115
  3
UCSORGFRONT
350
118
  3
UCSORGLEFT
350
116
  3
UCSORGRIGHT
350
117
  3
UCSORGTOP
350
114
  3
UCSORTHOREF
350
111
  3
UCSORTHOVIEW
350
112
  3
VERSIONGUID
350
106
  0
DICTIONARY
  5
AD
102
{ACAD_REACTORS
330
C
102
}
330
C
100
AcDbDictionary
  3
DIMASSOC
350
AE
  0
XRECORD
  5
11D
102
{ACAD_REACTORS
330
11C
102
}
330
11C
100
AcDbXrecord
340
1E
  0
XRECORD
  5
11B
102
{ACAD_REACTORS
330
11A
102
}
330
11A
100
AcDbXrecord
340
1A
  0
MLINESTYLE
  5
17
102
{ACAD_REACTORS
330
16
102
}
330
16
100
AcDbMlineStyle
  2
STANDARD
 70
     0
  3

 62
   256
 51
90.0
 52
90.0
 71
     2
 49
0.5
 62
   256
  6
BYLAYER
 49
-0.5
 62
   256
  6
BYLAYER
  0
ACDBPLACEHOLDER
  5
F
102
{ACAD_REACTORS
330
E
102
}
330
E
100
AcDbPlaceHolder
280
     0
  0
XRECORD
  5
104
102
{ACAD_REACTORS
330
FA
102
}
330
FA
100
AcDbXrecord
 90
        0
  0
XRECORD
  5
105
102
{ACAD_REACTORS
330
FA
102
}
330
FA
100
AcDbXrecord
  1
{9A88349F-BCE2-46E0-A468-6997FDE8CECD}
  0
XRECORD
  5
FD
102
{ACAD_REACTORS
330
FA
102
}
330
FA
100
AcDbXrecord
  1

  0
XRECORD
  5
103
102
{ACAD_REACTORS
330
FA
102
}
330
FA
100
AcDbXrecord
 90
        0
  0
XRECORD
  5
FF
102
{ACAD_REACTORS
330
FA
102
}
330
FA
100
AcDbXrecord
340
19
  0
XRECORD
  5
102
102
{ACAD_REACTORS
330
FA
102
}
330
FA
100
AcDbXrecord
 90
    10781
  0
XRECORD
  5
100
102
{ACAD_REACTORS
330
FA
102
}
330
FA
100
AcDbXrecord
340
18
  0
XRECORD
  5
101
102
{ACAD_REACTORS
330
FA
102
}
330
FA
100
AcDbXrecord
340
E
  0
XRECORD
  5
107
102
{ACAD_REACTORS
330
FA
102
}
330
FA
100
AcDbXrecord
 40
0.0
  0
XRECORD
  5
10A
102
{ACAD_REACTORS
330
FA
102
}
330
FA
100
AcDbXrecord
340
0
  0
XRECORD
  5
110
102
{ACAD_REACTORS
330
FA
102
}
330
FA
100
AcDbXrecord
 10
0.0
 20
0.0
 30
0.0
  0
XRECORD
  5
10C
102
{ACAD_REACTORS
330
FA
102
}
330
FA
100
AcDbXrecord
 10
0.0
 20
0.0
 30
0.0
  0
XRECORD
  5
10F
102
{ACAD_REACTORS
330
FA
102
}
330
FA
100
AcDbXrecord
 10
0.0
 20
0.0
 30
0.0
  0
XRECORD
  5
10D
102
{ACAD_REACTORS
330
FA
102
}
330
FA
100
AcDbXrecord
 10
0.0
 20
0.0
 30
0.0
  0
XRECORD
  5
10E
102
{ACAD_REACTORS
330
FA
102
}
330
FA
100
AcDbXrecord
 10
0.0
 20
0.0
 30
0.0
  0
XRECORD
  5
10B
102
{ACAD_REACTORS
330
FA
102
}
330
FA
100
AcDbXrecord
 10
0.0
 20
0.0
 30
0.0
  0
XRECORD
  5
108
102
{ACAD_REACTORS
330
FA
102
}
330
FA
100
AcDbXrecord
340
0
  0
XRECORD
  5
109
102
{ACAD_REACTORS
330
FA
102
}
330
FA
100
AcDbXrecord
 70
     0
  0
XRECORD
  5
FE
102
{ACAD_REACTORS
330
FA
102
}
330
FA
100
AcDbXrecord
  1

  0
XRECORD
  5
FB
102
{ACAD_REACTORS
330
FA
102
}
330
FA
100
AcDbXrecord
 90
        1
  0
XRECORD
  5
FC
102
{ACAD_REACTORS
330
FA
102
}
330
FA
100
AcDbXrecord
 90
       70
  0
XRECORD
  5
113
102
{ACAD_REACTORS
330
FA
102
}
330
FA
100
AcDbXrecord
340
0
  0
XRECORD
  5
119
102
{ACAD_REACTORS
330
FA
102
}
330
FA
100
AcDbXrecord
 10
0.0
 20
0.0
 30
0.0
  0
XRECORD
  5
115
102
{ACAD_REACTORS
330
FA
102
}
330
FA
100
AcDbXrecord
 10
0.0
 20
0.0
 30
0.0
  0
XRECORD
  5
118
102
{ACAD_REACTORS
330
FA
102
}
330
FA
100
AcDbXrecord
 10
0.0
 20
0.0
 30
0.0
  0
XRECORD
  5
116
102
{ACAD_REACTORS
330
FA
102
}
330
FA
100
AcDbXrecord
 10
0.0
 20
0.0
 30
0.0
  0
XRECORD
  5
117
102
{ACAD_REACTORS
330
FA
102
}
330
FA
100
AcDbXrecord
 10
0.0
 20
0.0
 30
0.0
  0
XRECORD
  5
114
102
{ACAD_REACTORS
330
FA
102
}
330
FA
100
AcDbXrecord
 10
0.0
 20
0.0
 30
0.0
  0
XRECORD
  5
111
102
{ACAD_REACTORS
330
FA
102
}
330
FA
100
AcDbXrecord
340
0
  0
XRECORD
  5
112
102
{ACAD_REACTORS
330
FA
102
}
330
FA
100
AcDbXrecord
 70
     1
  0
XRECORD
  5
106
102
{ACAD_REACTORS
330
FA
102
}
330
FA
100
AcDbXrecord
  1
{554124F6-B73B-44D2-8511-09714D63AD39}
  0
DICTIONARYVAR
  5
AE
102
{ACAD_REACTORS
330
AD
102
}
330
AD
100
DictionaryVariables
280
     0
  1
1
  0
ENDSEC
  0
EOF
