  0
SECTION
  2
HEADER
  9
$ACADVER
  1
AC1009
  9
$INSBASE
 10
0.0
 20
0.0
 30
0.0
  9
$EXTMIN
 10
0.151700000000007
 20
0.0709849999997994
 30
0.0
  9
$EXTMAX
 10
83.387500000000003
 20
95.028914999999785
 30
0.0
  9
$LIMMIN
 10
0.0
 20
0.0
  9
$LIMMAX
 10
12.0
 20
9.0
  9
$ORTHOMODE
 70
     0
  9
$REGENMODE
 70
     1
  9
$FILLMODE
 70
     1
  9
$QTEXTMODE
 70
     0
  9
$MIRRTEXT
 70
     1
  9
$DRAGMODE
 70
     2
  9
$LTSCALE
 40
1.0
  9
$OSMODE
 70
    37
  9
$ATTMODE
 70
     1
  9
$TEXTSIZE
 40
0.2
  9
$TRACEWID
 40
0.05
  9
$TEXTSTYLE
  7
STANDARD
  9
$CLAYER
  8
0
  9
$CELTYPE
  6
CONTINUOUS
  9
$CECOLOR
 62
   256
  9
$DIMSCALE
 40
1.0
  9
$DIMASZ
 40
0.18
  9
$DIMEXO
 40
0.0625
  9
$DIMDLI
 40
0.38
  9
$DIMRND
 40
0.0
  9
$DIMDLE
 40
0.0
  9
$DIMEXE
 40
0.18
  9
$DIMTP
 40
0.0
  9
$DIMTM
 40
0.0
  9
$DIMTXT
 40
0.18
  9
$DIMCEN
 40
0.09
  9
$DIMTSZ
 40
0.0
  9
$DIMTOL
 70
     0
  9
$DIMLIM
 70
     0
  9
$DIMTIH
 70
     1
  9
$DIMTOH
 70
     1
  9
$DIMSE1
 70
     0
  9
$DIMSE2
 70
     0
  9
$DIMTAD
 70
     0
  9
$DIMZIN
 70
     0
  9
$DIMBLK
  1

  9
$DIMASO
 70
     1
  9
$DIMSHO
 70
     1
  9
$DIMPOST
  1

  9
$DIMAPOST
  1

  9
$DIMALT
 70
     0
  9
$DIMALTD
 70
     2
  9
$DIMALTF
 40
25.399999999999999
  9
$DIMLFAC
 40
1.0
  9
$DIMTOFL
 70
     0
  9
$DIMTVP
 40
0.0
  9
$DIMTIX
 70
     0
  9
$DIMSOXD
 70
     0
  9
$DIMSAH
 70
     0
  9
$DIMBLK1
  1

  9
$DIMBLK2
  1

  9
$DIMSTYLE
  2
STANDARD
  9
$DIMCLRD
 70
     0
  9
$DIMCLRE
 70
     0
  9
$DIMCLRT
 70
     0
  9
$DIMTFAC
 40
1.0
  9
$DIMGAP
 40
0.09
  9
$LUNITS
 70
     2
  9
$LUPREC
 70
     4
  9
$SKETCHINC
 40
0.1
  9
$FILLETRAD
 40
0.0
  9
$AUNITS
 70
     0
  9
$AUPREC
 70
     0
  9
$MENU
  1
.
  9
$ELEVATION
 40
0.0
  9
$PELEVATION
 40
0.0
  9
$THICKNESS
 40
0.0
  9
$LIMCHECK
 70
     0
  9
$BLIPMODE
 70
     0
  9
$CHAMFERA
 40
0.0
  9
$CHAMFERB
 40
0.0
  9
$SKPOLY
 70
     0
  9
$TDCREATE
 40
2454699.3726202538
  9
$TDUPDATE
 40
2454699.376453449
  9
$TDINDWG
 40
0.0038333681
  9
$TDUSRTIMER
 40
0.0038333681
  9
$USRTIMER
 70
     1
  9
$ANGBASE
 50
0.0
  9
$ANGDIR
 70
     0
  9
$PDMODE
 70
     0
  9
$PDSIZE
 40
0.0
  9
$PLINEWID
 40
0.0
  9
$COORDS
 70
     1
  9
$SPLFRAME
 70
     0
  9
$SPLINETYPE
 70
     6
  9
$SPLINESEGS
 70
     8
  9
$ATTDIA
 70
     0
  9
$ATTREQ
 70
     1
  9
$HANDLING
 70
 22529
  9
$HANDSEED
  5
330
  9
$SURFTAB1
 70
     6
  9
$SURFTAB2
 70
     6
  9
$SURFTYPE
 70
     6
  9
$SURFU
 70
     6
  9
$SURFV
 70
     6
  9
$UCSNAME
  2

  9
$UCSORG
 10
0.0
 20
0.0
 30
0.0
  9
$UCSXDIR
 10
1.0
 20
0.0
 30
0.0
  9
$UCSYDIR
 10
0.0
 20
1.0
 30
0.0
  9
$PUCSNAME
  2

  9
$PUCSORG
 10
0.0
 20
0.0
 30
0.0
  9
$PUCSXDIR
 10
1.0
 20
0.0
 30
0.0
  9
$PUCSYDIR
 10
0.0
 20
1.0
 30
0.0
  9
$USERI1
 70
     0
  9
$USERI2
 70
     0
  9
$USERI3
 70
     0
  9
$USERI4
 70
     0
  9
$USERI5
 70
     0
  9
$USERR1
 40
0.0
  9
$USERR2
 40
0.0
  9
$USERR3
 40
0.0
  9
$USERR4
 40
0.0
  9
$USERR5
 40
0.0
  9
$WORLDVIEW
 70
     1
  9
$SHADEDGE
 70
     3
  9
$SHADEDIF
 70
    70
  9
$TILEMODE
 70
     1
  9
$MAXACTVP
 70
    64
  9
$PLIMCHECK
 70
     0
  9
$PEXTMIN
 10
1.0000000000000000E+020
 20
1.0000000000000000E+020
 30
1.0000000000000000E+020
  9
$PEXTMAX
 10
-1.0000000000000000E+020
 20
-1.0000000000000000E+020
 30
-1.0000000000000000E+020
  9
$PLIMMIN
 10
0.0
 20
0.0
  9
$PLIMMAX
 10
12.0
 20
9.0
  9
$UNITMODE
 70
     0
  9
$VISRETAIN
 70
     1
  9
$PLINEGEN
 70
     0
  9
$PSLTSCALE
 70
     1
  0
ENDSEC
  0
SECTION
  2
TABLES
  0
TABLE
  2
VPORT
 70
     3
  0
VPORT
  2
*ACTIVE
 70
     0
 10
0.0
 20
0.0
 11
1.0
 21
1.0
 12
41.769599999999997
 22
47.549949999999789
 13
0.0
 23
0.0
 14
1.0
 24
1.0
 15
0.0
 25
0.0
 16
0.0
 26
0.0
 36
1.0
 17
0.0
 27
0.0
 37
0.0
 40
95.686507468030683
 41
2.0781049935979512
 42
50.0
 43
0.0
 44
0.0
 50
0.0
 51
0.0
 71
     0
 72
   100
 73
     1
 74
     3
 75
     0
 76
     0
 77
     0
 78
     0
  0
ENDTAB
  0
TABLE
  2
LTYPE
 70
     1
  0
LTYPE
  2
CONTINUOUS
 70
     0
  3
Solid line
 72
    65
 73
     0
 40
0.0
  0
ENDTAB
  0
TABLE
  2
LAYER
 70
     1
  0
LAYER
  2
0
 70
     0
 62
     7
  6
CONTINUOUS
  0
ENDTAB
  0
TABLE
  2
STYLE
 70
     1
  0
STYLE
  2
STANDARD
 70
     0
 40
0.0
 41
1.0
 50
0.0
 71
     0
 42
0.2
  3
txt
  4

  0
ENDTAB
  0
TABLE
  2
VIEW
 70
     0
  0
ENDTAB
  0
TABLE
  2
UCS
 70
     0
  0
ENDTAB
  0
TABLE
  2
APPID
 70
     1
  0
APPID
  2
ACAD
 70
     0
  0
ENDTAB
  0
TABLE
  2
DIMSTYLE
 70
     1
  0
DIMSTYLE
  2
STANDARD
 70
     0
  3

  4

  5

  6

  7

 40
1.0
 41
0.18
 42
0.0625
 43
0.38
 44
0.18
 45
0.0
 46
0.0
 47
0.0
 48
0.0
140
0.18
141
0.09
142
0.0
143
25.399999999999999
144
1.0
145
0.0
146
1.0
147
0.09
 71
     0
 72
     0
 73
     1
 74
     1
 75
     0
 76
     0
 77
     0
 78
     0
170
     0
171
     2
172
     0
173
     0
174
     0
175
     0
176
     0
177
     0
178
     0
  0
ENDTAB
  0
ENDSEC
  0
SECTION
  2
BLOCKS
  0
BLOCK
  8
0
  2
$MODEL_SPACE
 70
     0
 10
0.0
 20
0.0
 30
0.0
  3
$MODEL_SPACE
  1

  0
ENDBLK
  5
20
  8
0
  0
BLOCK
 67
     1
  8
0
  2
$PAPER_SPACE
 70
     0
 10
0.0
 20
0.0
 30
0.0
  3
$PAPER_SPACE
  1

  0
ENDBLK
  5
1C
 67
     1
  8
0
  0
ENDSEC
  0
SECTION
  2
ENTITIES
  0
LINE
  5
22
  8
0
 10
2.9931000000000001
 20
43.4767149999998
 30
0.0
 11
3.3205893333734098
 21
43.597331309067712
 31
0.0
  0
LINE
  5
23
  8
0
 10
2.994899999999999
 20
44.577414999999803
 30
0.0
 11
3.1615000000000002
 21
43.983714999999798
 31
0.0
  0
LINE
  5
24
  8
0
 10
2.994899999999999
 20
44.577414999999803
 30
0.0
 11
3.0367999999999991
 21
44.736714999999791
 31
0.0
  0
LINE
  5
25
  8
0
 10
3.1615000000000002
 20
43.983714999999798
 30
0.0
 11
3.4470000000000001
 21
43.290314999999801
 31
0.0
  0
LINE
  5
26
  8
0
 10
3.2724999999999991
 20
44.344514999999802
 30
0.0
 11
3.5579999999999998
 21
43.651014999999802
 31
0.0
  0
LINE
  5
29
  8
0
 10
3.0367999999999991
 20
44.736714999999791
 30
0.0
 11
3.2724999999999991
 21
44.344514999999802
 31
0.0
  0
LINE
  5
2B
  8
0
 10
2.8894000000000002
 20
43.758214999999801
 30
0.0
 11
2.9931000000000001
 21
43.4767149999998
 31
0.0
  0
LINE
  5
2D
  8
0
 10
2.6474000000000002
 20
44.415114999999801
 30
0.0
 11
2.8894000000000002
 21
43.758214999999801
 31
0.0
  0
LINE
  5
2F
  8
0
 10
0.151700000000007
 20
57.995014999999803
 30
0.0
 11
0.486400000000003
 21
62.283214999999799
 31
0.0
  0
LINE
  5
30
  8
0
 10
0.324300000000006
 20
56.022714999999799
 30
0.0
 11
1.3968
 21
55.12281499999979
 31
0.0
  0
LINE
  5
31
  8
0
 10
0.275000000000006
 20
56.586214999999797
 30
0.0
 11
1.270900000000009
 21
55.75061499999979
 31
0.0
  0
LINE
  5
32
  8
0
 10
0.324300000000006
 20
56.022714999999799
 30
0.0
 11
0.6580000000000059
 21
56.2648149999998
 31
0.0
  0
LINE
  5
33
  8
0
 10
0.324300000000006
 20
56.022714999999799
 30
0.0
 11
0.6448000000000052
 21
52.359714999999802
 31
0.0
  0
LINE
  5
34
  8
0
 10
0.324300000000006
 20
56.022714999999799
 30
0.0
 11
1.3968
 21
55.12281499999979
 31
0.0
  0
LINE
  5
35
  8
0
 10
0.275000000000005
 20
56.586214999999797
 30
0.0
 11
1.270900000000009
 21
55.75061499999979
 31
0.0
  0
LINE
  5
36
  8
0
 10
0.151700000000007
 20
57.995014999999803
 30
0.0
 11
0.486400000000003
 21
62.283214999999799
 31
0.0
  0
LINE
  5
37
  8
0
 10
0.151700000000007
 20
57.995014999999803
 30
0.0
 11
0.275000000000006
 21
56.586214999999797
 31
0.0
  0
LINE
  5
38
  8
0
 10
0.6448000000000052
 20
52.359714999999802
 30
0.0
 11
2.608299999999999
 21
46.143214999999799
 31
0.0
  0
LINE
  5
3C
  8
0
 10
1.327300000000009
 20
64.841114999999803
 30
0.0
 11
3.515400000000009
 21
68.226614999999796
 31
0.0
  0
LINE
  5
44
  8
0
 10
0.486400000000003
 20
62.283214999999799
 30
0.0
 11
1.327300000000009
 21
64.841114999999803
 31
0.0
  0
LINE
  5
45
  8
0
 10
1.327300000000009
 20
64.841114999999803
 30
0.0
 11
3.515400000000009
 21
68.226614999999796
 31
0.0
  0
LINE
  5
46
  8
0
 10
2.608299999999999
 20
46.143214999999799
 30
0.0
 11
2.8612865074679501
 21
45.5595662968678
 31
0.0
  0
LINE
  5
47
  8
0
 10
2.3018000000000089
 20
45.353514999999803
 30
0.0
 11
2.4054999999999991
 21
45.071914999999791
 31
0.0
  0
LINE
  5
48
  8
0
 10
2.3018000000000089
 20
45.353514999999803
 30
0.0
 11
2.8612865074679501
 21
45.5595662968678
 31
0.0
  0
LINE
  5
49
  8
0
 10
2.4054999999999991
 20
45.071914999999791
 30
0.0
 11
2.6474000000000002
 21
44.415114999999801
 31
0.0
  0
LINE
  5
4B
  8
0
 10
3.4470000000000001
 20
43.290314999999801
 30
0.0
 11
3.682700000000009
 21
42.898014999999788
 31
0.0
  0
LINE
  5
4C
  8
0
 10
4.8315000000000001
 20
41.014214999999787
 30
0.0
 11
5.70888207604595
 21
39.586092809686697
 31
0.0
  0
LINE
  5
4D
  8
0
 10
3.967417365902119
 20
43.007683797358588
 30
0.0
 11
4.8315000000000001
 21
41.014214999999787
 31
0.0
  0
LINE
  5
4F
  8
0
 10
3.682700000000009
 20
42.898014999999788
 30
0.0
 11
3.7246000000000001
 21
43.0574149999998
 31
0.0
  0
LINE
  5
53
  8
0
 10
4.6645000000000092
 20
67.262514999999794
 30
0.0
 11
7.881899999999999
 21
64.562714999999798
 31
0.0
  0
LINE
  5
57
  8
0
 10
3.515400000000009
 20
68.226614999999796
 30
0.0
 11
4.2199000000000089
 21
68.288314999999798
 31
0.0
  0
LINE
  5
58
  8
0
 10
3.515400000000009
 20
68.226614999999796
 30
0.0
 11
4.6645000000000092
 21
67.262514999999794
 31
0.0
  0
LINE
  5
59
  8
0
 10
3.5579999999999998
 20
43.651014999999802
 30
0.0
 11
3.7246000000000001
 21
43.0574149999998
 31
0.0
  0
LINE
  5
5B
  8
0
 10
3.3205893333734098
 20
43.597331309067712
 30
0.0
 11
3.4470000000000001
 21
43.290314999999801
 31
0.0
  0
LINE
  5
5C
  8
0
 10
4.2199000000000089
 20
68.288314999999798
 30
0.0
 11
5.3689
 21
67.324114999999793
 31
0.0
  0
LINE
  5
5D
  8
0
 10
6.0171000000000001
 20
37.757214999999789
 30
0.0
 11
6.079699999999999
 21
37.549214999999798
 31
0.0
  0
LINE
  5
5F
  8
0
 10
6.079699999999999
 20
37.549214999999798
 30
0.0
 11
6.5030642425777003
 21
37.762879674945502
 31
0.0
  0
LINE
  5
60
  8
0
 10
6.079699999999999
 20
37.549214999999798
 30
0.0
 11
6.5030642425777003
 21
37.762879674945502
 31
0.0
  0
LINE
  5
61
  8
0
 10
5.2587000000000002
 20
39.119314999999787
 30
0.0
 11
5.5378999999999987
 21
38.522114999999793
 31
0.0
  0
LINE
  5
62
  8
0
 10
5.1961000000000093
 20
39.327314999999793
 30
0.0
 11
5.3986000000000001
 21
39.001914999999798
 31
0.0
  0
LINE
  5
63
  8
0
 10
5.1961000000000093
 20
39.327314999999793
 30
0.0
 11
5.2587000000000002
 21
39.119314999999787
 31
0.0
  0
LINE
  5
64
  8
0
 10
5.1961000000000093
 20
39.327314999999793
 30
0.0
 11
5.8823895004583804
 21
39.673654121501897
 31
0.0
  0
LINE
  5
65
  8
0
 10
5.0041000000000091
 20
42.891514999999792
 30
0.0
 11
5.0688000000000004
 21
42.38331499999979
 31
0.0
  0
LINE
  5
66
  8
0
 10
5.0041000000000091
 20
42.891514999999792
 30
0.0
 11
5.1953000000000094
 21
42.925514999999791
 31
0.0
  0
LINE
  5
68
  8
0
 10
5.0688000000000004
 20
42.38331499999979
 30
0.0
 11
5.3632000000000088
 21
41.682414999999793
 31
0.0
  0
LINE
  5
69
  8
0
 10
5.3986000000000001
 20
39.001914999999798
 30
0.0
 11
5.7378999999999989
 21
38.354414999999797
 31
0.0
  0
LINE
  5
6B
  8
0
 10
5.3632000000000088
 20
41.682414999999793
 30
0.0
 11
5.7083000000000004
 21
41.198314999999788
 31
0.0
  0
LINE
  5
6C
  8
0
 10
5.1953000000000094
 20
42.925514999999791
 30
0.0
 11
5.5403000000000002
 21
42.441514999999789
 31
0.0
  0
LINE
  5
6E
  8
0
 10
6.3413000000000004
 20
38.210914999999787
 30
0.0
 11
6.5293000000000001
 21
37.690214999999789
 31
0.0
  0
LINE
  5
6F
  8
0
 10
6.3413000000000004
 20
38.210914999999787
 30
0.0
 11
6.4282000000000092
 21
38.293514999999793
 31
0.0
  0
LINE
  5
70
  8
0
 10
5.7378999999999989
 20
38.354414999999797
 30
0.0
 11
6.0171000000000001
 21
37.757214999999789
 31
0.0
  0
LINE
  5
74
  8
0
 10
5.7083000000000004
 20
41.198314999999788
 30
0.0
 11
5.8995000000000086
 21
41.232414999999797
 31
0.0
  0
LINE
  5
75
  8
0
 10
5.8348000000000004
 20
41.740514999999789
 30
0.0
 11
5.8995000000000086
 21
41.232414999999797
 31
0.0
  0
LINE
  5
77
  8
0
 10
5.5403000000000002
 20
42.441514999999789
 30
0.0
 11
5.8348000000000004
 21
41.740514999999789
 31
0.0
  0
LINE
  5
79
  8
0
 10
6.4282000000000092
 20
38.293514999999793
 30
0.0
 11
6.7516999999999987
 21
37.86661499999979
 31
0.0
  0
LINE
  5
7B
  8
0
 10
5.5378999999999987
 20
38.522114999999793
 30
0.0
 11
5.8772000000000002
 21
37.874614999999793
 31
0.0
  0
LINE
  5
7C
  8
0
 10
5.8772000000000002
 20
37.874614999999793
 30
0.0
 11
6.079699999999999
 21
37.549214999999798
 31
0.0
  0
LINE
  5
7D
  8
0
 10
6.5293000000000001
 20
37.690214999999789
 30
0.0
 11
6.8932999999999991
 21
37.021914999999787
 31
0.0
  0
LINE
  5
7E
  8
0
 10
6.8932999999999991
 20
37.021914999999787
 30
0.0
 11
7.2168000000000001
 21
36.59501499999979
 31
0.0
  0
LINE
  5
7F
  8
0
 10
6.7516999999999987
 20
37.86661499999979
 30
0.0
 11
7.1157000000000004
 21
37.198214999999792
 31
0.0
  0
LINE
  5
81
  8
0
 10
6.5030642425777003
 20
37.762879674945502
 30
0.0
 11
6.5293000000000001
 21
37.690214999999789
 31
0.0
  0
LINE
  5
82
  8
0
 10
5.3689
 20
67.324114999999793
 30
0.0
 11
8.5097000000000094
 21
64.6886149999998
 31
0.0
  0
LINE
  5
83
  8
0
 10
4.9243000000000086
 20
68.349914999999797
 30
0.0
 11
8.1417000000000002
 21
65.650214999999804
 31
0.0
  0
LINE
  5
84
  8
0
 10
3.7752000000000092
 20
69.314114999999802
 30
0.0
 11
6.9891000000000094
 21
73.144314999999793
 31
0.0
  0
LINE
  5
85
  8
0
 10
3.7752000000000092
 20
69.314114999999802
 30
0.0
 11
4.2199000000000089
 21
68.288314999999798
 31
0.0
  0
LINE
  5
86
  8
0
 10
3.7752000000000092
 20
69.314114999999802
 30
0.0
 11
4.9243000000000086
 21
68.349914999999797
 31
0.0
  0
LINE
  5
87
  8
0
 10
7.881899999999999
 20
64.562714999999798
 30
0.0
 11
12.93779999999999
 21
60.320314999999802
 31
0.0
  0
LINE
  5
88
  8
0
 10
7.4911411628134088
 20
36.742170213853299
 30
0.0
 11
10.118899999999989
 21
33.314014999999799
 31
0.0
  0
LINE
  5
8A
  8
0
 10
7.1157000000000004
 20
37.198214999999792
 30
0.0
 11
7.3037000000000001
 21
36.67761499999979
 31
0.0
  0
LINE
  5
8C
  8
0
 10
7.2168000000000001
 20
36.59501499999979
 30
0.0
 11
7.4911411628134088
 21
36.742170213853299
 31
0.0
  0
LINE
  5
8D
  8
0
 10
7.2168000000000001
 20
36.59501499999979
 30
0.0
 11
7.3037000000000001
 21
36.67761499999979
 31
0.0
  0
LINE
  5
8E
  8
0
 10
7.2168000000000001
 20
36.59501499999979
 30
0.0
 11
7.7610850275768888
 21
36.886966739246603
 31
0.0
  0
LINE
  5
8F
  8
0
 10
8.2492999999999999
 20
39.714614999999789
 30
0.0
 11
8.3062000000000094
 21
40.120714999999791
 31
0.0
  0
LINE
  5
90
  8
0
 10
8.2492999999999999
 20
39.714614999999789
 30
0.0
 11
8.5174000000000003
 21
39.035714999999797
 31
0.0
  0
LINE
  5
91
  8
0
 10
8.4962999999999997
 20
36.402714999999787
 30
0.0
 11
8.5682000000000098
 21
35.979514999999793
 31
0.0
  0
LINE
  5
92
  8
0
 10
8.4962999999999997
 20
36.402714999999787
 30
0.0
 11
8.7320000000000011
 21
36.36041499999979
 31
0.0
  0
LINE
  5
94
  8
0
 10
8.5682000000000098
 20
35.979514999999793
 30
0.0
 11
8.9198000000000004
 21
35.321514999999792
 31
0.0
  0
LINE
  5
95
  8
0
 10
8.7320000000000011
 20
36.36041499999979
 30
0.0
 11
9.1492000000000093
 21
35.854814999999789
 31
0.0
  0
LINE
  5
99
  8
0
 10
8.6401000000000092
 20
40.035114999999792
 30
0.0
 11
9.0645000000000007
 21
39.484414999999792
 31
0.0
  0
LINE
  5
9B
  8
0
 10
8.5174000000000003
 20
39.035714999999797
 30
0.0
 11
8.9419000000000004
 21
38.485014999999791
 31
0.0
  0
LINE
  5
9C
  8
0
 10
8.3062000000000094
 20
40.120714999999791
 30
0.0
 11
8.6401000000000092
 21
40.035114999999792
 31
0.0
  0
LINE
  5
9E
  8
0
 10
8.5097000000000094
 20
64.6886149999998
 30
0.0
 11
13.565599999999989
 21
60.446314999999792
 31
0.0
  0
LINE
  5
9F
  8
0
 10
8.1417000000000002
 20
65.650214999999804
 30
0.0
 11
13.3508
 21
61.279214999999802
 31
0.0
  0
LINE
  5
A0
  8
0
 10
8.1381999999999994
 20
72.180114999999802
 30
0.0
 11
11.355600000000001
 21
69.480414999999795
 31
0.0
  0
LINE
  5
A1
  8
0
 10
8.9198000000000004
 20
35.321514999999792
 30
0.0
 11
9.3369999999999997
 21
34.815914999999791
 31
0.0
  0
LINE
  5
A2
  8
0
 10
10.118899999999989
 20
33.314014999999799
 30
0.0
 11
12.095700000000001
 21
31.0026149999998
 31
0.0
  0
LINE
  5
A4
  8
0
 10
9.3369999999999997
 20
34.815914999999791
 30
0.0
 11
9.5726999999999993
 21
34.77371499999979
 31
0.0
  0
LINE
  5
A5
  8
0
 10
9.5007999999999981
 20
35.196914999999791
 30
0.0
 11
9.5726999999999993
 21
34.77371499999979
 31
0.0
  0
LINE
  5
A7
  8
0
 10
9.1492000000000093
 20
35.854814999999789
 30
0.0
 11
9.5007999999999981
 21
35.196914999999791
 31
0.0
  0
LINE
  5
A9
  8
0
 10
11.05059999999999
 20
33.896414999999799
 30
0.0
 11
11.111999999999989
 21
34.20781499999979
 31
0.0
  0
LINE
  5
AA
  8
0
 10
11.05059999999999
 20
33.896414999999799
 30
0.0
 11
11.3538
 21
33.279214999999802
 31
0.0
  0
LINE
  5
AB
  8
0
 10
11.4856
 20
34.049914999999793
 30
0.0
 11
11.962899999999999
 21
33.493914999999802
 31
0.0
  0
LINE
  5
AD
  8
0
 10
11.3538
 20
33.279214999999802
 30
0.0
 11
11.831
 21
32.72321499999979
 31
0.0
  0
LINE
  5
AE
  8
0
 10
11.111999999999989
 20
34.20781499999979
 30
0.0
 11
11.4856
 21
34.049914999999793
 31
0.0
  0
LINE
  5
B3
  8
0
 10
9.0645000000000007
 20
39.484414999999792
 30
0.0
 11
9.3327000000000009
 21
38.805514999999787
 31
0.0
  0
LINE
  5
B5
  8
0
 10
9.2757000000000005
 20
38.399414999999792
 30
0.0
 11
9.3327000000000009
 21
38.805514999999787
 31
0.0
  0
LINE
  5
B8
  8
0
 10
8.9419000000000004
 20
38.485014999999791
 30
0.0
 11
9.2757000000000005
 21
38.399414999999792
 31
0.0
  0
LINE
  5
B9
  8
0
 10
11.355600000000001
 20
69.480414999999795
 30
0.0
 11
16.564699999999991
 21
65.109414999999785
 31
0.0
  0
LINE
  5
BA
  8
0
 10
8.8425999999999991
 20
72.2417149999998
 30
0.0
 11
12.06
 21
69.542014999999793
 31
0.0
  0
LINE
  5
BB
  8
0
 10
7.6935999999999991
 20
73.205914999999806
 30
0.0
 11
8.8425999999999991
 21
72.2417149999998
 31
0.0
  0
LINE
  5
BC
  8
0
 10
8.7810000000000006
 20
72.946214999999796
 30
0.0
 11
11.9984
 21
70.246414999999786
 31
0.0
  0
LINE
  5
BD
  8
0
 10
6.9891000000000094
 20
73.144314999999793
 30
0.0
 11
7.6935999999999991
 21
73.205914999999806
 31
0.0
  0
LINE
  5
BE
  8
0
 10
6.9891000000000094
 20
73.144314999999793
 30
0.0
 11
8.1381999999999994
 21
72.180114999999802
 31
0.0
  0
LINE
  5
BF
  8
0
 10
7.631899999999999
 20
73.910314999999784
 30
0.0
 11
11.5503
 21
77.802214999999805
 31
0.0
  0
LINE
  5
C0
  8
0
 10
7.631899999999999
 20
73.910314999999784
 30
0.0
 11
7.6935999999999991
 21
73.205914999999806
 31
0.0
  0
LINE
  5
C1
  8
0
 10
7.631899999999999
 20
73.910314999999784
 30
0.0
 11
8.7810000000000006
 21
72.946214999999796
 31
0.0
  0
LINE
  5
C2
  8
0
 10
12.1723
 20
30.9383149999998
 30
0.0
 11
13.2447
 21
30.038414999999802
 31
0.0
  0
LINE
  5
C3
  8
0
 10
12.095700000000001
 20
31.0026149999998
 30
0.0
 11
12.1723
 21
30.9383149999998
 31
0.0
  0
LINE
  5
C4
  8
0
 10
12.204599999999999
 20
32.565214999999803
 30
0.0
 11
12.266099999999989
 21
32.876514999999792
 31
0.0
  0
LINE
  5
C7
  8
0
 10
11.962899999999999
 20
33.493914999999802
 30
0.0
 11
12.266099999999989
 21
32.876514999999792
 31
0.0
  0
LINE
  5
C9
  8
0
 10
11.831
 20
32.72321499999979
 30
0.0
 11
12.204599999999999
 21
32.565214999999803
 31
0.0
  0
LINE
  5
CA
  8
0
 10
13.2447
 20
30.038414999999802
 30
0.0
 11
14.700200000000001
 21
28.817114999999799
 31
0.0
  0
LINE
  5
CB
  8
0
 10
13.145799999999999
 20
34.957514999999802
 30
0.0
 11
13.606299999999999
 21
34.765614999999791
 31
0.0
  0
LINE
  5
CC
  8
0
 10
13.1195
 20
36.276414999999787
 30
0.0
 11
13.587899999999991
 21
35.688914999999788
 31
0.0
  0
LINE
  5
CE
  8
0
 10
12.6775
 20
35.545014999999793
 30
0.0
 11
13.145799999999999
 21
34.957514999999802
 31
0.0
  0
LINE
  5
CF
  8
0
 10
12.469200000000001
 20
36.173614999999792
 30
0.0
 11
12.6591
 21
36.468214999999788
 31
0.0
  0
LINE
  5
D0
  8
0
 10
12.469200000000001
 20
36.173614999999792
 30
0.0
 11
12.6775
 21
35.545014999999793
 31
0.0
  0
LINE
  5
D1
  8
0
 10
12.93779999999999
 20
60.320314999999802
 30
0.0
 11
19.602399999999989
 21
54.728114999999796
 31
0.0
  0
LINE
  5
D2
  8
0
 10
12.6591
 20
36.468214999999788
 30
0.0
 11
13.1195
 21
36.276414999999787
 31
0.0
  0
LINE
  5
D4
  8
0
 10
14.700200000000001
 20
28.817114999999799
 30
0.0
 11
16.538699999999992
 21
27.274414999999792
 31
0.0
  0
LINE
  5
D5
  8
0
 10
13.587899999999991
 20
35.688914999999788
 30
0.0
 11
13.796099999999999
 21
35.060214999999801
 31
0.0
  0
LINE
  5
DA
  8
0
 10
13.606299999999999
 20
34.765614999999791
 30
0.0
 11
13.796099999999999
 21
35.060214999999801
 31
0.0
  0
LINE
  5
DC
  8
0
 10
14.628899999999989
 20
30.893914999999801
 30
0.0
 11
14.831599999999989
 21
31.086714999999799
 31
0.0
  0
LINE
  5
DD
  8
0
 10
14.628899999999989
 20
30.893914999999801
 30
0.0
 11
14.850899999999999
 21
30.344714999999798
 31
0.0
  0
LINE
  5
DE
  8
0
 10
16.538699999999992
 20
27.274414999999792
 30
0.0
 11
18.607099999999999
 21
25.5389149999998
 31
0.0
  0
LINE
  5
E0
  8
0
 10
15.8224
 20
30.255314999999801
 30
0.0
 11
16.0444
 21
29.706214999999801
 31
0.0
  0
LINE
  5
E2
  8
0
 10
15.841699999999999
 20
29.5133149999998
 30
0.0
 11
16.0444
 21
29.706214999999801
 31
0.0
  0
LINE
  5
E4
  8
0
 10
15.3504
 20
29.770114999999802
 30
0.0
 11
15.841699999999999
 21
29.5133149999998
 31
0.0
  0
LINE
  5
E5
  8
0
 10
15.322900000000001
 20
30.830014999999801
 30
0.0
 11
15.8224
 21
30.255314999999801
 31
0.0
  0
LINE
  5
E7
  8
0
 10
14.850899999999999
 20
30.344714999999798
 30
0.0
 11
15.3504
 21
29.770114999999802
 31
0.0
  0
LINE
  5
E8
  8
0
 10
14.831599999999989
 20
31.086714999999799
 30
0.0
 11
15.322900000000001
 21
30.830014999999801
 31
0.0
  0
LINE
  5
EA
  8
0
 10
13.565599999999989
 20
60.446314999999792
 30
0.0
 11
20.2302
 21
54.854014999999798
 31
0.0
  0
LINE
  5
EB
  8
0
 10
13.3508
 20
61.279214999999802
 30
0.0
 11
20.168600000000001
 21
55.558414999999798
 31
0.0
  0
LINE
  5
EC
  8
0
 10
16.564699999999991
 20
65.109414999999785
 30
0.0
 11
23.38249999999999
 21
59.388614999999803
 31
0.0
  0
LINE
  5
ED
  8
0
 10
17.1159
 20
65.299614999999804
 30
0.0
 11
23.780499999999989
 21
59.707414999999799
 31
0.0
  0
LINE
  5
EE
  8
0
 10
12.06
 20
69.542014999999793
 30
0.0
 11
17.1159
 21
65.299614999999804
 31
0.0
  0
LINE
  5
EF
  8
0
 10
18.607099999999999
 20
25.5389149999998
 30
0.0
 11
20.905200000000001
 21
23.610514999999801
 31
0.0
  0
LINE
  5
F1
  8
0
 10
20.1082
 20
26.659114999999801
 30
0.0
 11
20.221599999999992
 21
26.201114999999799
 31
0.0
  0
LINE
  5
F3
  8
0
 10
19.879300000000001
 20
26.125414999999801
 30
0.0
 11
20.221599999999992
 21
26.201114999999799
 31
0.0
  0
LINE
  5
F4
  8
0
 10
19.2987
 20
26.457114999999799
 30
0.0
 11
19.879300000000001
 21
26.125414999999801
 31
0.0
  0
LINE
  5
F5
  8
0
 10
19.625699999999991
 20
27.219514999999792
 30
0.0
 11
20.1082
 21
26.659114999999801
 31
0.0
  0
LINE
  5
F7
  8
0
 10
18.815999999999988
 20
27.0176149999998
 30
0.0
 11
19.2987
 21
26.457114999999799
 31
0.0
  0
LINE
  5
F8
  8
0
 10
18.7026
 20
27.475614999999799
 30
0.0
 11
19.044899999999998
 21
27.5513149999998
 31
0.0
  0
LINE
  5
F9
  8
0
 10
18.7026
 20
27.475614999999799
 30
0.0
 11
18.815999999999988
 21
27.0176149999998
 31
0.0
  0
LINE
  5
FB
  8
0
 10
17.5672
 20
31.442114999999792
 30
0.0
 11
18.040900000000001
 21
30.8500149999998
 31
0.0
  0
LINE
  5
FC
  8
0
 10
17.448199999999989
 20
31.995714999999791
 30
0.0
 11
17.773199999999999
 21
32.176914999999802
 31
0.0
  0
LINE
  5
FD
  8
0
 10
17.448199999999989
 20
31.995714999999791
 30
0.0
 11
17.5672
 21
31.442114999999792
 31
0.0
  0
LINE
  5
FF
  8
0
 10
18.603100000000001
 20
30.5728149999998
 30
0.0
 11
18.928100000000001
 21
30.7540149999998
 31
0.0
  0
LINE
  5
100
  8
0
 10
18.3354
 20
31.899714999999791
 30
0.0
 11
18.809100000000001
 21
31.307714999999799
 31
0.0
  0
LINE
  5
102
  8
0
 10
19.602399999999989
 20
54.728114999999796
 30
0.0
 11
27.416
 21
48.1717149999998
 31
0.0
  0
LINE
  5
103
  8
0
 10
18.809100000000001
 20
31.307714999999799
 30
0.0
 11
18.928100000000001
 21
30.7540149999998
 31
0.0
  0
LINE
  5
105
  8
0
 10
18.040900000000001
 20
30.8500149999998
 30
0.0
 11
18.603100000000001
 21
30.5728149999998
 31
0.0
  0
LINE
  5
106
  8
0
 10
17.773199999999999
 20
32.176914999999802
 30
0.0
 11
18.3354
 21
31.899714999999791
 31
0.0
  0
LINE
  5
108
  8
0
 10
19.044899999999998
 20
27.5513149999998
 30
0.0
 11
19.625699999999991
 21
27.219514999999792
 31
0.0
  0
LINE
  5
10A
  8
0
 10
20.905200000000001
 20
23.610514999999801
 30
0.0
 11
22.973500000000001
 21
21.875014999999792
 31
0.0
  0
LINE
  5
10D
  8
0
 10
20.2302
 20
54.854014999999798
 30
0.0
 11
27.814
 21
48.4904149999998
 31
0.0
  0
LINE
  5
10E
  8
0
 10
20.168600000000001
 20
55.558414999999798
 30
0.0
 11
27.982199999999999
 21
49.002014999999801
 31
0.0
  0
LINE
  5
10F
  8
0
 10
17.207499999999989
 20
65.875514999999794
 30
0.0
 11
24.025300000000001
 21
60.15471499999979
 31
0.0
  0
LINE
  5
110
  8
0
 10
11.9984
 20
70.246414999999786
 30
0.0
 11
17.207499999999989
 21
65.875514999999794
 31
0.0
  0
LINE
  5
111
  8
0
 10
11.5503
 20
77.802214999999805
 30
0.0
 11
16.2347
 21
81.051214999999786
 31
0.0
  0
LINE
  5
112
  8
0
 10
16.2347
 20
81.051214999999786
 30
0.0
 11
22.006499999999988
 21
84.0405149999998
 31
0.0
  0
LINE
  5
113
  8
0
 10
22.973500000000001
 20
21.875014999999792
 30
0.0
 11
25.271599999999999
 21
19.946614999999792
 31
0.0
  0
LINE
  5
114
  8
0
 10
23.293500000000002
 20
26.442514999999801
 30
0.0
 11
23.925599999999999
 21
26.106714999999799
 31
0.0
  0
LINE
  5
115
  8
0
 10
22.853100000000001
 20
27.006614999999801
 30
0.0
 11
23.293500000000002
 21
26.442514999999801
 31
0.0
  0
LINE
  5
116
  8
0
 10
22.846800000000002
 20
27.4658149999998
 30
0.0
 11
23.3001
 21
27.539314999999799
 31
0.0
  0
LINE
  5
117
  8
0
 10
22.846800000000002
 20
27.4658149999998
 30
0.0
 11
22.853100000000001
 21
27.006614999999801
 31
0.0
  0
LINE
  5
119
  8
0
 10
27.110099999999989
 20
18.403914999999792
 30
0.0
 11
28.422845454571199
 21
17.302489545432799
 31
0.0
  0
LINE
  5
11A
  8
0
 10
27.110099999999989
 20
18.403914999999792
 30
0.0
 11
28.565599999999989
 21
17.182714999999789
 31
0.0
  0
LINE
  5
11B
  8
0
 10
23.987500000000001
 20
22.522714999999788
 30
0.0
 11
24.6233
 21
22.144814999999792
 31
0.0
  0
LINE
  5
11C
  8
0
 10
24.6233
 20
22.144814999999792
 30
0.0
 11
25.094000000000001
 21
22.112614999999799
 31
0.0
  0
LINE
  5
11D
  8
0
 10
25.271599999999999
 20
19.946614999999792
 30
0.0
 11
27.110099999999989
 21
18.403914999999792
 31
0.0
  0
LINE
  5
11F
  8
0
 10
25.094000000000001
 20
22.112614999999799
 30
0.0
 11
25.109100000000002
 21
22.462914999999789
 31
0.0
  0
LINE
  5
121
  8
0
 10
24.0458
 20
23.355014999999788
 30
0.0
 11
24.6816
 21
22.977114999999799
 31
0.0
  0
LINE
  5
123
  8
0
 10
23.575099999999988
 20
23.387214999999799
 30
0.0
 11
24.0458
 21
23.355014999999788
 31
0.0
  0
LINE
  5
125
  8
0
 10
23.559999999999992
 20
23.036914999999791
 30
0.0
 11
23.987500000000001
 21
22.522714999999788
 31
0.0
  0
LINE
  5
126
  8
0
 10
23.559999999999992
 20
23.036914999999791
 30
0.0
 11
23.575099999999988
 21
23.387214999999799
 31
0.0
  0
LINE
  5
127
  8
0
 10
24.6816
 20
22.977114999999799
 30
0.0
 11
25.109100000000002
 21
22.462914999999789
 31
0.0
  0
LINE
  5
129
  8
0
 10
27.752300000000002
 20
19.882114999999789
 30
0.0
 11
28.331600000000002
 21
19.7588149999998
 31
0.0
  0
LINE
  5
12B
  8
0
 10
27.597599999999989
 20
19.6490149999998
 30
0.0
 11
27.935700000000001
 21
19.2097149999998
 31
0.0
  0
LINE
  5
12C
  8
0
 10
27.597599999999989
 20
19.6490149999998
 30
0.0
 11
27.752300000000002
 21
19.882114999999789
 31
0.0
  0
LINE
  5
12E
  8
0
 10
27.935700000000001
 20
19.2097149999998
 30
0.0
 11
28.5884
 21
18.817614999999801
 31
0.0
  0
LINE
  5
12F
  8
0
 10
23.932099999999991
 20
27.2035149999998
 30
0.0
 11
24.372499999999999
 21
26.639414999999801
 31
0.0
  0
LINE
  5
131
  8
0
 10
27.416
 20
48.1717149999998
 30
0.0
 11
35.689300000000003
 21
41.229514999999793
 31
0.0
  0
LINE
  5
132
  8
0
 10
24.372499999999999
 20
26.639414999999801
 30
0.0
 11
24.378900000000002
 21
26.180314999999801
 31
0.0
  0
LINE
  5
134
  8
0
 10
23.925599999999999
 20
26.106714999999799
 30
0.0
 11
24.378900000000002
 21
26.180314999999801
 31
0.0
  0
LINE
  5
135
  8
0
 10
23.3001
 20
27.539314999999799
 30
0.0
 11
23.932099999999991
 21
27.2035149999998
 31
0.0
  0
LINE
  5
137
  8
0
 10
27.814
 20
48.4904149999998
 30
0.0
 11
36.010699999999993
 21
41.612614999999792
 31
0.0
  0
LINE
  5
138
  8
0
 10
29.714700000000001
 20
16.218514999999801
 30
0.0
 11
32.334200000000003
 21
14.6731149999998
 31
0.0
  0
LINE
  5
139
  8
0
 10
28.422845454571199
 20
17.302489545432799
 30
0.0
 11
28.642199999999988
 21
17.118414999999789
 31
0.0
  0
LINE
  5
13A
  8
0
 10
28.642199999999988
 20
17.118414999999789
 30
0.0
 11
29.638100000000001
 21
16.282714999999801
 31
0.0
  0
LINE
  5
13B
  8
0
 10
28.5884
 20
18.817614999999801
 30
0.0
 11
29.1678
 21
18.694314999999801
 31
0.0
  0
LINE
  5
13C
  8
0
 10
29.638100000000001
 20
16.282714999999801
 30
0.0
 11
29.714700000000001
 21
16.218514999999801
 31
0.0
  0
LINE
  5
13E
  8
0
 10
29.1678
 20
18.694314999999801
 30
0.0
 11
29.322399999999998
 21
18.927514999999801
 31
0.0
  0
LINE
  5
13F
  8
0
 10
28.2835
 20
22.903914999999799
 30
0.0
 11
28.849399999999999
 21
22.882914999999791
 31
0.0
  0
LINE
  5
141
  8
0
 10
28.1615
 20
22.552414999999801
 30
0.0
 11
28.5321
 21
22.0469149999998
 31
0.0
  0
LINE
  5
142
  8
0
 10
28.1615
 20
22.552414999999801
 30
0.0
 11
28.2835
 21
22.903914999999799
 31
0.0
  0
LINE
  5
143
  8
0
 10
28.5321
 20
22.0469149999998
 30
0.0
 11
29.197399999999998
 21
21.683114999999791
 31
0.0
  0
LINE
  5
144
  8
0
 10
29.197399999999998
 20
21.683114999999791
 30
0.0
 11
29.763300000000001
 21
21.662214999999801
 31
0.0
  0
LINE
  5
146
  8
0
 10
29.763300000000001
 20
21.662214999999801
 30
0.0
 11
29.885300000000001
 21
22.013714999999799
 31
0.0
  0
LINE
  5
149
  8
0
 10
28.849399999999999
 20
22.882914999999791
 30
0.0
 11
29.514700000000001
 21
22.519214999999789
 31
0.0
  0
LINE
  5
14B
  8
0
 10
29.514700000000001
 20
22.519214999999789
 30
0.0
 11
29.885300000000001
 21
22.013714999999799
 31
0.0
  0
LINE
  5
14D
  8
0
 10
28.331600000000002
 20
19.7588149999998
 30
0.0
 11
28.984300000000001
 21
19.3667149999998
 31
0.0
  0
LINE
  5
14F
  8
0
 10
28.984300000000001
 20
19.3667149999998
 30
0.0
 11
29.322399999999998
 21
18.927514999999801
 31
0.0
  0
LINE
  5
151
  8
0
 10
31.530599999999989
 20
16.711714999999799
 30
0.0
 11
32.191200000000002
 21
16.520314999999801
 31
0.0
  0
LINE
  5
153
  8
0
 10
31.2347
 20
16.597114999999789
 30
0.0
 11
31.455100000000002
 21
16.256614999999801
 31
0.0
  0
LINE
  5
154
  8
0
 10
31.2347
 20
16.597114999999789
 30
0.0
 11
31.530599999999989
 21
16.711714999999799
 31
0.0
  0
LINE
  5
156
  8
0
 10
31.455100000000002
 20
16.256614999999801
 30
0.0
 11
32.085500000000003
 21
15.88321499999979
 31
0.0
  0
LINE
  5
157
  8
0
 10
27.982199999999999
 20
49.002014999999801
 30
0.0
 11
36.332099999999997
 21
41.995614999999788
 31
0.0
  0
LINE
  5
158
  8
0
 10
31.196100000000001
 20
52.832214999999799
 30
0.0
 11
39.545999999999999
 21
45.8258149999998
 31
0.0
  0
LINE
  5
159
  8
0
 10
40.835599999999999
 20
10.80321499999979
 30
0.0
 11
42.948868621787788
 21
10.29837342476989
 31
0.0
  0
LINE
  5
15A
  8
0
 10
43.039999999999999
 20
10.067814999999801
 30
0.0
 11
43.653500000000001
 21
10.0069149999998
 31
0.0
  0
LINE
  5
15C
  8
0
 10
42.890300000000003
 20
9.9989149999998013
 30
0.0
 11
42.948868621787788
 21
10.29837342476989
 31
0.0
  0
LINE
  5
15D
  8
0
 10
42.890300000000003
 20
9.9989149999998013
 30
0.0
 11
43.039999999999999
 21
10.067814999999801
 31
0.0
  0
LINE
  5
15E
  8
0
 10
42.890300000000003
 20
9.9989149999998013
 30
0.0
 11
43.317500000000003
 21
9.8350149999998013
 31
0.0
  0
LINE
  5
15F
  8
0
 10
42.890300000000003
 20
9.9989149999998013
 30
0.0
 11
43.0267139261761
 21
10.696392560550899
 31
0.0
  0
LINE
  5
160
  8
0
 10
43.317500000000003
 20
9.8350149999998013
 30
0.0
 11
43.641836500807287
 21
9.7638159428942597
 31
0.0
  0
LINE
  5
161
  8
0
 10
43.317500000000003
 20
9.8350149999998013
 30
0.0
 11
43.641836500807287
 21
9.7638159428942597
 31
0.0
  0
LINE
  5
162
  8
0
 10
43.317500000000003
 20
9.8350149999998013
 30
0.0
 11
44.049999999999997
 21
9.6742149999998013
 31
0.0
  0
LINE
  5
163
  8
0
 10
44.049999999999997
 20
9.6742149999998013
 30
0.0
 11
44.663600000000002
 21
9.6132149999998013
 31
0.0
  0
LINE
  5
164
  8
0
 10
43.653500000000001
 20
10.0069149999998
 30
0.0
 11
44.386099999999992
 21
9.8461149999998003
 31
0.0
  0
LINE
  5
166
  8
0
 10
43.8752
 20
9.3670149999998014
 30
0.0
 11
44.564100000000003
 21
9.2428149999998013
 31
0.0
  0
LINE
  5
168
  8
0
 10
43.579900000000002
 20
9.4202149999998017
 30
0.0
 11
43.8752
 21
9.3670149999998014
 31
0.0
  0
LINE
  5
169
  8
0
 10
43.579900000000002
 20
9.4202149999998017
 30
0.0
 11
43.641836500807287
 21
9.7638159428942597
 31
0.0
  0
LINE
  5
16A
  8
0
 10
43.579900000000002
 20
9.4202149999998017
 30
0.0
 11
43.641836500807287
 21
9.7638159428942597
 31
0.0
  0
LINE
  5
16C
  8
0
 10
39.1111
 20
10.869314999999791
 30
0.0
 11
39.276907001359497
 21
11.41921567412359
 31
0.0
  0
LINE
  5
16D
  8
0
 10
38.895400000000002
 20
10.894814999999801
 30
0.0
 11
39.1111
 21
10.869314999999791
 31
0.0
  0
LINE
  5
16E
  8
0
 10
37.562100000000001
 20
11.2877149999998
 30
0.0
 11
38.258800000000001
 21
11.06611499999979
 31
0.0
  0
LINE
  5
16F
  8
0
 10
36.545999999999999
 20
12.1404149999998
 30
0.0
 11
37.267299999999992
 21
11.89801499999979
 31
0.0
  0
LINE
  5
170
  8
0
 10
36.069400000000002
 20
12.384814999999801
 30
0.0
 11
36.13559999999999
 21
12.484714999999801
 31
0.0
  0
LINE
  5
171
  8
0
 10
36.069400000000002
 20
12.384814999999801
 30
0.0
 11
36.545999999999999
 21
12.1404149999998
 31
0.0
  0
LINE
  5
173
  8
0
 10
36.069400000000002
 20
12.384814999999801
 30
0.0
 11
36.166669205047889
 21
12.680512123585499
 31
0.0
  0
LINE
  5
175
  8
0
 10
35.575200000000002
 20
13.8362149999998
 30
0.0
 11
35.657800000000002
 21
13.6115149999998
 31
0.0
  0
LINE
  5
177
  8
0
 10
35.228499999999997
 20
13.608814999999799
 30
0.0
 11
35.657800000000002
 21
13.6115149999998
 31
0.0
  0
LINE
  5
178
  8
0
 10
34.519500000000001
 20
13.8408149999998
 30
0.0
 11
35.228499999999997
 21
13.608814999999799
 31
0.0
  0
LINE
  5
179
  8
0
 10
33.949100000000001
 20
14.1639149999998
 30
0.0
 11
34.519500000000001
 21
13.8408149999998
 31
0.0
  0
LINE
  5
17A
  8
0
 10
32.334200000000003
 20
14.6731149999998
 30
0.0
 11
36.166669205047889
 21
12.680512123585499
 31
0.0
  0
LINE
  5
17B
  8
0
 10
32.191200000000002
 20
16.520314999999801
 30
0.0
 11
32.821599999999989
 21
16.146814999999801
 31
0.0
  0
LINE
  5
17D
  8
0
 10
32.085500000000003
 20
15.88321499999979
 30
0.0
 11
32.746099999999998
 21
15.691714999999791
 31
0.0
  0
LINE
  5
17E
  8
0
 10
32.746099999999998
 20
15.691714999999791
 30
0.0
 11
33.042000000000002
 21
15.80631499999979
 31
0.0
  0
LINE
  5
17F
  8
0
 10
34.070700000000002
 20
18.501714999999791
 30
0.0
 11
34.730600000000003
 21
18.142514999999801
 31
0.0
  0
LINE
  5
181
  8
0
 10
33.415399999999998
 20
18.597714999999791
 30
0.0
 11
34.070700000000002
 21
18.501714999999791
 31
0.0
  0
LINE
  5
183
  8
0
 10
33.158200000000001
 20
18.359614999999799
 30
0.0
 11
33.427199999999992
 21
17.939414999999801
 31
0.0
  0
LINE
  5
184
  8
0
 10
33.158200000000001
 20
18.359614999999799
 30
0.0
 11
33.415399999999998
 21
18.597714999999791
 31
0.0
  0
LINE
  5
186
  8
0
 10
33.427199999999992
 20
17.939414999999801
 30
0.0
 11
34.0871
 21
17.5802149999998
 31
0.0
  0
LINE
  5
187
  8
0
 10
34.0871
 20
17.5802149999998
 30
0.0
 11
34.7423
 21
17.4843149999998
 31
0.0
  0
LINE
  5
189
  8
0
 10
32.821599999999989
 20
16.146814999999801
 30
0.0
 11
33.042000000000002
 21
15.80631499999979
 31
0.0
  0
LINE
  5
18B
  8
0
 10
33.866599999999998
 20
14.388714999999801
 30
0.0
 11
34.295900000000003
 21
14.3914149999998
 31
0.0
  0
LINE
  5
18C
  8
0
 10
33.866599999999998
 20
14.388714999999801
 30
0.0
 11
33.949100000000001
 21
14.1639149999998
 31
0.0
  0
LINE
  5
18F
  8
0
 10
34.7423
 20
17.4843149999998
 30
0.0
 11
34.999400000000001
 21
17.722414999999799
 31
0.0
  0
LINE
  5
191
  8
0
 10
35.689300000000003
 20
41.229514999999793
 30
0.0
 11
43.962600000000002
 21
34.28741499999979
 31
0.0
  0
LINE
  5
192
  8
0
 10
34.730600000000003
 20
18.142514999999801
 30
0.0
 11
34.999400000000001
 21
17.722414999999799
 31
0.0
  0
LINE
  5
194
  8
0
 10
34.295900000000003
 20
14.3914149999998
 30
0.0
 11
35.004899999999999
 21
14.1593149999998
 31
0.0
  0
LINE
  5
196
  8
0
 10
35.004899999999999
 20
14.1593149999998
 30
0.0
 11
35.575200000000002
 21
13.8362149999998
 31
0.0
  0
LINE
  5
19C
  8
0
 10
36.13559999999999
 20
12.484714999999801
 30
0.0
 11
36.68099999999999
 21
12.390014999999799
 31
0.0
  0
LINE
  5
19E
  8
0
 10
36.68099999999999
 20
12.390014999999799
 30
0.0
 11
37.4024
 21
12.147614999999799
 31
0.0
  0
LINE
  5
1A1
  8
0
 10
37.8127
 20
11.803314999999801
 30
0.0
 11
37.878999999999998
 21
11.9032149999998
 31
0.0
  0
LINE
  5
1A2
  8
0
 10
37.267299999999992
 20
11.89801499999979
 30
0.0
 11
37.8127
 21
11.803314999999801
 31
0.0
  0
LINE
  5
1A3
  8
0
 10
37.488799999999991
 20
14.7258149999998
 30
0.0
 11
37.631100000000004
 21
14.411914999999791
 31
0.0
  0
LINE
  5
1A4
  8
0
 10
37.488799999999991
 20
14.7258149999998
 30
0.0
 11
37.878900000000002
 21
14.8523149999998
 31
0.0
  0
LINE
  5
1A6
  8
0
 10
37.878900000000002
 20
14.8523149999998
 30
0.0
 11
38.594000000000001
 21
14.7062149999998
 31
0.0
  0
LINE
  5
1A8
  8
0
 10
37.631100000000004
 20
14.411914999999791
 30
0.0
 11
38.247100000000003
 21
14.0895149999998
 31
0.0
  0
LINE
  5
1A9
  8
0
 10
37.4024
 20
12.147614999999799
 30
0.0
 11
37.878999999999998
 21
11.9032149999998
 31
0.0
  0
LINE
  5
1AB
  8
0
 10
37.206499999999998
 20
11.430614999999801
 30
0.0
 11
37.422199999999989
 21
11.40521499999979
 31
0.0
  0
LINE
  5
1AC
  8
0
 10
37.206499999999998
 20
11.430614999999801
 30
0.0
 11
37.562100000000001
 21
11.2877149999998
 31
0.0
  0
LINE
  5
1AD
  8
0
 10
37.206499999999998
 20
11.430614999999801
 30
0.0
 11
37.343444740842791
 21
11.884793681778699
 31
0.0
  0
LINE
  5
1AE
  8
0
 10
37.422199999999989
 20
11.40521499999979
 30
0.0
 11
38.058799999999998
 21
11.23391499999979
 31
0.0
  0
LINE
  5
1B0
  8
0
 10
38.594000000000001
 20
14.7062149999998
 30
0.0
 11
39.210000000000001
 21
14.383814999999791
 31
0.0
  0
LINE
  5
1B2
  8
0
 10
38.247100000000003
 20
14.0895149999998
 30
0.0
 11
38.962299999999999
 21
13.943314999999799
 31
0.0
  0
LINE
  5
1B3
  8
0
 10
38.962299999999999
 20
13.943314999999799
 30
0.0
 11
39.3523
 21
14.06991499999979
 31
0.0
  0
LINE
  5
1B4
  8
0
 10
39.276907001359497
 20
11.41921567412359
 30
0.0
 11
40.835599999999999
 21
10.80321499999979
 31
0.0
  0
LINE
  5
1B5
  8
0
 10
40.864699999999999
 20
11.698614999999791
 30
0.0
 11
40.865099999999991
 21
11.8928149999998
 31
0.0
  0
LINE
  5
1B6
  8
0
 10
40.864699999999999
 20
11.698614999999791
 30
0.0
 11
41.401299999999999
 21
11.442814999999801
 31
0.0
  0
LINE
  5
1B7
  8
0
 10
41.401299999999999
 20
11.442814999999801
 30
0.0
 11
42.142699999999991
 21
11.2746149999998
 31
0.0
  0
LINE
  5
1B8
  8
0
 10
40.865099999999991
 20
11.8928149999998
 30
0.0
 11
41.376699999999992
 21
11.917414999999799
 31
0.0
  0
LINE
  5
1BA
  8
0
 10
41.376699999999992
 20
11.917414999999799
 30
0.0
 11
42.118200000000002
 21
11.74911499999979
 31
0.0
  0
LINE
  5
1BD
  8
0
 10
42.654400000000003
 20
11.299114999999791
 30
0.0
 11
42.654800000000002
 21
11.493314999999789
 31
0.0
  0
LINE
  5
1BF
  8
0
 10
42.142699999999991
 20
11.2746149999998
 30
0.0
 11
42.654400000000003
 21
11.299114999999791
 31
0.0
  0
LINE
  5
1C0
  8
0
 10
42.118200000000002
 20
11.74911499999979
 30
0.0
 11
42.654800000000002
 21
11.493314999999789
 31
0.0
  0
LINE
  5
1C4
  8
0
 10
43.962600000000002
 20
34.28741499999979
 30
0.0
 11
51.776200000000003
 21
27.7310149999998
 31
0.0
  0
LINE
  5
1C6
  8
0
 10
39.210000000000001
 20
14.383814999999791
 30
0.0
 11
39.3523
 21
14.06991499999979
 31
0.0
  0
LINE
  5
1C8
  8
0
 10
38.258800000000001
 20
11.06611499999979
 30
0.0
 11
38.895400000000002
 21
10.894814999999801
 31
0.0
  0
LINE
  5
1C9
  8
0
 10
38.058799999999998
 20
11.23391499999979
 30
0.0
 11
38.755299999999991
 21
11.0123149999998
 31
0.0
  0
LINE
  5
1CB
  8
0
 10
38.755299999999991
 20
11.0123149999998
 30
0.0
 11
39.1111
 21
10.869314999999791
 31
0.0
  0
LINE
  5
1CD
  8
0
 10
44.663600000000002
 20
9.6132149999998013
 30
0.0
 11
44.813200000000002
 21
9.6822149999998004
 31
0.0
  0
LINE
  5
1CE
  8
0
 10
44.386099999999992
 20
9.8461149999998003
 30
0.0
 11
44.813200000000002
 21
9.6822149999998004
 31
0.0
  0
LINE
  5
1D0
  8
0
 10
44.564100000000003
 20
9.2428149999998013
 30
0.0
 11
45.253
 21
9.1187149999997992
 31
0.0
  0
LINE
  5
1D2
  8
0
 10
44.2074
 20
34.734714999999802
 30
0.0
 11
51.791200000000011
 21
28.371114999999801
 31
0.0
  0
LINE
  5
1D3
  8
0
 10
36.010699999999993
 20
41.612614999999792
 30
0.0
 11
44.2074
 21
34.734714999999802
 31
0.0
  0
LINE
  5
1D4
  8
0
 10
45.54829999999999
 20
9.0654149999998008
 30
0.0
 11
45.654030388517697
 21
9.6521337023381992
 31
0.0
  0
LINE
  5
1D5
  8
0
 10
45.654030388517697
 20
9.6521337023381992
 30
0.0
 11
46.272799999999989
 21
9.5043149999998011
 31
0.0
  0
LINE
  5
1D6
  8
0
 10
46.272799999999989
 20
9.5043149999998011
 30
0.0
 11
52.73579999999999
 21
8.6501149999998006
 31
0.0
  0
LINE
  5
1D8
  8
0
 10
45.253
 20
9.1187149999997992
 30
0.0
 11
45.54829999999999
 21
9.0654149999998008
 31
0.0
  0
LINE
  5
1DA
  8
0
 10
44.681999999999988
 20
34.989214999999803
 30
0.0
 11
52.495600000000003
 21
28.432814999999799
 31
0.0
  0
LINE
  5
1DB
  8
0
 10
36.332099999999997
 20
41.995614999999788
 30
0.0
 11
44.681999999999988
 21
34.989214999999803
 31
0.0
  0
LINE
  5
1DC
  8
0
 10
47.89589999999999
 20
38.819414999999793
 30
0.0
 11
55.709600000000002
 21
32.26301499999979
 31
0.0
  0
LINE
  5
1DD
  8
0
 10
39.545999999999999
 20
45.8258149999998
 30
0.0
 11
47.89589999999999
 21
38.819414999999793
 31
0.0
  0
LINE
  5
1DF
  8
0
 10
48.140700000000002
 20
39.266714999999792
 30
0.0
 11
55.954399999999993
 21
32.710314999999802
 31
0.0
  0
LINE
  5
1E0
  8
0
 10
39.867400000000004
 20
46.208814999999802
 30
0.0
 11
48.140700000000002
 21
39.266714999999792
 31
0.0
  0
LINE
  5
1E2
  8
0
 10
51.776200000000003
 20
27.7310149999998
 30
0.0
 11
58.440800000000003
 21
22.138814999999791
 31
0.0
  0
LINE
  5
1E4
  8
0
 10
52.73579999999999
 20
8.6501149999998006
 30
0.0
 11
56.398800000000001
 21
8.9706149999998015
 31
0.0
  0
LINE
  5
1E6
  8
0
 10
51.791200000000011
 20
28.371114999999801
 30
0.0
 11
58.455800000000004
 21
22.778914999999792
 31
0.0
  0
LINE
  5
1E7
  8
0
 10
52.495600000000003
 20
28.432814999999799
 30
0.0
 11
59.313400000000001
 21
22.712014999999798
 31
0.0
  0
LINE
  5
1E8
  8
0
 10
48.538699999999999
 20
39.585514999999788
 30
0.0
 11
56.352400000000003
 21
33.029014999999802
 31
0.0
  0
LINE
  5
1E9
  8
0
 10
40.188800000000001
 20
46.591914999999787
 30
0.0
 11
48.538699999999999
 21
39.585514999999788
 31
0.0
  0
LINE
  5
1EA
  8
0
 10
31.594100000000001
 20
53.150914999999792
 30
0.0
 11
39.867400000000004
 21
46.208814999999802
 31
0.0
  0
LINE
  5
1EB
  8
0
 10
23.38249999999999
 20
59.388614999999803
 30
0.0
 11
31.196100000000001
 21
52.832214999999799
 31
0.0
  0
LINE
  5
1EC
  8
0
 10
23.780499999999989
 20
59.707414999999799
 30
0.0
 11
31.594100000000001
 21
53.150914999999792
 31
0.0
  0
LINE
  5
1ED
  8
0
 10
24.025300000000001
 20
60.15471499999979
 30
0.0
 11
31.838899999999992
 21
53.598214999999797
 31
0.0
  0
LINE
  5
1EE
  8
0
 10
31.838899999999992
 20
53.598214999999797
 30
0.0
 11
40.188800000000001
 21
46.591914999999787
 31
0.0
  0
LINE
  5
1EF
  8
0
 10
22.006499999999988
 20
84.0405149999998
 30
0.0
 11
28.927399999999992
 21
86.065714999999784
 31
0.0
  0
LINE
  5
1F0
  8
0
 10
28.927399999999992
 20
86.065714999999784
 30
0.0
 11
36.676000000000002
 21
86.743614999999807
 31
0.0
  0
LINE
  5
1F1
  8
0
 10
36.676000000000002
 20
86.743614999999807
 30
0.0
 11
44.164799999999993
 21
86.334014999999795
 31
0.0
  0
LINE
  5
1F2
  8
0
 10
44.164799999999993
 20
86.334014999999795
 30
0.0
 11
51.010800000000003
 21
85.158514999999795
 31
0.0
  0
LINE
  5
1F3
  8
0
 10
51.010800000000003
 20
85.158514999999795
 30
0.0
 11
55.039200000000001
 21
83.736414999999795
 31
0.0
  0
LINE
  5
1F4
  8
0
 10
1.396799999999998
 20
55.12281499999979
 30
0.0
 11
56.398800000000001
 21
8.9706149999998015
 31
0.0
  0
LINE
  5
1F5
  8
0
 10
55.709600000000002
 20
32.26301499999979
 30
0.0
 11
62.5274
 21
26.5422149999998
 31
0.0
  0
LINE
  5
1F6
  8
0
 10
56.398800000000001
 20
8.9706149999998015
 30
0.0
 11
56.5792835260917
 21
9.3412811668817692
 31
0.0
  0
LINE
  5
1F7
  8
0
 10
1.270900000000011
 20
55.75061499999979
 30
0.0
 11
56.962299999999992
 21
9.0199149999998003
 31
0.0
  0
LINE
  5
1F8
  8
0
 10
56.962299999999992
 20
9.0199149999998003
 30
0.0
 11
57.966112954910997
 21
9.1077700094692293
 31
0.0
  0
LINE
  5
1F9
  8
0
 10
55.954399999999993
 20
32.710314999999802
 30
0.0
 11
62.618899999999996
 21
27.118014999999801
 31
0.0
  0
LINE
  5
1FA
  8
0
 10
56.352400000000003
 20
33.029014999999802
 30
0.0
 11
63.170200000000001
 21
27.308214999999791
 31
0.0
  0
LINE
  5
1FB
  8
0
 10
58.440800000000003
 20
22.138814999999791
 30
0.0
 11
63.49669999999999
 21
17.896414999999791
 31
0.0
  0
LINE
  5
1FC
  8
0
 10
57.966112954910997
 20
9.1077700094692293
 30
0.0
 11
59.745699999999992
 21
7.668314999999799
 31
0.0
  0
LINE
  5
1FD
  8
0
 10
58.455800000000004
 20
22.778914999999792
 30
0.0
 11
63.51169999999999
 21
18.536514999999799
 31
0.0
  0
LINE
  5
1FE
  8
0
 10
57.873600000000003
 20
81.358114999999785
 30
0.0
 11
59.865299999999998
 21
79.686814999999797
 31
0.0
  0
LINE
  5
1FF
  8
0
 10
55.805264715887702
 20
83.093620661520305
 30
0.0
 11
58.622900000000001
 21
83.340114999999784
 31
0.0
  0
LINE
  5
200
  8
0
 10
58.852699999999999
 20
83.147314999999793
 30
0.0
 11
59.6188
 21
82.504514999999799
 31
0.0
  0
LINE
  5
201
  8
0
 10
56.341500000000003
 20
82.643714999999787
 30
0.0
 11
57.873600000000003
 21
81.358114999999785
 31
0.0
  0
LINE
  5
202
  8
0
 10
55.805264715887702
 20
83.093620661520305
 30
0.0
 11
58.622900000000001
 21
83.340114999999784
 31
0.0
  0
LINE
  5
203
  8
0
 10
55.422199999999997
 20
83.415014999999798
 30
0.0
 11
56.341500000000003
 21
82.643714999999787
 31
0.0
  0
LINE
  5
204
  8
0
 10
58.622900000000001
 20
83.340114999999784
 30
0.0
 11
59.019199999999998
 21
86.923814999999806
 31
0.0
  0
LINE
  5
205
  8
0
 10
58.622900000000001
 20
83.340114999999784
 30
0.0
 11
58.852699999999999
 21
83.147314999999793
 31
0.0
  0
LINE
  5
206
  8
0
 10
62.133600000000001
 20
5.0708549999998001
 30
0.0
 11
64.250900000000001
 21
3.2571549999997989
 31
0.0
  0
LINE
  5
207
  8
0
 10
59.745699999999992
 20
7.668314999999799
 30
0.0
 11
62.133600000000001
 21
5.0708549999998001
 31
0.0
  0
LINE
  5
208
  8
0
 10
59.313400000000001
 20
22.712014999999798
 30
0.0
 11
64.522499999999994
 21
18.341014999999789
 31
0.0
  0
LINE
  5
209
  8
0
 10
62.5274
 20
26.5422149999998
 30
0.0
 11
67.736500000000007
 21
22.171214999999801
 31
0.0
  0
LINE
  5
20A
  8
0
 10
63.49669999999999
 20
17.896414999999791
 30
0.0
 11
66.714100000000002
 21
15.1967149999998
 31
0.0
  0
LINE
  5
20B
  8
0
 10
64.250900000000001
 20
3.2571549999997989
 30
0.0
 11
66.907200000000003
 21
1.5106249999998
 31
0.0
  0
LINE
  5
20C
  8
0
 10
66.714100000000002
 20
15.1967149999998
 30
0.0
 11
67.863200000000006
 21
14.2325149999998
 31
0.0
  0
LINE
  5
20D
  8
0
 10
66.907200000000003
 20
1.5106249999998
 30
0.0
 11
69.238100000000003
 21
0.4825349999998
 31
0.0
  0
LINE
  5
20E
  8
0
 10
66.652500000000003
 20
15.9011149999998
 30
0.0
 11
67.801500000000004
 21
14.9369149999998
 31
0.0
  0
LINE
  5
20F
  8
0
 10
63.51169999999999
 20
18.536514999999799
 30
0.0
 11
66.652500000000003
 21
15.9011149999998
 31
0.0
  0
LINE
  5
210
  8
0
 10
64.522499999999994
 20
18.341014999999789
 30
0.0
 11
67.739900000000006
 21
15.641314999999789
 31
0.0
  0
LINE
  5
211
  8
0
 10
62.618899999999996
 20
27.118014999999801
 30
0.0
 11
67.674800000000005
 21
22.875614999999801
 31
0.0
  0
LINE
  5
212
  8
0
 10
65.900300000000001
 20
77.233614999999801
 30
0.0
 11
67.738799999999998
 21
75.690914999999805
 31
0.0
  0
LINE
  5
213
  8
0
 10
64.614699999999999
 20
75.701614999999805
 30
0.0
 11
66.912899999999993
 21
73.773214999999794
 31
0.0
  0
LINE
  5
214
  8
0
 10
63.170200000000001
 20
27.308214999999791
 30
0.0
 11
68.379300000000001
 21
22.937314999999789
 31
0.0
  0
LINE
  5
215
  8
0
 10
71.232200000000006
 20
0.0709849999997994
 30
0.0
 11
72.914900000000003
 21
0.2176449999998
 31
0.0
  0
LINE
  5
216
  8
0
 10
71.232200000000006
 20
0.0709849999997994
 30
0.0
 11
72.914900000000003
 21
0.2176449999998
 31
0.0
  0
LINE
  5
217
  8
0
 10
69.238100000000003
 20
0.4825349999998
 30
0.0
 11
71.232200000000006
 21
0.0709849999997994
 31
0.0
  0
LINE
  5
218
  8
0
 10
69.238100000000003
 20
0.4825349999998
 30
0.0
 11
71.232200000000006
 21
0.0709849999997994
 31
0.0
  0
LINE
  5
219
  8
0
 10
71.8917
 20
12.0976149999998
 30
0.0
 11
73.711600000000004
 21
10.681914999999799
 31
0.0
  0
LINE
  5
21A
  8
0
 10
69.638199999999998
 20
13.3949149999998
 30
0.0
 11
71.8917
 21
12.0976149999998
 31
0.0
  0
LINE
  5
21B
  8
0
 10
67.846690901970504
 20
14.420991639415799
 30
0.0
 11
69.638199999999998
 21
13.3949149999998
 31
0.0
  0
LINE
  5
21C
  8
0
 10
67.739900000000006
 20
15.641314999999789
 30
0.0
 11
68.888999999999996
 21
14.6771149999998
 31
0.0
  0
LINE
  5
21D
  8
0
 10
70.953900000000004
 20
19.471514999999801
 30
0.0
 11
72.102900000000005
 21
18.507314999999789
 31
0.0
  0
LINE
  5
21E
  8
0
 10
70.892200000000003
 20
20.17591499999979
 30
0.0
 11
72.041300000000007
 21
19.211814999999788
 31
0.0
  0
LINE
  5
21F
  8
0
 10
67.801500000000004
 20
14.9369149999998
 30
0.0
 11
68.888999999999996
 21
14.6771149999998
 31
0.0
  0
LINE
  5
220
  8
0
 10
67.801500000000004
 20
14.9369149999998
 30
0.0
 11
67.846690901970504
 21
14.420991639415799
 31
0.0
  0
LINE
  5
221
  8
0
 10
68.888999999999996
 20
14.6771149999998
 30
0.0
 11
72.102900000000005
 21
18.507314999999789
 31
0.0
  0
LINE
  5
222
  8
0
 10
72.041300000000007
 20
19.211814999999788
 30
0.0
 11
72.745699999999999
 21
19.273414999999801
 31
0.0
  0
LINE
  5
223
  8
0
 10
72.041300000000007
 20
19.211814999999788
 30
0.0
 11
72.102900000000005
 21
18.507314999999789
 31
0.0
  0
LINE
  5
224
  8
0
 10
67.736500000000007
 20
22.171214999999801
 30
0.0
 11
70.953900000000004
 21
19.471514999999801
 31
0.0
  0
LINE
  5
225
  8
0
 10
67.674800000000005
 20
22.875614999999801
 30
0.0
 11
70.892200000000003
 21
20.17591499999979
 31
0.0
  0
LINE
  5
226
  8
0
 10
68.379300000000001
 20
22.937314999999789
 30
0.0
 11
71.596599999999995
 21
20.237614999999799
 31
0.0
  0
LINE
  5
227
  8
0
 10
71.596599999999995
 20
20.237614999999799
 30
0.0
 11
72.745699999999999
 21
19.273414999999801
 31
0.0
  0
LINE
  5
228
  8
0
 10
72.914900000000003
 20
0.2176449999998
 30
0.0
 11
74.281899999999993
 21
0.7404649999997992
 31
0.0
  0
LINE
  5
229
  8
0
 10
72.914900000000003
 20
0.2176449999998
 30
0.0
 11
74.281899999999993
 21
0.7404649999997992
 31
0.0
  0
LINE
  5
22A
  8
0
 10
72.745699999999999
 20
19.273414999999801
 30
0.0
 11
75.897999999999996
 21
23.808014999999799
 31
0.0
  0
LINE
  5
22B
  8
0
 10
72.181899999999985
 20
71.962814999999793
 30
0.0
 11
72.947900000000004
 21
71.320014999999785
 31
0.0
  0
LINE
  5
22C
  8
0
 10
72.947900000000004
 20
71.320014999999785
 30
0.0
 11
73.177700000000002
 21
71.127214999999794
 31
0.0
  0
LINE
  5
22D
  8
0
 10
70.819699999999997
 20
70.495014999999796
 30
0.0
 11
72.275199999999998
 21
69.273714999999797
 31
0.0
  0
LINE
  5
22E
  8
0
 10
72.275199999999998
 20
69.273714999999797
 30
0.0
 11
73.117800000000003
 21
68.566614999999786
 31
0.0
  0
LINE
  5
22F
  8
0
 10
74.281899999999993
 20
0.7404649999997992
 30
0.0
 11
75.318600000000004
 21
1.5776349999998001
 31
0.0
  0
LINE
  5
230
  8
0
 10
75.318600000000004
 20
1.5776349999998001
 30
0.0
 11
76.367900000000006
 21
2.9608649999997989
 31
0.0
  0
LINE
  5
231
  8
0
 10
76.195899999999995
 20
7.446914999999799
 30
0.0
 11
76.791499999999985
 21
5.7226349999997987
 31
0.0
  0
LINE
  5
232
  8
0
 10
75.094399999999993
 20
9.1877149999998018
 30
0.0
 11
76.195899999999995
 21
7.446914999999799
 31
0.0
  0
LINE
  5
233
  8
0
 10
73.711600000000004
 20
10.681914999999799
 30
0.0
 11
75.094399999999993
 21
9.1877149999998018
 31
0.0
  0
LINE
  5
234
  8
0
 10
75.897999999999996
 20
23.808014999999799
 30
0.0
 11
78.284300000000002
 21
28.985414999999801
 31
0.0
  0
LINE
  5
235
  8
0
 10
76.367900000000006
 20
2.9608649999997989
 30
0.0
 11
76.852699999999999
 21
4.3352749999997986
 31
0.0
  0
LINE
  5
236
  8
0
 10
76.791499999999985
 20
5.7226349999997987
 30
0.0
 11
76.852699999999999
 21
4.3352749999997986
 31
0.0
  0
LINE
  5
237
  8
0
 10
78.284300000000002
 20
28.985414999999801
 30
0.0
 11
80.225899999999996
 21
35.188714999999789
 31
0.0
  0
LINE
  5
238
  8
0
 10
80.225899999999996
 20
35.188714999999789
 30
0.0
 11
81.018400000000014
 21
42.356114999999789
 31
0.0
  0
LINE
  5
239
  8
0
 10
80.340500000000006
 20
50.104714999999793
 30
0.0
 11
81.018400000000014
 21
42.356114999999789
 31
0.0
  0
LINE
  5
23A
  8
0
 10
78.636799999999994
 20
57.408614999999791
 30
0.0
 11
80.340500000000006
 21
50.104714999999793
 31
0.0
  0
LINE
  5
23B
  8
0
 10
76.290300000000002
 20
63.946514999999799
 30
0.0
 11
78.636799999999994
 21
57.408614999999791
 31
0.0
  0
LINE
  5
23C
  8
0
 10
73.177700000000002
 20
71.127214999999794
 30
0.0
 11
76.638199999999998
 21
72.139714999999796
 31
0.0
  0
LINE
  5
23D
  8
0
 10
73.177700000000002
 20
71.127214999999794
 30
0.0
 11
73.424300000000002
 21
68.309514999999806
 31
0.0
  0
LINE
  5
23E
  8
0
 10
73.424300000000002
 20
68.309514999999806
 30
0.0
 11
76.290300000000002
 21
63.946514999999799
 31
0.0
  0
LINE
  5
23F
  8
0
 10
73.117800000000003
 20
68.566614999999786
 30
0.0
 11
73.424300000000002
 21
68.309514999999806
 31
0.0
  0
LINE
  5
240
  8
0
 10
69.500699999999995
 20
74.212514999999783
 30
0.0
 11
71.032799999999995
 21
72.927014999999798
 31
0.0
  0
LINE
  5
241
  8
0
 10
67.738799999999998
 20
75.690914999999805
 30
0.0
 11
69.500699999999995
 21
74.212514999999783
 31
0.0
  0
LINE
  5
242
  8
0
 10
71.032799999999995
 20
72.927014999999798
 30
0.0
 11
72.181899999999985
 21
71.962814999999793
 31
0.0
  0
LINE
  5
243
  8
0
 10
76.638199999999998
 20
72.139714999999796
 30
0.0
 11
83.387500000000003
 21
80.183214999999805
 31
0.0
  0
LINE
  5
244
  8
0
 10
68.981200000000001
 20
72.037714999999807
 30
0.0
 11
70.819699999999997
 21
70.495014999999796
 31
0.0
  0
LINE
  5
245
  8
0
 10
66.912899999999993
 20
73.773214999999794
 30
0.0
 11
68.981200000000001
 21
72.037714999999807
 31
0.0
  0
LINE
  5
246
  8
0
 10
59.6188
 20
82.504514999999799
 30
0.0
 11
60.767800000000001
 21
81.540314999999794
 31
0.0
  0
LINE
  5
247
  8
0
 10
60.767800000000001
 20
81.540314999999794
 30
0.0
 11
62.299900000000001
 21
80.254714999999806
 31
0.0
  0
LINE
  5
248
  8
0
 10
62.299900000000001
 20
80.254714999999806
 30
0.0
 11
64.061800000000005
 21
78.776314999999798
 31
0.0
  0
LINE
  5
249
  8
0
 10
64.061800000000005
 20
78.776314999999798
 30
0.0
 11
65.900300000000001
 21
77.233614999999801
 31
0.0
  0
LINE
  5
24C
  8
0
 10
66.917500000000004
 20
94.003114999999795
 30
0.0
 11
68.373000000000005
 21
92.781814999999796
 31
0.0
  0
LINE
  5
24D
  8
0
 10
66.0749
 20
94.710214999999792
 30
0.0
 11
66.917500000000004
 21
94.003114999999795
 31
0.0
  0
LINE
  5
24E
  8
0
 10
83.081000000000003
 20
80.440314999999785
 30
0.0
 11
83.387500000000003
 21
80.183214999999805
 31
0.0
  0
LINE
  5
24F
  8
0
 10
83.325800000000001
 20
80.887614999999798
 30
0.0
 11
83.387500000000003
 21
80.183214999999805
 31
0.0
  0
LINE
  5
251
  8
0
 10
80.782899999999998
 20
82.368714999999796
 30
0.0
 11
82.238399999999999
 21
81.147414999999796
 31
0.0
  0
LINE
  5
254
  8
0
 10
74.578000000000003
 20
87.575214999999787
 30
0.0
 11
76.876099999999994
 21
85.646914999999794
 31
0.0
  0
LINE
  5
256
  8
0
 10
78.944400000000002
 20
83.911314999999803
 30
0.0
 11
80.782899999999998
 21
82.368714999999796
 31
0.0
  0
LINE
  5
257
  8
0
 10
76.876099999999994
 20
85.646914999999794
 30
0.0
 11
78.944400000000002
 21
83.911314999999803
 31
0.0
  0
LINE
  5
27F
  8
0
 10
82.238399999999999
 20
81.147414999999796
 30
0.0
 11
83.081000000000003
 21
80.440314999999785
 31
0.0
  0
LINE
  5
280
  8
0
 10
66.779300000000006
 20
94.771814999999791
 30
0.0
 11
83.019400000000005
 21
81.144714999999806
 31
0.0
  0
LINE
  5
281
  8
0
 10
83.019400000000005
 20
81.144714999999806
 30
0.0
 11
83.325800000000001
 21
80.887614999999798
 31
0.0
  0
LINE
  5
282
  8
0
 10
72.279799999999994
 20
89.503614999999783
 30
0.0
 11
74.578000000000003
 21
87.575214999999787
 31
0.0
  0
LINE
  5
283
  8
0
 10
68.373000000000005
 20
92.781814999999796
 30
0.0
 11
70.211500000000001
 21
91.239114999999785
 31
0.0
  0
LINE
  5
284
  8
0
 10
70.211500000000001
 20
91.239114999999785
 30
0.0
 11
72.279799999999994
 21
89.503614999999783
 31
0.0
  0
LINE
  5
2A1
  8
0
 10
59.865299999999998
 20
79.686814999999797
 30
0.0
 11
62.163400000000003
 21
77.758514999999804
 31
0.0
  0
LINE
  5
2A2
  8
0
 10
62.163400000000003
 20
77.758514999999804
 30
0.0
 11
64.614699999999999
 21
75.701614999999805
 31
0.0
  0
LINE
  5
2A3
  8
0
 10
59.019199999999998
 20
86.923814999999806
 30
0.0
 11
65.7684
 21
94.967314999999786
 31
0.0
  0
LINE
  5
2F9
  8
0
 10
66.472899999999996
 20
95.028914999999785
 30
0.0
 11
66.779300000000006
 21
94.771814999999791
 31
0.0
  0
LINE
  5
2FA
  8
0
 10
65.7684
 20
94.967314999999786
 30
0.0
 11
66.472899999999996
 21
95.028914999999785
 31
0.0
  0
LINE
  5
2FB
  8
0
 10
65.7684
 20
94.967314999999786
 30
0.0
 11
66.0749
 21
94.710214999999792
 31
0.0
  0
LINE
  5
2FC
  8
0
 10
55.039200000000001
 20
83.736414999999795
 30
0.0
 11
55.422199999999997
 21
83.415014999999798
 31
0.0
  0
LINE
  5
303
  8
0
 10
3.682700000000009
 20
42.898014999999788
 30
0.0
 11
3.967417365902119
 21
43.007683797358588
 31
0.0
  0
ENDSEC
  0
EOF
