  0
SECTION
  2
HEADER
  9
$ACADVER
  1
AC1014
  9
$ACADMAINTVER
 70
     9
  9
$DWGCODEPAGE
  3
ANSI_1252
  9
$INSBASE
 10
0.0
 20
0.0
 30
0.0
  9
$EXTMIN
 10
0.0000000000000006
 20
0.0709849999997994
 30
0.0
  9
$EXTMAX
 10
85.0
 20
94.96731499999979
 30
0.0
  9
$LIMMIN
 10
0.0
 20
0.0
  9
$LIMMAX
 10
12.0
 20
9.0
  9
$ORTHOMODE
 70
     0
  9
$REGENMODE
 70
     1
  9
$FILLMODE
 70
     1
  9
$QTEXTMODE
 70
     0
  9
$MIRRTEXT
 70
     1
  9
$DRAGMODE
 70
     2
  9
$LTSCALE
 40
1.0
  9
$OSMODE
 70
    37
  9
$ATTMODE
 70
     1
  9
$TEXTSIZE
 40
0.2
  9
$TRACEWID
 40
0.05
  9
$TEXTSTYLE
  7
STANDARD
  9
$CLAYER
  8
0
  9
$CELTYPE
  6
CONTINUOUS
  9
$CECOLOR
 62
   256
  9
$CELTSCALE
 40
1.0
  9
$DELOBJ
 70
     1
  9
$DISPSILH
 70
     0
  9
$DIMSCALE
 40
1.0
  9
$DIMASZ
 40
0.18
  9
$DIMEXO
 40
0.0625
  9
$DIMDLI
 40
0.38
  9
$DIMRND
 40
0.0
  9
$DIMDLE
 40
0.0
  9
$DIMEXE
 40
0.18
  9
$DIMTP
 40
0.0
  9
$DIMTM
 40
0.0
  9
$DIMTXT
 40
0.18
  9
$DIMCEN
 40
0.09
  9
$DIMTSZ
 40
0.0
  9
$DIMTOL
 70
     0
  9
$DIMLIM
 70
     0
  9
$DIMTIH
 70
     1
  9
$DIMTOH
 70
     1
  9
$DIMSE1
 70
     0
  9
$DIMSE2
 70
     0
  9
$DIMTAD
 70
     0
  9
$DIMZIN
 70
     0
  9
$DIMBLK
  1

  9
$DIMASO
 70
     1
  9
$DIMSHO
 70
     1
  9
$DIMPOST
  1

  9
$DIMAPOST
  1

  9
$DIMALT
 70
     0
  9
$DIMALTD
 70
     2
  9
$DIMALTF
 40
25.4
  9
$DIMLFAC
 40
1.0
  9
$DIMTOFL
 70
     0
  9
$DIMTVP
 40
0.0
  9
$DIMTIX
 70
     0
  9
$DIMSOXD
 70
     0
  9
$DIMSAH
 70
     0
  9
$DIMBLK1
  1

  9
$DIMBLK2
  1

  9
$DIMSTYLE
  2
STANDARD
  9
$DIMCLRD
 70
     0
  9
$DIMCLRE
 70
     0
  9
$DIMCLRT
 70
     0
  9
$DIMTFAC
 40
1.0
  9
$DIMGAP
 40
0.09
  9
$DIMJUST
 70
     0
  9
$DIMSD1
 70
     0
  9
$DIMSD2
 70
     0
  9
$DIMTOLJ
 70
     1
  9
$DIMTZIN
 70
     0
  9
$DIMALTZ
 70
     0
  9
$DIMALTTZ
 70
     0
  9
$DIMFIT
 70
     3
  9
$DIMUPT
 70
     0
  9
$DIMUNIT
 70
     2
  9
$DIMDEC
 70
     4
  9
$DIMTDEC
 70
     4
  9
$DIMALTU
 70
     2
  9
$DIMALTTD
 70
     2
  9
$DIMTXSTY
  7
STANDARD
  9
$DIMAUNIT
 70
     0
  9
$LUNITS
 70
     2
  9
$LUPREC
 70
     4
  9
$SKETCHINC
 40
0.1
  9
$FILLETRAD
 40
0.0
  9
$AUNITS
 70
     0
  9
$AUPREC
 70
     0
  9
$MENU
  1
.
  9
$ELEVATION
 40
0.0
  9
$PELEVATION
 40
0.0
  9
$THICKNESS
 40
0.0
  9
$LIMCHECK
 70
     0
  9
$BLIPMODE
 70
     0
  9
$CHAMFERA
 40
0.0
  9
$CHAMFERB
 40
0.0
  9
$CHAMFERC
 40
0.0
  9
$CHAMFERD
 40
0.0
  9
$SKPOLY
 70
     0
  9
$TDCREATE
 40
2454699.372616643
  9
$TDUPDATE
 40
2454699.379783159
  9
$TDINDWG
 40
0.0071665162
  9
$TDUSRTIMER
 40
0.0071665162
  9
$USRTIMER
 70
     1
  9
$ANGBASE
 50
0.0
  9
$ANGDIR
 70
     0
  9
$PDMODE
 70
     0
  9
$PDSIZE
 40
0.0
  9
$PLINEWID
 40
0.0
  9
$COORDS
 70
     1
  9
$SPLFRAME
 70
     0
  9
$SPLINETYPE
 70
     6
  9
$SPLINESEGS
 70
     8
  9
$ATTDIA
 70
     0
  9
$ATTREQ
 70
     1
  9
$HANDLING
 70
 22529
  9
$HANDSEED
  5
417
  9
$SURFTAB1
 70
     6
  9
$SURFTAB2
 70
     6
  9
$SURFTYPE
 70
     6
  9
$SURFU
 70
     6
  9
$SURFV
 70
     6
  9
$UCSNAME
  2

  9
$UCSORG
 10
0.0
 20
0.0
 30
0.0
  9
$UCSXDIR
 10
1.0
 20
0.0
 30
0.0
  9
$UCSYDIR
 10
0.0
 20
1.0
 30
0.0
  9
$PUCSNAME
  2

  9
$PUCSORG
 10
0.0
 20
0.0
 30
0.0
  9
$PUCSXDIR
 10
1.0
 20
0.0
 30
0.0
  9
$PUCSYDIR
 10
0.0
 20
1.0
 30
0.0
  9
$USERI1
 70
     0
  9
$USERI2
 70
     0
  9
$USERI3
 70
     0
  9
$USERI4
 70
     0
  9
$USERI5
 70
     0
  9
$USERR1
 40
0.0
  9
$USERR2
 40
0.0
  9
$USERR3
 40
0.0
  9
$USERR4
 40
0.0
  9
$USERR5
 40
0.0
  9
$WORLDVIEW
 70
     1
  9
$SHADEDGE
 70
     3
  9
$SHADEDIF
 70
    70
  9
$TILEMODE
 70
     1
  9
$MAXACTVP
 70
    64
  9
$PINSBASE
 10
0.0
 20
0.0
 30
0.0
  9
$PLIMCHECK
 70
     0
  9
$PEXTMIN
 10
1.000000000000000E+20
 20
1.000000000000000E+20
 30
1.000000000000000E+20
  9
$PEXTMAX
 10
-1.000000000000000E+20
 20
-1.000000000000000E+20
 30
-1.000000000000000E+20
  9
$PLIMMIN
 10
0.0
 20
0.0
  9
$PLIMMAX
 10
12.0
 20
9.0
  9
$UNITMODE
 70
     0
  9
$VISRETAIN
 70
     1
  9
$PLINEGEN
 70
     0
  9
$PSLTSCALE
 70
     1
  9
$TREEDEPTH
 70
  3020
  9
$PICKSTYLE
 70
     1
  9
$CMLSTYLE
  2
STANDARD
  9
$CMLJUST
 70
     0
  9
$CMLSCALE
 40
1.0
  9
$PROXYGRAPHICS
 70
     1
  9
$MEASUREMENT
 70
     0
  0
ENDSEC
  0
SECTION
  2
CLASSES
  0
CLASS
  1
ACDBDICTIONARYWDFLT
  2
AcDbDictionaryWithDefault
  3
AutoCAD 2000
 90
        0
280
     0
281
     0
  0
CLASS
  1
ACDBPLACEHOLDER
  2
AcDbPlaceHolder
  3
AutoCAD 2000
 90
        0
280
     0
281
     0
  0
CLASS
  1
LAYOUT
  2
AcDbLayout
  3
AutoCAD 2000
 90
        0
280
     0
281
     0
  0
CLASS
  1
DICTIONARYVAR
  2
AcDbDictionaryVar
  3
AutoCAD 2000
 90
        0
280
     0
281
     0
  0
CLASS
  1
LONG_TRANSACTION
  2
AcDbLongTransaction
  3
AutoCAD 2000
 90
        0
280
     0
281
     0
  0
CLASS
  1
LWPOLYLINE
  2
AcDbPolyline
  3
AutoCAD 2000
 90
        0
280
     0
281
     1
  0
CLASS
  1
HATCH
  2
AcDbHatch
  3
AutoCAD 2000
 90
        0
280
     0
281
     1
  0
CLASS
  1
XRECORD
  2
AcDbXrecord
  3
AutoCAD 2000
 90
        0
280
     0
281
     0
  0
ENDSEC
  0
SECTION
  2
TABLES
  0
TABLE
  2
VPORT
  5
8
330
0
100
AcDbSymbolTable
 70
     4
  0
VPORT
  5
3F2
330
8
100
AcDbSymbolTableRecord
100
AcDbViewportTableRecord
  2
*ACTIVE
 70
     0
 10
0.0
 20
0.0
 11
1.0
 21
1.0
 12
42.5
 22
47.51914999999979
 13
0.0
 23
0.0
 14
1.0
 24
1.0
 15
0.0
 25
0.0
 16
0.0
 26
0.0
 36
1.0
 17
0.0
 27
0.0
 37
0.0
 40
95.62443483375957
 41
2.078104993597951
 42
50.0
 43
0.0
 44
0.0
 50
0.0
 51
0.0
 71
     0
 72
   100
 73
     1
 74
     3
 75
     0
 76
     0
 77
     0
 78
     0
  0
ENDTAB
  0
TABLE
  2
LTYPE
  5
5
330
0
100
AcDbSymbolTable
 70
     1
  0
LTYPE
  5
13
330
5
100
AcDbSymbolTableRecord
100
AcDbLinetypeTableRecord
  2
BYBLOCK
 70
     0
  3

 72
    65
 73
     0
 40
0.0
  0
LTYPE
  5
14
330
5
100
AcDbSymbolTableRecord
100
AcDbLinetypeTableRecord
  2
BYLAYER
 70
     0
  3

 72
    65
 73
     0
 40
0.0
  0
LTYPE
  5
15
330
5
100
AcDbSymbolTableRecord
100
AcDbLinetypeTableRecord
  2
CONTINUOUS
 70
     0
  3
Solid line
 72
    65
 73
     0
 40
0.0
  0
ENDTAB
  0
TABLE
  2
LAYER
  5
2
330
0
100
AcDbSymbolTable
 70
     1
  0
LAYER
  5
10
330
2
100
AcDbSymbolTableRecord
100
AcDbLayerTableRecord
  2
0
 70
     0
 62
     7
  6
CONTINUOUS
  0
ENDTAB
  0
TABLE
  2
STYLE
  5
3
330
0
100
AcDbSymbolTable
 70
     1
  0
STYLE
  5
11
330
3
100
AcDbSymbolTableRecord
100
AcDbTextStyleTableRecord
  2
STANDARD
 70
     0
 40
0.0
 41
1.0
 50
0.0
 71
     0
 42
0.2
  3
txt
  4

  0
ENDTAB
  0
TABLE
  2
VIEW
  5
6
330
0
100
AcDbSymbolTable
 70
     0
  0
ENDTAB
  0
TABLE
  2
UCS
  5
7
330
0
100
AcDbSymbolTable
 70
     0
  0
ENDTAB
  0
TABLE
  2
APPID
  5
9
330
0
100
AcDbSymbolTable
 70
     1
  0
APPID
  5
12
330
9
100
AcDbSymbolTableRecord
100
AcDbRegAppTableRecord
  2
ACAD
 70
     0
  0
ENDTAB
  0
TABLE
  2
DIMSTYLE
  5
A
330
0
100
AcDbSymbolTable
 70
     1
  0
DIMSTYLE
105
3A2
330
A
100
AcDbSymbolTableRecord
100
AcDbDimStyleTableRecord
  2
STANDARD
 70
     0
  3

  4

  5

  6

  7

 40
1.0
 41
0.18
 42
0.0625
 43
0.38
 44
0.18
 45
0.0
 46
0.0
 47
0.0
 48
0.0
140
0.18
141
0.09
142
0.0
143
25.4
144
1.0
145
0.0
146
1.0
147
0.09
 71
     0
 72
     0
 73
     1
 74
     1
 75
     0
 76
     0
 77
     0
 78
     0
170
     0
171
     2
172
     0
173
     0
174
     0
175
     0
176
     0
177
     0
178
     0
270
     2
271
     4
272
     4
273
     2
274
     2
340
11
275
     0
280
     0
281
     0
282
     0
283
     1
284
     0
285
     0
286
     0
287
     3
288
     0
  0
ENDTAB
  0
TABLE
  2
BLOCK_RECORD
  5
1
330
0
100
AcDbSymbolTable
 70
     0
  0
BLOCK_RECORD
  5
1E
102
{ACAD_XDICTIONARY
360
415
102
}
330
1
100
AcDbSymbolTableRecord
100
AcDbBlockTableRecord
  2
*MODEL_SPACE
  0
BLOCK_RECORD
  5
1A
102
{ACAD_XDICTIONARY
360
413
102
}
330
1
100
AcDbSymbolTableRecord
100
AcDbBlockTableRecord
  2
*PAPER_SPACE
  0
ENDTAB
  0
ENDSEC
  0
SECTION
  2
BLOCKS
  0
BLOCK
  5
1F
330
1E
100
AcDbEntity
  8
0
100
AcDbBlockBegin
  2
*MODEL_SPACE
 70
     0
 10
0.0
 20
0.0
 30
0.0
  3
*MODEL_SPACE
  1

  0
ENDBLK
  5
20
330
1E
100
AcDbEntity
  8
0
100
AcDbBlockEnd
  0
BLOCK
  5
1B
330
1A
100
AcDbEntity
 67
     1
  8
0
100
AcDbBlockBegin
  2
*PAPER_SPACE
 70
     0
 10
0.0
 20
0.0
 30
0.0
  3
*PAPER_SPACE
  1

  0
ENDBLK
  5
1C
330
1A
100
AcDbEntity
 67
     1
  8
0
100
AcDbBlockEnd
  0
ENDSEC
  0
SECTION
  2
ENTITIES
  0
LINE
  5
22
330
1E
100
AcDbEntity
  8
0
100
AcDbLine
 10
0.0000000000000006
 20
41.99561499999979
 30
0.0
 11
1.5
 21
49.0020149999998
 31
0.0
  0
LINE
  5
23
330
1E
100
AcDbEntity
  8
0
100
AcDbLine
 10
0.0000000000000006
 20
41.99561499999979
 30
0.0
 11
1.5
 21
34.9892149999998
 31
0.0
  0
LINE
  5
24
330
1E
100
AcDbEntity
  8
0
100
AcDbLine
 10
0.0000000000000006
 20
41.99561499999979
 30
0.0
 11
0.0000000000000006
 21
45.8258149999998
 31
0.0
  0
LINE
  5
25
330
1E
100
AcDbEntity
  8
0
100
AcDbLine
 10
0.0000000000000006
 20
45.8258149999998
 30
0.0
 11
1.5
 21
52.8322149999998
 31
0.0
  0
LINE
  5
26
330
1E
100
AcDbEntity
  8
0
100
AcDbLine
 10
0.0000000000000006
 20
45.8258149999998
 30
0.0
 11
0.0000000000000006
 21
41.99561499999979
 31
0.0
  0
LINE
  5
27
330
1E
100
AcDbEntity
  8
0
100
AcDbLine
 10
1.0
 20
38.1654149999998
 30
0.0
 11
2.5
 21
31.2875149999998
 31
0.0
  0
LINE
  5
28
330
1E
100
AcDbEntity
  8
0
100
AcDbLine
 10
0.500000000000001
 20
41.22951499999979
 30
0.0
 11
2.0
 21
48.1717149999998
 31
0.0
  0
LINE
  5
29
330
1E
100
AcDbEntity
  8
0
100
AcDbLine
 10
0.500000000000001
 20
41.22951499999979
 30
0.0
 11
1.0
 21
38.1654149999998
 31
0.0
  0
LINE
  5
2A
330
1E
100
AcDbEntity
  8
0
100
AcDbLine
 10
3.5
 20
29.5653149999998
 30
0.0
 11
7.4
 21
23.3945149999998
 31
0.0
  0
LINE
  5
2B
330
1E
100
AcDbEntity
  8
0
100
AcDbLine
 10
2.5
 20
31.2875149999998
 30
0.0
 11
3.5
 21
29.5653149999998
 31
0.0
  0
LINE
  5
2C
330
1E
100
AcDbEntity
  8
0
100
AcDbLine
 10
2.0
 20
48.1717149999998
 30
0.0
 11
6.2
 21
54.7281149999998
 31
0.0
  0
LINE
  5
2D
330
1E
100
AcDbEntity
  8
0
100
AcDbLine
 10
1.5
 20
34.9892149999998
 30
0.0
 11
1.79216358099533
 21
34.5331337375146
 31
0.0
  0
LINE
  5
2E
330
1E
100
AcDbEntity
  8
0
100
AcDbLine
 10
1.5
 20
49.0020149999998
 30
0.0
 11
5.7
 21
55.5584149999998
 31
0.0
  0
LINE
  5
2F
330
1E
100
AcDbEntity
  8
0
100
AcDbLine
 10
0.0000000000000006
 20
46.59191499999979
 30
0.0
 11
1.5
 21
53.5982149999998
 31
0.0
  0
LINE
  5
30
330
1E
100
AcDbEntity
  8
0
100
AcDbLine
 10
0.0000000000000006
 20
46.59191499999979
 30
0.0
 11
0.500000000000001
 21
50.8051149999998
 31
0.0
  0
LINE
  5
31
330
1E
100
AcDbEntity
  8
0
100
AcDbLine
 10
0.0000000000000006
 20
46.59191499999979
 30
0.0
 11
0.0820071648778276
 21
46.20886499999979
 31
0.0
  0
LINE
  5
32
330
1E
100
AcDbEntity
  8
0
100
AcDbLine
 10
0.0000000000000006
 20
46.59191499999979
 30
0.0
 11
0.0820071648778276
 21
46.20886499999979
 31
0.0
  0
LINE
  5
33
330
1E
100
AcDbEntity
  8
0
100
AcDbLine
 10
1.5
 20
52.8322149999998
 30
0.0
 11
5.7
 21
59.3886149999998
 31
0.0
  0
LINE
  5
34
330
1E
100
AcDbEntity
  8
0
100
AcDbLine
 10
1.5
 20
53.5982149999998
 30
0.0
 11
5.7
 21
60.15471499999979
 31
0.0
  0
LINE
  5
35
330
1E
100
AcDbEntity
  8
0
100
AcDbLine
 10
2.0
 20
57.7472149999998
 30
0.0
 11
3.5
 21
61.7033149999998
 31
0.0
  0
LINE
  5
36
330
1E
100
AcDbEntity
  8
0
100
AcDbLine
 10
0.500000000000001
 20
50.8051149999998
 30
0.0
 11
2.0
 21
57.7472149999998
 31
0.0
  0
LINE
  5
37
330
1E
100
AcDbEntity
  8
0
100
AcDbLine
 10
5.5
 20
32.8031149999998
 30
0.0
 11
6.799999999999999
 21
38.90951499999979
 31
0.0
  0
LINE
  5
38
330
1E
100
AcDbEntity
  8
0
100
AcDbLine
 10
5.5
 20
32.8031149999998
 30
0.0
 11
6.799999999999999
 21
26.6966149999998
 31
0.0
  0
LINE
  5
39
330
1E
100
AcDbEntity
  8
0
100
AcDbLine
 10
5.7
 20
55.5584149999998
 30
0.0
 11
12.5
 21
61.2792149999998
 31
0.0
  0
LINE
  5
3A
330
1E
100
AcDbEntity
  8
0
100
AcDbLine
 10
6.799999999999999
 20
26.6966149999998
 30
0.0
 11
10.5
 21
20.9758149999998
 31
0.0
  0
LINE
  5
3C
330
1E
100
AcDbEntity
  8
0
100
AcDbLine
 10
6.173896924961099
 20
33.6787149999998
 30
0.0
 11
7.299999999999999
 21
26.4544149999998
 31
0.0
  0
LINE
  5
3D
330
1E
100
AcDbEntity
  8
0
100
AcDbLine
 10
6.173896924961099
 20
33.6787149999998
 30
0.0
 11
7.2
 21
38.84531499999979
 31
0.0
  0
LINE
  5
3E
330
1E
100
AcDbEntity
  8
0
100
AcDbLine
 10
7.299999999999999
 20
26.4544149999998
 30
0.0
 11
10.9
 21
20.8622149999998
 31
0.0
  0
LINE
  5
3F
330
1E
100
AcDbEntity
  8
0
100
AcDbLine
 10
9.599999999999999
 20
21.3561149999998
 30
0.0
 11
15.7
 21
16.3424149999998
 31
0.0
  0
LINE
  5
40
330
1E
100
AcDbEntity
  8
0
100
AcDbLine
 10
7.4
 20
23.3945149999998
 30
0.0
 11
9.599999999999999
 21
21.3561149999998
 31
0.0
  0
LINE
  5
41
330
1E
100
AcDbEntity
  8
0
100
AcDbLine
 10
7.2
 20
38.84531499999979
 30
0.0
 11
10.8
 21
44.5018149999998
 31
0.0
  0
LINE
  5
42
330
1E
100
AcDbEntity
  8
0
100
AcDbLine
 10
6.799999999999999
 20
38.90951499999979
 30
0.0
 11
10.5
 21
44.6304149999998
 31
0.0
  0
LINE
  5
43
330
1E
100
AcDbEntity
  8
0
100
AcDbLine
 10
6.2
 20
54.7281149999998
 30
0.0
 11
12.8
 21
60.3203149999998
 31
0.0
  0
LINE
  5
44
330
1E
100
AcDbEntity
  8
0
100
AcDbLine
 10
5.7
 20
59.3886149999998
 30
0.0
 11
12.5
 21
65.10941499999979
 31
0.0
  0
LINE
  5
45
330
1E
100
AcDbEntity
  8
0
100
AcDbLine
 10
5.7
 20
60.15471499999979
 30
0.0
 11
12.5
 21
65.87551499999979
 31
0.0
  0
LINE
  5
46
330
1E
100
AcDbEntity
  8
0
100
AcDbLine
 10
3.5
 20
61.7033149999998
 30
0.0
 11
5.9
 21
65.9139149999998
 31
0.0
  0
LINE
  5
47
330
1E
100
AcDbEntity
  8
0
100
AcDbLine
 10
5.9
 20
65.9139149999998
 30
0.0
 11
9.599999999999999
 21
71.8276149999998
 31
0.0
  0
LINE
  5
48
330
1E
100
AcDbEntity
  8
0
100
AcDbLine
 10
10.5
 20
20.9758149999998
 30
0.0
 11
16.39999999999999
 21
16.0263149999998
 31
0.0
  0
LINE
  5
49
330
1E
100
AcDbEntity
  8
0
100
AcDbLine
 10
10.9
 20
20.8622149999998
 30
0.0
 11
16.8
 21
15.97701499999979
 31
0.0
  0
LINE
  5
4A
330
1E
100
AcDbEntity
  8
0
100
AcDbLine
 10
10.8
 20
44.5018149999998
 30
0.0
 11
16.69999999999999
 21
49.3870149999998
 31
0.0
  0
LINE
  5
4B
330
1E
100
AcDbEntity
  8
0
100
AcDbLine
 10
10.5
 20
44.6304149999998
 30
0.0
 11
16.39999999999999
 21
49.5798149999998
 31
0.0
  0
LINE
  5
4C
330
1E
100
AcDbEntity
  8
0
100
AcDbLine
 10
12.5
 20
61.2792149999998
 30
0.0
 11
21.4
 21
65.6502149999998
 31
0.0
  0
LINE
  5
4D
330
1E
100
AcDbEntity
  8
0
100
AcDbLine
 10
15.7
 20
16.3424149999998
 30
0.0
 11
23.5
 21
12.4214149999998
 31
0.0
  0
LINE
  5
4E
330
1E
100
AcDbEntity
  8
0
100
AcDbLine
 10
15.30269999999999
 20
22.88291499999979
 30
0.0
 11
15.8119
 21
22.9039149999998
 31
0.0
  0
LINE
  5
50
330
1E
100
AcDbEntity
  8
0
100
AcDbLine
 10
15.665
 20
22.0137149999998
 30
0.0
 11
16.3295
 21
21.6622149999998
 31
0.0
  0
LINE
  5
51
330
1E
100
AcDbEntity
  8
0
100
AcDbLine
 10
15.2324
 20
22.51921499999979
 30
0.0
 11
15.665
 21
22.0137149999998
 31
0.0
  0
LINE
  5
52
330
1E
100
AcDbEntity
  8
0
100
AcDbLine
 10
15.2324
 20
22.51921499999979
 30
0.0
 11
15.30269999999999
 21
22.88291499999979
 31
0.0
  0
LINE
  5
53
330
1E
100
AcDbEntity
  8
0
100
AcDbLine
 10
14.5333
 20
26.6394149999998
 30
0.0
 11
15.1408
 21
26.1803149999998
 31
0.0
  0
LINE
  5
54
330
1E
100
AcDbEntity
  8
0
100
AcDbLine
 10
15.1408
 20
26.1803149999998
 30
0.0
 11
15.7484
 21
26.1067149999998
 31
0.0
  0
LINE
  5
55
330
1E
100
AcDbEntity
  8
0
100
AcDbLine
 10
15.7484
 20
26.1067149999998
 30
0.0
 11
16.0088
 21
26.4425149999998
 31
0.0
  0
LINE
  5
56
330
1E
100
AcDbEntity
  8
0
100
AcDbLine
 10
18.5
 20
15.07801499999979
 30
0.0
 11
25.5
 21
11.6713149999998
 31
0.0
  0
LINE
  5
57
330
1E
100
AcDbEntity
  8
0
100
AcDbLine
 10
16.39999999999999
 20
16.0263149999998
 30
0.0
 11
24.1
 21
12.23391499999979
 31
0.0
  0
LINE
  5
58
330
1E
100
AcDbEntity
  8
0
100
AcDbLine
 10
16.8
 20
15.97701499999979
 30
0.0
 11
18.5
 21
15.07801499999979
 31
0.0
  0
LINE
  5
5A
330
1E
100
AcDbEntity
  8
0
100
AcDbLine
 10
19.5533
 20
17.9394149999998
 30
0.0
 11
19.6778
 21
17.5802149999998
 31
0.0
  0
LINE
  5
5C
330
1E
100
AcDbEntity
  8
0
100
AcDbLine
 10
19.3017
 20
17.4843149999998
 30
0.0
 11
19.6778
 21
17.5802149999998
 31
0.0
  0
LINE
  5
5D
330
1E
100
AcDbEntity
  8
0
100
AcDbLine
 10
18.62549999999999
 20
17.7224149999998
 30
0.0
 11
19.3017
 21
17.4843149999998
 31
0.0
  0
LINE
  5
5E
330
1E
100
AcDbEntity
  8
0
100
AcDbLine
 10
17.9255
 20
18.50171499999979
 30
0.0
 11
18.3017
 21
18.59771499999979
 31
0.0
  0
LINE
  5
5F
330
1E
100
AcDbEntity
  8
0
100
AcDbLine
 10
17.9255
 20
18.50171499999979
 30
0.0
 11
18.0501
 21
18.1425149999998
 31
0.0
  0
LINE
  5
61
330
1E
100
AcDbEntity
  8
0
100
AcDbLine
 10
15.8119
 20
22.9039149999998
 30
0.0
 11
16.4764
 21
22.5524149999998
 31
0.0
  0
LINE
  5
63
330
1E
100
AcDbEntity
  8
0
100
AcDbLine
 10
16.4764
 20
22.5524149999998
 30
0.0
 11
16.90909999999999
 21
22.0469149999998
 31
0.0
  0
LINE
  5
65
330
1E
100
AcDbEntity
  8
0
100
AcDbLine
 10
16.83869999999999
 20
21.68311499999979
 30
0.0
 11
16.90909999999999
 21
22.0469149999998
 31
0.0
  0
LINE
  5
67
330
1E
100
AcDbEntity
  8
0
100
AcDbLine
 10
16.3295
 20
21.6622149999998
 30
0.0
 11
16.83869999999999
 21
21.68311499999979
 31
0.0
  0
LINE
  5
68
330
1E
100
AcDbEntity
  8
0
100
AcDbLine
 10
18.3017
 20
18.59771499999979
 30
0.0
 11
18.9778
 21
18.3596149999998
 31
0.0
  0
LINE
  5
6A
330
1E
100
AcDbEntity
  8
0
100
AcDbLine
 10
18.9778
 20
18.3596149999998
 30
0.0
 11
19.5533
 21
17.9394149999998
 31
0.0
  0
LINE
  5
6C
330
1E
100
AcDbEntity
  8
0
100
AcDbLine
 10
18.0501
 20
18.1425149999998
 30
0.0
 11
18.62549999999999
 21
17.7224149999998
 31
0.0
  0
LINE
  5
6D
330
1E
100
AcDbEntity
  8
0
100
AcDbLine
 10
20.7279
 20
22.46291499999979
 30
0.0
 11
21.404
 21
22.1126149999998
 31
0.0
  0
LINE
  5
6E
330
1E
100
AcDbEntity
  8
0
100
AcDbLine
 10
20.5452
 20
23.35501499999979
 30
0.0
 11
21.143
 21
23.3872149999998
 31
0.0
  0
LINE
  5
6F
330
1E
100
AcDbEntity
  8
0
100
AcDbLine
 10
21.143
 20
23.3872149999998
 30
0.0
 11
21.81909999999999
 21
23.03691499999979
 31
0.0
  0
LINE
  5
70
330
1E
100
AcDbEntity
  8
0
100
AcDbLine
 10
20.3636
 20
22.9771149999998
 30
0.0
 11
20.7279
 21
22.46291499999979
 31
0.0
  0
LINE
  5
71
330
1E
100
AcDbEntity
  8
0
100
AcDbLine
 10
20.3636
 20
22.9771149999998
 30
0.0
 11
20.5452
 21
23.35501499999979
 31
0.0
  0
LINE
  5
72
330
1E
100
AcDbEntity
  8
0
100
AcDbLine
 10
21.404
 20
22.1126149999998
 30
0.0
 11
22.0018
 21
22.14481499999979
 31
0.0
  0
LINE
  5
73
330
1E
100
AcDbEntity
  8
0
100
AcDbLine
 10
21.143
 20
26.2011149999998
 30
0.0
 11
21.81909999999999
 21
26.1254149999998
 31
0.0
  0
LINE
  5
74
330
1E
100
AcDbEntity
  8
0
100
AcDbLine
 10
20.5452
 20
26.6591149999998
 30
0.0
 11
21.143
 21
26.2011149999998
 31
0.0
  0
LINE
  5
76
330
1E
100
AcDbEntity
  8
0
100
AcDbLine
 10
15.7484
 20
27.0066149999998
 30
0.0
 11
16.0088
 21
26.4425149999998
 31
0.0
  0
LINE
  5
78
330
1E
100
AcDbEntity
  8
0
100
AcDbLine
 10
12.8
 20
60.3203149999998
 30
0.0
 11
21.49999999999999
 21
64.5627149999998
 31
0.0
  0
LINE
  5
79
330
1E
100
AcDbEntity
  8
0
100
AcDbLine
 10
20.3636
 20
27.21951499999979
 30
0.0
 11
20.7279
 21
27.5513149999998
 31
0.0
  0
LINE
  5
7A
330
1E
100
AcDbEntity
  8
0
100
AcDbLine
 10
20.3636
 20
27.21951499999979
 30
0.0
 11
20.5452
 21
26.6591149999998
 31
0.0
  0
LINE
  5
7B
330
1E
100
AcDbEntity
  8
0
100
AcDbLine
 10
15.30269999999999
 20
31.3077149999998
 30
0.0
 11
15.8119
 21
30.7540149999998
 31
0.0
  0
LINE
  5
7C
330
1E
100
AcDbEntity
  8
0
100
AcDbLine
 10
15.8119
 20
30.7540149999998
 30
0.0
 11
16.4764
 21
30.5728149999998
 31
0.0
  0
LINE
  5
7D
330
1E
100
AcDbEntity
  8
0
100
AcDbLine
 10
16.4764
 20
30.5728149999998
 30
0.0
 11
16.90909999999999
 21
30.8500149999998
 31
0.0
  0
LINE
  5
7F
330
1E
100
AcDbEntity
  8
0
100
AcDbLine
 10
16.83869999999999
 20
31.44211499999979
 30
0.0
 11
16.90909999999999
 21
30.8500149999998
 31
0.0
  0
LINE
  5
80
330
1E
100
AcDbEntity
  8
0
100
AcDbLine
 10
16.69999999999999
 20
49.3870149999998
 30
0.0
 11
24.3
 21
53.1794149999998
 31
0.0
  0
LINE
  5
81
330
1E
100
AcDbEntity
  8
0
100
AcDbLine
 10
16.39999999999999
 20
49.5798149999998
 30
0.0
 11
24.1
 21
53.3723149999998
 31
0.0
  0
LINE
  5
82
330
1E
100
AcDbEntity
  8
0
100
AcDbLine
 10
17.9255
 20
35.68891499999979
 30
0.0
 11
18.3017
 21
35.0602149999998
 31
0.0
  0
LINE
  5
83
330
1E
100
AcDbEntity
  8
0
100
AcDbLine
 10
17.9255
 20
35.68891499999979
 30
0.0
 11
18.0501
 21
36.27641499999979
 31
0.0
  0
LINE
  5
84
330
1E
100
AcDbEntity
  8
0
100
AcDbLine
 10
18.3017
 20
35.0602149999998
 30
0.0
 11
18.9778
 21
34.76561499999979
 31
0.0
  0
LINE
  5
85
330
1E
100
AcDbEntity
  8
0
100
AcDbLine
 10
18.9778
 20
34.76561499999979
 30
0.0
 11
19.5533
 21
34.9575149999998
 31
0.0
  0
LINE
  5
86
330
1E
100
AcDbEntity
  8
0
100
AcDbLine
 10
19.5533
 20
34.9575149999998
 30
0.0
 11
19.6778
 21
35.54501499999979
 31
0.0
  0
LINE
  5
88
330
1E
100
AcDbEntity
  8
0
100
AcDbLine
 10
19.3017
 20
36.17361499999979
 30
0.0
 11
19.6778
 21
35.54501499999979
 31
0.0
  0
LINE
  5
89
330
1E
100
AcDbEntity
  8
0
100
AcDbLine
 10
18.62549999999999
 20
36.46821499999979
 30
0.0
 11
19.3017
 21
36.17361499999979
 31
0.0
  0
LINE
  5
8A
330
1E
100
AcDbEntity
  8
0
100
AcDbLine
 10
18.0501
 20
36.27641499999979
 30
0.0
 11
18.62549999999999
 21
36.46821499999979
 31
0.0
  0
LINE
  5
8C
330
1E
100
AcDbEntity
  8
0
100
AcDbLine
 10
16.3295
 20
31.99571499999979
 30
0.0
 11
16.83869999999999
 21
31.44211499999979
 31
0.0
  0
LINE
  5
8D
330
1E
100
AcDbEntity
  8
0
100
AcDbLine
 10
15.665
 20
32.1769149999998
 30
0.0
 11
16.3295
 21
31.99571499999979
 31
0.0
  0
LINE
  5
8E
330
1E
100
AcDbEntity
  8
0
100
AcDbLine
 10
15.2324
 20
31.89971499999979
 30
0.0
 11
15.665
 21
32.1769149999998
 31
0.0
  0
LINE
  5
8F
330
1E
100
AcDbEntity
  8
0
100
AcDbLine
 10
15.2324
 20
31.89971499999979
 30
0.0
 11
15.30269999999999
 21
31.3077149999998
 31
0.0
  0
LINE
  5
92
330
1E
100
AcDbEntity
  8
0
100
AcDbLine
 10
21.49999999999999
 20
64.5627149999998
 30
0.0
 11
21.89999999999999
 21
64.6886149999998
 31
0.0
  0
LINE
  5
93
330
1E
100
AcDbEntity
  8
0
100
AcDbLine
 10
21.404
 20
27.4756149999998
 30
0.0
 11
22.0018
 21
27.0176149999998
 31
0.0
  0
LINE
  5
95
330
1E
100
AcDbEntity
  8
0
100
AcDbLine
 10
20.7279
 20
27.5513149999998
 30
0.0
 11
21.404
 21
27.4756149999998
 31
0.0
  0
LINE
  5
97
330
1E
100
AcDbEntity
  8
0
100
AcDbLine
 10
15.1408
 20
27.4658149999998
 30
0.0
 11
15.7484
 21
27.0066149999998
 31
0.0
  0
LINE
  5
98
330
1E
100
AcDbEntity
  8
0
100
AcDbLine
 10
14.5333
 20
27.5393149999998
 30
0.0
 11
15.1408
 21
27.4658149999998
 31
0.0
  0
LINE
  5
99
330
1E
100
AcDbEntity
  8
0
100
AcDbLine
 10
14.5333
 20
27.5393149999998
 30
0.0
 11
14.5799036659042
 21
27.6017002978852
 31
0.0
  0
LINE
  5
9A
330
1E
100
AcDbEntity
  8
0
100
AcDbLine
 10
14.2729
 20
27.2035149999998
 30
0.0
 11
14.5333
 21
27.5393149999998
 31
0.0
  0
LINE
  5
9B
330
1E
100
AcDbEntity
  8
0
100
AcDbLine
 10
14.2729
 20
27.2035149999998
 30
0.0
 11
14.5333
 21
26.6394149999998
 31
0.0
  0
LINE
  5
9D
330
1E
100
AcDbEntity
  8
0
100
AcDbLine
 10
21.81909999999999
 20
23.03691499999979
 30
0.0
 11
22.18339999999999
 21
22.52271499999979
 31
0.0
  0
LINE
  5
9F
330
1E
100
AcDbEntity
  8
0
100
AcDbLine
 10
21.9585
 20
19.7588149999998
 30
0.0
 11
22.4372
 21
19.88211499999979
 31
0.0
  0
LINE
  5
A0
330
1E
100
AcDbEntity
  8
0
100
AcDbLine
 10
21.9585
 20
19.7588149999998
 30
0.0
 11
21.972
 21
19.3667149999998
 31
0.0
  0
LINE
  5
A2
330
1E
100
AcDbEntity
  8
0
100
AcDbLine
 10
21.972
 20
19.3667149999998
 30
0.0
 11
22.4942
 21
18.9275149999998
 31
0.0
  0
LINE
  5
A3
330
1E
100
AcDbEntity
  8
0
100
AcDbLine
 10
22.22309999999999
 20
14.7062149999998
 30
0.0
 11
22.4406
 21
14.8523149999998
 31
0.0
  0
LINE
  5
A4
330
1E
100
AcDbEntity
  8
0
100
AcDbLine
 10
22.22309999999999
 20
14.7062149999998
 30
0.0
 11
22.534
 21
14.38381499999979
 31
0.0
  0
LINE
  5
A6
330
1E
100
AcDbEntity
  8
0
100
AcDbLine
 10
22.4406
 20
14.8523149999998
 30
0.0
 11
23.0823
 21
14.7258149999998
 31
0.0
  0
LINE
  5
A8
330
1E
100
AcDbEntity
  8
0
100
AcDbLine
 10
23.0823
 20
14.7258149999998
 30
0.0
 11
23.76139999999999
 21
14.41191499999979
 31
0.0
  0
LINE
  5
AA
330
1E
100
AcDbEntity
  8
0
100
AcDbLine
 10
22.534
 20
14.38381499999979
 30
0.0
 11
23.213
 21
14.06991499999979
 31
0.0
  0
LINE
  5
AB
330
1E
100
AcDbEntity
  8
0
100
AcDbLine
 10
22.4372
 20
19.88211499999979
 30
0.0
 11
23.1456
 21
19.6490149999998
 31
0.0
  0
LINE
  5
AD
330
1E
100
AcDbEntity
  8
0
100
AcDbLine
 10
22.4942
 20
18.9275149999998
 30
0.0
 11
23.2026
 21
18.6943149999998
 31
0.0
  0
LINE
  5
AE
330
1E
100
AcDbEntity
  8
0
100
AcDbLine
 10
22.0018
 20
22.14481499999979
 30
0.0
 11
22.18339999999999
 21
22.52271499999979
 31
0.0
  0
LINE
  5
AF
330
1E
100
AcDbEntity
  8
0
100
AcDbLine
 10
22.18339999999999
 20
26.4571149999998
 30
0.0
 11
22.21082520572239
 21
26.5037639689714
 31
0.0
  0
LINE
  5
B0
330
1E
100
AcDbEntity
  8
0
100
AcDbLine
 10
21.81909999999999
 20
26.1254149999998
 30
0.0
 11
22.18339999999999
 21
26.4571149999998
 31
0.0
  0
LINE
  5
B1
330
1E
100
AcDbEntity
  8
0
100
AcDbLine
 10
21.9585
 20
30.2553149999998
 30
0.0
 11
22.4372
 21
29.7062149999998
 31
0.0
  0
LINE
  5
B2
330
1E
100
AcDbEntity
  8
0
100
AcDbLine
 10
21.9585
 20
30.2553149999998
 30
0.0
 11
21.972
 21
30.8300149999998
 31
0.0
  0
LINE
  5
B3
330
1E
100
AcDbEntity
  8
0
100
AcDbLine
 10
22.4372
 20
29.7062149999998
 30
0.0
 11
23.1456
 21
29.5133149999998
 31
0.0
  0
LINE
  5
B4
330
1E
100
AcDbEntity
  8
0
100
AcDbLine
 10
22.4942
 20
31.0867149999998
 30
0.0
 11
23.2026
 21
30.8939149999998
 31
0.0
  0
LINE
  5
B6
330
1E
100
AcDbEntity
  8
0
100
AcDbLine
 10
21.972
 20
30.8300149999998
 30
0.0
 11
22.4942
 21
31.0867149999998
 31
0.0
  0
LINE
  5
B7
330
1E
100
AcDbEntity
  8
0
100
AcDbLine
 10
22.0018
 20
27.0176149999998
 30
0.0
 11
22.18339999999999
 21
26.4571149999998
 31
0.0
  0
LINE
  5
B8
330
1E
100
AcDbEntity
  8
0
100
AcDbLine
 10
23.1456
 20
19.6490149999998
 30
0.0
 11
23.66779999999999
 21
19.2097149999998
 31
0.0
  0
LINE
  5
BA
330
1E
100
AcDbEntity
  8
0
100
AcDbLine
 10
23.5
 20
12.4214149999998
 30
0.0
 11
24.1
 21
12.23391499999979
 31
0.0
  0
LINE
  5
BB
330
1E
100
AcDbEntity
  8
0
100
AcDbLine
 10
23.213
 20
14.06991499999979
 30
0.0
 11
23.8548
 21
13.9433149999998
 31
0.0
  0
LINE
  5
BC
330
1E
100
AcDbEntity
  8
0
100
AcDbLine
 10
23.66779999999999
 20
19.2097149999998
 30
0.0
 11
23.6813
 21
18.8176149999998
 31
0.0
  0
LINE
  5
BE
330
1E
100
AcDbEntity
  8
0
100
AcDbLine
 10
23.2026
 20
18.6943149999998
 30
0.0
 11
23.6813
 21
18.8176149999998
 31
0.0
  0
LINE
  5
BF
330
1E
100
AcDbEntity
  8
0
100
AcDbLine
 10
23.1456
 20
29.5133149999998
 30
0.0
 11
23.66779999999999
 21
29.7701149999998
 31
0.0
  0
LINE
  5
C0
330
1E
100
AcDbEntity
  8
0
100
AcDbLine
 10
23.76139999999999
 20
14.41191499999979
 30
0.0
 11
24.0722
 21
14.0895149999998
 31
0.0
  0
LINE
  5
C2
330
1E
100
AcDbEntity
  8
0
100
AcDbLine
 10
23.8548
 20
13.9433149999998
 30
0.0
 11
24.0722
 21
14.0895149999998
 31
0.0
  0
LINE
  5
C4
330
1E
100
AcDbEntity
  8
0
100
AcDbLine
 10
23.66779999999999
 20
29.7701149999998
 30
0.0
 11
23.6813
 21
30.3447149999998
 31
0.0
  0
LINE
  5
C5
330
1E
100
AcDbEntity
  8
0
100
AcDbLine
 10
23.2026
 20
30.8939149999998
 30
0.0
 11
23.6813
 21
30.3447149999998
 31
0.0
  0
LINE
  5
C6
330
1E
100
AcDbEntity
  8
0
100
AcDbLine
 10
23.0823
 20
38.39941499999979
 30
0.0
 11
23.76139999999999
 21
38.48501499999979
 31
0.0
  0
LINE
  5
C7
330
1E
100
AcDbEntity
  8
0
100
AcDbLine
 10
22.22309999999999
 20
39.48441499999979
 30
0.0
 11
22.4406
 21
38.80551499999979
 31
0.0
  0
LINE
  5
C8
330
1E
100
AcDbEntity
  8
0
100
AcDbLine
 10
22.22309999999999
 20
39.48441499999979
 30
0.0
 11
22.534
 21
40.03511499999979
 31
0.0
  0
LINE
  5
C9
330
1E
100
AcDbEntity
  8
0
100
AcDbLine
 10
22.4406
 20
38.80551499999979
 30
0.0
 11
23.0823
 21
38.39941499999979
 31
0.0
  0
LINE
  5
CA
330
1E
100
AcDbEntity
  8
0
100
AcDbLine
 10
23.76139999999999
 20
38.48501499999979
 30
0.0
 11
24.0722
 21
39.0357149999998
 31
0.0
  0
LINE
  5
CC
330
1E
100
AcDbEntity
  8
0
100
AcDbLine
 10
24.1
 20
12.23391499999979
 30
0.0
 11
24.5548180705178
 21
12.1123712585482
 31
0.0
  0
LINE
  5
CD
330
1E
100
AcDbEntity
  8
0
100
AcDbLine
 10
24.1
 20
12.23391499999979
 30
0.0
 11
24.5548180705178
 21
12.1123712585482
 31
0.0
  0
LINE
  5
CF
330
1E
100
AcDbEntity
  8
0
100
AcDbLine
 10
24.7716
 20
16.5203149999998
 30
0.0
 11
25.0987
 21
16.7117149999998
 31
0.0
  0
LINE
  5
D0
330
1E
100
AcDbEntity
  8
0
100
AcDbLine
 10
24.7716
 20
16.5203149999998
 30
0.0
 11
24.9793
 21
16.1468149999998
 31
0.0
  0
LINE
  5
D2
330
1E
100
AcDbEntity
  8
0
100
AcDbLine
 10
25.5
 20
11.6713149999998
 30
0.0
 11
33.79999999999999
 21
9.4215149999998
 31
0.0
  0
LINE
  5
D3
330
1E
100
AcDbEntity
  8
0
100
AcDbLine
 10
26.31619999999999
 20
15.69171499999979
 30
0.0
 11
26.6433
 21
15.88321499999979
 31
0.0
  0
LINE
  5
D4
330
1E
100
AcDbEntity
  8
0
100
AcDbLine
 10
25.0987
 20
16.7117149999998
 30
0.0
 11
25.791
 21
16.59711499999979
 31
0.0
  0
LINE
  5
D6
330
1E
100
AcDbEntity
  8
0
100
AcDbLine
 10
25.791
 20
16.59711499999979
 30
0.0
 11
26.4356
 21
16.2566149999998
 31
0.0
  0
LINE
  5
D8
330
1E
100
AcDbEntity
  8
0
100
AcDbLine
 10
25.6239
 20
15.80631499999979
 30
0.0
 11
26.31619999999999
 21
15.69171499999979
 31
0.0
  0
LINE
  5
D9
330
1E
100
AcDbEntity
  8
0
100
AcDbLine
 10
24.9793
 20
16.1468149999998
 30
0.0
 11
25.6239
 21
15.80631499999979
 31
0.0
  0
LINE
  5
DA
330
1E
100
AcDbEntity
  8
0
100
AcDbLine
 10
24.7716
 20
33.4939149999998
 30
0.0
 11
25.0987
 21
32.87651499999979
 31
0.0
  0
LINE
  5
DB
330
1E
100
AcDbEntity
  8
0
100
AcDbLine
 10
24.7716
 20
33.4939149999998
 30
0.0
 11
24.9793
 21
34.04991499999979
 31
0.0
  0
LINE
  5
DC
330
1E
100
AcDbEntity
  8
0
100
AcDbLine
 10
25.0987
 20
32.87651499999979
 30
0.0
 11
25.791
 21
32.5652149999998
 31
0.0
  0
LINE
  5
DD
330
1E
100
AcDbEntity
  8
0
100
AcDbLine
 10
25.791
 20
32.5652149999998
 30
0.0
 11
26.4356
 21
32.72321499999979
 31
0.0
  0
LINE
  5
DE
330
1E
100
AcDbEntity
  8
0
100
AcDbLine
 10
27.96229999999999
 20
11.9174149999998
 30
0.0
 11
28.5259
 21
11.8928149999998
 31
0.0
  0
LINE
  5
E0
330
1E
100
AcDbEntity
  8
0
100
AcDbLine
 10
27.9184
 20
11.74911499999979
 30
0.0
 11
28.3944
 21
11.49331499999979
 31
0.0
  0
LINE
  5
E1
330
1E
100
AcDbEntity
  8
0
100
AcDbLine
 10
27.9184
 20
11.74911499999979
 30
0.0
 11
27.96229999999999
 21
11.9174149999998
 31
0.0
  0
LINE
  5
E3
330
1E
100
AcDbEntity
  8
0
100
AcDbLine
 10
26.4356
 20
16.2566149999998
 30
0.0
 11
26.6433
 21
15.88321499999979
 31
0.0
  0
LINE
  5
E5
330
1E
100
AcDbEntity
  8
0
100
AcDbLine
 10
28.3944
 20
11.49331499999979
 30
0.0
 11
29.1308
 21
11.29911499999979
 31
0.0
  0
LINE
  5
E6
330
1E
100
AcDbEntity
  8
0
100
AcDbLine
 10
28.5259
 20
11.8928149999998
 30
0.0
 11
29.2623
 21
11.69861499999979
 31
0.0
  0
LINE
  5
E8
330
1E
100
AcDbEntity
  8
0
100
AcDbLine
 10
28.5739
 20
13.8362149999998
 30
0.0
 11
29.2969
 21
13.6115149999998
 31
0.0
  0
LINE
  5
E9
330
1E
100
AcDbEntity
  8
0
100
AcDbLine
 10
29.1308
 20
11.29911499999979
 30
0.0
 11
29.6944
 21
11.2746149999998
 31
0.0
  0
LINE
  5
EB
330
1E
100
AcDbEntity
  8
0
100
AcDbLine
 10
29.6944
 20
11.2746149999998
 30
0.0
 11
29.7384
 21
11.4428149999998
 31
0.0
  0
LINE
  5
ED
330
1E
100
AcDbEntity
  8
0
100
AcDbLine
 10
29.2623
 20
11.69861499999979
 30
0.0
 11
29.7384
 21
11.4428149999998
 31
0.0
  0
LINE
  5
EF
330
1E
100
AcDbEntity
  8
0
100
AcDbLine
 10
29.2969
 20
13.6115149999998
 30
0.0
 11
29.92599999999999
 21
13.6088149999998
 31
0.0
  0
LINE
  5
F1
330
1E
100
AcDbEntity
  8
0
100
AcDbLine
 10
29.92599999999999
 20
13.6088149999998
 30
0.0
 11
30.079
 21
13.8408149999998
 31
0.0
  0
LINE
  5
F2
330
1E
100
AcDbEntity
  8
0
100
AcDbLine
 10
29.69129999999999
 20
14.1639149999998
 30
0.0
 11
30.079
 21
13.8408149999998
 31
0.0
  0
LINE
  5
F4
330
1E
100
AcDbEntity
  8
0
100
AcDbLine
 10
28.96829999999999
 20
14.3887149999998
 30
0.0
 11
29.69129999999999
 21
14.1639149999998
 31
0.0
  0
LINE
  5
F6
330
1E
100
AcDbEntity
  8
0
100
AcDbLine
 10
28.3393
 20
14.3914149999998
 30
0.0
 11
28.96829999999999
 21
14.3887149999998
 31
0.0
  0
LINE
  5
F8
330
1E
100
AcDbEntity
  8
0
100
AcDbLine
 10
28.1862
 20
14.1593149999998
 30
0.0
 11
28.5739
 21
13.8362149999998
 31
0.0
  0
LINE
  5
F9
330
1E
100
AcDbEntity
  8
0
100
AcDbLine
 10
28.1862
 20
14.1593149999998
 30
0.0
 11
28.3393
 21
14.3914149999998
 31
0.0
  0
LINE
  5
FB
330
1E
100
AcDbEntity
  8
0
100
AcDbLine
 10
26.4356
 20
32.72321499999979
 30
0.0
 11
26.6433
 21
33.2792149999998
 31
0.0
  0
LINE
  5
FC
330
1E
100
AcDbEntity
  8
0
100
AcDbLine
 10
26.31619999999999
 20
33.8964149999998
 30
0.0
 11
26.6433
 21
33.2792149999998
 31
0.0
  0
LINE
  5
FD
330
1E
100
AcDbEntity
  8
0
100
AcDbLine
 10
29.69129999999999
 20
34.81591499999979
 30
0.0
 11
30.079
 21
35.32151499999979
 31
0.0
  0
LINE
  5
FE
330
1E
100
AcDbEntity
  8
0
100
AcDbLine
 10
28.96829999999999
 20
34.77371499999979
 30
0.0
 11
29.69129999999999
 21
34.81591499999979
 31
0.0
  0
LINE
  5
FF
330
1E
100
AcDbEntity
  8
0
100
AcDbLine
 10
28.3393
 20
35.19691499999979
 30
0.0
 11
28.96829999999999
 21
34.77371499999979
 31
0.0
  0
LINE
  5
100
330
1E
100
AcDbEntity
  8
0
100
AcDbLine
 10
28.5739
 20
36.36041499999979
 30
0.0
 11
29.2969
 21
36.40271499999979
 31
0.0
  0
LINE
  5
101
330
1E
100
AcDbEntity
  8
0
100
AcDbLine
 10
29.2969
 20
36.40271499999979
 30
0.0
 11
29.92599999999999
 21
35.97951499999979
 31
0.0
  0
LINE
  5
102
330
1E
100
AcDbEntity
  8
0
100
AcDbLine
 10
29.92599999999999
 20
35.97951499999979
 30
0.0
 11
30.079
 21
35.32151499999979
 31
0.0
  0
LINE
  5
103
330
1E
100
AcDbEntity
  8
0
100
AcDbLine
 10
28.1862
 20
35.85481499999979
 30
0.0
 11
28.5739
 21
36.36041499999979
 31
0.0
  0
LINE
  5
104
330
1E
100
AcDbEntity
  8
0
100
AcDbLine
 10
28.1862
 20
35.85481499999979
 30
0.0
 11
28.3393
 21
35.19691499999979
 31
0.0
  0
LINE
  5
105
330
1E
100
AcDbEntity
  8
0
100
AcDbLine
 10
25.6239
 20
34.20781499999979
 30
0.0
 11
26.31619999999999
 21
33.8964149999998
 31
0.0
  0
LINE
  5
107
330
1E
100
AcDbEntity
  8
0
100
AcDbLine
 10
24.9793
 20
34.04991499999979
 30
0.0
 11
25.6239
 21
34.20781499999979
 31
0.0
  0
LINE
  5
108
330
1E
100
AcDbEntity
  8
0
100
AcDbLine
 10
23.8548
 20
39.71461499999979
 30
0.0
 11
24.0722
 21
39.0357149999998
 31
0.0
  0
LINE
  5
109
330
1E
100
AcDbEntity
  8
0
100
AcDbLine
 10
29.2623
 20
41.19831499999979
 30
0.0
 11
29.7384
 21
41.68241499999979
 31
0.0
  0
LINE
  5
10A
330
1E
100
AcDbEntity
  8
0
100
AcDbLine
 10
29.6944
 20
42.38331499999979
 30
0.0
 11
29.7384
 21
41.68241499999979
 31
0.0
  0
LINE
  5
10B
330
1E
100
AcDbEntity
  8
0
100
AcDbLine
 10
28.5259
 20
41.2324149999998
 30
0.0
 11
29.2623
 21
41.19831499999979
 31
0.0
  0
LINE
  5
10C
330
1E
100
AcDbEntity
  8
0
100
AcDbLine
 10
27.96229999999999
 20
41.74051499999979
 30
0.0
 11
28.5259
 21
41.2324149999998
 31
0.0
  0
LINE
  5
10D
330
1E
100
AcDbEntity
  8
0
100
AcDbLine
 10
24.3
 20
53.1794149999998
 30
0.0
 11
33.1
 21
55.4935149999998
 31
0.0
  0
LINE
  5
10E
330
1E
100
AcDbEntity
  8
0
100
AcDbLine
 10
24.1
 20
53.3723149999998
 30
0.0
 11
33.0
 21
55.75061499999979
 31
0.0
  0
LINE
  5
10F
330
1E
100
AcDbEntity
  8
0
100
AcDbLine
 10
28.3944
 20
42.92551499999979
 30
0.0
 11
29.1308
 21
42.89151499999979
 31
0.0
  0
LINE
  5
111
330
1E
100
AcDbEntity
  8
0
100
AcDbLine
 10
29.1308
 20
42.89151499999979
 30
0.0
 11
29.6944
 21
42.38331499999979
 31
0.0
  0
LINE
  5
112
330
1E
100
AcDbEntity
  8
0
100
AcDbLine
 10
27.9184
 20
42.44151499999979
 30
0.0
 11
28.3944
 21
42.92551499999979
 31
0.0
  0
LINE
  5
113
330
1E
100
AcDbEntity
  8
0
100
AcDbLine
 10
27.9184
 20
42.44151499999979
 30
0.0
 11
27.96229999999999
 21
41.74051499999979
 31
0.0
  0
LINE
  5
114
330
1E
100
AcDbEntity
  8
0
100
AcDbLine
 10
23.213
 20
40.12071499999979
 30
0.0
 11
23.8548
 21
39.71461499999979
 31
0.0
  0
LINE
  5
115
330
1E
100
AcDbEntity
  8
0
100
AcDbLine
 10
22.534
 20
40.03511499999979
 30
0.0
 11
23.213
 21
40.12071499999979
 31
0.0
  0
LINE
  5
118
330
1E
100
AcDbEntity
  8
0
100
AcDbLine
 10
21.89999999999999
 20
64.6886149999998
 30
0.0
 11
31.8
 21
67.3241149999998
 31
0.0
  0
LINE
  5
119
330
1E
100
AcDbEntity
  8
0
100
AcDbLine
 10
12.5
 20
65.10941499999979
 30
0.0
 11
12.8
 21
65.29961499999981
 31
0.0
  0
LINE
  5
11B
330
1E
100
AcDbEntity
  8
0
100
AcDbLine
 10
21.4
 20
65.6502149999998
 30
0.0
 11
31.6
 21
68.34991499999979
 31
0.0
  0
LINE
  5
11C
330
1E
100
AcDbEntity
  8
0
100
AcDbLine
 10
12.8
 20
65.29961499999981
 30
0.0
 11
21.49999999999999
 21
69.54201499999979
 31
0.0
  0
LINE
  5
11E
330
1E
100
AcDbEntity
  8
0
100
AcDbLine
 10
12.5
 20
65.87551499999979
 30
0.0
 11
21.4
 21
70.24641499999979
 31
0.0
  0
LINE
  5
11F
330
1E
100
AcDbEntity
  8
0
100
AcDbLine
 10
21.49999999999999
 20
69.54201499999979
 30
0.0
 11
31.69999999999999
 21
72.2417149999998
 31
0.0
  0
LINE
  5
120
330
1E
100
AcDbEntity
  8
0
100
AcDbLine
 10
21.4
 20
70.24641499999979
 30
0.0
 11
31.6
 21
72.9462149999998
 31
0.0
  0
LINE
  5
121
330
1E
100
AcDbEntity
  8
0
100
AcDbLine
 10
9.599999999999999
 20
71.8276149999998
 30
0.0
 11
13.2
 21
75.1383149999998
 31
0.0
  0
LINE
  5
122
330
1E
100
AcDbEntity
  8
0
100
AcDbLine
 10
18.5
 20
79.6378149999998
 30
0.0
 11
25.5
 21
83.04461499999979
 31
0.0
  0
LINE
  5
12D
330
1E
100
AcDbEntity
  8
0
100
AcDbLine
 10
25.5
 20
83.04461499999979
 30
0.0
 11
28.3
 21
84.30101499999979
 31
0.0
  0
LINE
  5
12E
330
1E
100
AcDbEntity
  8
0
100
AcDbLine
 10
31.0
 20
85.00528456521719
 30
0.0
 11
31.0
 21
87.57521499999979
 31
0.0
  0
LINE
  5
12F
330
1E
100
AcDbEntity
  8
0
100
AcDbLine
 10
28.3
 20
84.30101499999979
 30
0.0
 11
35.2
 21
86.10081499999978
 31
0.0
  0
LINE
  5
130
330
1E
100
AcDbEntity
  8
0
100
AcDbLine
 10
13.2
 20
75.1383149999998
 30
0.0
 11
18.5
 21
79.6378149999998
 31
0.0
  0
LINE
  5
132
330
1E
100
AcDbEntity
  8
0
100
AcDbLine
 10
31.6
 20
68.34991499999979
 30
0.0
 11
42.5
 21
69.3141149999998
 31
0.0
  0
LINE
  5
134
330
1E
100
AcDbEntity
  8
0
100
AcDbLine
 10
32.4
 20
22.6410149999998
 30
0.0
 11
33.39999999999999
 21
21.0341149999998
 31
0.0
  0
LINE
  5
135
330
1E
100
AcDbEntity
  8
0
100
AcDbLine
 10
32.088280709841
 20
23.9935649999998
 30
0.0
 11
32.4
 21
22.6410149999998
 31
0.0
  0
LINE
  5
136
330
1E
100
AcDbEntity
  8
0
100
AcDbLine
 10
32.088280709841
 20
23.9935649999998
 30
0.0
 11
32.4
 21
22.6410149999998
 31
0.0
  0
LINE
  5
137
330
1E
100
AcDbEntity
  8
0
100
AcDbLine
 10
32.4
 20
21.87501499999979
 30
0.0
 11
33.39999999999999
 21
20.26801499999979
 31
0.0
  0
LINE
  5
138
330
1E
100
AcDbEntity
  8
0
100
AcDbLine
 10
32.4
 20
25.3461149999998
 30
0.0
 11
33.39999999999999
 21
26.95301499999979
 31
0.0
  0
LINE
  5
139
330
1E
100
AcDbEntity
  8
0
100
AcDbLine
 10
32.0
 20
23.6105149999998
 30
0.0
 11
32.4
 21
25.3461149999998
 31
0.0
  0
LINE
  5
13A
330
1E
100
AcDbEntity
  8
0
100
AcDbLine
 10
32.0
 20
23.6105149999998
 30
0.0
 11
32.4
 21
21.87501499999979
 31
0.0
  0
LINE
  5
13B
330
1E
100
AcDbEntity
  8
0
100
AcDbLine
 10
33.01039999999999
 20
12.3900149999998
 30
0.0
 11
33.0418
 21
12.1476149999998
 31
0.0
  0
LINE
  5
13C
330
1E
100
AcDbEntity
  8
0
100
AcDbLine
 10
33.01039999999999
 20
12.3900149999998
 30
0.0
 11
33.53349999999999
 21
12.4847149999998
 31
0.0
  0
LINE
  5
13E
330
1E
100
AcDbEntity
  8
0
100
AcDbLine
 10
33.0418
 20
12.1476149999998
 30
0.0
 11
33.5831
 21
11.9032149999998
 31
0.0
  0
LINE
  5
13F
330
1E
100
AcDbEntity
  8
0
100
AcDbLine
 10
33.0
 20
55.75061499999979
 30
0.0
 11
42.5
 21
56.5862149999998
 31
0.0
  0
LINE
  5
140
330
1E
100
AcDbEntity
  8
0
100
AcDbLine
 10
33.01039999999999
 20
37.19821499999979
 30
0.0
 11
33.0418
 21
37.86661499999979
 31
0.0
  0
LINE
  5
141
330
1E
100
AcDbEntity
  8
0
100
AcDbLine
 10
33.01039999999999
 20
37.19821499999979
 30
0.0
 11
33.53349999999999
 21
36.67761499999979
 31
0.0
  0
LINE
  5
142
330
1E
100
AcDbEntity
  8
0
100
AcDbLine
 10
33.79999999999999
 20
9.4215149999998
 30
0.0
 11
42.5
 21
8.6501149999998
 31
0.0
  0
LINE
  5
143
330
1E
100
AcDbEntity
  8
0
100
AcDbLine
 10
33.5831
 20
11.9032149999998
 30
0.0
 11
34.3352
 21
11.8033149999998
 31
0.0
  0
LINE
  5
144
330
1E
100
AcDbEntity
  8
0
100
AcDbLine
 10
34.28549999999999
 20
12.3848149999998
 30
0.0
 11
34.8269
 21
12.1404149999998
 31
0.0
  0
LINE
  5
146
330
1E
100
AcDbEntity
  8
0
100
AcDbLine
 10
33.39999999999999
 20
21.0341149999998
 30
0.0
 11
35.1
 21
19.6199149999998
 31
0.0
  0
LINE
  5
147
330
1E
100
AcDbEntity
  8
0
100
AcDbLine
 10
33.39999999999999
 20
20.26801499999979
 30
0.0
 11
35.1
 21
18.85391499999979
 31
0.0
  0
LINE
  5
148
330
1E
100
AcDbEntity
  8
0
100
AcDbLine
 10
33.39999999999999
 20
26.95301499999979
 30
0.0
 11
35.1
 21
28.36721499999979
 31
0.0
  0
LINE
  5
149
330
1E
100
AcDbEntity
  8
0
100
AcDbLine
 10
33.53349999999999
 20
12.4847149999998
 30
0.0
 11
34.28549999999999
 21
12.3848149999998
 31
0.0
  0
LINE
  5
14B
330
1E
100
AcDbEntity
  8
0
100
AcDbLine
 10
34.4619
 20
10.0069149999998
 30
0.0
 11
34.5944
 21
9.8461149999998
 31
0.0
  0
LINE
  5
14C
330
1E
100
AcDbEntity
  8
0
100
AcDbLine
 10
34.4619
 20
10.0069149999998
 30
0.0
 11
34.9089
 21
10.0678149999998
 31
0.0
  0
LINE
  5
14E
330
1E
100
AcDbEntity
  8
0
100
AcDbLine
 10
34.9089
 20
10.0678149999998
 30
0.0
 11
35.6524
 21
9.998914999999801
 31
0.0
  0
LINE
  5
150
330
1E
100
AcDbEntity
  8
0
100
AcDbLine
 10
34.5944
 20
9.8461149999998
 30
0.0
 11
35.2032
 21
9.6822149999998
 31
0.0
  0
LINE
  5
152
330
1E
100
AcDbEntity
  8
0
100
AcDbLine
 10
34.3352
 20
11.8033149999998
 30
0.0
 11
34.85819999999999
 21
11.89801499999979
 31
0.0
  0
LINE
  5
153
330
1E
100
AcDbEntity
  8
0
100
AcDbLine
 10
35.1
 20
19.6199149999998
 30
0.0
 11
37.29999999999999
 21
18.52721499999979
 31
0.0
  0
LINE
  5
154
330
1E
100
AcDbEntity
  8
0
100
AcDbLine
 10
35.1
 20
18.85391499999979
 30
0.0
 11
37.29999999999999
 21
17.7612149999998
 31
0.0
  0
LINE
  5
155
330
1E
100
AcDbEntity
  8
0
100
AcDbLine
 10
35.1
 20
28.36721499999979
 30
0.0
 11
37.29999999999999
 21
29.4599149999998
 31
0.0
  0
LINE
  5
156
330
1E
100
AcDbEntity
  8
0
100
AcDbLine
 10
34.8269
 20
12.1404149999998
 30
0.0
 11
34.85819999999999
 21
11.89801499999979
 31
0.0
  0
LINE
  5
158
330
1E
100
AcDbEntity
  8
0
100
AcDbLine
 10
34.28549999999999
 20
36.59501499999979
 30
0.0
 11
34.8269
 21
37.02191499999979
 31
0.0
  0
LINE
  5
15A
330
1E
100
AcDbEntity
  8
0
100
AcDbLine
 10
33.1
 20
55.4935149999998
 30
0.0
 11
42.5
 21
56.2648149999998
 31
0.0
  0
LINE
  5
15B
330
1E
100
AcDbEntity
  8
0
100
AcDbLine
 10
34.4619
 20
43.6510149999998
 30
0.0
 11
34.5944
 21
44.3445149999998
 31
0.0
  0
LINE
  5
15C
330
1E
100
AcDbEntity
  8
0
100
AcDbLine
 10
34.4619
 20
43.6510149999998
 30
0.0
 11
34.9089
 21
43.0574149999998
 31
0.0
  0
LINE
  5
15D
330
1E
100
AcDbEntity
  8
0
100
AcDbLine
 10
34.5944
 20
44.3445149999998
 30
0.0
 11
35.2032
 21
44.73671499999979
 31
0.0
  0
LINE
  5
15E
330
1E
100
AcDbEntity
  8
0
100
AcDbLine
 10
33.5831
 20
38.29351499999979
 30
0.0
 11
34.3352
 21
38.21091499999979
 31
0.0
  0
LINE
  5
15F
330
1E
100
AcDbEntity
  8
0
100
AcDbLine
 10
34.3352
 20
38.21091499999979
 30
0.0
 11
34.85819999999999
 21
37.69021499999979
 31
0.0
  0
LINE
  5
160
330
1E
100
AcDbEntity
  8
0
100
AcDbLine
 10
34.9089
 20
43.0574149999998
 30
0.0
 11
35.6524
 21
42.89801499999979
 31
0.0
  0
LINE
  5
162
330
1E
100
AcDbEntity
  8
0
100
AcDbLine
 10
34.8269
 20
37.02191499999979
 30
0.0
 11
34.85819999999999
 21
37.69021499999979
 31
0.0
  0
LINE
  5
163
330
1E
100
AcDbEntity
  8
0
100
AcDbLine
 10
33.53349999999999
 20
36.67761499999979
 30
0.0
 11
34.28549999999999
 21
36.59501499999979
 31
0.0
  0
LINE
  5
164
330
1E
100
AcDbEntity
  8
0
100
AcDbLine
 10
33.0418
 20
37.86661499999979
 30
0.0
 11
33.5831
 21
38.29351499999979
 31
0.0
  0
LINE
  5
165
330
1E
100
AcDbEntity
  8
0
100
AcDbLine
 10
31.8
 20
67.3241149999998
 30
0.0
 11
42.5
 21
68.2883149999998
 31
0.0
  0
LINE
  5
166
330
1E
100
AcDbEntity
  8
0
100
AcDbLine
 10
31.69999999999999
 20
72.2417149999998
 30
0.0
 11
42.5
 21
73.20591499999981
 31
0.0
  0
LINE
  5
167
330
1E
100
AcDbEntity
  8
0
100
AcDbLine
 10
31.6
 20
72.9462149999998
 30
0.0
 11
42.5
 21
73.91031499999979
 31
0.0
  0
LINE
  5
168
330
1E
100
AcDbEntity
  8
0
100
AcDbLine
 10
41.5
 20
0.7404649999997992
 30
0.0
 11
41.5
 21
0.2176449999998
 31
0.0
  0
LINE
  5
169
330
1E
100
AcDbEntity
  8
0
100
AcDbLine
 10
41.5
 20
0.7404649999997992
 30
0.0
 11
41.5
 21
1.5776349999998
 31
0.0
  0
LINE
  5
16A
330
1E
100
AcDbEntity
  8
0
100
AcDbLine
 10
41.5
 20
0.2176449999998
 30
0.0
 11
41.5
 21
0.0709849999997994
 31
0.0
  0
LINE
  5
16B
330
1E
100
AcDbEntity
  8
0
100
AcDbLine
 10
41.5
 20
0.2176449999998
 30
0.0
 11
41.5
 21
0.7404649999997992
 31
0.0
  0
LINE
  5
16C
330
1E
100
AcDbEntity
  8
0
100
AcDbLine
 10
41.5
 20
0.0709849999997994
 30
0.0
 11
41.5
 21
0.4825349999998
 31
0.0
  0
LINE
  5
16D
330
1E
100
AcDbEntity
  8
0
100
AcDbLine
 10
41.5
 20
0.0709849999997994
 30
0.0
 11
43.5
 21
0.0709849999997994
 31
0.0
  0
LINE
  5
16E
330
1E
100
AcDbEntity
  8
0
100
AcDbLine
 10
41.5
 20
0.0709849999997994
 30
0.0
 11
41.5
 21
0.2176449999998
 31
0.0
  0
LINE
  5
16F
330
1E
100
AcDbEntity
  8
0
100
AcDbLine
 10
41.5
 20
0.4825349999998
 30
0.0
 11
41.5
 21
1.5106249999998
 31
0.0
  0
LINE
  5
170
330
1E
100
AcDbEntity
  8
0
100
AcDbLine
 10
41.5
 20
0.4825349999998
 30
0.0
 11
41.5
 21
0.0709849999997994
 31
0.0
  0
LINE
  5
171
330
1E
100
AcDbEntity
  8
0
100
AcDbLine
 10
41.5
 20
1.5776349999998
 30
0.0
 11
41.5
 21
0.7404649999997992
 31
0.0
  0
LINE
  5
172
330
1E
100
AcDbEntity
  8
0
100
AcDbLine
 10
41.5
 20
1.5776349999998
 30
0.0
 11
41.5
 21
2.960864999999799
 31
0.0
  0
LINE
  5
173
330
1E
100
AcDbEntity
  8
0
100
AcDbLine
 10
41.5
 20
2.960864999999799
 30
0.0
 11
41.5
 21
1.5776349999998
 31
0.0
  0
LINE
  5
174
330
1E
100
AcDbEntity
  8
0
100
AcDbLine
 10
41.5
 20
2.960864999999799
 30
0.0
 11
41.5
 21
4.335274999999799
 31
0.0
  0
LINE
  5
175
330
1E
100
AcDbEntity
  8
0
100
AcDbLine
 10
41.5
 20
4.335274999999799
 30
0.0
 11
41.5
 21
2.960864999999799
 31
0.0
  0
LINE
  5
176
330
1E
100
AcDbEntity
  8
0
100
AcDbLine
 10
41.5
 20
4.335274999999799
 30
0.0
 11
41.5
 21
5.722634999999799
 31
0.0
  0
LINE
  5
177
330
1E
100
AcDbEntity
  8
0
100
AcDbLine
 10
41.5
 20
1.5106249999998
 30
0.0
 11
41.5
 21
3.257154999999799
 31
0.0
  0
LINE
  5
178
330
1E
100
AcDbEntity
  8
0
100
AcDbLine
 10
41.5
 20
1.5106249999998
 30
0.0
 11
41.5
 21
0.4825349999998
 31
0.0
  0
LINE
  5
179
330
1E
100
AcDbEntity
  8
0
100
AcDbLine
 10
41.5
 20
3.257154999999799
 30
0.0
 11
41.5
 21
5.0708549999998
 31
0.0
  0
LINE
  5
17A
330
1E
100
AcDbEntity
  8
0
100
AcDbLine
 10
41.5
 20
3.257154999999799
 30
0.0
 11
41.5
 21
1.5106249999998
 31
0.0
  0
LINE
  5
17B
330
1E
100
AcDbEntity
  8
0
100
AcDbLine
 10
41.5
 20
5.722634999999799
 30
0.0
 11
41.5
 21
4.335274999999799
 31
0.0
  0
LINE
  5
17C
330
1E
100
AcDbEntity
  8
0
100
AcDbLine
 10
41.5
 20
5.722634999999799
 30
0.0
 11
41.5
 21
7.446914999999799
 31
0.0
  0
LINE
  5
17D
330
1E
100
AcDbEntity
  8
0
100
AcDbLine
 10
35.2032
 20
9.6822149999998
 30
0.0
 11
35.9467
 21
9.613214999999801
 31
0.0
  0
LINE
  5
17F
330
1E
100
AcDbEntity
  8
0
100
AcDbLine
 10
35.9467
 20
9.613214999999801
 30
0.0
 11
36.3937
 21
9.674214999999801
 31
0.0
  0
LINE
  5
180
330
1E
100
AcDbEntity
  8
0
100
AcDbLine
 10
36.2612
 20
9.835014999999801
 30
0.0
 11
36.3937
 21
9.674214999999801
 31
0.0
  0
LINE
  5
182
330
1E
100
AcDbEntity
  8
0
100
AcDbLine
 10
35.6524
 20
9.998914999999801
 30
0.0
 11
36.2612
 21
9.835014999999801
 31
0.0
  0
LINE
  5
184
330
1E
100
AcDbEntity
  8
0
100
AcDbLine
 10
37.29999999999999
 20
18.52721499999979
 30
0.0
 11
39.8
 21
17.88441499999979
 31
0.0
  0
LINE
  5
185
330
1E
100
AcDbEntity
  8
0
100
AcDbLine
 10
37.29999999999999
 20
17.7612149999998
 30
0.0
 11
39.8
 21
17.11841499999979
 31
0.0
  0
LINE
  5
186
330
1E
100
AcDbEntity
  8
0
100
AcDbLine
 10
37.29999999999999
 20
29.4599149999998
 30
0.0
 11
39.8
 21
30.1027149999998
 31
0.0
  0
LINE
  5
187
330
1E
100
AcDbEntity
  8
0
100
AcDbLine
 10
38.32829999999999
 20
11.23391499999979
 30
0.0
 11
38.5419
 21
11.0123149999998
 31
0.0
  0
LINE
  5
188
330
1E
100
AcDbEntity
  8
0
100
AcDbLine
 10
38.32829999999999
 20
11.23391499999979
 30
0.0
 11
38.7096
 21
11.40521499999979
 31
0.0
  0
LINE
  5
18A
330
1E
100
AcDbEntity
  8
0
100
AcDbLine
 10
38.5419
 20
11.0123149999998
 30
0.0
 11
39.2
 21
10.86931499999979
 31
0.0
  0
LINE
  5
18B
330
1E
100
AcDbEntity
  8
0
100
AcDbLine
 10
35.2032
 20
44.73671499999979
 30
0.0
 11
35.9467
 21
44.5774149999998
 31
0.0
  0
LINE
  5
18D
330
1E
100
AcDbEntity
  8
0
100
AcDbLine
 10
35.9467
 20
44.5774149999998
 30
0.0
 11
36.3937
 21
43.9837149999998
 31
0.0
  0
LINE
  5
18E
330
1E
100
AcDbEntity
  8
0
100
AcDbLine
 10
36.2612
 20
43.2903149999998
 30
0.0
 11
36.3937
 21
43.9837149999998
 31
0.0
  0
LINE
  5
18F
330
1E
100
AcDbEntity
  8
0
100
AcDbLine
 10
35.6524
 20
42.89801499999979
 30
0.0
 11
36.2612
 21
43.2903149999998
 31
0.0
  0
LINE
  5
190
330
1E
100
AcDbEntity
  8
0
100
AcDbLine
 10
38.32829999999999
 20
38.3544149999998
 30
0.0
 11
38.5419
 21
39.0019149999998
 31
0.0
  0
LINE
  5
191
330
1E
100
AcDbEntity
  8
0
100
AcDbLine
 10
38.32829999999999
 20
38.3544149999998
 30
0.0
 11
38.7096
 21
37.75721499999979
 31
0.0
  0
LINE
  5
192
330
1E
100
AcDbEntity
  8
0
100
AcDbLine
 10
39.2
 20
10.86931499999979
 30
0.0
 11
39.9299
 21
10.8948149999998
 31
0.0
  0
LINE
  5
193
330
1E
100
AcDbEntity
  8
0
100
AcDbLine
 10
39.4396
 20
11.4306149999998
 30
0.0
 11
40.09759999999999
 21
11.2877149999998
 31
0.0
  0
LINE
  5
196
330
1E
100
AcDbEntity
  8
0
100
AcDbLine
 10
38.7096
 20
11.40521499999979
 30
0.0
 11
39.4396
 21
11.4306149999998
 31
0.0
  0
LINE
  5
199
330
1E
100
AcDbEntity
  8
0
100
AcDbLine
 10
39.9299
 20
10.8948149999998
 30
0.0
 11
40.3112
 21
11.06611499999979
 31
0.0
  0
LINE
  5
19A
330
1E
100
AcDbEntity
  8
0
100
AcDbLine
 10
39.8
 20
17.88441499999979
 30
0.0
 11
42.5
 21
17.6273149999998
 31
0.0
  0
LINE
  5
19B
330
1E
100
AcDbEntity
  8
0
100
AcDbLine
 10
39.8
 20
17.11841499999979
 30
0.0
 11
42.5
 21
16.86131499999979
 31
0.0
  0
LINE
  5
19C
330
1E
100
AcDbEntity
  8
0
100
AcDbLine
 10
39.8
 20
30.1027149999998
 30
0.0
 11
42.5
 21
30.3598149999998
 31
0.0
  0
LINE
  5
19D
330
1E
100
AcDbEntity
  8
0
100
AcDbLine
 10
40.09759999999999
 20
11.2877149999998
 30
0.0
 11
40.3112
 21
11.06611499999979
 31
0.0
  0
LINE
  5
19F
330
1E
100
AcDbEntity
  8
0
100
AcDbLine
 10
39.4396
 20
37.5492149999998
 30
0.0
 11
40.09759999999999
 21
37.87461499999979
 31
0.0
  0
LINE
  5
1A0
330
1E
100
AcDbEntity
  8
0
100
AcDbLine
 10
39.2
 20
39.32731499999979
 30
0.0
 11
39.9299
 21
39.11931499999979
 31
0.0
  0
LINE
  5
1A1
330
1E
100
AcDbEntity
  8
0
100
AcDbLine
 10
39.9299
 20
39.11931499999979
 30
0.0
 11
40.3112
 21
38.52211499999979
 31
0.0
  0
LINE
  5
1A3
330
1E
100
AcDbEntity
  8
0
100
AcDbLine
 10
40.09759999999999
 20
37.87461499999979
 30
0.0
 11
40.3112
 21
38.52211499999979
 31
0.0
  0
LINE
  5
1A4
330
1E
100
AcDbEntity
  8
0
100
AcDbLine
 10
38.7096
 20
37.75721499999979
 30
0.0
 11
39.4396
 21
37.5492149999998
 31
0.0
  0
LINE
  5
1A5
330
1E
100
AcDbEntity
  8
0
100
AcDbLine
 10
38.5419
 20
39.0019149999998
 30
0.0
 11
39.2
 21
39.32731499999979
 31
0.0
  0
LINE
  5
1A6
330
1E
100
AcDbEntity
  8
0
100
AcDbLine
 10
41.5
 20
7.446914999999799
 30
0.0
 11
41.5
 21
5.722634999999799
 31
0.0
  0
LINE
  5
1A7
330
1E
100
AcDbEntity
  8
0
100
AcDbLine
 10
41.5
 20
7.446914999999799
 30
0.0
 11
41.5
 21
8.738781666666469
 31
0.0
  0
LINE
  5
1A8
330
1E
100
AcDbEntity
  8
0
100
AcDbLine
 10
41.5
 20
8.738781666666469
 30
0.0
 11
41.5
 21
7.446914999999799
 31
0.0
  0
LINE
  5
1A9
330
1E
100
AcDbEntity
  8
0
100
AcDbLine
 10
41.5
 20
8.738781666666469
 30
0.0
 11
41.5
 21
7.668314999999799
 31
0.0
  0
LINE
  5
1AA
330
1E
100
AcDbEntity
  8
0
100
AcDbLine
 10
41.5
 20
5.0708549999998
 30
0.0
 11
41.5
 21
7.668314999999799
 31
0.0
  0
LINE
  5
1AB
330
1E
100
AcDbEntity
  8
0
100
AcDbLine
 10
41.5
 20
5.0708549999998
 30
0.0
 11
41.5
 21
3.257154999999799
 31
0.0
  0
LINE
  5
1AD
330
1E
100
AcDbEntity
  8
0
100
AcDbLine
 10
41.5092
 20
9.242814999999801
 30
0.0
 11
41.80919999999999
 21
9.1187149999998
 31
0.0
  0
LINE
  5
1AE
330
1E
100
AcDbEntity
  8
0
100
AcDbLine
 10
41.5092
 20
9.242814999999801
 30
0.0
 11
41.80919999999999
 21
9.367014999999801
 31
0.0
  0
LINE
  5
1B1
330
1E
100
AcDbEntity
  8
0
100
AcDbLine
 10
41.80919999999999
 20
9.367014999999801
 30
0.0
 11
42.50919999999999
 21
9.420214999999801
 31
0.0
  0
LINE
  5
1B3
330
1E
100
AcDbEntity
  8
0
100
AcDbLine
 10
42.5
 20
17.6273149999998
 30
0.0
 11
45.2
 21
17.88441499999979
 31
0.0
  0
LINE
  5
1B4
330
1E
100
AcDbEntity
  8
0
100
AcDbLine
 10
42.5
 20
16.86131499999979
 30
0.0
 11
45.2
 21
17.11841499999979
 31
0.0
  0
LINE
  5
1B5
330
1E
100
AcDbEntity
  8
0
100
AcDbLine
 10
42.5
 20
8.6501149999998
 30
0.0
 11
51.2
 21
9.4215149999998
 31
0.0
  0
LINE
  5
1B6
330
1E
100
AcDbEntity
  8
0
100
AcDbLine
 10
42.5
 20
30.3598149999998
 30
0.0
 11
45.2
 21
30.1027149999998
 31
0.0
  0
LINE
  5
1B7
330
1E
100
AcDbEntity
  8
0
100
AcDbLine
 10
41.80919999999999
 20
9.1187149999998
 30
0.0
 11
42.50919999999999
 21
9.0654149999998
 31
0.0
  0
LINE
  5
1B8
330
1E
100
AcDbEntity
  8
0
100
AcDbLine
 10
41.80919999999999
 20
43.7582149999998
 30
0.0
 11
42.50919999999999
 21
43.4767149999998
 31
0.0
  0
LINE
  5
1B9
330
1E
100
AcDbEntity
  8
0
100
AcDbLine
 10
41.5092
 20
44.4151149999998
 30
0.0
 11
41.80919999999999
 21
45.07191499999979
 31
0.0
  0
LINE
  5
1BA
330
1E
100
AcDbEntity
  8
0
100
AcDbLine
 10
41.5092
 20
44.4151149999998
 30
0.0
 11
41.80919999999999
 21
43.7582149999998
 31
0.0
  0
LINE
  5
1BC
330
1E
100
AcDbEntity
  8
0
100
AcDbLine
 10
42.5
 20
56.2648149999998
 30
0.0
 11
51.9
 21
55.4935149999998
 31
0.0
  0
LINE
  5
1BD
330
1E
100
AcDbEntity
  8
0
100
AcDbLine
 10
42.5
 20
56.5862149999998
 30
0.0
 11
52.0
 21
55.75061499999979
 31
0.0
  0
LINE
  5
1C0
330
1E
100
AcDbEntity
  8
0
100
AcDbLine
 10
41.80919999999999
 20
45.07191499999979
 30
0.0
 11
42.50919999999999
 21
45.3535149999998
 31
0.0
  0
LINE
  5
1C2
330
1E
100
AcDbEntity
  8
0
100
AcDbLine
 10
41.5
 20
7.668314999999799
 30
0.0
 11
41.5
 21
8.738781666666469
 31
0.0
  0
LINE
  5
1C3
330
1E
100
AcDbEntity
  8
0
100
AcDbLine
 10
41.5
 20
7.668314999999799
 30
0.0
 11
41.5
 21
5.0708549999998
 31
0.0
  0
LINE
  5
1C4
330
1E
100
AcDbEntity
  8
0
100
AcDbLine
 10
42.5
 20
68.2883149999998
 30
0.0
 11
53.2
 21
67.3241149999998
 31
0.0
  0
LINE
  5
1C5
330
1E
100
AcDbEntity
  8
0
100
AcDbLine
 10
42.5
 20
69.3141149999998
 30
0.0
 11
53.39999999999999
 21
68.34991499999979
 31
0.0
  0
LINE
  5
1C7
330
1E
100
AcDbEntity
  8
0
100
AcDbLine
 10
43.5
 20
0.0709849999997994
 30
0.0
 11
43.5
 21
0.4825349999998
 31
0.0
  0
LINE
  5
1C8
330
1E
100
AcDbEntity
  8
0
100
AcDbLine
 10
43.5
 20
0.4825349999998
 30
0.0
 11
43.5
 21
0.0709849999997994
 31
0.0
  0
LINE
  5
1C9
330
1E
100
AcDbEntity
  8
0
100
AcDbLine
 10
43.5
 20
0.4825349999998
 30
0.0
 11
43.5
 21
1.5106249999998
 31
0.0
  0
LINE
  5
1CA
330
1E
100
AcDbEntity
  8
0
100
AcDbLine
 10
43.5
 20
1.5106249999998
 30
0.0
 11
43.5
 21
0.4825349999998
 31
0.0
  0
LINE
  5
1CB
330
1E
100
AcDbEntity
  8
0
100
AcDbLine
 10
43.5
 20
1.5106249999998
 30
0.0
 11
43.5
 21
3.257154999999799
 31
0.0
  0
LINE
  5
1CC
330
1E
100
AcDbEntity
  8
0
100
AcDbLine
 10
43.5
 20
3.257154999999799
 30
0.0
 11
43.5
 21
1.5106249999998
 31
0.0
  0
LINE
  5
1CD
330
1E
100
AcDbEntity
  8
0
100
AcDbLine
 10
43.5
 20
3.257154999999799
 30
0.0
 11
43.5
 21
5.0708549999998
 31
0.0
  0
LINE
  5
1CE
330
1E
100
AcDbEntity
  8
0
100
AcDbLine
 10
43.5
 20
5.0708549999998
 30
0.0
 11
43.5
 21
3.257154999999799
 31
0.0
  0
LINE
  5
1CF
330
1E
100
AcDbEntity
  8
0
100
AcDbLine
 10
43.5
 20
5.0708549999998
 30
0.0
 11
43.5
 21
7.668314999999799
 31
0.0
  0
LINE
  5
1D0
330
1E
100
AcDbEntity
  8
0
100
AcDbLine
 10
43.5
 20
7.668314999999799
 30
0.0
 11
43.5
 21
5.0708549999998
 31
0.0
  0
LINE
  5
1D1
330
1E
100
AcDbEntity
  8
0
100
AcDbLine
 10
43.5
 20
7.668314999999799
 30
0.0
 11
43.5
 21
8.73878166666646
 31
0.0
  0
LINE
  5
1D3
330
1E
100
AcDbEntity
  8
0
100
AcDbLine
 10
42.50919999999999
 20
9.0654149999998
 30
0.0
 11
43.2092
 21
9.1187149999998
 31
0.0
  0
LINE
  5
1D4
330
1E
100
AcDbEntity
  8
0
100
AcDbLine
 10
42.50919999999999
 20
9.420214999999801
 30
0.0
 11
43.2092
 21
9.367014999999801
 31
0.0
  0
LINE
  5
1D6
330
1E
100
AcDbEntity
  8
0
100
AcDbLine
 10
42.50919999999999
 20
45.3535149999998
 30
0.0
 11
43.2092
 21
45.07191499999979
 31
0.0
  0
LINE
  5
1D8
330
1E
100
AcDbEntity
  8
0
100
AcDbLine
 10
43.2092
 20
9.1187149999998
 30
0.0
 11
43.5092
 21
9.242814999999801
 31
0.0
  0
LINE
  5
1DB
330
1E
100
AcDbEntity
  8
0
100
AcDbLine
 10
43.2092
 20
9.367014999999801
 30
0.0
 11
43.5092
 21
9.242814999999801
 31
0.0
  0
LINE
  5
1DD
330
1E
100
AcDbEntity
  8
0
100
AcDbLine
 10
44.6888
 20
11.06611499999979
 30
0.0
 11
44.9024
 21
11.2877149999998
 31
0.0
  0
LINE
  5
1DE
330
1E
100
AcDbEntity
  8
0
100
AcDbLine
 10
44.6888
 20
11.06611499999979
 30
0.0
 11
45.0701
 21
10.8948149999998
 31
0.0
  0
LINE
  5
1DF
330
1E
100
AcDbEntity
  8
0
100
AcDbLine
 10
45.0701
 20
10.8948149999998
 30
0.0
 11
45.8
 21
10.86931499999979
 31
0.0
  0
LINE
  5
1E0
330
1E
100
AcDbEntity
  8
0
100
AcDbLine
 10
44.9024
 20
11.2877149999998
 30
0.0
 11
45.5604
 21
11.4306149999998
 31
0.0
  0
LINE
  5
1E1
330
1E
100
AcDbEntity
  8
0
100
AcDbLine
 10
45.2
 20
17.88441499999979
 30
0.0
 11
47.7
 21
18.52721499999979
 31
0.0
  0
LINE
  5
1E2
330
1E
100
AcDbEntity
  8
0
100
AcDbLine
 10
45.2
 20
17.11841499999979
 30
0.0
 11
47.7
 21
17.7612149999998
 31
0.0
  0
LINE
  5
1E3
330
1E
100
AcDbEntity
  8
0
100
AcDbLine
 10
45.2
 20
30.1027149999998
 30
0.0
 11
47.7
 21
29.4599149999998
 31
0.0
  0
LINE
  5
1E7
330
1E
100
AcDbEntity
  8
0
100
AcDbLine
 10
45.5604
 20
11.4306149999998
 30
0.0
 11
46.29039999999999
 21
11.40521499999979
 31
0.0
  0
LINE
  5
1E8
330
1E
100
AcDbEntity
  8
0
100
AcDbLine
 10
45.8
 20
10.86931499999979
 30
0.0
 11
46.45809999999999
 21
11.0123149999998
 31
0.0
  0
LINE
  5
1EA
330
1E
100
AcDbEntity
  8
0
100
AcDbLine
 10
44.6888
 20
38.52211499999979
 30
0.0
 11
44.9024
 21
37.87461499999979
 31
0.0
  0
LINE
  5
1EB
330
1E
100
AcDbEntity
  8
0
100
AcDbLine
 10
44.6888
 20
38.52211499999979
 30
0.0
 11
45.0701
 21
39.11931499999979
 31
0.0
  0
LINE
  5
1EC
330
1E
100
AcDbEntity
  8
0
100
AcDbLine
 10
45.0701
 20
39.11931499999979
 30
0.0
 11
45.8
 21
39.32731499999979
 31
0.0
  0
LINE
  5
1ED
330
1E
100
AcDbEntity
  8
0
100
AcDbLine
 10
44.9024
 20
37.87461499999979
 30
0.0
 11
45.5604
 21
37.5492149999998
 31
0.0
  0
LINE
  5
1EE
330
1E
100
AcDbEntity
  8
0
100
AcDbLine
 10
45.5604
 20
37.5492149999998
 30
0.0
 11
46.29039999999999
 21
37.75721499999979
 31
0.0
  0
LINE
  5
1F0
330
1E
100
AcDbEntity
  8
0
100
AcDbLine
 10
46.29039999999999
 20
11.40521499999979
 30
0.0
 11
46.6717
 21
11.23391499999979
 31
0.0
  0
LINE
  5
1F1
330
1E
100
AcDbEntity
  8
0
100
AcDbLine
 10
49.0533
 20
9.613214999999801
 30
0.0
 11
49.7968
 21
9.6822149999998
 31
0.0
  0
LINE
  5
1F2
330
1E
100
AcDbEntity
  8
0
100
AcDbLine
 10
48.6063
 20
9.674214999999801
 30
0.0
 11
48.73879999999999
 21
9.835014999999801
 31
0.0
  0
LINE
  5
1F3
330
1E
100
AcDbEntity
  8
0
100
AcDbLine
 10
48.6063
 20
9.674214999999801
 30
0.0
 11
49.0533
 21
9.613214999999801
 31
0.0
  0
LINE
  5
1F8
330
1E
100
AcDbEntity
  8
0
100
AcDbLine
 10
48.73879999999999
 20
9.835014999999801
 30
0.0
 11
49.3476
 21
9.998914999999801
 31
0.0
  0
LINE
  5
1F9
330
1E
100
AcDbEntity
  8
0
100
AcDbLine
 10
49.3476
 20
9.998914999999801
 30
0.0
 11
50.09109999999999
 21
10.0678149999998
 31
0.0
  0
LINE
  5
1FA
330
1E
100
AcDbEntity
  8
0
100
AcDbLine
 10
47.7
 20
18.52721499999979
 30
0.0
 11
49.9
 21
19.6199149999998
 31
0.0
  0
LINE
  5
1FB
330
1E
100
AcDbEntity
  8
0
100
AcDbLine
 10
47.7
 20
17.7612149999998
 30
0.0
 11
49.9
 21
18.85391499999979
 31
0.0
  0
LINE
  5
1FC
330
1E
100
AcDbEntity
  8
0
100
AcDbLine
 10
47.7
 20
29.4599149999998
 30
0.0
 11
49.9
 21
28.36721499999979
 31
0.0
  0
LINE
  5
1FE
330
1E
100
AcDbEntity
  8
0
100
AcDbLine
 10
46.45809999999999
 20
11.0123149999998
 30
0.0
 11
46.6717
 21
11.23391499999979
 31
0.0
  0
LINE
  5
1FF
330
1E
100
AcDbEntity
  8
0
100
AcDbLine
 10
46.29039999999999
 20
37.75721499999979
 30
0.0
 11
46.6717
 21
38.3544149999998
 31
0.0
  0
LINE
  5
200
330
1E
100
AcDbEntity
  8
0
100
AcDbLine
 10
46.45809999999999
 20
39.0019149999998
 30
0.0
 11
46.6717
 21
38.3544149999998
 31
0.0
  0
LINE
  5
201
330
1E
100
AcDbEntity
  8
0
100
AcDbLine
 10
45.8
 20
39.32731499999979
 30
0.0
 11
46.45809999999999
 21
39.0019149999998
 31
0.0
  0
LINE
  5
202
330
1E
100
AcDbEntity
  8
0
100
AcDbLine
 10
48.73879999999999
 20
43.2903149999998
 30
0.0
 11
49.3476
 21
42.89801499999979
 31
0.0
  0
LINE
  5
203
330
1E
100
AcDbEntity
  8
0
100
AcDbLine
 10
49.7968
 20
9.6822149999998
 30
0.0
 11
50.4056
 21
9.8461149999998
 31
0.0
  0
LINE
  5
204
330
1E
100
AcDbEntity
  8
0
100
AcDbLine
 10
49.3476
 20
42.89801499999979
 30
0.0
 11
50.09109999999999
 21
43.0574149999998
 31
0.0
  0
LINE
  5
206
330
1E
100
AcDbEntity
  8
0
100
AcDbLine
 10
49.0533
 20
44.5774149999998
 30
0.0
 11
49.7968
 21
44.73671499999979
 31
0.0
  0
LINE
  5
207
330
1E
100
AcDbEntity
  8
0
100
AcDbLine
 10
48.6063
 20
43.9837149999998
 30
0.0
 11
48.73879999999999
 21
43.2903149999998
 31
0.0
  0
LINE
  5
208
330
1E
100
AcDbEntity
  8
0
100
AcDbLine
 10
48.6063
 20
43.9837149999998
 30
0.0
 11
49.0533
 21
44.5774149999998
 31
0.0
  0
LINE
  5
20A
330
1E
100
AcDbEntity
  8
0
100
AcDbLine
 10
49.7968
 20
44.73671499999979
 30
0.0
 11
50.4056
 21
44.3445149999998
 31
0.0
  0
LINE
  5
20B
330
1E
100
AcDbEntity
  8
0
100
AcDbLine
 10
43.2092
 20
45.07191499999979
 30
0.0
 11
43.5092
 21
44.4151149999998
 31
0.0
  0
LINE
  5
20D
330
1E
100
AcDbEntity
  8
0
100
AcDbLine
 10
43.2092
 20
43.7582149999998
 30
0.0
 11
43.5092
 21
44.4151149999998
 31
0.0
  0
LINE
  5
20E
330
1E
100
AcDbEntity
  8
0
100
AcDbLine
 10
42.50919999999999
 20
43.4767149999998
 30
0.0
 11
43.2092
 21
43.7582149999998
 31
0.0
  0
LINE
  5
20F
330
1E
100
AcDbEntity
  8
0
100
AcDbLine
 10
43.5
 20
8.73878166666646
 30
0.0
 11
43.5
 21
7.668314999999799
 31
0.0
  0
LINE
  5
210
330
1E
100
AcDbEntity
  8
0
100
AcDbLine
 10
42.5
 20
73.20591499999981
 30
0.0
 11
53.3
 21
72.2417149999998
 31
0.0
  0
LINE
  5
211
330
1E
100
AcDbEntity
  8
0
100
AcDbLine
 10
42.5
 20
73.91031499999979
 30
0.0
 11
53.39999999999999
 21
72.9462149999998
 31
0.0
  0
LINE
  5
213
330
1E
100
AcDbEntity
  8
0
100
AcDbLine
 10
50.09109999999999
 20
10.0678149999998
 30
0.0
 11
50.5381
 21
10.0069149999998
 31
0.0
  0
LINE
  5
214
330
1E
100
AcDbEntity
  8
0
100
AcDbLine
 10
50.1418
 20
11.89801499999979
 30
0.0
 11
50.1731
 21
12.1404149999998
 31
0.0
  0
LINE
  5
215
330
1E
100
AcDbEntity
  8
0
100
AcDbLine
 10
50.1418
 20
11.89801499999979
 30
0.0
 11
50.6648
 21
11.8033149999998
 31
0.0
  0
LINE
  5
216
330
1E
100
AcDbEntity
  8
0
100
AcDbLine
 10
51.2
 20
9.4215149999998
 30
0.0
 11
59.5
 21
11.6713149999998
 31
0.0
  0
LINE
  5
219
330
1E
100
AcDbEntity
  8
0
100
AcDbLine
 10
50.4056
 20
9.8461149999998
 30
0.0
 11
50.5381
 21
10.0069149999998
 31
0.0
  0
LINE
  5
21A
330
1E
100
AcDbEntity
  8
0
100
AcDbLine
 10
50.6648
 20
11.8033149999998
 30
0.0
 11
51.4169
 21
11.9032149999998
 31
0.0
  0
LINE
  5
21B
330
1E
100
AcDbEntity
  8
0
100
AcDbLine
 10
50.1731
 20
12.1404149999998
 30
0.0
 11
50.7145
 21
12.3848149999998
 31
0.0
  0
LINE
  5
21C
330
1E
100
AcDbEntity
  8
0
100
AcDbLine
 10
49.9
 20
19.6199149999998
 30
0.0
 11
51.6
 21
21.0341149999998
 31
0.0
  0
LINE
  5
21D
330
1E
100
AcDbEntity
  8
0
100
AcDbLine
 10
49.9
 20
18.85391499999979
 30
0.0
 11
51.6
 21
20.26801499999979
 31
0.0
  0
LINE
  5
21E
330
1E
100
AcDbEntity
  8
0
100
AcDbLine
 10
49.9
 20
28.36721499999979
 30
0.0
 11
51.6
 21
26.95301499999979
 31
0.0
  0
LINE
  5
223
330
1E
100
AcDbEntity
  8
0
100
AcDbLine
 10
50.7145
 20
12.3848149999998
 30
0.0
 11
51.46650000000001
 21
12.4847149999998
 31
0.0
  0
LINE
  5
224
330
1E
100
AcDbEntity
  8
0
100
AcDbLine
 10
51.4169
 20
11.9032149999998
 30
0.0
 11
51.9582
 21
12.1476149999998
 31
0.0
  0
LINE
  5
225
330
1E
100
AcDbEntity
  8
0
100
AcDbLine
 10
50.09109999999999
 20
43.0574149999998
 30
0.0
 11
50.5381
 21
43.6510149999998
 31
0.0
  0
LINE
  5
227
330
1E
100
AcDbEntity
  8
0
100
AcDbLine
 10
50.1418
 20
37.69021499999979
 30
0.0
 11
50.1731
 21
37.02191499999979
 31
0.0
  0
LINE
  5
228
330
1E
100
AcDbEntity
  8
0
100
AcDbLine
 10
50.1418
 20
37.69021499999979
 30
0.0
 11
50.6648
 21
38.21091499999979
 31
0.0
  0
LINE
  5
229
330
1E
100
AcDbEntity
  8
0
100
AcDbLine
 10
50.4056
 20
44.3445149999998
 30
0.0
 11
50.5381
 21
43.6510149999998
 31
0.0
  0
LINE
  5
22A
330
1E
100
AcDbEntity
  8
0
100
AcDbLine
 10
50.6648
 20
38.21091499999979
 30
0.0
 11
51.4169
 21
38.29351499999979
 31
0.0
  0
LINE
  5
22B
330
1E
100
AcDbEntity
  8
0
100
AcDbLine
 10
50.1731
 20
37.02191499999979
 30
0.0
 11
50.7145
 21
36.59501499999979
 31
0.0
  0
LINE
  5
22C
330
1E
100
AcDbEntity
  8
0
100
AcDbLine
 10
50.7145
 20
36.59501499999979
 30
0.0
 11
51.46650000000001
 21
36.67761499999979
 31
0.0
  0
LINE
  5
22D
330
1E
100
AcDbEntity
  8
0
100
AcDbLine
 10
51.46650000000001
 20
12.4847149999998
 30
0.0
 11
51.9896
 21
12.3900149999998
 31
0.0
  0
LINE
  5
22E
330
1E
100
AcDbEntity
  8
0
100
AcDbLine
 10
51.6
 20
21.0341149999998
 30
0.0
 11
52.6
 21
22.6410149999998
 31
0.0
  0
LINE
  5
22F
330
1E
100
AcDbEntity
  8
0
100
AcDbLine
 10
51.6
 20
20.26801499999979
 30
0.0
 11
52.6
 21
21.87501499999979
 31
0.0
  0
LINE
  5
230
330
1E
100
AcDbEntity
  8
0
100
AcDbLine
 10
51.6
 20
26.95301499999979
 30
0.0
 11
52.6
 21
25.3461149999998
 31
0.0
  0
LINE
  5
231
330
1E
100
AcDbEntity
  8
0
100
AcDbLine
 10
52.6
 20
22.6410149999998
 30
0.0
 11
52.911719290159
 21
23.9935649999998
 31
0.0
  0
LINE
  5
232
330
1E
100
AcDbEntity
  8
0
100
AcDbLine
 10
52.6
 20
22.6410149999998
 30
0.0
 11
52.911719290159
 21
23.9935649999998
 31
0.0
  0
LINE
  5
233
330
1E
100
AcDbEntity
  8
0
100
AcDbLine
 10
52.6
 20
21.87501499999979
 30
0.0
 11
53.0
 21
23.6105149999998
 31
0.0
  0
LINE
  5
234
330
1E
100
AcDbEntity
  8
0
100
AcDbLine
 10
52.6
 20
25.3461149999998
 30
0.0
 11
53.0
 21
23.6105149999998
 31
0.0
  0
LINE
  5
236
330
1E
100
AcDbEntity
  8
0
100
AcDbLine
 10
51.9582
 20
12.1476149999998
 30
0.0
 11
51.9896
 21
12.3900149999998
 31
0.0
  0
LINE
  5
237
330
1E
100
AcDbEntity
  8
0
100
AcDbLine
 10
51.46650000000001
 20
36.67761499999979
 30
0.0
 11
51.9896
 21
37.19821499999979
 31
0.0
  0
LINE
  5
238
330
1E
100
AcDbEntity
  8
0
100
AcDbLine
 10
51.9
 20
55.4935149999998
 30
0.0
 11
60.7
 21
53.1794149999998
 31
0.0
  0
LINE
  5
239
330
1E
100
AcDbEntity
  8
0
100
AcDbLine
 10
52.0
 20
55.75061499999979
 30
0.0
 11
60.89999999999999
 21
53.3723149999998
 31
0.0
  0
LINE
  5
23B
330
1E
100
AcDbEntity
  8
0
100
AcDbLine
 10
51.9582
 20
37.86661499999979
 30
0.0
 11
51.9896
 21
37.19821499999979
 31
0.0
  0
LINE
  5
23C
330
1E
100
AcDbEntity
  8
0
100
AcDbLine
 10
51.4169
 20
38.29351499999979
 30
0.0
 11
51.9582
 21
37.86661499999979
 31
0.0
  0
LINE
  5
23D
330
1E
100
AcDbEntity
  8
0
100
AcDbLine
 10
53.2
 20
67.3241149999998
 30
0.0
 11
63.1
 21
64.6886149999998
 31
0.0
  0
LINE
  5
23E
330
1E
100
AcDbEntity
  8
0
100
AcDbLine
 10
55.3056
 20
11.2746149999998
 30
0.0
 11
55.8692
 21
11.29911499999979
 31
0.0
  0
LINE
  5
241
330
1E
100
AcDbEntity
  8
0
100
AcDbLine
 10
55.2616
 20
11.4428149999998
 30
0.0
 11
55.73769999999999
 21
11.69861499999979
 31
0.0
  0
LINE
  5
242
330
1E
100
AcDbEntity
  8
0
100
AcDbLine
 10
55.2616
 20
11.4428149999998
 30
0.0
 11
55.3056
 21
11.2746149999998
 31
0.0
  0
LINE
  5
243
330
1E
100
AcDbEntity
  8
0
100
AcDbLine
 10
55.8692
 20
11.29911499999979
 30
0.0
 11
56.6056
 21
11.49331499999979
 31
0.0
  0
LINE
  5
244
330
1E
100
AcDbEntity
  8
0
100
AcDbLine
 10
55.73769999999999
 20
11.69861499999979
 30
0.0
 11
56.4741
 21
11.8928149999998
 31
0.0
  0
LINE
  5
247
330
1E
100
AcDbEntity
  8
0
100
AcDbLine
 10
56.4741
 20
11.8928149999998
 30
0.0
 11
57.0377
 21
11.9174149999998
 31
0.0
  0
LINE
  5
249
330
1E
100
AcDbEntity
  8
0
100
AcDbLine
 10
57.0377
 20
11.9174149999998
 30
0.0
 11
57.0816
 21
11.74911499999979
 31
0.0
  0
LINE
  5
24A
330
1E
100
AcDbEntity
  8
0
100
AcDbLine
 10
56.6056
 20
11.49331499999979
 30
0.0
 11
57.0816
 21
11.74911499999979
 31
0.0
  0
LINE
  5
24B
330
1E
100
AcDbEntity
  8
0
100
AcDbLine
 10
55.7031
 20
13.6115149999998
 30
0.0
 11
56.4261
 21
13.8362149999998
 31
0.0
  0
LINE
  5
24C
330
1E
100
AcDbEntity
  8
0
100
AcDbLine
 10
55.074
 20
13.6088149999998
 30
0.0
 11
55.7031
 21
13.6115149999998
 31
0.0
  0
LINE
  5
24D
330
1E
100
AcDbEntity
  8
0
100
AcDbLine
 10
54.921
 20
13.8408149999998
 30
0.0
 11
55.3087
 21
14.1639149999998
 31
0.0
  0
LINE
  5
24E
330
1E
100
AcDbEntity
  8
0
100
AcDbLine
 10
54.921
 20
13.8408149999998
 30
0.0
 11
55.074
 21
13.6088149999998
 31
0.0
  0
LINE
  5
24F
330
1E
100
AcDbEntity
  8
0
100
AcDbLine
 10
55.3087
 20
14.1639149999998
 30
0.0
 11
56.0317
 21
14.3887149999998
 31
0.0
  0
LINE
  5
255
330
1E
100
AcDbEntity
  8
0
100
AcDbLine
 10
56.0317
 20
14.3887149999998
 30
0.0
 11
56.6608
 21
14.3914149999998
 31
0.0
  0
LINE
  5
258
330
1E
100
AcDbEntity
  8
0
100
AcDbLine
 10
58.5644
 20
16.2566149999998
 30
0.0
 11
59.20899999999999
 21
16.59711499999979
 31
0.0
  0
LINE
  5
259
330
1E
100
AcDbEntity
  8
0
100
AcDbLine
 10
58.3567
 20
15.88321499999979
 30
0.0
 11
58.6838
 21
15.69171499999979
 31
0.0
  0
LINE
  5
25A
330
1E
100
AcDbEntity
  8
0
100
AcDbLine
 10
58.3567
 20
15.88321499999979
 30
0.0
 11
58.5644
 21
16.2566149999998
 31
0.0
  0
LINE
  5
25B
330
1E
100
AcDbEntity
  8
0
100
AcDbLine
 10
56.6608
 20
14.3914149999998
 30
0.0
 11
56.8138
 21
14.1593149999998
 31
0.0
  0
LINE
  5
25C
330
1E
100
AcDbEntity
  8
0
100
AcDbLine
 10
56.4261
 20
13.8362149999998
 30
0.0
 11
56.8138
 21
14.1593149999998
 31
0.0
  0
LINE
  5
25D
330
1E
100
AcDbEntity
  8
0
100
AcDbLine
 10
58.6838
 20
15.69171499999979
 30
0.0
 11
59.3761
 21
15.80631499999979
 31
0.0
  0
LINE
  5
25E
330
1E
100
AcDbEntity
  8
0
100
AcDbLine
 10
58.5644
 20
32.72321499999979
 30
0.0
 11
59.20899999999999
 21
32.5652149999998
 31
0.0
  0
LINE
  5
25F
330
1E
100
AcDbEntity
  8
0
100
AcDbLine
 10
58.3567
 20
33.2792149999998
 30
0.0
 11
58.6838
 21
33.8964149999998
 31
0.0
  0
LINE
  5
260
330
1E
100
AcDbEntity
  8
0
100
AcDbLine
 10
58.3567
 20
33.2792149999998
 30
0.0
 11
58.5644
 21
32.72321499999979
 31
0.0
  0
LINE
  5
262
330
1E
100
AcDbEntity
  8
0
100
AcDbLine
 10
59.20899999999999
 20
16.59711499999979
 30
0.0
 11
59.9013
 21
16.7117149999998
 31
0.0
  0
LINE
  5
263
330
1E
100
AcDbEntity
  8
0
100
AcDbLine
 10
59.5
 20
11.6713149999998
 30
0.0
 11
66.5
 21
15.07801499999979
 31
0.0
  0
LINE
  5
264
330
1E
100
AcDbEntity
  8
0
100
AcDbLine
 10
59.3761
 20
15.80631499999979
 30
0.0
 11
60.02069999999999
 21
16.1468149999998
 31
0.0
  0
LINE
  5
265
330
1E
100
AcDbEntity
  8
0
100
AcDbLine
 10
59.20899999999999
 20
32.5652149999998
 30
0.0
 11
59.9013
 21
32.87651499999979
 31
0.0
  0
LINE
  5
266
330
1E
100
AcDbEntity
  8
0
100
AcDbLine
 10
58.6838
 20
33.8964149999998
 30
0.0
 11
59.3761
 21
34.20781499999979
 31
0.0
  0
LINE
  5
267
330
1E
100
AcDbEntity
  8
0
100
AcDbLine
 10
55.074
 20
35.97951499999979
 30
0.0
 11
55.7031
 21
36.40271499999979
 31
0.0
  0
LINE
  5
268
330
1E
100
AcDbEntity
  8
0
100
AcDbLine
 10
54.921
 20
35.32151499999979
 30
0.0
 11
55.3087
 21
34.81591499999979
 31
0.0
  0
LINE
  5
269
330
1E
100
AcDbEntity
  8
0
100
AcDbLine
 10
54.921
 20
35.32151499999979
 30
0.0
 11
55.074
 21
35.97951499999979
 31
0.0
  0
LINE
  5
26A
330
1E
100
AcDbEntity
  8
0
100
AcDbLine
 10
55.3087
 20
34.81591499999979
 30
0.0
 11
56.0317
 21
34.77371499999979
 31
0.0
  0
LINE
  5
26B
330
1E
100
AcDbEntity
  8
0
100
AcDbLine
 10
56.0317
 20
34.77371499999979
 30
0.0
 11
56.6608
 21
35.19691499999979
 31
0.0
  0
LINE
  5
26C
330
1E
100
AcDbEntity
  8
0
100
AcDbLine
 10
56.6608
 20
35.19691499999979
 30
0.0
 11
56.8138
 21
35.85481499999979
 31
0.0
  0
LINE
  5
26D
330
1E
100
AcDbEntity
  8
0
100
AcDbLine
 10
55.3056
 20
42.38331499999979
 30
0.0
 11
55.8692
 21
42.89151499999979
 31
0.0
  0
LINE
  5
26E
330
1E
100
AcDbEntity
  8
0
100
AcDbLine
 10
55.2616
 20
41.68241499999979
 30
0.0
 11
55.73769999999999
 21
41.19831499999979
 31
0.0
  0
LINE
  5
26F
330
1E
100
AcDbEntity
  8
0
100
AcDbLine
 10
55.2616
 20
41.68241499999979
 30
0.0
 11
55.3056
 21
42.38331499999979
 31
0.0
  0
LINE
  5
270
330
1E
100
AcDbEntity
  8
0
100
AcDbLine
 10
55.73769999999999
 20
41.19831499999979
 30
0.0
 11
56.4741
 21
41.2324149999998
 31
0.0
  0
LINE
  5
271
330
1E
100
AcDbEntity
  8
0
100
AcDbLine
 10
55.8692
 20
42.89151499999979
 30
0.0
 11
56.6056
 21
42.92551499999979
 31
0.0
  0
LINE
  5
272
330
1E
100
AcDbEntity
  8
0
100
AcDbLine
 10
56.4741
 20
41.2324149999998
 30
0.0
 11
57.0377
 21
41.74051499999979
 31
0.0
  0
LINE
  5
273
330
1E
100
AcDbEntity
  8
0
100
AcDbLine
 10
57.0377
 20
41.74051499999979
 30
0.0
 11
57.0816
 21
42.44151499999979
 31
0.0
  0
LINE
  5
275
330
1E
100
AcDbEntity
  8
0
100
AcDbLine
 10
56.6056
 20
42.92551499999979
 30
0.0
 11
57.0816
 21
42.44151499999979
 31
0.0
  0
LINE
  5
276
330
1E
100
AcDbEntity
  8
0
100
AcDbLine
 10
55.7031
 20
36.40271499999979
 30
0.0
 11
56.4261
 21
36.36041499999979
 31
0.0
  0
LINE
  5
277
330
1E
100
AcDbEntity
  8
0
100
AcDbLine
 10
56.4261
 20
36.36041499999979
 30
0.0
 11
56.8138
 21
35.85481499999979
 31
0.0
  0
LINE
  5
279
330
1E
100
AcDbEntity
  8
0
100
AcDbLine
 10
59.3761
 20
34.20781499999979
 30
0.0
 11
60.02069999999999
 21
34.04991499999979
 31
0.0
  0
LINE
  5
27A
330
1E
100
AcDbEntity
  8
0
100
AcDbLine
 10
53.39999999999999
 20
68.34991499999979
 30
0.0
 11
63.6
 21
65.6502149999998
 31
0.0
  0
LINE
  5
27C
330
1E
100
AcDbEntity
  8
0
100
AcDbLine
 10
53.3
 20
72.2417149999998
 30
0.0
 11
63.5
 21
69.54201499999979
 31
0.0
  0
LINE
  5
27D
330
1E
100
AcDbEntity
  8
0
100
AcDbLine
 10
53.39999999999999
 20
72.9462149999998
 30
0.0
 11
63.6
 21
70.24641499999979
 31
0.0
  0
LINE
  5
27F
330
1E
100
AcDbEntity
  8
0
100
AcDbLine
 10
60.89999999999999
 20
12.23391499999979
 30
0.0
 11
61.5
 21
12.4214149999998
 31
0.0
  0
LINE
  5
280
330
1E
100
AcDbEntity
  8
0
100
AcDbLine
 10
60.89999999999999
 20
12.23391499999979
 30
0.0
 11
68.59999999999999
 21
16.0263149999998
 31
0.0
  0
LINE
  5
281
330
1E
100
AcDbEntity
  8
0
100
AcDbLine
 10
60.44518192948221
 20
12.1123712585482
 30
0.0
 11
60.89999999999999
 21
12.23391499999979
 31
0.0
  0
LINE
  5
282
330
1E
100
AcDbEntity
  8
0
100
AcDbLine
 10
61.5
 20
12.4214149999998
 30
0.0
 11
69.29999999999999
 21
16.3424149999998
 31
0.0
  0
LINE
  5
285
330
1E
100
AcDbEntity
  8
0
100
AcDbLine
 10
61.2386
 20
14.41191499999979
 30
0.0
 11
61.9177
 21
14.7258149999998
 31
0.0
  0
LINE
  5
286
330
1E
100
AcDbEntity
  8
0
100
AcDbLine
 10
60.9278
 20
14.0895149999998
 30
0.0
 11
61.1452
 21
13.9433149999998
 31
0.0
  0
LINE
  5
287
330
1E
100
AcDbEntity
  8
0
100
AcDbLine
 10
60.9278
 20
14.0895149999998
 30
0.0
 11
61.2386
 21
14.41191499999979
 31
0.0
  0
LINE
  5
288
330
1E
100
AcDbEntity
  8
0
100
AcDbLine
 10
61.1452
 20
13.9433149999998
 30
0.0
 11
61.7869
 21
14.06991499999979
 31
0.0
  0
LINE
  5
289
330
1E
100
AcDbEntity
  8
0
100
AcDbLine
 10
62.466
 20
14.38381499999979
 30
0.0
 11
62.77689999999999
 21
14.7062149999998
 31
0.0
  0
LINE
  5
28D
330
1E
100
AcDbEntity
  8
0
100
AcDbLine
 10
62.55939999999999
 20
14.8523149999998
 30
0.0
 11
62.77689999999999
 21
14.7062149999998
 31
0.0
  0
LINE
  5
28E
330
1E
100
AcDbEntity
  8
0
100
AcDbLine
 10
61.9177
 20
14.7258149999998
 30
0.0
 11
62.55939999999999
 21
14.8523149999998
 31
0.0
  0
LINE
  5
28F
330
1E
100
AcDbEntity
  8
0
100
AcDbLine
 10
61.7869
 20
14.06991499999979
 30
0.0
 11
62.466
 21
14.38381499999979
 31
0.0
  0
LINE
  5
290
330
1E
100
AcDbEntity
  8
0
100
AcDbLine
 10
61.3187
 20
18.8176149999998
 30
0.0
 11
61.7974
 21
18.6943149999998
 31
0.0
  0
LINE
  5
291
330
1E
100
AcDbEntity
  8
0
100
AcDbLine
 10
61.3187
 20
18.8176149999998
 30
0.0
 11
61.3322
 21
19.2097149999998
 31
0.0
  0
LINE
  5
292
330
1E
100
AcDbEntity
  8
0
100
AcDbLine
 10
61.7974
 20
18.6943149999998
 30
0.0
 11
62.5058
 21
18.9275149999998
 31
0.0
  0
LINE
  5
298
330
1E
100
AcDbEntity
  8
0
100
AcDbLine
 10
62.8166
 20
22.52271499999979
 30
0.0
 11
62.9982
 21
22.14481499999979
 31
0.0
  0
LINE
  5
299
330
1E
100
AcDbEntity
  8
0
100
AcDbLine
 10
62.8166
 20
22.52271499999979
 30
0.0
 11
63.1809
 21
23.03691499999979
 31
0.0
  0
LINE
  5
29B
330
1E
100
AcDbEntity
  8
0
100
AcDbLine
 10
62.5628
 20
19.88211499999979
 30
0.0
 11
63.04149999999999
 21
19.7588149999998
 31
0.0
  0
LINE
  5
29C
330
1E
100
AcDbEntity
  8
0
100
AcDbLine
 10
61.85439999999999
 20
19.6490149999998
 30
0.0
 11
62.5628
 21
19.88211499999979
 31
0.0
  0
LINE
  5
29D
330
1E
100
AcDbEntity
  8
0
100
AcDbLine
 10
61.3322
 20
19.2097149999998
 30
0.0
 11
61.85439999999999
 21
19.6490149999998
 31
0.0
  0
LINE
  5
29E
330
1E
100
AcDbEntity
  8
0
100
AcDbLine
 10
62.5058
 20
18.9275149999998
 30
0.0
 11
63.028
 21
19.3667149999998
 31
0.0
  0
LINE
  5
2A0
330
1E
100
AcDbEntity
  8
0
100
AcDbLine
 10
60.02069999999999
 20
16.1468149999998
 30
0.0
 11
60.2284
 21
16.5203149999998
 31
0.0
  0
LINE
  5
2A1
330
1E
100
AcDbEntity
  8
0
100
AcDbLine
 10
59.9013
 20
16.7117149999998
 30
0.0
 11
60.2284
 21
16.5203149999998
 31
0.0
  0
LINE
  5
2A3
330
1E
100
AcDbEntity
  8
0
100
AcDbLine
 10
62.9982
 20
22.14481499999979
 30
0.0
 11
63.596
 21
22.1126149999998
 31
0.0
  0
LINE
  5
2A4
330
1E
100
AcDbEntity
  8
0
100
AcDbLine
 10
63.028
 20
19.3667149999998
 30
0.0
 11
63.04149999999999
 21
19.7588149999998
 31
0.0
  0
LINE
  5
2A5
330
1E
100
AcDbEntity
  8
0
100
AcDbLine
 10
62.8166
 20
26.4571149999998
 30
0.0
 11
62.9982
 21
27.0176149999998
 31
0.0
  0
LINE
  5
2A6
330
1E
100
AcDbEntity
  8
0
100
AcDbLine
 10
62.8166
 20
26.4571149999998
 30
0.0
 11
63.1809
 21
26.1254149999998
 31
0.0
  0
LINE
  5
2A7
330
1E
100
AcDbEntity
  8
0
100
AcDbLine
 10
61.85439999999999
 20
29.5133149999998
 30
0.0
 11
62.5628
 21
29.7062149999998
 31
0.0
  0
LINE
  5
2A8
330
1E
100
AcDbEntity
  8
0
100
AcDbLine
 10
61.3322
 20
29.7701149999998
 30
0.0
 11
61.85439999999999
 21
29.5133149999998
 31
0.0
  0
LINE
  5
2A9
330
1E
100
AcDbEntity
  8
0
100
AcDbLine
 10
61.3187
 20
30.3447149999998
 30
0.0
 11
61.7974
 21
30.8939149999998
 31
0.0
  0
LINE
  5
2AA
330
1E
100
AcDbEntity
  8
0
100
AcDbLine
 10
61.3187
 20
30.3447149999998
 30
0.0
 11
61.3322
 21
29.7701149999998
 31
0.0
  0
LINE
  5
2AB
330
1E
100
AcDbEntity
  8
0
100
AcDbLine
 10
60.02069999999999
 20
34.04991499999979
 30
0.0
 11
60.2284
 21
33.4939149999998
 31
0.0
  0
LINE
  5
2AC
330
1E
100
AcDbEntity
  8
0
100
AcDbLine
 10
59.9013
 20
32.87651499999979
 30
0.0
 11
60.2284
 21
33.4939149999998
 31
0.0
  0
LINE
  5
2AE
330
1E
100
AcDbEntity
  8
0
100
AcDbLine
 10
60.9278
 20
39.0357149999998
 30
0.0
 11
61.1452
 21
39.71461499999979
 31
0.0
  0
LINE
  5
2AF
330
1E
100
AcDbEntity
  8
0
100
AcDbLine
 10
60.9278
 20
39.0357149999998
 30
0.0
 11
61.2386
 21
38.48501499999979
 31
0.0
  0
LINE
  5
2B0
330
1E
100
AcDbEntity
  8
0
100
AcDbLine
 10
61.9177
 20
38.39941499999979
 30
0.0
 11
62.55939999999999
 21
38.80551499999979
 31
0.0
  0
LINE
  5
2B1
330
1E
100
AcDbEntity
  8
0
100
AcDbLine
 10
61.2386
 20
38.48501499999979
 30
0.0
 11
61.9177
 21
38.39941499999979
 31
0.0
  0
LINE
  5
2B2
330
1E
100
AcDbEntity
  8
0
100
AcDbLine
 10
61.1452
 20
39.71461499999979
 30
0.0
 11
61.7869
 21
40.12071499999979
 31
0.0
  0
LINE
  5
2B3
330
1E
100
AcDbEntity
  8
0
100
AcDbLine
 10
60.7
 20
53.1794149999998
 30
0.0
 11
68.3
 21
49.3870149999998
 31
0.0
  0
LINE
  5
2B4
330
1E
100
AcDbEntity
  8
0
100
AcDbLine
 10
60.89999999999999
 20
53.3723149999998
 30
0.0
 11
68.59999999999999
 21
49.5798149999998
 31
0.0
  0
LINE
  5
2B5
330
1E
100
AcDbEntity
  8
0
100
AcDbLine
 10
61.7869
 20
40.12071499999979
 30
0.0
 11
62.466
 21
40.03511499999979
 31
0.0
  0
LINE
  5
2B7
330
1E
100
AcDbEntity
  8
0
100
AcDbLine
 10
62.466
 20
40.03511499999979
 30
0.0
 11
62.77689999999999
 21
39.48441499999979
 31
0.0
  0
LINE
  5
2B9
330
1E
100
AcDbEntity
  8
0
100
AcDbLine
 10
61.7974
 20
30.8939149999998
 30
0.0
 11
62.5058
 21
31.0867149999998
 31
0.0
  0
LINE
  5
2BA
330
1E
100
AcDbEntity
  8
0
100
AcDbLine
 10
62.55939999999999
 20
38.80551499999979
 30
0.0
 11
62.77689999999999
 21
39.48441499999979
 31
0.0
  0
LINE
  5
2BB
330
1E
100
AcDbEntity
  8
0
100
AcDbLine
 10
63.028
 20
30.8300149999998
 30
0.0
 11
63.04149999999999
 21
30.2553149999998
 31
0.0
  0
LINE
  5
2BC
330
1E
100
AcDbEntity
  8
0
100
AcDbLine
 10
62.5628
 20
29.7062149999998
 30
0.0
 11
63.04149999999999
 21
30.2553149999998
 31
0.0
  0
LINE
  5
2BD
330
1E
100
AcDbEntity
  8
0
100
AcDbLine
 10
62.5058
 20
31.0867149999998
 30
0.0
 11
63.028
 21
30.8300149999998
 31
0.0
  0
LINE
  5
2BE
330
1E
100
AcDbEntity
  8
0
100
AcDbLine
 10
62.9982
 20
27.0176149999998
 30
0.0
 11
63.596
 21
27.4756149999998
 31
0.0
  0
LINE
  5
2BF
330
1E
100
AcDbEntity
  8
0
100
AcDbLine
 10
63.1809
 20
23.03691499999979
 30
0.0
 11
63.85699999999999
 21
23.3872149999998
 31
0.0
  0
LINE
  5
2C0
330
1E
100
AcDbEntity
  8
0
100
AcDbLine
 10
63.596
 20
22.1126149999998
 30
0.0
 11
64.27199999999999
 21
22.46291499999979
 31
0.0
  0
LINE
  5
2C2
330
1E
100
AcDbEntity
  8
0
100
AcDbLine
 10
63.1809
 20
26.1254149999998
 30
0.0
 11
63.85699999999999
 21
26.2011149999998
 31
0.0
  0
LINE
  5
2C6
330
1E
100
AcDbEntity
  8
0
100
AcDbLine
 10
66.02219999999999
 20
18.3596149999998
 30
0.0
 11
66.69830000000001
 21
18.59771499999979
 31
0.0
  0
LINE
  5
2C7
330
1E
100
AcDbEntity
  8
0
100
AcDbLine
 10
65.4467
 20
17.9394149999998
 30
0.0
 11
66.02219999999999
 21
18.3596149999998
 31
0.0
  0
LINE
  5
2C8
330
1E
100
AcDbEntity
  8
0
100
AcDbLine
 10
65.32219999999999
 20
17.5802149999998
 30
0.0
 11
65.6983
 21
17.4843149999998
 31
0.0
  0
LINE
  5
2C9
330
1E
100
AcDbEntity
  8
0
100
AcDbLine
 10
65.32219999999999
 20
17.5802149999998
 30
0.0
 11
65.4467
 21
17.9394149999998
 31
0.0
  0
LINE
  5
2CA
330
1E
100
AcDbEntity
  8
0
100
AcDbLine
 10
65.6983
 20
17.4843149999998
 30
0.0
 11
66.3745
 21
17.7224149999998
 31
0.0
  0
LINE
  5
2CB
330
1E
100
AcDbEntity
  8
0
100
AcDbLine
 10
66.5
 20
15.07801499999979
 30
0.0
 11
68.2
 21
15.97701499999979
 31
0.0
  0
LINE
  5
2CC
330
1E
100
AcDbEntity
  8
0
100
AcDbLine
 10
68.2
 20
15.97701499999979
 30
0.0
 11
74.1
 21
20.8622149999998
 31
0.0
  0
LINE
  5
2CD
330
1E
100
AcDbEntity
  8
0
100
AcDbLine
 10
68.59999999999999
 20
16.0263149999998
 30
0.0
 11
74.5
 21
20.9758149999998
 31
0.0
  0
LINE
  5
2CE
330
1E
100
AcDbEntity
  8
0
100
AcDbLine
 10
66.95
 20
18.1425149999998
 30
0.0
 11
67.0745
 21
18.50171499999979
 31
0.0
  0
LINE
  5
2CF
330
1E
100
AcDbEntity
  8
0
100
AcDbLine
 10
68.09090000000001
 20
22.0469149999998
 30
0.0
 11
68.1613
 21
21.68311499999979
 31
0.0
  0
LINE
  5
2D0
330
1E
100
AcDbEntity
  8
0
100
AcDbLine
 10
68.09090000000001
 20
22.0469149999998
 30
0.0
 11
68.5236
 21
22.5524149999998
 31
0.0
  0
LINE
  5
2D1
330
1E
100
AcDbEntity
  8
0
100
AcDbLine
 10
68.1613
 20
21.68311499999979
 30
0.0
 11
68.6705
 21
21.6622149999998
 31
0.0
  0
LINE
  5
2D2
330
1E
100
AcDbEntity
  8
0
100
AcDbLine
 10
68.6705
 20
21.6622149999998
 30
0.0
 11
69.33499999999999
 21
22.0137149999998
 31
0.0
  0
LINE
  5
2D5
330
1E
100
AcDbEntity
  8
0
100
AcDbLine
 10
66.69830000000001
 20
18.59771499999979
 30
0.0
 11
67.0745
 21
18.50171499999979
 31
0.0
  0
LINE
  5
2D6
330
1E
100
AcDbEntity
  8
0
100
AcDbLine
 10
66.3745
 20
17.7224149999998
 30
0.0
 11
66.95
 21
18.1425149999998
 31
0.0
  0
LINE
  5
2DA
330
1E
100
AcDbEntity
  8
0
100
AcDbLine
 10
69.1881
 20
22.9039149999998
 30
0.0
 11
69.6973
 21
22.88291499999979
 31
0.0
  0
LINE
  5
2DB
330
1E
100
AcDbEntity
  8
0
100
AcDbLine
 10
68.5236
 20
22.5524149999998
 30
0.0
 11
69.1881
 21
22.9039149999998
 31
0.0
  0
LINE
  5
2DC
330
1E
100
AcDbEntity
  8
0
100
AcDbLine
 10
64.4548
 20
23.35501499999979
 30
0.0
 11
64.63639999999999
 21
22.9771149999998
 31
0.0
  0
LINE
  5
2DD
330
1E
100
AcDbEntity
  8
0
100
AcDbLine
 10
63.85699999999999
 20
23.3872149999998
 30
0.0
 11
64.4548
 21
23.35501499999979
 31
0.0
  0
LINE
  5
2DE
330
1E
100
AcDbEntity
  8
0
100
AcDbLine
 10
64.27199999999999
 20
22.46291499999979
 30
0.0
 11
64.63639999999999
 21
22.9771149999998
 31
0.0
  0
LINE
  5
2DF
330
1E
100
AcDbEntity
  8
0
100
AcDbLine
 10
69.29999999999999
 20
16.3424149999998
 30
0.0
 11
75.4
 21
21.3561149999998
 31
0.0
  0
LINE
  5
2E1
330
1E
100
AcDbEntity
  8
0
100
AcDbLine
 10
69.6973
 20
22.88291499999979
 30
0.0
 11
69.7676
 21
22.51921499999979
 31
0.0
  0
LINE
  5
2E2
330
1E
100
AcDbEntity
  8
0
100
AcDbLine
 10
69.33499999999999
 20
22.0137149999998
 30
0.0
 11
69.7676
 21
22.51921499999979
 31
0.0
  0
LINE
  5
2E3
330
1E
100
AcDbEntity
  8
0
100
AcDbLine
 10
69.8592
 20
26.1803149999998
 30
0.0
 11
70.4667
 21
26.6394149999998
 31
0.0
  0
LINE
  5
2E4
330
1E
100
AcDbEntity
  8
0
100
AcDbLine
 10
69.25159999999999
 20
26.1067149999998
 30
0.0
 11
69.8592
 21
26.1803149999998
 31
0.0
  0
LINE
  5
2E6
330
1E
100
AcDbEntity
  8
0
100
AcDbLine
 10
68.9912
 20
26.4425149999998
 30
0.0
 11
69.25159999999999
 21
27.0066149999998
 31
0.0
  0
LINE
  5
2E7
330
1E
100
AcDbEntity
  8
0
100
AcDbLine
 10
68.9912
 20
26.4425149999998
 30
0.0
 11
69.25159999999999
 21
26.1067149999998
 31
0.0
  0
LINE
  5
2E9
330
1E
100
AcDbEntity
  8
0
100
AcDbLine
 10
69.25159999999999
 20
27.0066149999998
 30
0.0
 11
69.8592
 21
27.4658149999998
 31
0.0
  0
LINE
  5
2EA
330
1E
100
AcDbEntity
  8
0
100
AcDbLine
 10
70.4667
 20
26.6394149999998
 30
0.0
 11
70.72709999999999
 21
27.2035149999998
 31
0.0
  0
LINE
  5
2EB
330
1E
100
AcDbEntity
  8
0
100
AcDbLine
 10
69.8592
 20
27.4658149999998
 30
0.0
 11
70.4667
 21
27.5393149999998
 31
0.0
  0
LINE
  5
2EC
330
1E
100
AcDbEntity
  8
0
100
AcDbLine
 10
70.4667
 20
27.5393149999998
 30
0.0
 11
70.72709999999999
 21
27.2035149999998
 31
0.0
  0
LINE
  5
2ED
330
1E
100
AcDbEntity
  8
0
100
AcDbLine
 10
64.4548
 20
26.6591149999998
 30
0.0
 11
64.63639999999999
 21
27.21951499999979
 31
0.0
  0
LINE
  5
2EE
330
1E
100
AcDbEntity
  8
0
100
AcDbLine
 10
63.85699999999999
 20
26.2011149999998
 30
0.0
 11
64.4548
 21
26.6591149999998
 31
0.0
  0
LINE
  5
2EF
330
1E
100
AcDbEntity
  8
0
100
AcDbLine
 10
63.596
 20
27.4756149999998
 30
0.0
 11
64.27199999999999
 21
27.5513149999998
 31
0.0
  0
LINE
  5
2F0
330
1E
100
AcDbEntity
  8
0
100
AcDbLine
 10
63.5
 20
64.5627149999998
 30
0.0
 11
72.2
 21
60.3203149999998
 31
0.0
  0
LINE
  5
2F2
330
1E
100
AcDbEntity
  8
0
100
AcDbLine
 10
68.5236
 20
30.5728149999998
 30
0.0
 11
69.1881
 21
30.7540149999998
 31
0.0
  0
LINE
  5
2F3
330
1E
100
AcDbEntity
  8
0
100
AcDbLine
 10
68.09090000000001
 20
30.8500149999998
 30
0.0
 11
68.1613
 21
31.44211499999979
 31
0.0
  0
LINE
  5
2F4
330
1E
100
AcDbEntity
  8
0
100
AcDbLine
 10
68.09090000000001
 20
30.8500149999998
 30
0.0
 11
68.5236
 21
30.5728149999998
 31
0.0
  0
LINE
  5
2F5
330
1E
100
AcDbEntity
  8
0
100
AcDbLine
 10
68.1613
 20
31.44211499999979
 30
0.0
 11
68.6705
 21
31.99571499999979
 31
0.0
  0
LINE
  5
2F8
330
1E
100
AcDbEntity
  8
0
100
AcDbLine
 10
69.6973
 20
31.3077149999998
 30
0.0
 11
69.7676
 21
31.89971499999979
 31
0.0
  0
LINE
  5
2F9
330
1E
100
AcDbEntity
  8
0
100
AcDbLine
 10
69.1881
 20
30.7540149999998
 30
0.0
 11
69.6973
 21
31.3077149999998
 31
0.0
  0
LINE
  5
2FA
330
1E
100
AcDbEntity
  8
0
100
AcDbLine
 10
68.6705
 20
31.99571499999979
 30
0.0
 11
69.33499999999999
 21
32.1769149999998
 31
0.0
  0
LINE
  5
2FC
330
1E
100
AcDbEntity
  8
0
100
AcDbLine
 10
65.4467
 20
34.9575149999998
 30
0.0
 11
66.02219999999999
 21
34.76561499999979
 31
0.0
  0
LINE
  5
2FD
330
1E
100
AcDbEntity
  8
0
100
AcDbLine
 10
65.32219999999999
 20
35.54501499999979
 30
0.0
 11
65.6983
 21
36.17361499999979
 31
0.0
  0
LINE
  5
2FE
330
1E
100
AcDbEntity
  8
0
100
AcDbLine
 10
65.32219999999999
 20
35.54501499999979
 30
0.0
 11
65.4467
 21
34.9575149999998
 31
0.0
  0
LINE
  5
2FF
330
1E
100
AcDbEntity
  8
0
100
AcDbLine
 10
66.95
 20
36.27641499999979
 30
0.0
 11
67.0745
 21
35.68891499999979
 31
0.0
  0
LINE
  5
300
330
1E
100
AcDbEntity
  8
0
100
AcDbLine
 10
66.69830000000001
 20
35.0602149999998
 30
0.0
 11
67.0745
 21
35.68891499999979
 31
0.0
  0
LINE
  5
301
330
1E
100
AcDbEntity
  8
0
100
AcDbLine
 10
66.02219999999999
 20
34.76561499999979
 30
0.0
 11
66.69830000000001
 21
35.0602149999998
 31
0.0
  0
LINE
  5
302
330
1E
100
AcDbEntity
  8
0
100
AcDbLine
 10
65.6983
 20
36.17361499999979
 30
0.0
 11
66.3745
 21
36.46821499999979
 31
0.0
  0
LINE
  5
303
330
1E
100
AcDbEntity
  8
0
100
AcDbLine
 10
68.3
 20
49.3870149999998
 30
0.0
 11
74.2
 21
44.5018149999998
 31
0.0
  0
LINE
  5
304
330
1E
100
AcDbEntity
  8
0
100
AcDbLine
 10
68.59999999999999
 20
49.5798149999998
 30
0.0
 11
74.5
 21
44.6304149999998
 31
0.0
  0
LINE
  5
306
330
1E
100
AcDbEntity
  8
0
100
AcDbLine
 10
66.3745
 20
36.46821499999979
 30
0.0
 11
66.95
 21
36.27641499999979
 31
0.0
  0
LINE
  5
307
330
1E
100
AcDbEntity
  8
0
100
AcDbLine
 10
72.2
 20
60.3203149999998
 30
0.0
 11
78.79999999999999
 21
54.7281149999998
 31
0.0
  0
LINE
  5
309
330
1E
100
AcDbEntity
  8
0
100
AcDbLine
 10
69.33499999999999
 20
32.1769149999998
 30
0.0
 11
69.7676
 21
31.89971499999979
 31
0.0
  0
LINE
  5
30B
330
1E
100
AcDbEntity
  8
0
100
AcDbLine
 10
64.27199999999999
 20
27.5513149999998
 30
0.0
 11
64.63639999999999
 21
27.21951499999979
 31
0.0
  0
LINE
  5
30C
330
1E
100
AcDbEntity
  8
0
100
AcDbLine
 10
63.1
 20
64.6886149999998
 30
0.0
 11
63.18500755661371
 21
64.64716355661799
 31
0.0
  0
LINE
  5
30D
330
1E
100
AcDbEntity
  8
0
100
AcDbLine
 10
63.1
 20
64.6886149999998
 30
0.0
 11
63.5
 21
64.5627149999998
 31
0.0
  0
LINE
  5
30E
330
1E
100
AcDbEntity
  8
0
100
AcDbLine
 10
63.6
 20
65.6502149999998
 30
0.0
 11
72.5
 21
61.2792149999998
 31
0.0
  0
LINE
  5
30F
330
1E
100
AcDbEntity
  8
0
100
AcDbLine
 10
72.5
 20
61.2792149999998
 30
0.0
 11
79.29999999999999
 21
55.5584149999998
 31
0.0
  0
LINE
  5
310
330
1E
100
AcDbEntity
  8
0
100
AcDbLine
 10
74.1
 20
20.8622149999998
 30
0.0
 11
77.7
 21
26.4544149999998
 31
0.0
  0
LINE
  5
311
330
1E
100
AcDbEntity
  8
0
100
AcDbLine
 10
74.5
 20
20.9758149999998
 30
0.0
 11
78.2
 21
26.6966149999998
 31
0.0
  0
LINE
  5
312
330
1E
100
AcDbEntity
  8
0
100
AcDbLine
 10
75.4
 20
21.3561149999998
 30
0.0
 11
77.59999999999999
 21
23.3945149999998
 31
0.0
  0
LINE
  5
313
330
1E
100
AcDbEntity
  8
0
100
AcDbLine
 10
77.7
 20
26.4544149999998
 30
0.0
 11
78.82610307503892
 21
33.67871499999969
 31
0.0
  0
LINE
  5
314
330
1E
100
AcDbEntity
  8
0
100
AcDbLine
 10
77.59999999999999
 20
23.3945149999998
 30
0.0
 11
81.5
 21
29.5653149999998
 31
0.0
  0
LINE
  5
316
330
1E
100
AcDbEntity
  8
0
100
AcDbLine
 10
74.2
 20
44.5018149999998
 30
0.0
 11
77.8
 21
38.84531499999979
 31
0.0
  0
LINE
  5
317
330
1E
100
AcDbEntity
  8
0
100
AcDbLine
 10
78.2
 20
26.6966149999998
 30
0.0
 11
79.5
 21
32.8031149999998
 31
0.0
  0
LINE
  5
318
330
1E
100
AcDbEntity
  8
0
100
AcDbLine
 10
77.8
 20
38.84531499999979
 30
0.0
 11
78.82610307503892
 21
33.67871499999969
 31
0.0
  0
LINE
  5
319
330
1E
100
AcDbEntity
  8
0
100
AcDbLine
 10
74.5
 20
44.6304149999998
 30
0.0
 11
78.2
 21
38.90951499999979
 31
0.0
  0
LINE
  5
31A
330
1E
100
AcDbEntity
  8
0
100
AcDbLine
 10
78.2
 20
38.90951499999979
 30
0.0
 11
79.5
 21
32.8031149999998
 31
0.0
  0
LINE
  5
31B
330
1E
100
AcDbEntity
  8
0
100
AcDbLine
 10
78.79999999999999
 20
54.7281149999998
 30
0.0
 11
83.0
 21
48.1717149999998
 31
0.0
  0
LINE
  5
31C
330
1E
100
AcDbEntity
  8
0
100
AcDbLine
 10
72.5
 20
65.10941499999979
 30
0.0
 11
79.29999999999999
 21
59.3886149999998
 31
0.0
  0
LINE
  5
31D
330
1E
100
AcDbEntity
  8
0
100
AcDbLine
 10
72.2
 20
65.29961499999981
 30
0.0
 11
72.5
 21
65.10941499999979
 31
0.0
  0
LINE
  5
31F
330
1E
100
AcDbEntity
  8
0
100
AcDbLine
 10
63.5
 20
69.54201499999979
 30
0.0
 11
72.2
 21
65.29961499999981
 31
0.0
  0
LINE
  5
320
330
1E
100
AcDbEntity
  8
0
100
AcDbLine
 10
72.5
 20
65.87551499999979
 30
0.0
 11
79.29999999999999
 21
60.15471499999979
 31
0.0
  0
LINE
  5
321
330
1E
100
AcDbEntity
  8
0
100
AcDbLine
 10
81.5
 20
29.5653149999998
 30
0.0
 11
82.5
 21
31.2875149999998
 31
0.0
  0
LINE
  5
322
330
1E
100
AcDbEntity
  8
0
100
AcDbLine
 10
82.5
 20
31.2875149999998
 30
0.0
 11
84.0
 21
38.1654149999998
 31
0.0
  0
LINE
  5
323
330
1E
100
AcDbEntity
  8
0
100
AcDbLine
 10
83.0
 20
48.1717149999998
 30
0.0
 11
84.50000000000001
 21
41.22951499999979
 31
0.0
  0
LINE
  5
324
330
1E
100
AcDbEntity
  8
0
100
AcDbLine
 10
83.20783641900471
 20
34.5331337375146
 30
0.0
 11
83.49999999999999
 21
34.9892149999998
 31
0.0
  0
LINE
  5
325
330
1E
100
AcDbEntity
  8
0
100
AcDbLine
 10
83.49999999999999
 20
34.9892149999998
 30
0.0
 11
85.0
 21
41.99561499999979
 31
0.0
  0
LINE
  5
326
330
1E
100
AcDbEntity
  8
0
100
AcDbLine
 10
83.49999999999999
 20
49.0020149999998
 30
0.0
 11
85.0
 21
41.99561499999979
 31
0.0
  0
LINE
  5
327
330
1E
100
AcDbEntity
  8
0
100
AcDbLine
 10
84.0
 20
38.1654149999998
 30
0.0
 11
84.50000000000001
 21
41.22951499999979
 31
0.0
  0
LINE
  5
328
330
1E
100
AcDbEntity
  8
0
100
AcDbLine
 10
83.49999999999999
 20
52.8322149999998
 30
0.0
 11
85.0
 21
45.8258149999998
 31
0.0
  0
LINE
  5
329
330
1E
100
AcDbEntity
  8
0
100
AcDbLine
 10
79.29999999999999
 20
55.5584149999998
 30
0.0
 11
83.49999999999999
 21
49.0020149999998
 31
0.0
  0
LINE
  5
32A
330
1E
100
AcDbEntity
  8
0
100
AcDbLine
 10
83.49999999999999
 20
53.5982149999998
 30
0.0
 11
85.0
 21
46.59191499999979
 31
0.0
  0
LINE
  5
32B
330
1E
100
AcDbEntity
  8
0
100
AcDbLine
 10
85.0
 20
45.8258149999998
 30
0.0
 11
85.0
 21
41.99561499999979
 31
0.0
  0
LINE
  5
32C
330
1E
100
AcDbEntity
  8
0
100
AcDbLine
 10
84.9179928351222
 20
46.20886499999979
 30
0.0
 11
85.0
 21
46.59191499999979
 31
0.0
  0
LINE
  5
32D
330
1E
100
AcDbEntity
  8
0
100
AcDbLine
 10
85.0
 20
41.99561499999979
 30
0.0
 11
85.0
 21
45.8258149999998
 31
0.0
  0
LINE
  5
32E
330
1E
100
AcDbEntity
  8
0
100
AcDbLine
 10
84.50000000000001
 20
50.8051149999998
 30
0.0
 11
85.0
 21
46.59191499999979
 31
0.0
  0
LINE
  5
32F
330
1E
100
AcDbEntity
  8
0
100
AcDbLine
 10
79.29999999999999
 20
59.3886149999998
 30
0.0
 11
83.49999999999999
 21
52.8322149999998
 31
0.0
  0
LINE
  5
330
330
1E
100
AcDbEntity
  8
0
100
AcDbLine
 10
79.29999999999999
 20
60.15471499999979
 30
0.0
 11
83.49999999999999
 21
53.5982149999998
 31
0.0
  0
LINE
  5
331
330
1E
100
AcDbEntity
  8
0
100
AcDbLine
 10
81.5
 20
61.7033149999998
 30
0.0
 11
83.0
 21
57.7472149999998
 31
0.0
  0
LINE
  5
332
330
1E
100
AcDbEntity
  8
0
100
AcDbLine
 10
83.0
 20
57.7472149999998
 30
0.0
 11
84.50000000000001
 21
50.8051149999998
 31
0.0
  0
LINE
  5
333
330
1E
100
AcDbEntity
  8
0
100
AcDbLine
 10
79.1
 20
65.9139149999998
 30
0.0
 11
81.5
 21
61.7033149999998
 31
0.0
  0
LINE
  5
334
330
1E
100
AcDbEntity
  8
0
100
AcDbLine
 10
71.79999999999999
 20
75.1383149999998
 30
0.0
 11
75.4
 21
71.8276149999998
 31
0.0
  0
LINE
  5
335
330
1E
100
AcDbEntity
  8
0
100
AcDbLine
 10
75.4
 20
71.8276149999998
 30
0.0
 11
79.1
 21
65.9139149999998
 31
0.0
  0
LINE
  5
336
330
1E
100
AcDbEntity
  8
0
100
AcDbLine
 10
66.5
 20
79.6378149999998
 30
0.0
 11
71.79999999999999
 21
75.1383149999998
 31
0.0
  0
LINE
  5
337
330
1E
100
AcDbEntity
  8
0
100
AcDbLine
 10
63.6
 20
70.24641499999979
 30
0.0
 11
72.5
 21
65.87551499999979
 31
0.0
  0
LINE
  5
338
330
1E
100
AcDbEntity
  8
0
100
AcDbLine
 10
59.5
 20
83.04461499999979
 30
0.0
 11
66.5
 21
79.6378149999998
 31
0.0
  0
LINE
  5
339
330
1E
100
AcDbEntity
  8
0
100
AcDbLine
 10
54.0
 20
85.00528456521719
 30
0.0
 11
54.0
 21
87.57521499999979
 31
0.0
  0
LINE
  5
33A
330
1E
100
AcDbEntity
  8
0
100
AcDbLine
 10
56.7
 20
84.30101499999979
 30
0.0
 11
59.5
 21
83.04461499999979
 31
0.0
  0
LINE
  5
33B
330
1E
100
AcDbEntity
  8
0
100
AcDbLine
 10
49.8
 20
86.10081499999978
 30
0.0
 11
56.7
 21
84.30101499999979
 31
0.0
  0
LINE
  5
33C
330
1E
100
AcDbEntity
  8
0
100
AcDbLine
 10
54.0
 20
87.57521499999979
 30
0.0
 11
54.0
 21
85.00528456521719
 31
0.0
  0
LINE
  5
33D
330
1E
100
AcDbEntity
  8
0
100
AcDbLine
 10
53.6
 20
89.50361499999978
 30
0.0
 11
54.0
 21
87.57521499999979
 31
0.0
  0
LINE
  5
33E
330
1E
100
AcDbEntity
  8
0
100
AcDbLine
 10
42.5
 20
86.7436149999998
 30
0.0
 11
49.8
 21
86.10081499999978
 31
0.0
  0
LINE
  5
33F
330
1E
100
AcDbEntity
  8
0
100
AcDbLine
 10
35.2
 20
86.10081499999978
 30
0.0
 11
42.5
 21
86.7436149999998
 31
0.0
  0
LINE
  5
340
330
1E
100
AcDbEntity
  8
0
100
AcDbLine
 10
31.8581321499679
 20
90.22642258751742
 30
0.0
 11
31.896
 21
90.39951499999979
 31
0.0
  0
LINE
  5
355
330
1E
100
AcDbEntity
  8
0
100
AcDbLine
 10
32.5
 20
91.23911499999978
 30
0.0
 11
34.39999999999999
 21
92.78181499999979
 31
0.0
  0
LINE
  5
35B
330
1E
100
AcDbEntity
  8
0
100
AcDbLine
 10
36.79999999999999
 20
94.00311499999979
 30
0.0
 11
39.5
 21
94.71021499999979
 31
0.0
  0
LINE
  5
35D
330
1E
100
AcDbEntity
  8
0
100
AcDbLine
 10
39.5
 20
94.71021499999979
 30
0.0
 11
42.5
 21
94.96731499999979
 31
0.0
  0
LINE
  5
35F
330
1E
100
AcDbEntity
  8
0
100
AcDbLine
 10
48.2
 20
94.00311499999979
 30
0.0
 11
50.6
 21
92.78181499999979
 31
0.0
  0
LINE
  5
361
330
1E
100
AcDbEntity
  8
0
100
AcDbLine
 10
45.49999999999999
 20
94.71021499999979
 30
0.0
 11
48.2
 21
94.00311499999979
 31
0.0
  0
LINE
  5
364
330
1E
100
AcDbEntity
  8
0
100
AcDbLine
 10
50.6
 20
92.78181499999979
 30
0.0
 11
52.5
 21
91.23911499999978
 31
0.0
  0
LINE
  5
367
330
1E
100
AcDbEntity
  8
0
100
AcDbLine
 10
52.5
 20
91.23911499999978
 30
0.0
 11
53.6
 21
89.50361499999978
 31
0.0
  0
LINE
  5
379
330
1E
100
AcDbEntity
  8
0
100
AcDbLine
 10
42.5
 20
94.96731499999979
 30
0.0
 11
45.49999999999999
 21
94.71021499999979
 31
0.0
  0
LINE
  5
39E
330
1E
100
AcDbEntity
  8
0
100
AcDbLine
 10
34.39999999999999
 20
92.78181499999979
 30
0.0
 11
36.79999999999999
 21
94.00311499999979
 31
0.0
  0
LINE
  5
39F
330
1E
100
AcDbEntity
  8
0
100
AcDbLine
 10
31.4
 20
89.50361499999978
 30
0.0
 11
32.5
 21
91.23911499999978
 31
0.0
  0
LINE
  5
3A0
330
1E
100
AcDbEntity
  8
0
100
AcDbLine
 10
31.0
 20
87.57521499999979
 30
0.0
 11
31.4
 21
89.50361499999978
 31
0.0
  0
LINE
  5
3A1
330
1E
100
AcDbEntity
  8
0
100
AcDbLine
 10
31.0
 20
87.57521499999979
 30
0.0
 11
31.0
 21
85.00528456521719
 31
0.0
  0
ENDSEC
  0
SECTION
  2
OBJECTS
  0
DICTIONARY
  5
C
330
0
100
AcDbDictionary
  3
ACAD_GROUP
350
D
  3
ACAD_LAYOUT
350
19
  3
ACAD_MLINESTYLE
350
16
  3
ACAD_PLOTSETTINGS
350
18
  3
ACAD_PLOTSTYLENAME
350
E
  3
ACDBHEADERROUNDTRIPXREC
350
3F3
  3
ACDBVARIABLEDICTIONARY
350
3A6
  0
DICTIONARY
  5
415
330
1E
100
AcDbDictionary
280
     1
  3
ACAD_LAYOUTSELFREF
360
416
  0
DICTIONARY
  5
413
330
1A
100
AcDbDictionary
280
     1
  3
ACAD_LAYOUTSELFREF
360
414
  0
DICTIONARY
  5
D
102
{ACAD_REACTORS
330
C
102
}
330
C
100
AcDbDictionary
  0
DICTIONARY
  5
19
102
{ACAD_REACTORS
330
C
102
}
330
C
100
AcDbDictionary
  0
DICTIONARY
  5
16
102
{ACAD_REACTORS
330
C
102
}
330
C
100
AcDbDictionary
  3
STANDARD
350
17
  0
DICTIONARY
  5
18
102
{ACAD_REACTORS
330
C
102
}
330
C
100
AcDbDictionary
  0
ACDBDICTIONARYWDFLT
  5
E
102
{ACAD_REACTORS
330
C
102
}
330
C
100
AcDbDictionary
281
     1
  3
Normal
350
F
100
AcDbDictionaryWithDefault
340
F
  0
DICTIONARY
  5
3F3
102
{ACAD_REACTORS
330
C
102
}
330
C
100
AcDbDictionary
  3
CEPSNTYPE
350
3FD
  3
FINGERPRINTGUID
350
3FE
  3
HYPERLINKBASE
350
3F6
  3
INSUNITS
350
3FC
  3
LAYOUTDICT
350
3F8
  3
LWETCUNION
350
3FB
  3
PLOTSETDICT
350
3F9
  3
PLOTSTYLNAMDICT
350
3FA
  3
PSVPSCALE
350
400
  3
PUCSBASE
350
403
  3
PUCSORGBACK
350
409
  3
PUCSORGBOTTOM
350
405
  3
PUCSORGFRONT
350
408
  3
PUCSORGLEFT
350
406
  3
PUCSORGRIGHT
350
407
  3
PUCSORGTOP
350
404
  3
PUCSORTHOREF
350
401
  3
PUCSORTHOVIEW
350
402
  3
STYLESHEET
350
3F7
  3
TSTACKALIGN
350
3F4
  3
TSTACKSIZE
350
3F5
  3
UCSBASE
350
40C
  3
UCSORGBACK
350
412
  3
UCSORGBOTTOM
350
40E
  3
UCSORGFRONT
350
411
  3
UCSORGLEFT
350
40F
  3
UCSORGRIGHT
350
410
  3
UCSORGTOP
350
40D
  3
UCSORTHOREF
350
40A
  3
UCSORTHOVIEW
350
40B
  3
VERSIONGUID
350
3FF
  0
DICTIONARY
  5
3A6
102
{ACAD_REACTORS
330
C
102
}
330
C
100
AcDbDictionary
  3
DIMASSOC
350
3A7
  0
XRECORD
  5
416
102
{ACAD_REACTORS
330
415
102
}
330
415
100
AcDbXrecord
340
1E
  0
XRECORD
  5
414
102
{ACAD_REACTORS
330
413
102
}
330
413
100
AcDbXrecord
340
1A
  0
MLINESTYLE
  5
17
102
{ACAD_REACTORS
330
16
102
}
330
16
100
AcDbMlineStyle
  2
STANDARD
 70
     0
  3

 62
   256
 51
90.0
 52
90.0
 71
     2
 49
0.5
 62
   256
  6
BYLAYER
 49
-0.5
 62
   256
  6
BYLAYER
  0
ACDBPLACEHOLDER
  5
F
102
{ACAD_REACTORS
330
E
102
}
330
E
100
AcDbPlaceHolder
280
     0
  0
XRECORD
  5
3FD
102
{ACAD_REACTORS
330
3F3
102
}
330
3F3
100
AcDbXrecord
 90
        0
  0
XRECORD
  5
3FE
102
{ACAD_REACTORS
330
3F3
102
}
330
3F3
100
AcDbXrecord
  1
{B8F883AB-C59F-4C54-809B-DB195DC9429D}
  0
XRECORD
  5
3F6
102
{ACAD_REACTORS
330
3F3
102
}
330
3F3
100
AcDbXrecord
  1

  0
XRECORD
  5
3FC
102
{ACAD_REACTORS
330
3F3
102
}
330
3F3
100
AcDbXrecord
 90
        0
  0
XRECORD
  5
3F8
102
{ACAD_REACTORS
330
3F3
102
}
330
3F3
100
AcDbXrecord
340
19
  0
XRECORD
  5
3FB
102
{ACAD_REACTORS
330
3F3
102
}
330
3F3
100
AcDbXrecord
 90
    10781
  0
XRECORD
  5
3F9
102
{ACAD_REACTORS
330
3F3
102
}
330
3F3
100
AcDbXrecord
340
18
  0
XRECORD
  5
3FA
102
{ACAD_REACTORS
330
3F3
102
}
330
3F3
100
AcDbXrecord
340
E
  0
XRECORD
  5
400
102
{ACAD_REACTORS
330
3F3
102
}
330
3F3
100
AcDbXrecord
 40
0.0
  0
XRECORD
  5
403
102
{ACAD_REACTORS
330
3F3
102
}
330
3F3
100
AcDbXrecord
340
0
  0
XRECORD
  5
409
102
{ACAD_REACTORS
330
3F3
102
}
330
3F3
100
AcDbXrecord
 10
0.0
 20
0.0
 30
0.0
  0
XRECORD
  5
405
102
{ACAD_REACTORS
330
3F3
102
}
330
3F3
100
AcDbXrecord
 10
0.0
 20
0.0
 30
0.0
  0
XRECORD
  5
408
102
{ACAD_REACTORS
330
3F3
102
}
330
3F3
100
AcDbXrecord
 10
0.0
 20
0.0
 30
0.0
  0
XRECORD
  5
406
102
{ACAD_REACTORS
330
3F3
102
}
330
3F3
100
AcDbXrecord
 10
0.0
 20
0.0
 30
0.0
  0
XRECORD
  5
407
102
{ACAD_REACTORS
330
3F3
102
}
330
3F3
100
AcDbXrecord
 10
0.0
 20
0.0
 30
0.0
  0
XRECORD
  5
404
102
{ACAD_REACTORS
330
3F3
102
}
330
3F3
100
AcDbXrecord
 10
0.0
 20
0.0
 30
0.0
  0
XRECORD
  5
401
102
{ACAD_REACTORS
330
3F3
102
}
330
3F3
100
AcDbXrecord
340
0
  0
XRECORD
  5
402
102
{ACAD_REACTORS
330
3F3
102
}
330
3F3
100
AcDbXrecord
 70
     0
  0
XRECORD
  5
3F7
102
{ACAD_REACTORS
330
3F3
102
}
330
3F3
100
AcDbXrecord
  1

  0
XRECORD
  5
3F4
102
{ACAD_REACTORS
330
3F3
102
}
330
3F3
100
AcDbXrecord
 90
        1
  0
XRECORD
  5
3F5
102
{ACAD_REACTORS
330
3F3
102
}
330
3F3
100
AcDbXrecord
 90
       70
  0
XRECORD
  5
40C
102
{ACAD_REACTORS
330
3F3
102
}
330
3F3
100
AcDbXrecord
340
0
  0
XRECORD
  5
412
102
{ACAD_REACTORS
330
3F3
102
}
330
3F3
100
AcDbXrecord
 10
0.0
 20
0.0
 30
0.0
  0
XRECORD
  5
40E
102
{ACAD_REACTORS
330
3F3
102
}
330
3F3
100
AcDbXrecord
 10
0.0
 20
0.0
 30
0.0
  0
XRECORD
  5
411
102
{ACAD_REACTORS
330
3F3
102
}
330
3F3
100
AcDbXrecord
 10
0.0
 20
0.0
 30
0.0
  0
XRECORD
  5
40F
102
{ACAD_REACTORS
330
3F3
102
}
330
3F3
100
AcDbXrecord
 10
0.0
 20
0.0
 30
0.0
  0
XRECORD
  5
410
102
{ACAD_REACTORS
330
3F3
102
}
330
3F3
100
AcDbXrecord
 10
0.0
 20
0.0
 30
0.0
  0
XRECORD
  5
40D
102
{ACAD_REACTORS
330
3F3
102
}
330
3F3
100
AcDbXrecord
 10
0.0
 20
0.0
 30
0.0
  0
XRECORD
  5
40A
102
{ACAD_REACTORS
330
3F3
102
}
330
3F3
100
AcDbXrecord
340
0
  0
XRECORD
  5
40B
102
{ACAD_REACTORS
330
3F3
102
}
330
3F3
100
AcDbXrecord
 70
     1
  0
XRECORD
  5
3FF
102
{ACAD_REACTORS
330
3F3
102
}
330
3F3
100
AcDbXrecord
  1
{92AF0D5A-CD5D-4F6B-9A92-2D0F06A15768}
  0
DICTIONARYVAR
  5
3A7
102
{ACAD_REACTORS
330
3A6
102
}
330
3A6
100
DictionaryVariables
280
     0
  1
1
  0
ENDSEC
  0
EOF
