  0
SECTION
  2
HEADER
  9
$ACADVER
  1
AC1015
  9
$ACADMAINTVER
 70
    13
  9
$DWGCODEPAGE
  3
ANSI_1252
  9
$INSBASE
 10
0.0
 20
0.0
 30
0.0
  9
$EXTMIN
 10
0.176764999999997
 20
0.0410249999999782
 30
0.0
  9
$EXTMAX
 10
124.823235
 20
245.958975
 30
0.0
  9
$LIMMIN
 10
0.0
 20
0.0
  9
$LIMMAX
 10
12.0
 20
9.0
  9
$ORTHOMODE
 70
     0
  9
$REGENMODE
 70
     1
  9
$FILLMODE
 70
     1
  9
$QTEXTMODE
 70
     0
  9
$MIRRTEXT
 70
     1
  9
$LTSCALE
 40
1.0
  9
$ATTMODE
 70
     1
  9
$TEXTSIZE
 40
0.2
  9
$TRACEWID
 40
0.05
  9
$TEXTSTYLE
  7
Standard
  9
$CLAYER
  8
0
  9
$CELTYPE
  6
Continuous
  9
$CECOLOR
 62
   256
  9
$CELTSCALE
 40
1.0
  9
$DISPSILH
 70
     0
  9
$DIMSCALE
 40
1.0
  9
$DIMASZ
 40
0.18
  9
$DIMEXO
 40
0.0625
  9
$DIMDLI
 40
0.38
  9
$DIMRND
 40
0.0
  9
$DIMDLE
 40
0.0
  9
$DIMEXE
 40
0.18
  9
$DIMTP
 40
0.0
  9
$DIMTM
 40
0.0
  9
$DIMTXT
 40
0.18
  9
$DIMCEN
 40
0.09
  9
$DIMTSZ
 40
0.0
  9
$DIMTOL
 70
     0
  9
$DIMLIM
 70
     0
  9
$DIMTIH
 70
     1
  9
$DIMTOH
 70
     1
  9
$DIMSE1
 70
     0
  9
$DIMSE2
 70
     0
  9
$DIMTAD
 70
     0
  9
$DIMZIN
 70
     0
  9
$DIMBLK
  1

  9
$DIMASO
 70
     1
  9
$DIMSHO
 70
     1
  9
$DIMPOST
  1

  9
$DIMAPOST
  1

  9
$DIMALT
 70
     0
  9
$DIMALTD
 70
     2
  9
$DIMALTF
 40
25.4
  9
$DIMLFAC
 40
1.0
  9
$DIMTOFL
 70
     0
  9
$DIMTVP
 40
0.0
  9
$DIMTIX
 70
     0
  9
$DIMSOXD
 70
     0
  9
$DIMSAH
 70
     0
  9
$DIMBLK1
  1

  9
$DIMBLK2
  1

  9
$DIMSTYLE
  2
Standard
  9
$DIMCLRD
 70
     0
  9
$DIMCLRE
 70
     0
  9
$DIMCLRT
 70
     0
  9
$DIMTFAC
 40
1.0
  9
$DIMGAP
 40
0.09
  9
$DIMJUST
 70
     0
  9
$DIMSD1
 70
     0
  9
$DIMSD2
 70
     0
  9
$DIMTOLJ
 70
     1
  9
$DIMTZIN
 70
     0
  9
$DIMALTZ
 70
     0
  9
$DIMALTTZ
 70
     0
  9
$DIMUPT
 70
     0
  9
$DIMDEC
 70
     4
  9
$DIMTDEC
 70
     4
  9
$DIMALTU
 70
     2
  9
$DIMALTTD
 70
     2
  9
$DIMTXSTY
  7
Standard
  9
$DIMAUNIT
 70
     0
  9
$DIMADEC
 70
     0
  9
$DIMALTRND
 40
0.0
  9
$DIMAZIN
 70
     0
  9
$DIMDSEP
 70
    46
  9
$DIMATFIT
 70
     3
  9
$DIMFRAC
 70
     0
  9
$DIMLDRBLK
  1

  9
$DIMLUNIT
 70
     2
  9
$DIMLWD
 70
    -2
  9
$DIMLWE
 70
    -2
  9
$DIMTMOVE
 70
     0
  9
$LUNITS
 70
     2
  9
$LUPREC
 70
     4
  9
$SKETCHINC
 40
0.1
  9
$FILLETRAD
 40
0.0
  9
$AUNITS
 70
     0
  9
$AUPREC
 70
     0
  9
$MENU
  1
.
  9
$ELEVATION
 40
0.0
  9
$PELEVATION
 40
0.0
  9
$THICKNESS
 40
0.0
  9
$LIMCHECK
 70
     0
  9
$CHAMFERA
 40
0.0
  9
$CHAMFERB
 40
0.0
  9
$CHAMFERC
 40
0.0
  9
$CHAMFERD
 40
0.0
  9
$SKPOLY
 70
     0
  9
$TDCREATE
 40
2454761.862600185
  9
$TDUCREATE
 40
2454761.779266852
  9
$TDUPDATE
 40
2454761.863143438
  9
$TDUUPDATE
 40
2454761.779810104
  9
$TDINDWG
 40
0.0005434375
  9
$TDUSRTIMER
 40
0.0005434375
  9
$USRTIMER
 70
     1
  9
$ANGBASE
 50
0.0
  9
$ANGDIR
 70
     0
  9
$PDMODE
 70
     0
  9
$PDSIZE
 40
0.0
  9
$PLINEWID
 40
0.0
  9
$SPLFRAME
 70
     0
  9
$SPLINETYPE
 70
     6
  9
$SPLINESEGS
 70
     8
  9
$HANDSEED
  5
1B7
  9
$SURFTAB1
 70
     6
  9
$SURFTAB2
 70
     6
  9
$SURFTYPE
 70
     6
  9
$SURFU
 70
     6
  9
$SURFV
 70
     6
  9
$UCSBASE
  2

  9
$UCSNAME
  2

  9
$UCSORG
 10
0.0
 20
0.0
 30
0.0
  9
$UCSXDIR
 10
1.0
 20
0.0
 30
0.0
  9
$UCSYDIR
 10
0.0
 20
1.0
 30
0.0
  9
$UCSORTHOREF
  2

  9
$UCSORTHOVIEW
 70
     1
  9
$UCSORGTOP
 10
0.0
 20
0.0
 30
0.0
  9
$UCSORGBOTTOM
 10
0.0
 20
0.0
 30
0.0
  9
$UCSORGLEFT
 10
0.0
 20
0.0
 30
0.0
  9
$UCSORGRIGHT
 10
0.0
 20
0.0
 30
0.0
  9
$UCSORGFRONT
 10
0.0
 20
0.0
 30
0.0
  9
$UCSORGBACK
 10
0.0
 20
0.0
 30
0.0
  9
$PUCSBASE
  2

  9
$PUCSNAME
  2

  9
$PUCSORG
 10
0.0
 20
0.0
 30
0.0
  9
$PUCSXDIR
 10
1.0
 20
0.0
 30
0.0
  9
$PUCSYDIR
 10
0.0
 20
1.0
 30
0.0
  9
$PUCSORTHOREF
  2

  9
$PUCSORTHOVIEW
 70
     0
  9
$PUCSORGTOP
 10
0.0
 20
0.0
 30
0.0
  9
$PUCSORGBOTTOM
 10
0.0
 20
0.0
 30
0.0
  9
$PUCSORGLEFT
 10
0.0
 20
0.0
 30
0.0
  9
$PUCSORGRIGHT
 10
0.0
 20
0.0
 30
0.0
  9
$PUCSORGFRONT
 10
0.0
 20
0.0
 30
0.0
  9
$PUCSORGBACK
 10
0.0
 20
0.0
 30
0.0
  9
$USERI1
 70
     0
  9
$USERI2
 70
     0
  9
$USERI3
 70
     0
  9
$USERI4
 70
     0
  9
$USERI5
 70
     0
  9
$USERR1
 40
0.0
  9
$USERR2
 40
0.0
  9
$USERR3
 40
0.0
  9
$USERR4
 40
0.0
  9
$USERR5
 40
0.0
  9
$WORLDVIEW
 70
     1
  9
$SHADEDGE
 70
     3
  9
$SHADEDIF
 70
    70
  9
$TILEMODE
 70
     1
  9
$MAXACTVP
 70
    64
  9
$PINSBASE
 10
0.0
 20
0.0
 30
0.0
  9
$PLIMCHECK
 70
     0
  9
$PEXTMIN
 10
1.000000000000000E+20
 20
1.000000000000000E+20
 30
1.000000000000000E+20
  9
$PEXTMAX
 10
-1.000000000000000E+20
 20
-1.000000000000000E+20
 30
-1.000000000000000E+20
  9
$PLIMMIN
 10
0.0
 20
0.0
  9
$PLIMMAX
 10
12.0
 20
9.0
  9
$UNITMODE
 70
     0
  9
$VISRETAIN
 70
     1
  9
$PLINEGEN
 70
     0
  9
$PSLTSCALE
 70
     1
  9
$TREEDEPTH
 70
  3020
  9
$CMLSTYLE
  2
Standard
  9
$CMLJUST
 70
     0
  9
$CMLSCALE
 40
1.0
  9
$PROXYGRAPHICS
 70
     1
  9
$MEASUREMENT
 70
     0
  9
$CELWEIGHT
370
    -1
  9
$ENDCAPS
280
     0
  9
$JOINSTYLE
280
     0
  9
$LWDISPLAY
290
     0
  9
$INSUNITS
 70
     0
  9
$HYPERLINKBASE
  1

  9
$STYLESHEET
  1

  9
$XEDIT
290
     1
  9
$CEPSNTYPE
380
     0
  9
$PSTYLEMODE
290
     1
  9
$FINGERPRINTGUID
  2
{5BCACE09-7CB5-43A6-B8ED-C65BDCBA938A}
  9
$VERSIONGUID
  2
{A4ED3EF7-FF21-4787-8362-95526D44CB47}
  9
$EXTNAMES
290
     1
  9
$PSVPSCALE
 40
0.0
  9
$OLESTARTUP
290
     0
  0
ENDSEC
  0
SECTION
  2
CLASSES
  0
CLASS
  1
ACDBDICTIONARYWDFLT
  2
AcDbDictionaryWithDefault
  3
AutoCAD 2000
 90
        0
280
     0
281
     0
  0
CLASS
  1
ACDBPLACEHOLDER
  2
AcDbPlaceHolder
  3
AutoCAD 2000
 90
        0
280
     0
281
     0
  0
CLASS
  1
LAYOUT
  2
AcDbLayout
  3
AutoCAD 2000
 90
        0
280
     0
281
     0
  0
CLASS
  1
DICTIONARYVAR
  2
AcDbDictionaryVar
  3
AutoCAD 2000
 90
        0
280
     0
281
     0
  0
ENDSEC
  0
SECTION
  2
TABLES
  0
TABLE
  2
VPORT
  5
8
330
0
100
AcDbSymbolTable
 70
     2
  0
VPORT
  5
1B6
330
8
100
AcDbSymbolTableRecord
100
AcDbViewportTableRecord
  2
*Active
 70
     0
 10
0.0
 20
0.0
 11
1.0
 21
1.0
 12
62.5
 22
122.9999999999999
 13
0.0
 23
0.0
 14
1.0
 24
1.0
 15
0.0
 25
0.0
 16
0.0
 26
0.0
 36
1.0
 17
0.0
 27
0.0
 37
0.0
 40
247.8047884910486
 41
2.078104993597951
 42
50.0
 43
0.0
 44
0.0
 50
0.0
 51
0.0
 71
     0
 72
   100
 73
     1
 74
     3
 75
     0
 76
     0
 77
     0
 78
     0
281
     0
 65
     1
110
0.0
120
0.0
130
0.0
111
1.0
121
0.0
131
0.0
112
0.0
122
1.0
132
0.0
 79
     1
146
0.0
  0
ENDTAB
  0
TABLE
  2
LTYPE
  5
5
330
0
100
AcDbSymbolTable
 70
     1
  0
LTYPE
  5
13
330
5
100
AcDbSymbolTableRecord
100
AcDbLinetypeTableRecord
  2
ByBlock
 70
     0
  3

 72
    65
 73
     0
 40
0.0
  0
LTYPE
  5
14
330
5
100
AcDbSymbolTableRecord
100
AcDbLinetypeTableRecord
  2
ByLayer
 70
     0
  3

 72
    65
 73
     0
 40
0.0
  0
LTYPE
  5
15
330
5
100
AcDbSymbolTableRecord
100
AcDbLinetypeTableRecord
  2
Continuous
 70
     0
  3
Solid line
 72
    65
 73
     0
 40
0.0
  0
ENDTAB
  0
TABLE
  2
LAYER
  5
2
330
0
100
AcDbSymbolTable
 70
     1
  0
LAYER
  5
10
330
2
100
AcDbSymbolTableRecord
100
AcDbLayerTableRecord
  2
0
 70
     0
 62
     7
  6
Continuous
370
    -3
390
F
  0
ENDTAB
  0
TABLE
  2
STYLE
  5
3
330
0
100
AcDbSymbolTable
 70
     1
  0
STYLE
  5
11
330
3
100
AcDbSymbolTableRecord
100
AcDbTextStyleTableRecord
  2
Standard
 70
     0
 40
0.0
 41
1.0
 50
0.0
 71
     0
 42
0.2
  3
txt
  4

  0
ENDTAB
  0
TABLE
  2
VIEW
  5
6
330
0
100
AcDbSymbolTable
 70
     0
  0
ENDTAB
  0
TABLE
  2
UCS
  5
7
330
0
100
AcDbSymbolTable
 70
     0
  0
ENDTAB
  0
TABLE
  2
APPID
  5
9
330
0
100
AcDbSymbolTable
 70
     1
  0
APPID
  5
12
330
9
100
AcDbSymbolTableRecord
100
AcDbRegAppTableRecord
  2
ACAD
 70
     0
  0
ENDTAB
  0
TABLE
  2
DIMSTYLE
  5
A
330
0
100
AcDbSymbolTable
 70
     1
100
AcDbDimStyleTable
 71
     0
  0
DIMSTYLE
105
1B0
330
A
100
AcDbSymbolTableRecord
100
AcDbDimStyleTableRecord
  2
Standard
 70
     0
340
11
  0
ENDTAB
  0
TABLE
  2
BLOCK_RECORD
  5
1
330
0
100
AcDbSymbolTable
 70
     0
  0
BLOCK_RECORD
  5
1E
330
1
100
AcDbSymbolTableRecord
100
AcDbBlockTableRecord
  2
*Model_Space
340
21
  0
BLOCK_RECORD
  5
1A
330
1
100
AcDbSymbolTableRecord
100
AcDbBlockTableRecord
  2
*Paper_Space
340
1D
  0
ENDTAB
  0
ENDSEC
  0
SECTION
  2
BLOCKS
  0
BLOCK
  5
1F
330
1E
100
AcDbEntity
  8
0
100
AcDbBlockBegin
  2
*Model_Space
 70
     0
 10
0.0
 20
0.0
 30
0.0
  3
*Model_Space
  1

  0
ENDBLK
  5
20
330
1E
100
AcDbEntity
  8
0
100
AcDbBlockEnd
  0
BLOCK
  5
1B
330
1A
100
AcDbEntity
 67
     1
  8
0
100
AcDbBlockBegin
  2
*Paper_Space
 70
     0
 10
0.0
 20
0.0
 30
0.0
  3
*Paper_Space
  1

  0
ENDBLK
  5
1C
330
1A
100
AcDbEntity
 67
     1
  8
0
100
AcDbBlockEnd
  0
ENDSEC
  0
SECTION
  2
ENTITIES
  0
LINE
  5
22
330
1E
100
AcDbEntity
  8
0
100
AcDbLine
 10
1.563745
 20
181.426975
 30
0.0
 11
2.217775
 21
181.138975
 31
0.0
  0
LINE
  5
23
330
1E
100
AcDbEntity
  8
0
100
AcDbLine
 10
2.217775
 20
181.138975
 30
0.0
 11
2.411704999999999
 21
181.066975
 31
0.0
  0
LINE
  5
24
330
1E
100
AcDbEntity
  8
0
100
AcDbLine
 10
2.217775
 20
181.138975
 30
0.0
 11
2.928185
 21
181.030975
 31
0.0
  0
LINE
  5
25
330
1E
100
AcDbEntity
  8
0
100
AcDbLine
 10
0.988654999999998
 20
181.8949749999999
 30
0.0
 11
1.563745
 21
181.426975
 31
0.0
  0
LINE
  5
26
330
1E
100
AcDbEntity
  8
0
100
AcDbLine
 10
0.548874999999998
 20
182.506975
 30
0.0
 11
0.988654999999998
 21
181.8949749999999
 31
0.0
  0
LINE
  5
27
330
1E
100
AcDbEntity
  8
0
100
AcDbLine
 10
0.2782449999999979
 20
183.202975
 30
0.0
 11
0.548874999999998
 21
182.506975
 31
0.0
  0
LINE
  5
28
330
1E
100
AcDbEntity
  8
0
100
AcDbLine
 10
2.411704999999999
 20
181.066975
 30
0.0
 11
3.133395
 21
180.958975
 31
0.0
  0
LINE
  5
29
330
1E
100
AcDbEntity
  8
0
100
AcDbLine
 10
2.217775
 20
186.778975
 30
0.0
 11
2.411704999999999
 21
186.850975
 31
0.0
  0
LINE
  5
2A
330
1E
100
AcDbEntity
  8
0
100
AcDbLine
 10
2.217775
 20
186.778975
 30
0.0
 11
2.928185
 21
186.8869749999999
 31
0.0
  0
LINE
  5
2B
330
1E
100
AcDbEntity
  8
0
100
AcDbLine
 10
1.563745
 20
186.4909749999999
 30
0.0
 11
2.217775
 21
186.778975
 31
0.0
  0
LINE
  5
2C
330
1E
100
AcDbEntity
  8
0
100
AcDbLine
 10
0.988654999999998
 20
186.022975
 30
0.0
 11
1.563745
 21
186.4909749999999
 31
0.0
  0
LINE
  5
2D
330
1E
100
AcDbEntity
  8
0
100
AcDbLine
 10
0.548874999999998
 20
185.410975
 30
0.0
 11
0.988654999999998
 21
186.022975
 31
0.0
  0
LINE
  5
2E
330
1E
100
AcDbEntity
  8
0
100
AcDbLine
 10
0.2782449999999979
 20
184.7149749999999
 30
0.0
 11
0.548874999999998
 21
185.410975
 31
0.0
  0
LINE
  5
2F
330
1E
100
AcDbEntity
  8
0
100
AcDbLine
 10
0.176764999999997
 20
183.958975
 30
0.0
 11
0.2782449999999979
 21
184.7149749999999
 31
0.0
  0
LINE
  5
30
330
1E
100
AcDbEntity
  8
0
100
AcDbLine
 10
0.176764999999997
 20
183.958975
 30
0.0
 11
0.2782449999999979
 21
183.202975
 31
0.0
  0
LINE
  5
31
330
1E
100
AcDbEntity
  8
0
100
AcDbLine
 10
2.928185
 20
181.030975
 30
0.0
 11
3.638594999999999
 21
181.138975
 31
0.0
  0
LINE
  5
32
330
1E
100
AcDbEntity
  8
0
100
AcDbLine
 10
3.133395
 20
180.958975
 30
0.0
 11
6.484734999999999
 21
180.958975
 31
0.0
  0
LINE
  5
33
330
1E
100
AcDbEntity
  8
0
100
AcDbLine
 10
2.411704999999999
 20
186.850975
 30
0.0
 11
3.133395
 21
186.958975
 31
0.0
  0
LINE
  5
34
330
1E
100
AcDbEntity
  8
0
100
AcDbLine
 10
2.928185
 20
186.8869749999999
 30
0.0
 11
3.638594999999999
 21
186.778975
 31
0.0
  0
LINE
  5
35
330
1E
100
AcDbEntity
  8
0
100
AcDbLine
 10
3.638594999999999
 20
181.138975
 30
0.0
 11
4.292615
 21
181.426975
 31
0.0
  0
LINE
  5
36
330
1E
100
AcDbEntity
  8
0
100
AcDbLine
 10
4.292615
 20
181.426975
 30
0.0
 11
4.867704999999999
 21
181.8949749999999
 31
0.0
  0
LINE
  5
37
330
1E
100
AcDbEntity
  8
0
100
AcDbLine
 10
4.867704999999999
 20
181.8949749999999
 30
0.0
 11
5.307484999999999
 21
182.506975
 31
0.0
  0
LINE
  5
38
330
1E
100
AcDbEntity
  8
0
100
AcDbLine
 10
5.307484999999999
 20
182.506975
 30
0.0
 11
5.578115
 21
183.202975
 31
0.0
  0
LINE
  5
39
330
1E
100
AcDbEntity
  8
0
100
AcDbLine
 10
6.484734999999999
 20
165.458975
 30
0.0
 11
37.561735
 21
165.458975
 31
0.0
  0
LINE
  5
3A
330
1E
100
AcDbEntity
  8
0
100
AcDbLine
 10
39.82323499999999
 20
38.865075
 30
0.0
 11
41.323235
 21
29.425375
 31
0.0
  0
LINE
  5
3B
330
1E
100
AcDbEntity
  8
0
100
AcDbLine
 10
39.82323499999999
 20
38.865075
 30
0.0
 11
39.82323499999999
 21
41.36507499999999
 31
0.0
  0
LINE
  5
3C
330
1E
100
AcDbEntity
  8
0
100
AcDbLine
 10
39.82323499999999
 20
41.36507499999999
 30
0.0
 11
41.323235
 21
31.925375
 31
0.0
  0
LINE
  5
3D
330
1E
100
AcDbEntity
  8
0
100
AcDbLine
 10
39.82323499999999
 20
41.36507499999999
 30
0.0
 11
39.82323499999999
 21
38.865075
 31
0.0
  0
LINE
  5
3E
330
1E
100
AcDbEntity
  8
0
100
AcDbLine
 10
39.82323499999999
 20
41.36507499999999
 30
0.0
 11
39.86296083874489
 21
41.61507499999999
 31
0.0
  0
LINE
  5
3F
330
1E
100
AcDbEntity
  8
0
100
AcDbLine
 10
41.323235
 20
29.425375
 30
0.0
 11
45.52323499999999
 21
20.591875
 31
0.0
  0
LINE
  5
40
330
1E
100
AcDbEntity
  8
0
100
AcDbLine
 10
41.323235
 20
31.925375
 30
0.0
 11
45.52323499999999
 21
23.091875
 31
0.0
  0
LINE
  5
41
330
1E
100
AcDbEntity
  8
0
100
AcDbLine
 10
41.323235
 20
51.304775
 30
0.0
 11
45.52323499999999
 21
60.138175
 31
0.0
  0
LINE
  5
42
330
1E
100
AcDbEntity
  8
0
100
AcDbLine
 10
41.323235
 20
32.425375
 30
0.0
 11
45.52323499999999
 21
23.591875
 31
0.0
  0
LINE
  5
43
330
1E
100
AcDbEntity
  8
0
100
AcDbLine
 10
39.82323499999999
 20
41.865075
 30
0.0
 11
41.323235
 21
32.425375
 31
0.0
  0
LINE
  5
44
330
1E
100
AcDbEntity
  8
0
100
AcDbLine
 10
39.82323499999999
 20
41.865075
 30
0.0
 11
41.323235
 21
51.304775
 31
0.0
  0
LINE
  5
45
330
1E
100
AcDbEntity
  8
0
100
AcDbLine
 10
38.484735
 20
165.458975
 30
0.0
 11
68.4243367745077
 21
165.458975
 31
0.0
  0
LINE
  5
46
330
1E
100
AcDbEntity
  8
0
100
AcDbLine
 10
38.484735
 20
165.458975
 30
0.0
 11
38.484735
 21
166.124975
 31
0.0
  0
LINE
  5
47
330
1E
100
AcDbEntity
  8
0
100
AcDbLine
 10
38.484735
 20
165.458975
 30
0.0
 11
68.4243367745077
 21
165.458975
 31
0.0
  0
LINE
  5
48
330
1E
100
AcDbEntity
  8
0
100
AcDbLine
 10
6.484734999999999
 20
165.458975
 30
0.0
 11
37.561735
 21
165.458975
 31
0.0
  0
LINE
  5
49
330
1E
100
AcDbEntity
  8
0
100
AcDbLine
 10
6.484734999999999
 20
165.458975
 30
0.0
 11
6.484734999999999
 21
166.124975
 31
0.0
  0
LINE
  5
4A
330
1E
100
AcDbEntity
  8
0
100
AcDbLine
 10
6.023234999999999
 20
166.568975
 30
0.0
 11
6.023234999999999
 21
165.902975
 31
0.0
  0
LINE
  5
4B
330
1E
100
AcDbEntity
  8
0
100
AcDbLine
 10
6.023234999999999
 20
166.568975
 30
0.0
 11
6.023234999999999
 21
168.344975
 31
0.0
  0
LINE
  5
4C
330
1E
100
AcDbEntity
  8
0
100
AcDbLine
 10
6.023234999999999
 20
165.902975
 30
0.0
 11
6.484734999999999
 21
165.458975
 31
0.0
  0
LINE
  5
4D
330
1E
100
AcDbEntity
  8
0
100
AcDbLine
 10
6.023234999999999
 20
165.902975
 30
0.0
 11
6.023234999999999
 21
166.568975
 31
0.0
  0
LINE
  5
4E
330
1E
100
AcDbEntity
  8
0
100
AcDbLine
 10
6.023234999999999
 20
168.344975
 30
0.0
 11
6.023234999999999
 21
166.568975
 31
0.0
  0
LINE
  5
4F
330
1E
100
AcDbEntity
  8
0
100
AcDbLine
 10
6.023234999999999
 20
168.344975
 30
0.0
 11
6.023234999999999
 21
171.230975
 31
0.0
  0
LINE
  5
50
330
1E
100
AcDbEntity
  8
0
100
AcDbLine
 10
6.023234999999999
 20
171.230975
 30
0.0
 11
6.023234999999999
 21
168.344975
 31
0.0
  0
LINE
  5
51
330
1E
100
AcDbEntity
  8
0
100
AcDbLine
 10
6.023234999999999
 20
171.230975
 30
0.0
 11
6.023234999999999
 21
175.004975
 31
0.0
  0
LINE
  5
52
330
1E
100
AcDbEntity
  8
0
100
AcDbLine
 10
6.023234999999999
 20
175.004975
 30
0.0
 11
6.023234999999999
 21
171.230975
 31
0.0
  0
LINE
  5
53
330
1E
100
AcDbEntity
  8
0
100
AcDbLine
 10
6.023234999999999
 20
175.004975
 30
0.0
 11
6.023234999999999
 21
179.296975
 31
0.0
  0
LINE
  5
54
330
1E
100
AcDbEntity
  8
0
100
AcDbLine
 10
6.023234999999999
 20
179.296975
 30
0.0
 11
6.023234999999999
 21
175.004975
 31
0.0
  0
LINE
  5
55
330
1E
100
AcDbEntity
  8
0
100
AcDbLine
 10
6.023234999999999
 20
179.296975
 30
0.0
 11
6.023234999999999
 21
180.958975
 31
0.0
  0
LINE
  5
56
330
1E
100
AcDbEntity
  8
0
100
AcDbLine
 10
6.484734999999999
 20
166.124975
 30
0.0
 11
6.484734999999999
 21
167.9009749999999
 31
0.0
  0
LINE
  5
57
330
1E
100
AcDbEntity
  8
0
100
AcDbLine
 10
6.484734999999999
 20
166.124975
 30
0.0
 11
6.484734999999999
 21
165.458975
 31
0.0
  0
LINE
  5
58
330
1E
100
AcDbEntity
  8
0
100
AcDbLine
 10
6.484734999999999
 20
167.9009749999999
 30
0.0
 11
6.484734999999999
 21
170.8609749999999
 31
0.0
  0
LINE
  5
59
330
1E
100
AcDbEntity
  8
0
100
AcDbLine
 10
6.484734999999999
 20
167.9009749999999
 30
0.0
 11
6.484734999999999
 21
166.124975
 31
0.0
  0
LINE
  5
5A
330
1E
100
AcDbEntity
  8
0
100
AcDbLine
 10
6.484734999999999
 20
170.8609749999999
 30
0.0
 11
6.484734999999999
 21
174.782975
 31
0.0
  0
LINE
  5
5B
330
1E
100
AcDbEntity
  8
0
100
AcDbLine
 10
6.484734999999999
 20
170.8609749999999
 30
0.0
 11
6.484734999999999
 21
167.9009749999999
 31
0.0
  0
LINE
  5
5C
330
1E
100
AcDbEntity
  8
0
100
AcDbLine
 10
37.561735
 20
166.124975
 30
0.0
 11
37.561735
 21
165.458975
 31
0.0
  0
LINE
  5
5D
330
1E
100
AcDbEntity
  8
0
100
AcDbLine
 10
37.561735
 20
166.124975
 30
0.0
 11
37.561735
 21
167.9009749999999
 31
0.0
  0
LINE
  5
5E
330
1E
100
AcDbEntity
  8
0
100
AcDbLine
 10
37.561735
 20
167.9009749999999
 30
0.0
 11
37.561735
 21
166.124975
 31
0.0
  0
LINE
  5
5F
330
1E
100
AcDbEntity
  8
0
100
AcDbLine
 10
37.561735
 20
167.9009749999999
 30
0.0
 11
37.561735
 21
170.8609749999999
 31
0.0
  0
LINE
  5
60
330
1E
100
AcDbEntity
  8
0
100
AcDbLine
 10
37.561735
 20
170.8609749999999
 30
0.0
 11
37.561735
 21
167.9009749999999
 31
0.0
  0
LINE
  5
61
330
1E
100
AcDbEntity
  8
0
100
AcDbLine
 10
37.561735
 20
170.8609749999999
 30
0.0
 11
37.561735
 21
174.782975
 31
0.0
  0
LINE
  5
62
330
1E
100
AcDbEntity
  8
0
100
AcDbLine
 10
38.02323499999999
 20
165.902975
 30
0.0
 11
38.02323499999999
 21
166.568975
 31
0.0
  0
LINE
  5
63
330
1E
100
AcDbEntity
  8
0
100
AcDbLine
 10
38.02323499999999
 20
165.902975
 30
0.0
 11
38.484735
 21
165.458975
 31
0.0
  0
LINE
  5
64
330
1E
100
AcDbEntity
  8
0
100
AcDbLine
 10
38.02323499999999
 20
166.568975
 30
0.0
 11
38.02323499999999
 21
165.902975
 31
0.0
  0
LINE
  5
65
330
1E
100
AcDbEntity
  8
0
100
AcDbLine
 10
38.02323499999999
 20
166.568975
 30
0.0
 11
38.02323499999999
 21
168.344975
 31
0.0
  0
LINE
  5
66
330
1E
100
AcDbEntity
  8
0
100
AcDbLine
 10
38.02323499999999
 20
168.344975
 30
0.0
 11
38.02323499999999
 21
166.568975
 31
0.0
  0
LINE
  5
67
330
1E
100
AcDbEntity
  8
0
100
AcDbLine
 10
38.02323499999999
 20
168.344975
 30
0.0
 11
38.02323499999999
 21
171.230975
 31
0.0
  0
LINE
  5
68
330
1E
100
AcDbEntity
  8
0
100
AcDbLine
 10
38.484735
 20
166.124975
 30
0.0
 11
38.484735
 21
167.9009749999999
 31
0.0
  0
LINE
  5
69
330
1E
100
AcDbEntity
  8
0
100
AcDbLine
 10
38.484735
 20
166.124975
 30
0.0
 11
38.484735
 21
165.458975
 31
0.0
  0
LINE
  5
6A
330
1E
100
AcDbEntity
  8
0
100
AcDbLine
 10
38.484735
 20
167.9009749999999
 30
0.0
 11
38.484735
 21
170.8609749999999
 31
0.0
  0
LINE
  5
6B
330
1E
100
AcDbEntity
  8
0
100
AcDbLine
 10
38.484735
 20
167.9009749999999
 30
0.0
 11
38.484735
 21
166.124975
 31
0.0
  0
LINE
  5
6C
330
1E
100
AcDbEntity
  8
0
100
AcDbLine
 10
38.484735
 20
170.8609749999999
 30
0.0
 11
38.484735
 21
174.782975
 31
0.0
  0
LINE
  5
6D
330
1E
100
AcDbEntity
  8
0
100
AcDbLine
 10
38.484735
 20
170.8609749999999
 30
0.0
 11
38.484735
 21
167.9009749999999
 31
0.0
  0
LINE
  5
6E
330
1E
100
AcDbEntity
  8
0
100
AcDbLine
 10
38.484735
 20
174.782975
 30
0.0
 11
38.484735
 21
179.2229749999999
 31
0.0
  0
LINE
  5
6F
330
1E
100
AcDbEntity
  8
0
100
AcDbLine
 10
38.484735
 20
174.782975
 30
0.0
 11
38.484735
 21
170.8609749999999
 31
0.0
  0
LINE
  5
70
330
1E
100
AcDbEntity
  8
0
100
AcDbLine
 10
38.02323499999999
 20
171.230975
 30
0.0
 11
38.02323499999999
 21
168.344975
 31
0.0
  0
LINE
  5
71
330
1E
100
AcDbEntity
  8
0
100
AcDbLine
 10
38.02323499999999
 20
171.230975
 30
0.0
 11
38.02323499999999
 21
175.004975
 31
0.0
  0
LINE
  5
72
330
1E
100
AcDbEntity
  8
0
100
AcDbLine
 10
38.484735
 20
179.2229749999999
 30
0.0
 11
38.484735
 21
183.958975
 31
0.0
  0
LINE
  5
73
330
1E
100
AcDbEntity
  8
0
100
AcDbLine
 10
38.484735
 20
179.2229749999999
 30
0.0
 11
38.484735
 21
174.782975
 31
0.0
  0
LINE
  5
74
330
1E
100
AcDbEntity
  8
0
100
AcDbLine
 10
38.02323499999999
 20
175.004975
 30
0.0
 11
38.02323499999999
 21
171.230975
 31
0.0
  0
LINE
  5
75
330
1E
100
AcDbEntity
  8
0
100
AcDbLine
 10
38.02323499999999
 20
175.004975
 30
0.0
 11
38.02323499999999
 21
179.296975
 31
0.0
  0
LINE
  5
76
330
1E
100
AcDbEntity
  8
0
100
AcDbLine
 10
37.561735
 20
174.782975
 30
0.0
 11
37.561735
 21
170.8609749999999
 31
0.0
  0
LINE
  5
77
330
1E
100
AcDbEntity
  8
0
100
AcDbLine
 10
37.561735
 20
174.782975
 30
0.0
 11
37.561735
 21
179.2229749999999
 31
0.0
  0
LINE
  5
78
330
1E
100
AcDbEntity
  8
0
100
AcDbLine
 10
37.561735
 20
179.2229749999999
 30
0.0
 11
37.561735
 21
174.782975
 31
0.0
  0
LINE
  5
79
330
1E
100
AcDbEntity
  8
0
100
AcDbLine
 10
37.561735
 20
179.2229749999999
 30
0.0
 11
37.561735
 21
183.958975
 31
0.0
  0
LINE
  5
7A
330
1E
100
AcDbEntity
  8
0
100
AcDbLine
 10
6.484734999999999
 20
174.782975
 30
0.0
 11
6.484734999999999
 21
179.2229749999999
 31
0.0
  0
LINE
  5
7B
330
1E
100
AcDbEntity
  8
0
100
AcDbLine
 10
6.484734999999999
 20
174.782975
 30
0.0
 11
6.484734999999999
 21
170.8609749999999
 31
0.0
  0
LINE
  5
7C
330
1E
100
AcDbEntity
  8
0
100
AcDbLine
 10
6.484734999999999
 20
180.958975
 30
0.0
 11
6.484734999999999
 21
179.2229749999999
 31
0.0
  0
LINE
  5
7D
330
1E
100
AcDbEntity
  8
0
100
AcDbLine
 10
38.484735
 20
183.958975
 30
0.0
 11
38.484735
 21
179.2229749999999
 31
0.0
  0
LINE
  5
7E
330
1E
100
AcDbEntity
  8
0
100
AcDbLine
 10
38.484735
 20
183.958975
 30
0.0
 11
38.484735
 21
188.694975
 31
0.0
  0
LINE
  5
7F
330
1E
100
AcDbEntity
  8
0
100
AcDbLine
 10
38.02323499999999
 20
179.296975
 30
0.0
 11
38.02323499999999
 21
175.004975
 31
0.0
  0
LINE
  5
80
330
1E
100
AcDbEntity
  8
0
100
AcDbLine
 10
38.02323499999999
 20
179.296975
 30
0.0
 11
38.02323499999999
 21
183.958975
 31
0.0
  0
LINE
  5
81
330
1E
100
AcDbEntity
  8
0
100
AcDbLine
 10
38.02323499999999
 20
183.958975
 30
0.0
 11
38.02323499999999
 21
179.296975
 31
0.0
  0
LINE
  5
82
330
1E
100
AcDbEntity
  8
0
100
AcDbLine
 10
38.02323499999999
 20
183.958975
 30
0.0
 11
38.02323499999999
 21
188.6209749999999
 31
0.0
  0
LINE
  5
83
330
1E
100
AcDbEntity
  8
0
100
AcDbLine
 10
37.561735
 20
183.958975
 30
0.0
 11
37.561735
 21
179.2229749999999
 31
0.0
  0
LINE
  5
84
330
1E
100
AcDbEntity
  8
0
100
AcDbLine
 10
37.561735
 20
183.958975
 30
0.0
 11
37.561735
 21
188.694975
 31
0.0
  0
LINE
  5
85
330
1E
100
AcDbEntity
  8
0
100
AcDbLine
 10
6.484734999999999
 20
179.2229749999999
 30
0.0
 11
6.484734999999999
 21
180.958975
 31
0.0
  0
LINE
  5
86
330
1E
100
AcDbEntity
  8
0
100
AcDbLine
 10
6.484734999999999
 20
179.2229749999999
 30
0.0
 11
6.484734999999999
 21
174.782975
 31
0.0
  0
LINE
  5
87
330
1E
100
AcDbEntity
  8
0
100
AcDbLine
 10
6.023234999999999
 20
180.958975
 30
0.0
 11
6.023234999999999
 21
179.296975
 31
0.0
  0
LINE
  5
88
330
1E
100
AcDbEntity
  8
0
100
AcDbLine
 10
37.561735
 20
165.458975
 30
0.0
 11
38.02323499999999
 21
165.902975
 31
0.0
  0
LINE
  5
89
330
1E
100
AcDbEntity
  8
0
100
AcDbLine
 10
37.561735
 20
165.458975
 30
0.0
 11
37.561735
 21
166.124975
 31
0.0
  0
LINE
  5
8A
330
1E
100
AcDbEntity
  8
0
100
AcDbLine
 10
45.52323499999999
 20
20.591875
 30
0.0
 11
52.32323499999999
 21
12.884275
 31
0.0
  0
LINE
  5
8B
330
1E
100
AcDbEntity
  8
0
100
AcDbLine
 10
46.42323499999999
 20
18.524975
 30
0.0
 11
53.02323499999999
 21
10.99047499999999
 31
0.0
  0
LINE
  5
8C
330
1E
100
AcDbEntity
  8
0
100
AcDbLine
 10
45.52323499999999
 20
23.091875
 30
0.0
 11
52.32323499999999
 21
15.384275
 31
0.0
  0
LINE
  5
8D
330
1E
100
AcDbEntity
  8
0
100
AcDbLine
 10
42.32323499999999
 20
27.098575
 30
0.0
 11
46.42323499999999
 21
18.524975
 31
0.0
  0
LINE
  5
8E
330
1E
100
AcDbEntity
  8
0
100
AcDbLine
 10
42.19351373784721
 20
27.5949923260064
 30
0.0
 11
42.32323499999999
 21
27.098575
 31
0.0
  0
LINE
  5
8F
330
1E
100
AcDbEntity
  8
0
100
AcDbLine
 10
45.52323499999999
 20
60.138175
 30
0.0
 11
52.32323499999999
 21
67.84577500000001
 31
0.0
  0
LINE
  5
90
330
1E
100
AcDbEntity
  8
0
100
AcDbLine
 10
45.52323499999999
 20
23.591875
 30
0.0
 11
52.32323499999999
 21
15.884275
 31
0.0
  0
LINE
  5
91
330
1E
100
AcDbEntity
  8
0
100
AcDbLine
 10
62.32323499999999
 20
4.71757499999998
 30
0.0
 11
71.92323499999999
 21
1.34007499999998
 31
0.0
  0
LINE
  5
92
330
1E
100
AcDbEntity
  8
0
100
AcDbLine
 10
62.32323499999999
 20
4.71757499999998
 30
0.0
 11
71.92323499999999
 21
1.34007499999998
 31
0.0
  0
LINE
  5
93
330
1E
100
AcDbEntity
  8
0
100
AcDbLine
 10
71.42323499999999
 20
3.357974999999979
 30
0.0
 11
82.32323499999999
 21
2.05897499999998
 31
0.0
  0
LINE
  5
94
330
1E
100
AcDbEntity
  8
0
100
AcDbLine
 10
82.32323499999999
 20
0.0410249999999782
 30
0.0
 11
92.723235
 21
1.34007499999998
 31
0.0
  0
LINE
  5
95
330
1E
100
AcDbEntity
  8
0
100
AcDbLine
 10
82.32323499999999
 20
0.0410249999999783
 30
0.0
 11
92.723235
 21
1.34007499999998
 31
0.0
  0
LINE
  5
96
330
1E
100
AcDbEntity
  8
0
100
AcDbLine
 10
82.32323499999999
 20
1.99197499999998
 30
0.0
 11
93.12323499999999
 21
3.291074999999979
 31
0.0
  0
LINE
  5
97
330
1E
100
AcDbEntity
  8
0
100
AcDbLine
 10
71.92323499999999
 20
1.34007499999998
 30
0.0
 11
82.32323499999999
 21
0.0410249999999782
 31
0.0
  0
LINE
  5
98
330
1E
100
AcDbEntity
  8
0
100
AcDbLine
 10
71.92323499999999
 20
1.34007499999998
 30
0.0
 11
82.32323499999999
 21
0.0410249999999783
 31
0.0
  0
LINE
  5
99
330
1E
100
AcDbEntity
  8
0
100
AcDbLine
 10
71.523235
 20
3.291074999999979
 30
0.0
 11
82.32323499999999
 21
1.99197499999998
 31
0.0
  0
LINE
  5
9A
330
1E
100
AcDbEntity
  8
0
100
AcDbLine
 10
82.32323499999999
 20
2.05897499999998
 30
0.0
 11
93.22323500000001
 21
3.357974999999979
 31
0.0
  0
LINE
  5
9B
330
1E
100
AcDbEntity
  8
0
100
AcDbLine
 10
92.723235
 20
1.34007499999998
 30
0.0
 11
102.323235
 21
4.71757499999998
 31
0.0
  0
LINE
  5
9C
330
1E
100
AcDbEntity
  8
0
100
AcDbLine
 10
92.723235
 20
1.34007499999998
 30
0.0
 11
102.323235
 21
4.71757499999998
 31
0.0
  0
LINE
  5
9D
330
1E
100
AcDbEntity
  8
0
100
AcDbLine
 10
93.12323499999999
 20
3.291074999999979
 30
0.0
 11
103.323235
 21
6.928374999999981
 31
0.0
  0
LINE
  5
9E
330
1E
100
AcDbEntity
  8
0
100
AcDbLine
 10
93.22323500000001
 20
3.357974999999979
 30
0.0
 11
103.4232349999999
 21
6.99527499999998
 31
0.0
  0
LINE
  5
9F
330
1E
100
AcDbEntity
  8
0
100
AcDbLine
 10
82.32323499999999
 20
4.55897499999998
 30
0.0
 11
93.22323500000001
 21
5.857974999999981
 31
0.0
  0
LINE
  5
A0
330
1E
100
AcDbEntity
  8
0
100
AcDbLine
 10
93.22323500000001
 20
5.857974999999981
 30
0.0
 11
103.4232349999999
 21
9.495274999999981
 31
0.0
  0
LINE
  5
A1
330
1E
100
AcDbEntity
  8
0
100
AcDbLine
 10
93.22323500000001
 20
6.357974999999981
 30
0.0
 11
103.4232349999999
 21
9.995274999999981
 31
0.0
  0
LINE
  5
A2
330
1E
100
AcDbEntity
  8
0
100
AcDbLine
 10
82.32323499999999
 20
5.05897499999998
 30
0.0
 11
93.22323500000001
 21
6.357974999999981
 31
0.0
  0
LINE
  5
A3
330
1E
100
AcDbEntity
  8
0
100
AcDbLine
 10
71.42323499999999
 20
5.857974999999981
 30
0.0
 11
82.32323499999999
 21
4.55897499999998
 31
0.0
  0
LINE
  5
A4
330
1E
100
AcDbEntity
  8
0
100
AcDbLine
 10
52.5363518593439
 20
12.74325868711499
 30
0.0
 11
52.623235
 21
12.644075
 31
0.0
  0
LINE
  5
A5
330
1E
100
AcDbEntity
  8
0
100
AcDbLine
 10
53.723235
 20
10.34677499999999
 30
0.0
 11
62.32323499999999
 21
4.71757499999998
 31
0.0
  0
LINE
  5
A6
330
1E
100
AcDbEntity
  8
0
100
AcDbLine
 10
52.623235
 20
12.644075
 30
0.0
 11
61.323235
 21
6.928374999999981
 31
0.0
  0
LINE
  5
A7
330
1E
100
AcDbEntity
  8
0
100
AcDbLine
 10
53.02323499999999
 20
10.99047499999999
 30
0.0
 11
53.723235
 21
10.34677499999999
 31
0.0
  0
LINE
  5
A8
330
1E
100
AcDbEntity
  8
0
100
AcDbLine
 10
52.5363518593439
 20
12.74325868711499
 30
0.0
 11
52.623235
 21
12.644075
 31
0.0
  0
LINE
  5
A9
330
1E
100
AcDbEntity
  8
0
100
AcDbLine
 10
52.32323499999999
 20
12.884275
 30
0.0
 11
61.223235
 21
6.99527499999998
 31
0.0
  0
LINE
  5
AA
330
1E
100
AcDbEntity
  8
0
100
AcDbLine
 10
61.223235
 20
6.99527499999998
 30
0.0
 11
71.42323499999999
 21
3.357974999999979
 31
0.0
  0
LINE
  5
AB
330
1E
100
AcDbEntity
  8
0
100
AcDbLine
 10
52.32323499999999
 20
15.384275
 30
0.0
 11
61.223235
 21
9.495274999999981
 31
0.0
  0
LINE
  5
AC
330
1E
100
AcDbEntity
  8
0
100
AcDbLine
 10
61.223235
 20
9.495274999999981
 30
0.0
 11
71.42323499999999
 21
5.857974999999981
 31
0.0
  0
LINE
  5
AD
330
1E
100
AcDbEntity
  8
0
100
AcDbLine
 10
59.1980143743245
 20
72.0014192363255
 30
0.0
 11
61.217335
 21
75.258075
 31
0.0
  0
LINE
  5
AE
330
1E
100
AcDbEntity
  8
0
100
AcDbLine
 10
61.217335
 20
75.258075
 30
0.0
 11
64.259135
 21
82.703775
 31
0.0
  0
LINE
  5
AF
330
1E
100
AcDbEntity
  8
0
100
AcDbLine
 10
52.32323499999999
 20
67.84577500000001
 30
0.0
 11
59.6115484149665
 21
72.66834552817279
 31
0.0
  0
LINE
  5
B0
330
1E
100
AcDbEntity
  8
0
100
AcDbLine
 10
52.32323499999999
 20
15.884275
 30
0.0
 11
61.223235
 21
9.995274999999981
 31
0.0
  0
LINE
  5
B1
330
1E
100
AcDbEntity
  8
0
100
AcDbLine
 10
61.323235
 20
6.928374999999981
 30
0.0
 11
71.523235
 21
3.291074999999979
 31
0.0
  0
LINE
  5
B2
330
1E
100
AcDbEntity
  8
0
100
AcDbLine
 10
64.12653910828
 20
82.3792075626342
 30
0.0
 11
65.658635
 21
88.39617500000001
 31
0.0
  0
LINE
  5
B3
330
1E
100
AcDbEntity
  8
0
100
AcDbLine
 10
64.12653910828
 20
82.3792075626342
 30
0.0
 11
65.658635
 21
88.39617500000001
 31
0.0
  0
LINE
  5
B4
330
1E
100
AcDbEntity
  8
0
100
AcDbLine
 10
67.297535
 20
95.98197500000001
 30
0.0
 11
68.191535
 21
105.377975
 31
0.0
  0
LINE
  5
B5
330
1E
100
AcDbEntity
  8
0
100
AcDbLine
 10
67.297535
 20
128.509975
 30
0.0
 11
67.59553499999999
 21
122.590975
 31
0.0
  0
LINE
  5
B6
330
1E
100
AcDbEntity
  8
0
100
AcDbLine
 10
65.658635
 20
88.39617500000001
 30
0.0
 11
67.297535
 21
95.98197500000001
 31
0.0
  0
LINE
  5
B7
330
1E
100
AcDbEntity
  8
0
100
AcDbLine
 10
67.297535
 20
142.1459749999999
 30
0.0
 11
67.521035
 21
149.785975
 31
0.0
  0
LINE
  5
B8
330
1E
100
AcDbEntity
  8
0
100
AcDbLine
 10
67.148535
 20
136.1089749999999
 30
0.0
 11
67.297535
 21
128.509975
 31
0.0
  0
LINE
  5
B9
330
1E
100
AcDbEntity
  8
0
100
AcDbLine
 10
67.148535
 20
136.1089749999999
 30
0.0
 11
67.297535
 21
142.1459749999999
 31
0.0
  0
LINE
  5
BA
330
1E
100
AcDbEntity
  8
0
100
AcDbLine
 10
68.191535
 20
105.377975
 30
0.0
 11
68.340535
 21
113.365975
 31
0.0
  0
LINE
  5
BB
330
1E
100
AcDbEntity
  8
0
100
AcDbLine
 10
67.59553499999999
 20
122.590975
 30
0.0
 11
68.340535
 21
113.365975
 31
0.0
  0
LINE
  5
BC
330
1E
100
AcDbEntity
  8
0
100
AcDbLine
 10
67.521035
 20
149.785975
 30
0.0
 11
67.819035
 21
157.948975
 31
0.0
  0
LINE
  5
BD
330
1E
100
AcDbEntity
  8
0
100
AcDbLine
 10
67.819035
 20
157.948975
 30
0.0
 11
68.563935
 21
167.190975
 31
0.0
  0
LINE
  5
BE
330
1E
100
AcDbEntity
  8
0
100
AcDbLine
 10
61.223235
 20
9.995274999999981
 30
0.0
 11
71.42323499999999
 21
6.357974999999981
 31
0.0
  0
LINE
  5
BF
330
1E
100
AcDbEntity
  8
0
100
AcDbLine
 10
71.42323499999999
 20
6.357974999999981
 30
0.0
 11
82.32323499999999
 21
5.05897499999998
 31
0.0
  0
LINE
  5
C0
330
1E
100
AcDbEntity
  8
0
100
AcDbLine
 10
96.30593499999999
 20
113.365975
 30
0.0
 11
96.454935
 21
105.377975
 31
0.0
  0
LINE
  5
C1
330
1E
100
AcDbEntity
  8
0
100
AcDbLine
 10
96.30593499999999
 20
113.365975
 30
0.0
 11
97.050935
 21
122.590975
 31
0.0
  0
LINE
  5
C2
330
1E
100
AcDbEntity
  8
0
100
AcDbLine
 10
96.827435
 20
157.948975
 30
0.0
 11
97.125435
 21
149.785975
 31
0.0
  0
LINE
  5
C3
330
1E
100
AcDbEntity
  8
0
100
AcDbLine
 10
97.125435
 20
149.785975
 30
0.0
 11
97.348935
 21
142.1459749999999
 31
0.0
  0
LINE
  5
C4
330
1E
100
AcDbEntity
  8
0
100
AcDbLine
 10
97.348935
 20
142.1459749999999
 30
0.0
 11
97.497935
 21
136.1089749999999
 31
0.0
  0
LINE
  5
C5
330
1E
100
AcDbEntity
  8
0
100
AcDbLine
 10
97.348935
 20
128.509975
 30
0.0
 11
97.497935
 21
136.1089749999999
 31
0.0
  0
LINE
  5
C6
330
1E
100
AcDbEntity
  8
0
100
AcDbLine
 10
97.050935
 20
122.590975
 30
0.0
 11
97.348935
 21
128.509975
 31
0.0
  0
LINE
  5
C7
330
1E
100
AcDbEntity
  8
0
100
AcDbLine
 10
97.348935
 20
95.98197500000001
 30
0.0
 11
98.987835
 21
88.39617500000001
 31
0.0
  0
LINE
  5
C8
330
1E
100
AcDbEntity
  8
0
100
AcDbLine
 10
96.454935
 20
105.377975
 30
0.0
 11
97.348935
 21
95.98197500000001
 31
0.0
  0
LINE
  5
C9
330
1E
100
AcDbEntity
  8
0
100
AcDbLine
 10
98.987835
 20
88.39617500000001
 30
0.0
 11
100.5199308917199
 21
82.3792075626342
 31
0.0
  0
LINE
  5
CA
330
1E
100
AcDbEntity
  8
0
100
AcDbLine
 10
96.2221332254923
 20
165.458975
 30
0.0
 11
99.561235
 21
165.458975
 31
0.0
  0
LINE
  5
CB
330
1E
100
AcDbEntity
  8
0
100
AcDbLine
 10
96.082535
 20
167.190975
 30
0.0
 11
96.827435
 21
157.948975
 31
0.0
  0
LINE
  5
CC
330
1E
100
AcDbEntity
  8
0
100
AcDbLine
 10
68.563935
 20
167.190975
 30
0.0
 11
69.32323499999999
 21
175.667975
 31
0.0
  0
LINE
  5
CD
330
1E
100
AcDbEntity
  8
0
100
AcDbLine
 10
99.561235
 20
166.124975
 30
0.0
 11
99.561235
 21
165.458975
 31
0.0
  0
LINE
  5
CE
330
1E
100
AcDbEntity
  8
0
100
AcDbLine
 10
99.561235
 20
166.124975
 30
0.0
 11
99.561235
 21
167.9009749999999
 31
0.0
  0
LINE
  5
CF
330
1E
100
AcDbEntity
  8
0
100
AcDbLine
 10
99.561235
 20
167.9009749999999
 30
0.0
 11
99.561235
 21
166.124975
 31
0.0
  0
LINE
  5
D0
330
1E
100
AcDbEntity
  8
0
100
AcDbLine
 10
99.561235
 20
167.9009749999999
 30
0.0
 11
99.561235
 21
170.8609749999999
 31
0.0
  0
LINE
  5
D1
330
1E
100
AcDbEntity
  8
0
100
AcDbLine
 10
99.561235
 20
170.8609749999999
 30
0.0
 11
99.561235
 21
167.9009749999999
 31
0.0
  0
LINE
  5
D2
330
1E
100
AcDbEntity
  8
0
100
AcDbLine
 10
99.561235
 20
170.8609749999999
 30
0.0
 11
99.561235
 21
174.782975
 31
0.0
  0
LINE
  5
D3
330
1E
100
AcDbEntity
  8
0
100
AcDbLine
 10
96.2221332254923
 20
165.458975
 30
0.0
 11
99.561235
 21
165.458975
 31
0.0
  0
LINE
  5
D4
330
1E
100
AcDbEntity
  8
0
100
AcDbLine
 10
100.023235
 20
165.902975
 30
0.0
 11
100.023235
 21
166.568975
 31
0.0
  0
LINE
  5
D5
330
1E
100
AcDbEntity
  8
0
100
AcDbLine
 10
100.023235
 20
166.568975
 30
0.0
 11
100.023235
 21
165.902975
 31
0.0
  0
LINE
  5
D6
330
1E
100
AcDbEntity
  8
0
100
AcDbLine
 10
100.023235
 20
166.568975
 30
0.0
 11
100.023235
 21
168.344975
 31
0.0
  0
LINE
  5
D7
330
1E
100
AcDbEntity
  8
0
100
AcDbLine
 10
102.323235
 20
4.71757499999998
 30
0.0
 11
110.923235
 21
10.34677499999999
 31
0.0
  0
LINE
  5
D8
330
1E
100
AcDbEntity
  8
0
100
AcDbLine
 10
103.323235
 20
6.928374999999981
 30
0.0
 11
112.023235
 21
12.644075
 31
0.0
  0
LINE
  5
D9
330
1E
100
AcDbEntity
  8
0
100
AcDbLine
 10
103.4232349999999
 20
6.99527499999998
 30
0.0
 11
112.323235
 21
12.884275
 31
0.0
  0
LINE
  5
DA
330
1E
100
AcDbEntity
  8
0
100
AcDbLine
 10
103.4232349999999
 20
9.495274999999981
 30
0.0
 11
112.323235
 21
15.384275
 31
0.0
  0
LINE
  5
DB
330
1E
100
AcDbEntity
  8
0
100
AcDbLine
 10
110.923235
 20
10.34677499999999
 30
0.0
 11
111.623235
 21
10.99047499999999
 31
0.0
  0
LINE
  5
DC
330
1E
100
AcDbEntity
  8
0
100
AcDbLine
 10
111.623235
 20
10.99047499999999
 30
0.0
 11
118.223235
 21
18.524975
 31
0.0
  0
LINE
  5
DD
330
1E
100
AcDbEntity
  8
0
100
AcDbLine
 10
112.023235
 20
12.644075
 30
0.0
 11
112.110118140656
 21
12.74325868711499
 31
0.0
  0
LINE
  5
DE
330
1E
100
AcDbEntity
  8
0
100
AcDbLine
 10
112.323235
 20
12.884275
 30
0.0
 11
119.123235
 21
20.591875
 31
0.0
  0
LINE
  5
DF
330
1E
100
AcDbEntity
  8
0
100
AcDbLine
 10
112.323235
 20
15.384275
 30
0.0
 11
119.123235
 21
23.091875
 31
0.0
  0
LINE
  5
E0
330
1E
100
AcDbEntity
  8
0
100
AcDbLine
 10
118.223235
 20
18.524975
 30
0.0
 11
122.323235
 21
27.098575
 31
0.0
  0
LINE
  5
E1
330
1E
100
AcDbEntity
  8
0
100
AcDbLine
 10
119.123235
 20
20.591875
 30
0.0
 11
123.323235
 21
29.425375
 31
0.0
  0
LINE
  5
E2
330
1E
100
AcDbEntity
  8
0
100
AcDbLine
 10
119.123235
 20
23.091875
 30
0.0
 11
123.323235
 21
31.925375
 31
0.0
  0
LINE
  5
E3
330
1E
100
AcDbEntity
  8
0
100
AcDbLine
 10
112.323235
 20
15.884275
 30
0.0
 11
119.123235
 21
23.591875
 31
0.0
  0
LINE
  5
E4
330
1E
100
AcDbEntity
  8
0
100
AcDbLine
 10
122.323235
 20
27.098575
 30
0.0
 11
122.452956262153
 21
27.5949923260064
 31
0.0
  0
LINE
  5
E5
330
1E
100
AcDbEntity
  8
0
100
AcDbLine
 10
100.3873349999999
 20
82.703775
 30
0.0
 11
103.4291349999999
 21
75.258075
 31
0.0
  0
LINE
  5
E6
330
1E
100
AcDbEntity
  8
0
100
AcDbLine
 10
103.4291349999999
 20
75.258075
 30
0.0
 11
105.4484556256759
 21
72.0014192363255
 31
0.0
  0
LINE
  5
E7
330
1E
100
AcDbEntity
  8
0
100
AcDbLine
 10
105.034921585034
 20
72.66834552817279
 30
0.0
 11
112.323235
 21
67.84577500000001
 31
0.0
  0
LINE
  5
E8
330
1E
100
AcDbEntity
  8
0
100
AcDbLine
 10
112.323235
 20
67.84577500000001
 30
0.0
 11
119.123235
 21
60.138175
 31
0.0
  0
LINE
  5
E9
330
1E
100
AcDbEntity
  8
0
100
AcDbLine
 10
119.123235
 20
60.138175
 30
0.0
 11
123.323235
 21
51.304775
 31
0.0
  0
LINE
  5
EA
330
1E
100
AcDbEntity
  8
0
100
AcDbLine
 10
123.323235
 20
51.304775
 30
0.0
 11
124.823235
 21
41.865075
 31
0.0
  0
LINE
  5
EB
330
1E
100
AcDbEntity
  8
0
100
AcDbLine
 10
123.323235
 20
29.425375
 30
0.0
 11
124.823235
 21
38.865075
 31
0.0
  0
LINE
  5
EC
330
1E
100
AcDbEntity
  8
0
100
AcDbLine
 10
123.323235
 20
31.925375
 30
0.0
 11
124.823235
 21
41.36507499999999
 31
0.0
  0
LINE
  5
ED
330
1E
100
AcDbEntity
  8
0
100
AcDbLine
 10
119.123235
 20
23.591875
 30
0.0
 11
123.323235
 21
32.425375
 31
0.0
  0
LINE
  5
EE
330
1E
100
AcDbEntity
  8
0
100
AcDbLine
 10
124.823235
 20
41.36507499999999
 30
0.0
 11
124.823235
 21
38.865075
 31
0.0
  0
LINE
  5
EF
330
1E
100
AcDbEntity
  8
0
100
AcDbLine
 10
124.783509161255
 20
41.61507499999999
 30
0.0
 11
124.823235
 21
41.36507499999999
 31
0.0
  0
LINE
  5
F0
330
1E
100
AcDbEntity
  8
0
100
AcDbLine
 10
124.823235
 20
38.865075
 30
0.0
 11
124.823235
 21
41.36507499999999
 31
0.0
  0
LINE
  5
F1
330
1E
100
AcDbEntity
  8
0
100
AcDbLine
 10
123.323235
 20
32.425375
 30
0.0
 11
124.823235
 21
41.865075
 31
0.0
  0
LINE
  5
F2
330
1E
100
AcDbEntity
  8
0
100
AcDbLine
 10
103.4232349999999
 20
9.995274999999981
 30
0.0
 11
112.323235
 21
15.884275
 31
0.0
  0
LINE
  5
F3
330
1E
100
AcDbEntity
  8
0
100
AcDbLine
 10
100.023235
 20
168.344975
 30
0.0
 11
100.023235
 21
166.568975
 31
0.0
  0
LINE
  5
F4
330
1E
100
AcDbEntity
  8
0
100
AcDbLine
 10
100.023235
 20
168.344975
 30
0.0
 11
100.023235
 21
171.230975
 31
0.0
  0
LINE
  5
F5
330
1E
100
AcDbEntity
  8
0
100
AcDbLine
 10
100.023235
 20
171.230975
 30
0.0
 11
100.023235
 21
168.344975
 31
0.0
  0
LINE
  5
F6
330
1E
100
AcDbEntity
  8
0
100
AcDbLine
 10
100.023235
 20
171.230975
 30
0.0
 11
100.023235
 21
175.004975
 31
0.0
  0
LINE
  5
F7
330
1E
100
AcDbEntity
  8
0
100
AcDbLine
 10
99.561235
 20
165.458975
 30
0.0
 11
100.023235
 21
165.902975
 31
0.0
  0
LINE
  5
F8
330
1E
100
AcDbEntity
  8
0
100
AcDbLine
 10
99.561235
 20
165.458975
 30
0.0
 11
99.561235
 21
166.124975
 31
0.0
  0
LINE
  5
F9
330
1E
100
AcDbEntity
  8
0
100
AcDbLine
 10
52.023235
 20
172.958975
 30
0.0
 11
54.82323499999999
 21
173.3589749999999
 31
0.0
  0
LINE
  5
FA
330
1E
100
AcDbEntity
  8
0
100
AcDbLine
 10
49.223235
 20
173.3589749999999
 30
0.0
 11
52.023235
 21
172.958975
 31
0.0
  0
LINE
  5
FD
330
1E
100
AcDbEntity
  8
0
100
AcDbLine
 10
95.323235
 20
175.667975
 30
0.0
 11
96.082535
 21
167.190975
 31
0.0
  0
LINE
  5
FE
330
1E
100
AcDbEntity
  8
0
100
AcDbLine
 10
69.32323499999999
 20
175.667975
 30
0.0
 11
69.791235
 21
178.3619749999999
 31
0.0
  0
LINE
  5
FF
330
1E
100
AcDbEntity
  8
0
100
AcDbLine
 10
100.023235
 20
175.004975
 30
0.0
 11
100.023235
 21
171.230975
 31
0.0
  0
LINE
  5
100
330
1E
100
AcDbEntity
  8
0
100
AcDbLine
 10
100.023235
 20
175.004975
 30
0.0
 11
100.023235
 21
179.296975
 31
0.0
  0
LINE
  5
101
330
1E
100
AcDbEntity
  8
0
100
AcDbLine
 10
99.561235
 20
174.782975
 30
0.0
 11
99.561235
 21
170.8609749999999
 31
0.0
  0
LINE
  5
102
330
1E
100
AcDbEntity
  8
0
100
AcDbLine
 10
99.561235
 20
174.782975
 30
0.0
 11
99.561235
 21
179.2229749999999
 31
0.0
  0
LINE
  5
103
330
1E
100
AcDbEntity
  8
0
100
AcDbLine
 10
57.523235
 20
174.458975
 30
0.0
 11
59.82323499999999
 21
176.1589749999999
 31
0.0
  0
LINE
  5
104
330
1E
100
AcDbEntity
  8
0
100
AcDbLine
 10
59.82323499999999
 20
176.1589749999999
 30
0.0
 11
61.523235
 21
178.458975
 31
0.0
  0
LINE
  5
108
330
1E
100
AcDbEntity
  8
0
100
AcDbLine
 10
54.82323499999999
 20
173.3589749999999
 30
0.0
 11
57.523235
 21
174.458975
 31
0.0
  0
LINE
  5
109
330
1E
100
AcDbEntity
  8
0
100
AcDbLine
 10
46.523235
 20
174.458975
 30
0.0
 11
49.223235
 21
173.3589749999999
 31
0.0
  0
LINE
  5
10A
330
1E
100
AcDbEntity
  8
0
100
AcDbLine
 10
42.523235
 20
178.458975
 30
0.0
 11
44.223235
 21
176.1589749999999
 31
0.0
  0
LINE
  5
114
330
1E
100
AcDbEntity
  8
0
100
AcDbLine
 10
61.523235
 20
178.458975
 30
0.0
 11
62.623235
 21
181.1589749999999
 31
0.0
  0
LINE
  5
115
330
1E
100
AcDbEntity
  8
0
100
AcDbLine
 10
94.85523499999999
 20
178.3619749999999
 30
0.0
 11
95.323235
 21
175.667975
 31
0.0
  0
LINE
  5
116
330
1E
100
AcDbEntity
  8
0
100
AcDbLine
 10
69.791235
 20
178.3619749999999
 30
0.0
 11
71.03923499999999
 21
180.886975
 31
0.0
  0
LINE
  5
117
330
1E
100
AcDbEntity
  8
0
100
AcDbLine
 10
93.607235
 20
180.886975
 30
0.0
 11
94.85523499999999
 21
178.3619749999999
 31
0.0
  0
LINE
  5
118
330
1E
100
AcDbEntity
  8
0
100
AcDbLine
 10
91.527235
 20
183.118975
 30
0.0
 11
93.607235
 21
180.886975
 31
0.0
  0
LINE
  5
119
330
1E
100
AcDbEntity
  8
0
100
AcDbLine
 10
73.119235
 20
183.118975
 30
0.0
 11
75.875235
 21
184.8019749999999
 31
0.0
  0
LINE
  5
11A
330
1E
100
AcDbEntity
  8
0
100
AcDbLine
 10
71.03923499999999
 20
180.886975
 30
0.0
 11
73.119235
 21
183.118975
 31
0.0
  0
LINE
  5
11B
330
1E
100
AcDbEntity
  8
0
100
AcDbLine
 10
99.561235
 20
179.2229749999999
 30
0.0
 11
99.561235
 21
174.782975
 31
0.0
  0
LINE
  5
11C
330
1E
100
AcDbEntity
  8
0
100
AcDbLine
 10
99.561235
 20
179.2229749999999
 30
0.0
 11
99.561235
 21
183.958975
 31
0.0
  0
LINE
  5
11D
330
1E
100
AcDbEntity
  8
0
100
AcDbLine
 10
100.023235
 20
179.296975
 30
0.0
 11
100.023235
 21
175.004975
 31
0.0
  0
LINE
  5
11E
330
1E
100
AcDbEntity
  8
0
100
AcDbLine
 10
100.023235
 20
179.296975
 30
0.0
 11
100.023235
 21
183.958975
 31
0.0
  0
LINE
  5
11F
330
1E
100
AcDbEntity
  8
0
100
AcDbLine
 10
100.023235
 20
183.958975
 30
0.0
 11
100.023235
 21
179.296975
 31
0.0
  0
LINE
  5
120
330
1E
100
AcDbEntity
  8
0
100
AcDbLine
 10
100.023235
 20
183.958975
 30
0.0
 11
100.023235
 21
188.6209749999999
 31
0.0
  0
LINE
  5
121
330
1E
100
AcDbEntity
  8
0
100
AcDbLine
 10
99.561235
 20
183.958975
 30
0.0
 11
99.561235
 21
179.2229749999999
 31
0.0
  0
LINE
  5
122
330
1E
100
AcDbEntity
  8
0
100
AcDbLine
 10
99.561235
 20
183.958975
 30
0.0
 11
99.561235
 21
188.694975
 31
0.0
  0
LINE
  5
123
330
1E
100
AcDbEntity
  8
0
100
AcDbLine
 10
63.02323499999999
 20
183.958975
 30
0.0
 11
63.02323499999999
 21
245.958975
 31
0.0
  0
LINE
  5
124
330
1E
100
AcDbEntity
  8
0
100
AcDbLine
 10
62.623235
 20
181.1589749999999
 30
0.0
 11
63.02323499999999
 21
183.958975
 31
0.0
  0
LINE
  5
125
330
1E
100
AcDbEntity
  8
0
100
AcDbLine
 10
44.223235
 20
176.1589749999999
 30
0.0
 11
46.523235
 21
174.458975
 31
0.0
  0
LINE
  5
126
330
1E
100
AcDbEntity
  8
0
100
AcDbLine
 10
41.42323499999999
 20
181.1589749999999
 30
0.0
 11
42.523235
 21
178.458975
 31
0.0
  0
LINE
  5
127
330
1E
100
AcDbEntity
  8
0
100
AcDbLine
 10
41.02323499999999
 20
183.958975
 30
0.0
 11
41.42323499999999
 21
181.1589749999999
 31
0.0
  0
LINE
  5
128
330
1E
100
AcDbEntity
  8
0
100
AcDbLine
 10
41.02323499999999
 20
183.958975
 30
0.0
 11
41.02323499999999
 21
245.958975
 31
0.0
  0
LINE
  5
129
330
1E
100
AcDbEntity
  8
0
100
AcDbLine
 10
5.578115
 20
183.202975
 30
0.0
 11
5.679605
 21
183.958975
 31
0.0
  0
LINE
  5
12A
330
1E
100
AcDbEntity
  8
0
100
AcDbLine
 10
3.638594999999999
 20
186.778975
 30
0.0
 11
4.292615
 21
186.4909749999999
 31
0.0
  0
LINE
  5
12B
330
1E
100
AcDbEntity
  8
0
100
AcDbLine
 10
4.292615
 20
186.4909749999999
 30
0.0
 11
4.867704999999999
 21
186.022975
 31
0.0
  0
LINE
  5
12C
330
1E
100
AcDbEntity
  8
0
100
AcDbLine
 10
4.867704999999999
 20
186.022975
 30
0.0
 11
5.307484999999999
 21
185.410975
 31
0.0
  0
LINE
  5
12D
330
1E
100
AcDbEntity
  8
0
100
AcDbLine
 10
6.023234999999999
 20
186.958975
 30
0.0
 11
6.023234999999999
 21
188.6209749999999
 31
0.0
  0
LINE
  5
12E
330
1E
100
AcDbEntity
  8
0
100
AcDbLine
 10
6.023234999999999
 20
186.958975
 30
0.0
 11
6.023234999999999
 21
188.6209749999999
 31
0.0
  0
LINE
  5
12F
330
1E
100
AcDbEntity
  8
0
100
AcDbLine
 10
6.023234999999999
 20
188.6209749999999
 30
0.0
 11
6.023234999999999
 21
192.9129749999999
 31
0.0
  0
LINE
  5
130
330
1E
100
AcDbEntity
  8
0
100
AcDbLine
 10
6.023234999999999
 20
188.6209749999999
 30
0.0
 11
6.023234999999999
 21
186.958975
 31
0.0
  0
LINE
  5
131
330
1E
100
AcDbEntity
  8
0
100
AcDbLine
 10
6.023234999999999
 20
202.0149749999999
 30
0.0
 11
6.023234999999999
 21
201.348975
 31
0.0
  0
LINE
  5
132
330
1E
100
AcDbEntity
  8
0
100
AcDbLine
 10
6.023234999999999
 20
202.0149749999999
 30
0.0
 11
6.484734999999999
 21
202.458975
 31
0.0
  0
LINE
  5
133
330
1E
100
AcDbEntity
  8
0
100
AcDbLine
 10
6.023234999999999
 20
201.348975
 30
0.0
 11
6.023234999999999
 21
199.572975
 31
0.0
  0
LINE
  5
134
330
1E
100
AcDbEntity
  8
0
100
AcDbLine
 10
6.023234999999999
 20
201.348975
 30
0.0
 11
6.023234999999999
 21
202.0149749999999
 31
0.0
  0
LINE
  5
135
330
1E
100
AcDbEntity
  8
0
100
AcDbLine
 10
6.023234999999999
 20
199.572975
 30
0.0
 11
6.023234999999999
 21
196.6869749999999
 31
0.0
  0
LINE
  5
136
330
1E
100
AcDbEntity
  8
0
100
AcDbLine
 10
6.023234999999999
 20
199.572975
 30
0.0
 11
6.023234999999999
 21
201.348975
 31
0.0
  0
LINE
  5
137
330
1E
100
AcDbEntity
  8
0
100
AcDbLine
 10
6.023234999999999
 20
196.6869749999999
 30
0.0
 11
6.023234999999999
 21
192.9129749999999
 31
0.0
  0
LINE
  5
138
330
1E
100
AcDbEntity
  8
0
100
AcDbLine
 10
6.023234999999999
 20
196.6869749999999
 30
0.0
 11
6.023234999999999
 21
199.572975
 31
0.0
  0
LINE
  5
139
330
1E
100
AcDbEntity
  8
0
100
AcDbLine
 10
6.023234999999999
 20
192.9129749999999
 30
0.0
 11
6.023234999999999
 21
188.6209749999999
 31
0.0
  0
LINE
  5
13A
330
1E
100
AcDbEntity
  8
0
100
AcDbLine
 10
6.023234999999999
 20
192.9129749999999
 30
0.0
 11
6.023234999999999
 21
196.6869749999999
 31
0.0
  0
LINE
  5
13B
330
1E
100
AcDbEntity
  8
0
100
AcDbLine
 10
6.023234999999999
 20
192.9129749999999
 30
0.0
 11
6.023234999999999
 21
188.6209749999999
 31
0.0
  0
LINE
  5
13C
330
1E
100
AcDbEntity
  8
0
100
AcDbLine
 10
6.023234999999999
 20
188.6209749999999
 30
0.0
 11
6.023234999999999
 21
186.958975
 31
0.0
  0
LINE
  5
13D
330
1E
100
AcDbEntity
  8
0
100
AcDbLine
 10
6.023234999999999
 20
188.6209749999999
 30
0.0
 11
6.023234999999999
 21
192.9129749999999
 31
0.0
  0
LINE
  5
13E
330
1E
100
AcDbEntity
  8
0
100
AcDbLine
 10
6.484734999999999
 20
202.458975
 30
0.0
 11
37.561735
 21
202.458975
 31
0.0
  0
LINE
  5
13F
330
1E
100
AcDbEntity
  8
0
100
AcDbLine
 10
6.484734999999999
 20
202.458975
 30
0.0
 11
6.484734999999999
 21
201.7929749999999
 31
0.0
  0
LINE
  5
140
330
1E
100
AcDbEntity
  8
0
100
AcDbLine
 10
6.484734999999999
 20
201.7929749999999
 30
0.0
 11
6.484734999999999
 21
202.458975
 31
0.0
  0
LINE
  5
141
330
1E
100
AcDbEntity
  8
0
100
AcDbLine
 10
6.484734999999999
 20
201.7929749999999
 30
0.0
 11
6.484734999999999
 21
200.0169749999999
 31
0.0
  0
LINE
  5
142
330
1E
100
AcDbEntity
  8
0
100
AcDbLine
 10
37.561735
 20
201.7929749999999
 30
0.0
 11
37.561735
 21
200.0169749999999
 31
0.0
  0
LINE
  5
143
330
1E
100
AcDbEntity
  8
0
100
AcDbLine
 10
37.561735
 20
201.7929749999999
 30
0.0
 11
37.561735
 21
202.458975
 31
0.0
  0
LINE
  5
144
330
1E
100
AcDbEntity
  8
0
100
AcDbLine
 10
6.484734999999999
 20
200.0169749999999
 30
0.0
 11
6.484734999999999
 21
201.7929749999999
 31
0.0
  0
LINE
  5
145
330
1E
100
AcDbEntity
  8
0
100
AcDbLine
 10
6.484734999999999
 20
200.0169749999999
 30
0.0
 11
6.484734999999999
 21
197.0569749999999
 31
0.0
  0
LINE
  5
146
330
1E
100
AcDbEntity
  8
0
100
AcDbLine
 10
37.561735
 20
200.0169749999999
 30
0.0
 11
37.561735
 21
197.0569749999999
 31
0.0
  0
LINE
  5
147
330
1E
100
AcDbEntity
  8
0
100
AcDbLine
 10
37.561735
 20
200.0169749999999
 30
0.0
 11
37.561735
 21
201.7929749999999
 31
0.0
  0
LINE
  5
148
330
1E
100
AcDbEntity
  8
0
100
AcDbLine
 10
6.484734999999999
 20
197.0569749999999
 30
0.0
 11
6.484734999999999
 21
200.0169749999999
 31
0.0
  0
LINE
  5
149
330
1E
100
AcDbEntity
  8
0
100
AcDbLine
 10
6.484734999999999
 20
197.0569749999999
 30
0.0
 11
6.484734999999999
 21
193.134975
 31
0.0
  0
LINE
  5
14A
330
1E
100
AcDbEntity
  8
0
100
AcDbLine
 10
37.561735
 20
197.0569749999999
 30
0.0
 11
37.561735
 21
193.134975
 31
0.0
  0
LINE
  5
14B
330
1E
100
AcDbEntity
  8
0
100
AcDbLine
 10
37.561735
 20
197.0569749999999
 30
0.0
 11
37.561735
 21
200.0169749999999
 31
0.0
  0
LINE
  5
14C
330
1E
100
AcDbEntity
  8
0
100
AcDbLine
 10
6.484734999999999
 20
193.134975
 30
0.0
 11
6.484734999999999
 21
197.0569749999999
 31
0.0
  0
LINE
  5
14D
330
1E
100
AcDbEntity
  8
0
100
AcDbLine
 10
6.484734999999999
 20
193.134975
 30
0.0
 11
6.484734999999999
 21
188.694975
 31
0.0
  0
LINE
  5
14E
330
1E
100
AcDbEntity
  8
0
100
AcDbLine
 10
37.561735
 20
193.134975
 30
0.0
 11
37.561735
 21
188.694975
 31
0.0
  0
LINE
  5
14F
330
1E
100
AcDbEntity
  8
0
100
AcDbLine
 10
37.561735
 20
193.134975
 30
0.0
 11
37.561735
 21
197.0569749999999
 31
0.0
  0
LINE
  5
150
330
1E
100
AcDbEntity
  8
0
100
AcDbLine
 10
6.484734999999999
 20
188.694975
 30
0.0
 11
6.484734999999999
 21
193.134975
 31
0.0
  0
LINE
  5
151
330
1E
100
AcDbEntity
  8
0
100
AcDbLine
 10
6.484734999999999
 20
188.694975
 30
0.0
 11
6.484734999999999
 21
186.958975
 31
0.0
  0
LINE
  5
152
330
1E
100
AcDbEntity
  8
0
100
AcDbLine
 10
38.02323499999999
 20
202.0149749999999
 30
0.0
 11
38.02323499999999
 21
201.348975
 31
0.0
  0
LINE
  5
153
330
1E
100
AcDbEntity
  8
0
100
AcDbLine
 10
38.02323499999999
 20
202.0149749999999
 30
0.0
 11
38.484735
 21
202.458975
 31
0.0
  0
LINE
  5
154
330
1E
100
AcDbEntity
  8
0
100
AcDbLine
 10
38.02323499999999
 20
201.348975
 30
0.0
 11
38.02323499999999
 21
199.572975
 31
0.0
  0
LINE
  5
155
330
1E
100
AcDbEntity
  8
0
100
AcDbLine
 10
38.02323499999999
 20
201.348975
 30
0.0
 11
38.02323499999999
 21
202.0149749999999
 31
0.0
  0
LINE
  5
156
330
1E
100
AcDbEntity
  8
0
100
AcDbLine
 10
38.02323499999999
 20
199.572975
 30
0.0
 11
38.02323499999999
 21
196.6869749999999
 31
0.0
  0
LINE
  5
157
330
1E
100
AcDbEntity
  8
0
100
AcDbLine
 10
38.02323499999999
 20
199.572975
 30
0.0
 11
38.02323499999999
 21
201.348975
 31
0.0
  0
LINE
  5
158
330
1E
100
AcDbEntity
  8
0
100
AcDbLine
 10
38.02323499999999
 20
196.6869749999999
 30
0.0
 11
38.02323499999999
 21
192.9129749999999
 31
0.0
  0
LINE
  5
159
330
1E
100
AcDbEntity
  8
0
100
AcDbLine
 10
38.02323499999999
 20
196.6869749999999
 30
0.0
 11
38.02323499999999
 21
199.572975
 31
0.0
  0
LINE
  5
15A
330
1E
100
AcDbEntity
  8
0
100
AcDbLine
 10
38.484735
 20
201.7929749999999
 30
0.0
 11
38.484735
 21
202.458975
 31
0.0
  0
LINE
  5
15B
330
1E
100
AcDbEntity
  8
0
100
AcDbLine
 10
38.484735
 20
201.7929749999999
 30
0.0
 11
38.484735
 21
200.0169749999999
 31
0.0
  0
LINE
  5
15C
330
1E
100
AcDbEntity
  8
0
100
AcDbLine
 10
38.484735
 20
200.0169749999999
 30
0.0
 11
38.484735
 21
201.7929749999999
 31
0.0
  0
LINE
  5
15D
330
1E
100
AcDbEntity
  8
0
100
AcDbLine
 10
38.484735
 20
200.0169749999999
 30
0.0
 11
38.484735
 21
197.0569749999999
 31
0.0
  0
LINE
  5
15E
330
1E
100
AcDbEntity
  8
0
100
AcDbLine
 10
38.484735
 20
197.0569749999999
 30
0.0
 11
38.484735
 21
200.0169749999999
 31
0.0
  0
LINE
  5
15F
330
1E
100
AcDbEntity
  8
0
100
AcDbLine
 10
38.484735
 20
197.0569749999999
 30
0.0
 11
38.484735
 21
193.134975
 31
0.0
  0
LINE
  5
160
330
1E
100
AcDbEntity
  8
0
100
AcDbLine
 10
38.484735
 20
193.134975
 30
0.0
 11
38.484735
 21
197.0569749999999
 31
0.0
  0
LINE
  5
161
330
1E
100
AcDbEntity
  8
0
100
AcDbLine
 10
38.484735
 20
193.134975
 30
0.0
 11
38.484735
 21
188.694975
 31
0.0
  0
LINE
  5
162
330
1E
100
AcDbEntity
  8
0
100
AcDbLine
 10
38.484735
 20
188.694975
 30
0.0
 11
38.484735
 21
193.134975
 31
0.0
  0
LINE
  5
163
330
1E
100
AcDbEntity
  8
0
100
AcDbLine
 10
38.484735
 20
188.694975
 30
0.0
 11
38.484735
 21
183.958975
 31
0.0
  0
LINE
  5
164
330
1E
100
AcDbEntity
  8
0
100
AcDbLine
 10
38.484735
 20
202.458975
 30
0.0
 11
41.02323499999999
 21
202.458975
 31
0.0
  0
LINE
  5
165
330
1E
100
AcDbEntity
  8
0
100
AcDbLine
 10
38.484735
 20
202.458975
 30
0.0
 11
38.484735
 21
201.7929749999999
 31
0.0
  0
LINE
  5
166
330
1E
100
AcDbEntity
  8
0
100
AcDbLine
 10
38.02323499999999
 20
192.9129749999999
 30
0.0
 11
38.02323499999999
 21
188.6209749999999
 31
0.0
  0
LINE
  5
167
330
1E
100
AcDbEntity
  8
0
100
AcDbLine
 10
38.02323499999999
 20
192.9129749999999
 30
0.0
 11
38.02323499999999
 21
196.6869749999999
 31
0.0
  0
LINE
  5
168
330
1E
100
AcDbEntity
  8
0
100
AcDbLine
 10
38.02323499999999
 20
188.6209749999999
 30
0.0
 11
38.02323499999999
 21
183.958975
 31
0.0
  0
LINE
  5
169
330
1E
100
AcDbEntity
  8
0
100
AcDbLine
 10
38.02323499999999
 20
188.6209749999999
 30
0.0
 11
38.02323499999999
 21
192.9129749999999
 31
0.0
  0
LINE
  5
16A
330
1E
100
AcDbEntity
  8
0
100
AcDbLine
 10
37.561735
 20
188.694975
 30
0.0
 11
37.561735
 21
183.958975
 31
0.0
  0
LINE
  5
16B
330
1E
100
AcDbEntity
  8
0
100
AcDbLine
 10
37.561735
 20
188.694975
 30
0.0
 11
37.561735
 21
193.134975
 31
0.0
  0
LINE
  5
16C
330
1E
100
AcDbEntity
  8
0
100
AcDbLine
 10
6.484734999999999
 20
186.958975
 30
0.0
 11
6.484734999999999
 21
188.694975
 31
0.0
  0
LINE
  5
16D
330
1E
100
AcDbEntity
  8
0
100
AcDbLine
 10
6.484734999999999
 20
202.458975
 30
0.0
 11
37.561735
 21
202.458975
 31
0.0
  0
LINE
  5
16E
330
1E
100
AcDbEntity
  8
0
100
AcDbLine
 10
37.561735
 20
202.458975
 30
0.0
 11
38.02323499999999
 21
202.0149749999999
 31
0.0
  0
LINE
  5
16F
330
1E
100
AcDbEntity
  8
0
100
AcDbLine
 10
37.561735
 20
202.458975
 30
0.0
 11
37.561735
 21
201.7929749999999
 31
0.0
  0
LINE
  5
170
330
1E
100
AcDbEntity
  8
0
100
AcDbLine
 10
88.77123500000001
 20
184.8019749999999
 30
0.0
 11
91.527235
 21
183.118975
 31
0.0
  0
LINE
  5
171
330
1E
100
AcDbEntity
  8
0
100
AcDbLine
 10
85.651235
 20
185.8129749999999
 30
0.0
 11
88.77123500000001
 21
184.8019749999999
 31
0.0
  0
LINE
  5
172
330
1E
100
AcDbEntity
  8
0
100
AcDbLine
 10
82.32323499999999
 20
186.191975
 30
0.0
 11
85.651235
 21
185.8129749999999
 31
0.0
  0
LINE
  5
173
330
1E
100
AcDbEntity
  8
0
100
AcDbLine
 10
78.99523499999999
 20
185.8129749999999
 30
0.0
 11
82.32323499999999
 21
186.191975
 31
0.0
  0
LINE
  5
174
330
1E
100
AcDbEntity
  8
0
100
AcDbLine
 10
75.875235
 20
184.8019749999999
 30
0.0
 11
78.99523499999999
 21
185.8129749999999
 31
0.0
  0
LINE
  5
175
330
1E
100
AcDbEntity
  8
0
100
AcDbLine
 10
100.023235
 20
188.6209749999999
 30
0.0
 11
100.023235
 21
183.958975
 31
0.0
  0
LINE
  5
176
330
1E
100
AcDbEntity
  8
0
100
AcDbLine
 10
100.023235
 20
188.6209749999999
 30
0.0
 11
100.023235
 21
192.9129749999999
 31
0.0
  0
LINE
  5
177
330
1E
100
AcDbEntity
  8
0
100
AcDbLine
 10
90.20911501097691
 20
202.458975
 30
0.0
 11
90.256935
 21
208.0680749999999
 31
0.0
  0
LINE
  5
178
330
1E
100
AcDbEntity
  8
0
100
AcDbLine
 10
74.20884877636869
 20
202.458975
 30
0.0
 11
74.25803499999999
 21
208.205075
 31
0.0
  0
LINE
  5
179
330
1E
100
AcDbEntity
  8
0
100
AcDbLine
 10
99.561235
 20
201.7929749999999
 30
0.0
 11
99.561235
 21
200.0169749999999
 31
0.0
  0
LINE
  5
17A
330
1E
100
AcDbEntity
  8
0
100
AcDbLine
 10
99.561235
 20
201.7929749999999
 30
0.0
 11
99.561235
 21
202.458975
 31
0.0
  0
LINE
  5
17B
330
1E
100
AcDbEntity
  8
0
100
AcDbLine
 10
99.561235
 20
200.0169749999999
 30
0.0
 11
99.561235
 21
197.0569749999999
 31
0.0
  0
LINE
  5
17C
330
1E
100
AcDbEntity
  8
0
100
AcDbLine
 10
99.561235
 20
200.0169749999999
 30
0.0
 11
99.561235
 21
201.7929749999999
 31
0.0
  0
LINE
  5
17D
330
1E
100
AcDbEntity
  8
0
100
AcDbLine
 10
99.561235
 20
197.0569749999999
 30
0.0
 11
99.561235
 21
193.134975
 31
0.0
  0
LINE
  5
17E
330
1E
100
AcDbEntity
  8
0
100
AcDbLine
 10
99.561235
 20
197.0569749999999
 30
0.0
 11
99.561235
 21
200.0169749999999
 31
0.0
  0
LINE
  5
17F
330
1E
100
AcDbEntity
  8
0
100
AcDbLine
 10
100.023235
 20
202.0149749999999
 30
0.0
 11
100.023235
 21
201.348975
 31
0.0
  0
LINE
  5
180
330
1E
100
AcDbEntity
  8
0
100
AcDbLine
 10
100.023235
 20
201.348975
 30
0.0
 11
100.023235
 21
199.572975
 31
0.0
  0
LINE
  5
181
330
1E
100
AcDbEntity
  8
0
100
AcDbLine
 10
100.023235
 20
201.348975
 30
0.0
 11
100.023235
 21
202.0149749999999
 31
0.0
  0
LINE
  5
182
330
1E
100
AcDbEntity
  8
0
100
AcDbLine
 10
100.023235
 20
199.572975
 30
0.0
 11
100.023235
 21
196.6869749999999
 31
0.0
  0
LINE
  5
183
330
1E
100
AcDbEntity
  8
0
100
AcDbLine
 10
100.023235
 20
199.572975
 30
0.0
 11
100.023235
 21
201.348975
 31
0.0
  0
LINE
  5
184
330
1E
100
AcDbEntity
  8
0
100
AcDbLine
 10
100.023235
 20
196.6869749999999
 30
0.0
 11
100.023235
 21
192.9129749999999
 31
0.0
  0
LINE
  5
185
330
1E
100
AcDbEntity
  8
0
100
AcDbLine
 10
100.023235
 20
196.6869749999999
 30
0.0
 11
100.023235
 21
199.572975
 31
0.0
  0
LINE
  5
186
330
1E
100
AcDbEntity
  8
0
100
AcDbLine
 10
100.023235
 20
192.9129749999999
 30
0.0
 11
100.023235
 21
188.6209749999999
 31
0.0
  0
LINE
  5
187
330
1E
100
AcDbEntity
  8
0
100
AcDbLine
 10
100.023235
 20
192.9129749999999
 30
0.0
 11
100.023235
 21
196.6869749999999
 31
0.0
  0
LINE
  5
188
330
1E
100
AcDbEntity
  8
0
100
AcDbLine
 10
99.561235
 20
193.134975
 30
0.0
 11
99.561235
 21
188.694975
 31
0.0
  0
LINE
  5
189
330
1E
100
AcDbEntity
  8
0
100
AcDbLine
 10
99.561235
 20
193.134975
 30
0.0
 11
99.561235
 21
197.0569749999999
 31
0.0
  0
LINE
  5
18A
330
1E
100
AcDbEntity
  8
0
100
AcDbLine
 10
99.561235
 20
188.694975
 30
0.0
 11
99.561235
 21
183.958975
 31
0.0
  0
LINE
  5
18B
330
1E
100
AcDbEntity
  8
0
100
AcDbLine
 10
99.561235
 20
188.694975
 30
0.0
 11
99.561235
 21
193.134975
 31
0.0
  0
LINE
  5
18C
330
1E
100
AcDbEntity
  8
0
100
AcDbLine
 10
63.02323499999999
 20
202.458975
 30
0.0
 11
99.561235
 21
202.458975
 31
0.0
  0
LINE
  5
18D
330
1E
100
AcDbEntity
  8
0
100
AcDbLine
 10
73.512035
 20
225.9540749999999
 30
0.0
 11
73.77513499999999
 21
222.8110749999999
 31
0.0
  0
LINE
  5
18E
330
1E
100
AcDbEntity
  8
0
100
AcDbLine
 10
73.512035
 20
225.9540749999999
 30
0.0
 11
74.548035
 21
228.860075
 31
0.0
  0
LINE
  5
18F
330
1E
100
AcDbEntity
  8
0
100
AcDbLine
 10
73.77513499999999
 20
222.8110749999999
 30
0.0
 11
74.37205268994809
 21
221.643519015259
 31
0.0
  0
LINE
  5
190
330
1E
100
AcDbEntity
  8
0
100
AcDbLine
 10
90.311835
 20
214.468075
 30
0.0
 11
90.352835
 21
219.3680749999999
 31
0.0
  0
LINE
  5
191
330
1E
100
AcDbEntity
  8
0
100
AcDbLine
 10
90.256935
 20
208.0680749999999
 30
0.0
 11
90.311835
 21
214.468075
 31
0.0
  0
LINE
  5
192
330
1E
100
AcDbEntity
  8
0
100
AcDbLine
 10
90.381835
 20
222.667075
 30
0.0
 11
90.39803499999999
 21
224.568075
 31
0.0
  0
LINE
  5
193
330
1E
100
AcDbEntity
  8
0
100
AcDbLine
 10
90.352835
 20
219.3680749999999
 30
0.0
 11
90.381835
 21
222.667075
 31
0.0
  0
LINE
  5
194
330
1E
100
AcDbEntity
  8
0
100
AcDbLine
 10
88.04493499999999
 20
230.188075
 30
0.0
 11
89.823835
 21
227.6720749999999
 31
0.0
  0
LINE
  5
195
330
1E
100
AcDbEntity
  8
0
100
AcDbLine
 10
89.823835
 20
227.6720749999999
 30
0.0
 11
90.39803499999999
 21
224.568075
 31
0.0
  0
LINE
  5
196
330
1E
100
AcDbEntity
  8
0
100
AcDbLine
 10
82.42753499999999
 20
232.9440749999999
 30
0.0
 11
85.561035
 21
232.0090749999999
 31
0.0
  0
LINE
  5
197
330
1E
100
AcDbEntity
  8
0
100
AcDbLine
 10
85.561035
 20
232.0090749999999
 30
0.0
 11
88.04493499999999
 21
230.188075
 31
0.0
  0
LINE
  5
198
330
1E
100
AcDbEntity
  8
0
100
AcDbLine
 10
79.28373499999999
 20
232.6810749999999
 30
0.0
 11
82.42753499999999
 21
232.9440749999999
 31
0.0
  0
LINE
  5
199
330
1E
100
AcDbEntity
  8
0
100
AcDbLine
 10
76.485935
 20
231.252075
 30
0.0
 11
79.28373499999999
 21
232.6810749999999
 31
0.0
  0
LINE
  5
19A
330
1E
100
AcDbEntity
  8
0
100
AcDbLine
 10
74.548035
 20
228.860075
 30
0.0
 11
76.485935
 21
231.252075
 31
0.0
  0
LINE
  5
19B
330
1E
100
AcDbEntity
  8
0
100
AcDbLine
 10
74.381935
 20
222.804075
 30
0.0
 11
74.397835
 21
224.7030749999999
 31
0.0
  0
LINE
  5
19C
330
1E
100
AcDbEntity
  8
0
100
AcDbLine
 10
74.353835
 20
219.5040749999999
 30
0.0
 11
74.381935
 21
222.804075
 31
0.0
  0
LINE
  5
19D
330
1E
100
AcDbEntity
  8
0
100
AcDbLine
 10
74.31193499999999
 20
214.604075
 30
0.0
 11
74.353835
 21
219.5040749999999
 31
0.0
  0
LINE
  5
19E
330
1E
100
AcDbEntity
  8
0
100
AcDbLine
 10
74.25803499999999
 20
208.205075
 30
0.0
 11
74.31193499999999
 21
214.604075
 31
0.0
  0
LINE
  5
19F
330
1E
100
AcDbEntity
  8
0
100
AcDbLine
 10
99.561235
 20
202.458975
 30
0.0
 11
100.023235
 21
202.0149749999999
 31
0.0
  0
LINE
  5
1A0
330
1E
100
AcDbEntity
  8
0
100
AcDbLine
 10
99.561235
 20
202.458975
 30
0.0
 11
99.561235
 21
201.7929749999999
 31
0.0
  0
LINE
  5
1A1
330
1E
100
AcDbEntity
  8
0
100
AcDbLine
 10
41.02323499999999
 20
202.458975
 30
0.0
 11
41.02323499999999
 21
245.958975
 31
0.0
  0
LINE
  5
1A3
330
1E
100
AcDbEntity
  8
0
100
AcDbLine
 10
41.02323499999999
 20
245.958975
 30
0.0
 11
52.023235
 21
245.958975
 31
0.0
  0
LINE
  5
1A4
330
1E
100
AcDbEntity
  8
0
100
AcDbLine
 10
41.02323499999999
 20
245.958975
 30
0.0
 11
41.02323499999999
 21
183.958975
 31
0.0
  0
LINE
  5
1A8
330
1E
100
AcDbEntity
  8
0
100
AcDbLine
 10
63.02323499999999
 20
245.958975
 30
0.0
 11
63.02323499999999
 21
183.958975
 31
0.0
  0
LINE
  5
1A9
330
1E
100
AcDbEntity
  8
0
100
AcDbLine
 10
52.023235
 20
245.958975
 30
0.0
 11
63.02323499999999
 21
245.958975
 31
0.0
  0
LINE
  5
1AC
330
1E
100
AcDbEntity
  8
0
100
AcDbLine
 10
41.02323499999999
 20
245.958975
 30
0.0
 11
41.02323499999999
 21
202.458975
 31
0.0
  0
LINE
  5
1AD
330
1E
100
AcDbEntity
  8
0
100
AcDbLine
 10
5.307484999999999
 20
185.410975
 30
0.0
 11
5.578115
 21
184.7149749999999
 31
0.0
  0
LINE
  5
1AE
330
1E
100
AcDbEntity
  8
0
100
AcDbLine
 10
5.578115
 20
184.7149749999999
 30
0.0
 11
5.679605
 21
183.958975
 31
0.0
  0
LINE
  5
1AF
330
1E
100
AcDbEntity
  8
0
100
AcDbLine
 10
3.133395
 20
186.958975
 30
0.0
 11
6.484734999999999
 21
186.958975
 31
0.0
  0
ENDSEC
  0
SECTION
  2
OBJECTS
  0
DICTIONARY
  5
C
330
0
100
AcDbDictionary
281
     1
  3
ACAD_GROUP
350
D
  3
ACAD_LAYOUT
350
19
  3
ACAD_MLINESTYLE
350
16
  3
ACAD_PLOTSETTINGS
350
18
  3
ACAD_PLOTSTYLENAME
350
E
  3
AcDbVariableDictionary
350
1B4
  0
DICTIONARY
  5
D
102
{ACAD_REACTORS
330
C
102
}
330
C
100
AcDbDictionary
281
     1
  0
DICTIONARY
  5
19
102
{ACAD_REACTORS
330
C
102
}
330
C
100
AcDbDictionary
281
     1
  3
Layout1
350
1D
  3
Model
350
21
  0
DICTIONARY
  5
16
102
{ACAD_REACTORS
330
C
102
}
330
C
100
AcDbDictionary
281
     1
  3
Standard
350
17
  0
DICTIONARY
  5
18
102
{ACAD_REACTORS
330
C
102
}
330
C
100
AcDbDictionary
281
     1
  0
ACDBDICTIONARYWDFLT
  5
E
102
{ACAD_REACTORS
330
C
102
}
330
C
100
AcDbDictionary
281
     1
  3
Normal
350
F
100
AcDbDictionaryWithDefault
340
F
  0
DICTIONARY
  5
1B4
102
{ACAD_REACTORS
330
C
102
}
330
C
100
AcDbDictionary
281
     1
  3
DIMASSOC
350
1B5
  0
LAYOUT
  5
1D
102
{ACAD_REACTORS
330
19
102
}
330
19
100
AcDbPlotSettings
  1

  2
hp deskjet 980c series
  4

  6

 40
0.0
 41
0.0
 42
0.0
 43
0.0
 44
0.0
 45
0.0
 46
0.0
 47
0.0
 48
0.0
 49
0.0
140
0.0
141
0.0
142
1.0
143
1.0
 70
   688
 72
     0
 73
     0
 74
     5
  7

 75
    16
147
1.0
148
0.0
149
0.0
100
AcDbLayout
  1
Layout1
 70
     1
 71
     1
 10
0.0
 20
0.0
 11
12.0
 21
9.0
 12
0.0
 22
0.0
 32
0.0
 14
1.000000000000000E+20
 24
1.000000000000000E+20
 34
1.000000000000000E+20
 15
-1.000000000000000E+20
 25
-1.000000000000000E+20
 35
-1.000000000000000E+20
146
0.0
 13
0.0
 23
0.0
 33
0.0
 16
1.0
 26
0.0
 36
0.0
 17
0.0
 27
1.0
 37
0.0
 76
     0
330
1A
  0
LAYOUT
  5
21
102
{ACAD_REACTORS
330
19
102
}
330
19
100
AcDbPlotSettings
  1

  2
hp deskjet 980c series
  4

  6

 40
0.0
 41
0.0
 42
0.0
 43
0.0
 44
0.0
 45
0.0
 46
0.0
 47
0.0
 48
0.0
 49
0.0
140
0.0
141
0.0
142
1.0
143
1.0
 70
  1712
 72
     0
 73
     0
 74
     0
  7

 75
     0
147
1.0
148
0.0
149
0.0
100
AcDbLayout
  1
Model
 70
     1
 71
     0
 10
0.0
 20
0.0
 11
12.0
 21
9.0
 12
0.0
 22
0.0
 32
0.0
 14
0.0
 24
0.0
 34
0.0
 15
0.0
 25
0.0
 35
0.0
146
0.0
 13
0.0
 23
0.0
 33
0.0
 16
1.0
 26
0.0
 36
0.0
 17
0.0
 27
1.0
 37
0.0
 76
     0
330
1E
  0
MLINESTYLE
  5
17
102
{ACAD_REACTORS
330
16
102
}
330
16
100
AcDbMlineStyle
  2
STANDARD
 70
     0
  3

 62
   256
 51
90.0
 52
90.0
 71
     2
 49
0.5
 62
   256
  6
BYLAYER
 49
-0.5
 62
   256
  6
BYLAYER
  0
ACDBPLACEHOLDER
  5
F
102
{ACAD_REACTORS
330
E
102
}
330
E
  0
DICTIONARYVAR
  5
1B5
102
{ACAD_REACTORS
330
1B4
102
}
330
1B4
100
DictionaryVariables
280
     0
  1
1
  0
ENDSEC
  0
EOF
