  0
SECTION
  2
HEADER
  9
$ACADVER
  1
AC1015
  9
$ACADMAINTVER
 70
    13
  9
$DWGCODEPAGE
  3
ANSI_1252
  9
$INSBASE
 10
0.0
 20
0.0
 30
0.0
  9
$EXTMIN
 10
0.0767649999999961
 20
-289.9815
 30
0.0
  9
$EXTMAX
 10
99.92323499999999
 20
1026.9815
 30
0.0
  9
$LIMMIN
 10
0.0
 20
0.0
  9
$LIMMAX
 10
12.0
 20
9.0
  9
$ORTHOMODE
 70
     0
  9
$REGENMODE
 70
     1
  9
$FILLMODE
 70
     1
  9
$QTEXTMODE
 70
     0
  9
$MIRRTEXT
 70
     1
  9
$LTSCALE
 40
1.0
  9
$ATTMODE
 70
     1
  9
$TEXTSIZE
 40
0.2
  9
$TRACEWID
 40
0.05
  9
$TEXTSTYLE
  7
Standard
  9
$CLAYER
  8
0
  9
$CELTYPE
  6
Continuous
  9
$CECOLOR
 62
   256
  9
$CELTSCALE
 40
1.0
  9
$DISPSILH
 70
     0
  9
$DIMSCALE
 40
1.0
  9
$DIMASZ
 40
0.18
  9
$DIMEXO
 40
0.0625
  9
$DIMDLI
 40
0.38
  9
$DIMRND
 40
0.0
  9
$DIMDLE
 40
0.0
  9
$DIMEXE
 40
0.18
  9
$DIMTP
 40
0.0
  9
$DIMTM
 40
0.0
  9
$DIMTXT
 40
0.18
  9
$DIMCEN
 40
0.09
  9
$DIMTSZ
 40
0.0
  9
$DIMTOL
 70
     0
  9
$DIMLIM
 70
     0
  9
$DIMTIH
 70
     1
  9
$DIMTOH
 70
     1
  9
$DIMSE1
 70
     0
  9
$DIMSE2
 70
     0
  9
$DIMTAD
 70
     0
  9
$DIMZIN
 70
     0
  9
$DIMBLK
  1

  9
$DIMASO
 70
     1
  9
$DIMSHO
 70
     1
  9
$DIMPOST
  1

  9
$DIMAPOST
  1

  9
$DIMALT
 70
     0
  9
$DIMALTD
 70
     2
  9
$DIMALTF
 40
25.4
  9
$DIMLFAC
 40
1.0
  9
$DIMTOFL
 70
     0
  9
$DIMTVP
 40
0.0
  9
$DIMTIX
 70
     0
  9
$DIMSOXD
 70
     0
  9
$DIMSAH
 70
     0
  9
$DIMBLK1
  1

  9
$DIMBLK2
  1

  9
$DIMSTYLE
  2
Standard
  9
$DIMCLRD
 70
     0
  9
$DIMCLRE
 70
     0
  9
$DIMCLRT
 70
     0
  9
$DIMTFAC
 40
1.0
  9
$DIMGAP
 40
0.09
  9
$DIMJUST
 70
     0
  9
$DIMSD1
 70
     0
  9
$DIMSD2
 70
     0
  9
$DIMTOLJ
 70
     1
  9
$DIMTZIN
 70
     0
  9
$DIMALTZ
 70
     0
  9
$DIMALTTZ
 70
     0
  9
$DIMUPT
 70
     0
  9
$DIMDEC
 70
     4
  9
$DIMTDEC
 70
     4
  9
$DIMALTU
 70
     2
  9
$DIMALTTD
 70
     2
  9
$DIMTXSTY
  7
Standard
  9
$DIMAUNIT
 70
     0
  9
$DIMADEC
 70
     0
  9
$DIMALTRND
 40
0.0
  9
$DIMAZIN
 70
     0
  9
$DIMDSEP
 70
    46
  9
$DIMATFIT
 70
     3
  9
$DIMFRAC
 70
     0
  9
$DIMLDRBLK
  1

  9
$DIMLUNIT
 70
     2
  9
$DIMLWD
 70
    -2
  9
$DIMLWE
 70
    -2
  9
$DIMTMOVE
 70
     0
  9
$LUNITS
 70
     2
  9
$LUPREC
 70
     4
  9
$SKETCHINC
 40
0.1
  9
$FILLETRAD
 40
0.0
  9
$AUNITS
 70
     0
  9
$AUPREC
 70
     0
  9
$MENU
  1
.
  9
$ELEVATION
 40
0.0
  9
$PELEVATION
 40
0.0
  9
$THICKNESS
 40
0.0
  9
$LIMCHECK
 70
     0
  9
$CHAMFERA
 40
0.0
  9
$CHAMFERB
 40
0.0
  9
$CHAMFERC
 40
0.0
  9
$CHAMFERD
 40
0.0
  9
$SKPOLY
 70
     0
  9
$TDCREATE
 40
2454761.898724861
  9
$TDUCREATE
 40
2454761.815391528
  9
$TDUPDATE
 40
2454761.902601632
  9
$TDUUPDATE
 40
2454761.819268298
  9
$TDINDWG
 40
0.0038767708
  9
$TDUSRTIMER
 40
0.0038767708
  9
$USRTIMER
 70
     1
  9
$ANGBASE
 50
0.0
  9
$ANGDIR
 70
     0
  9
$PDMODE
 70
     0
  9
$PDSIZE
 40
0.0
  9
$PLINEWID
 40
0.0
  9
$SPLFRAME
 70
     0
  9
$SPLINETYPE
 70
     6
  9
$SPLINESEGS
 70
     8
  9
$HANDSEED
  5
207
  9
$SURFTAB1
 70
     6
  9
$SURFTAB2
 70
     6
  9
$SURFTYPE
 70
     6
  9
$SURFU
 70
     6
  9
$SURFV
 70
     6
  9
$UCSBASE
  2

  9
$UCSNAME
  2

  9
$UCSORG
 10
0.0
 20
0.0
 30
0.0
  9
$UCSXDIR
 10
1.0
 20
0.0
 30
0.0
  9
$UCSYDIR
 10
0.0
 20
1.0
 30
0.0
  9
$UCSORTHOREF
  2

  9
$UCSORTHOVIEW
 70
     1
  9
$UCSORGTOP
 10
0.0
 20
0.0
 30
0.0
  9
$UCSORGBOTTOM
 10
0.0
 20
0.0
 30
0.0
  9
$UCSORGLEFT
 10
0.0
 20
0.0
 30
0.0
  9
$UCSORGRIGHT
 10
0.0
 20
0.0
 30
0.0
  9
$UCSORGFRONT
 10
0.0
 20
0.0
 30
0.0
  9
$UCSORGBACK
 10
0.0
 20
0.0
 30
0.0
  9
$PUCSBASE
  2

  9
$PUCSNAME
  2

  9
$PUCSORG
 10
0.0
 20
0.0
 30
0.0
  9
$PUCSXDIR
 10
1.0
 20
0.0
 30
0.0
  9
$PUCSYDIR
 10
0.0
 20
1.0
 30
0.0
  9
$PUCSORTHOREF
  2

  9
$PUCSORTHOVIEW
 70
     0
  9
$PUCSORGTOP
 10
0.0
 20
0.0
 30
0.0
  9
$PUCSORGBOTTOM
 10
0.0
 20
0.0
 30
0.0
  9
$PUCSORGLEFT
 10
0.0
 20
0.0
 30
0.0
  9
$PUCSORGRIGHT
 10
0.0
 20
0.0
 30
0.0
  9
$PUCSORGFRONT
 10
0.0
 20
0.0
 30
0.0
  9
$PUCSORGBACK
 10
0.0
 20
0.0
 30
0.0
  9
$USERI1
 70
     0
  9
$USERI2
 70
     0
  9
$USERI3
 70
     0
  9
$USERI4
 70
     0
  9
$USERI5
 70
     0
  9
$USERR1
 40
0.0
  9
$USERR2
 40
0.0
  9
$USERR3
 40
0.0
  9
$USERR4
 40
0.0
  9
$USERR5
 40
0.0
  9
$WORLDVIEW
 70
     1
  9
$SHADEDGE
 70
     3
  9
$SHADEDIF
 70
    70
  9
$TILEMODE
 70
     1
  9
$MAXACTVP
 70
    64
  9
$PINSBASE
 10
0.0
 20
0.0
 30
0.0
  9
$PLIMCHECK
 70
     0
  9
$PEXTMIN
 10
1.000000000000000E+20
 20
1.000000000000000E+20
 30
1.000000000000000E+20
  9
$PEXTMAX
 10
-1.000000000000000E+20
 20
-1.000000000000000E+20
 30
-1.000000000000000E+20
  9
$PLIMMIN
 10
0.0
 20
0.0
  9
$PLIMMAX
 10
12.0
 20
9.0
  9
$UNITMODE
 70
     0
  9
$VISRETAIN
 70
     1
  9
$PLINEGEN
 70
     0
  9
$PSLTSCALE
 70
     1
  9
$TREEDEPTH
 70
  3020
  9
$CMLSTYLE
  2
Standard
  9
$CMLJUST
 70
     0
  9
$CMLSCALE
 40
1.0
  9
$PROXYGRAPHICS
 70
     1
  9
$MEASUREMENT
 70
     0
  9
$CELWEIGHT
370
    -1
  9
$ENDCAPS
280
     0
  9
$JOINSTYLE
280
     0
  9
$LWDISPLAY
290
     0
  9
$INSUNITS
 70
     0
  9
$HYPERLINKBASE
  1

  9
$STYLESHEET
  1

  9
$XEDIT
290
     1
  9
$CEPSNTYPE
380
     0
  9
$PSTYLEMODE
290
     1
  9
$FINGERPRINTGUID
  2
{F7DD4D99-3F35-4E31-AC8C-65A7B515ACFF}
  9
$VERSIONGUID
  2
{93E91EEF-3C48-4B91-8283-55136744AD6E}
  9
$EXTNAMES
290
     1
  9
$PSVPSCALE
 40
0.0
  9
$OLESTARTUP
290
     0
  0
ENDSEC
  0
SECTION
  2
CLASSES
  0
CLASS
  1
ACDBDICTIONARYWDFLT
  2
AcDbDictionaryWithDefault
  3
AutoCAD 2000
 90
        0
280
     0
281
     0
  0
CLASS
  1
ACDBPLACEHOLDER
  2
AcDbPlaceHolder
  3
AutoCAD 2000
 90
        0
280
     0
281
     0
  0
CLASS
  1
LAYOUT
  2
AcDbLayout
  3
AutoCAD 2000
 90
        0
280
     0
281
     0
  0
CLASS
  1
DICTIONARYVAR
  2
AcDbDictionaryVar
  3
AutoCAD 2000
 90
        0
280
     0
281
     0
  0
ENDSEC
  0
SECTION
  2
TABLES
  0
TABLE
  2
VPORT
  5
8
330
0
100
AcDbSymbolTable
 70
     3
  0
VPORT
  5
206
330
8
100
AcDbSymbolTableRecord
100
AcDbViewportTableRecord
  2
*Active
 70
     0
 10
0.0
 20
0.0
 11
1.0
 21
1.0
 12
50.0
 22
368.5
 13
0.0
 23
0.0
 14
1.0
 24
1.0
 15
0.0
 25
0.0
 16
0.0
 26
0.0
 36
1.0
 17
0.0
 27
0.0
 37
0.0
 40
1327.06757544757
 41
2.078104993597951
 42
50.0
 43
0.0
 44
0.0
 50
0.0
 51
0.0
 71
     0
 72
   100
 73
     1
 74
     3
 75
     0
 76
     0
 77
     0
 78
     0
281
     0
 65
     1
110
0.0
120
0.0
130
0.0
111
1.0
121
0.0
131
0.0
112
0.0
122
1.0
132
0.0
 79
     1
146
0.0
  0
ENDTAB
  0
TABLE
  2
LTYPE
  5
5
330
0
100
AcDbSymbolTable
 70
     1
  0
LTYPE
  5
13
330
5
100
AcDbSymbolTableRecord
100
AcDbLinetypeTableRecord
  2
ByBlock
 70
     0
  3

 72
    65
 73
     0
 40
0.0
  0
LTYPE
  5
14
330
5
100
AcDbSymbolTableRecord
100
AcDbLinetypeTableRecord
  2
ByLayer
 70
     0
  3

 72
    65
 73
     0
 40
0.0
  0
LTYPE
  5
15
330
5
100
AcDbSymbolTableRecord
100
AcDbLinetypeTableRecord
  2
Continuous
 70
     0
  3
Solid line
 72
    65
 73
     0
 40
0.0
  0
ENDTAB
  0
TABLE
  2
LAYER
  5
2
330
0
100
AcDbSymbolTable
 70
     1
  0
LAYER
  5
10
330
2
100
AcDbSymbolTableRecord
100
AcDbLayerTableRecord
  2
0
 70
     0
 62
     7
  6
Continuous
370
    -3
390
F
  0
ENDTAB
  0
TABLE
  2
STYLE
  5
3
330
0
100
AcDbSymbolTable
 70
     1
  0
STYLE
  5
11
330
3
100
AcDbSymbolTableRecord
100
AcDbTextStyleTableRecord
  2
Standard
 70
     0
 40
0.0
 41
1.0
 50
0.0
 71
     0
 42
0.2
  3
txt
  4

  0
ENDTAB
  0
TABLE
  2
VIEW
  5
6
330
0
100
AcDbSymbolTable
 70
     0
  0
ENDTAB
  0
TABLE
  2
UCS
  5
7
330
0
100
AcDbSymbolTable
 70
     0
  0
ENDTAB
  0
TABLE
  2
APPID
  5
9
330
0
100
AcDbSymbolTable
 70
     1
  0
APPID
  5
12
330
9
100
AcDbSymbolTableRecord
100
AcDbRegAppTableRecord
  2
ACAD
 70
     0
  0
ENDTAB
  0
TABLE
  2
DIMSTYLE
  5
A
330
0
100
AcDbSymbolTable
 70
     1
100
AcDbDimStyleTable
 71
     0
  0
DIMSTYLE
105
1F3
330
A
100
AcDbSymbolTableRecord
100
AcDbDimStyleTableRecord
  2
Standard
 70
     0
340
11
  0
ENDTAB
  0
TABLE
  2
BLOCK_RECORD
  5
1
330
0
100
AcDbSymbolTable
 70
     0
  0
BLOCK_RECORD
  5
1E
330
1
100
AcDbSymbolTableRecord
100
AcDbBlockTableRecord
  2
*Model_Space
340
21
  0
BLOCK_RECORD
  5
1A
330
1
100
AcDbSymbolTableRecord
100
AcDbBlockTableRecord
  2
*Paper_Space
340
1D
  0
ENDTAB
  0
ENDSEC
  0
SECTION
  2
BLOCKS
  0
BLOCK
  5
1F
330
1E
100
AcDbEntity
  8
0
100
AcDbBlockBegin
  2
*Model_Space
 70
     0
 10
0.0
 20
0.0
 30
0.0
  3
*Model_Space
  1

  0
ENDBLK
  5
20
330
1E
100
AcDbEntity
  8
0
100
AcDbBlockEnd
  0
BLOCK
  5
1B
330
1A
100
AcDbEntity
 67
     1
  8
0
100
AcDbBlockBegin
  2
*Paper_Space
 70
     0
 10
0.0
 20
0.0
 30
0.0
  3
*Paper_Space
  1

  0
ENDBLK
  5
1C
330
1A
100
AcDbEntity
 67
     1
  8
0
100
AcDbBlockEnd
  0
ENDSEC
  0
SECTION
  2
ENTITIES
  0
LINE
  5
22
330
1E
100
AcDbEntity
  8
0
100
AcDbLine
 10
0.214314999999997
 20
713.9974999999999
 30
0.0
 11
5.923235
 21
698.311899350412
 31
0.0
  0
LINE
  5
23
330
1E
100
AcDbEntity
  8
0
100
AcDbLine
 10
0.0767649999999961
 20
714.5855
 30
0.0
 11
0.178244999999997
 21
714.6224999999999
 31
0.0
  0
LINE
  5
24
330
1E
100
AcDbEntity
  8
0
100
AcDbLine
 10
0.0767649999999961
 20
714.5855
 30
0.0
 11
0.214314999999997
 21
713.9974999999999
 31
0.0
  0
LINE
  5
25
330
1E
100
AcDbEntity
  8
0
100
AcDbLine
 10
0.178244999999997
 20
714.6224999999999
 30
0.0
 11
0.4488749999999971
 21
714.7215
 31
0.0
  0
LINE
  5
26
330
1E
100
AcDbEntity
  8
0
100
AcDbLine
 10
0.0767649999999961
 20
714.5855
 30
0.0
 11
0.214314999999997
 21
713.9974999999999
 31
0.0
  0
LINE
  5
27
330
1E
100
AcDbEntity
  8
0
100
AcDbLine
 10
0.0767649999999961
 20
714.5855
 30
0.0
 11
0.178244999999997
 21
714.6224999999999
 31
0.0
  0
LINE
  5
28
330
1E
100
AcDbEntity
  8
0
100
AcDbLine
 10
2.828184999999999
 20
715.5874999999999
 30
0.0
 11
3.538594999999999
 21
715.8455
 31
0.0
  0
LINE
  5
29
330
1E
100
AcDbEntity
  8
0
100
AcDbLine
 10
3.538594999999999
 20
715.8455
 30
0.0
 11
4.192614999999999
 21
716.0834999999999
 31
0.0
  0
LINE
  5
2A
330
1E
100
AcDbEntity
  8
0
100
AcDbLine
 10
4.192614999999999
 20
716.0834999999999
 30
0.0
 11
4.767705
 21
716.2935
 31
0.0
  0
LINE
  5
2B
330
1E
100
AcDbEntity
  8
0
100
AcDbLine
 10
2.117774999999999
 20
715.3284999999999
 30
0.0
 11
2.828184999999999
 21
715.5874999999999
 31
0.0
  0
LINE
  5
2C
330
1E
100
AcDbEntity
  8
0
100
AcDbLine
 10
1.463745
 20
715.0905
 30
0.0
 11
2.117774999999999
 21
715.3284999999999
 31
0.0
  0
LINE
  5
2D
330
1E
100
AcDbEntity
  8
0
100
AcDbLine
 10
0.8886549999999969
 20
714.8814999999999
 30
0.0
 11
1.463745
 21
715.0905
 31
0.0
  0
LINE
  5
2E
330
1E
100
AcDbEntity
  8
0
100
AcDbLine
 10
0.4488749999999971
 20
714.7215
 30
0.0
 11
0.8886549999999969
 21
714.8814999999999
 31
0.0
  0
LINE
  5
2F
330
1E
100
AcDbEntity
  8
0
100
AcDbLine
 10
0.214314999999997
 20
713.9974999999999
 30
0.0
 11
5.923235
 21
698.311899350412
 31
0.0
  0
LINE
  5
30
330
1E
100
AcDbEntity
  8
0
100
AcDbLine
 10
4.767705
 20
716.2935
 30
0.0
 11
5.207485
 21
716.4534999999999
 31
0.0
  0
LINE
  5
31
330
1E
100
AcDbEntity
  8
0
100
AcDbLine
 10
5.207485
 20
716.4534999999999
 30
0.0
 11
5.478114999999999
 21
716.5515
 31
0.0
  0
LINE
  5
32
330
1E
100
AcDbEntity
  8
0
100
AcDbLine
 10
5.579604999999999
 20
716.5884999999999
 30
0.0
 11
5.852475
 21
716.0495
 31
0.0
  0
LINE
  5
33
330
1E
100
AcDbEntity
  8
0
100
AcDbLine
 10
5.478114999999999
 20
716.5515
 30
0.0
 11
5.579604999999999
 21
716.5884999999999
 31
0.0
  0
LINE
  5
34
330
1E
100
AcDbEntity
  8
0
100
AcDbLine
 10
41.323235
 20
-221.5185
 30
0.0
 11
42.423235
 21
-221.5185
 31
0.0
  0
LINE
  5
35
330
1E
100
AcDbEntity
  8
0
100
AcDbLine
 10
40.923235
 20
-221.5185
 30
0.0
 11
40.923235
 21
-170.5185
 31
0.0
  0
LINE
  5
36
330
1E
100
AcDbEntity
  8
0
100
AcDbLine
 10
40.923235
 20
-221.5185
 30
0.0
 11
41.323235
 21
-221.5185
 31
0.0
  0
LINE
  5
37
330
1E
100
AcDbEntity
  8
0
100
AcDbLine
 10
40.923235
 20
-221.5185
 30
0.0
 11
41.42323499999999
 21
-222.0185
 31
0.0
  0
LINE
  5
38
330
1E
100
AcDbEntity
  8
0
100
AcDbLine
 10
41.82323499999999
 20
-222.0185
 30
0.0
 11
42.82323499999999
 21
-222.0185
 31
0.0
  0
LINE
  5
39
330
1E
100
AcDbEntity
  8
0
100
AcDbLine
 10
41.42323499999999
 20
-222.0185
 30
0.0
 11
51.923235
 21
-222.0185
 31
0.0
  0
LINE
  5
3A
330
1E
100
AcDbEntity
  8
0
100
AcDbLine
 10
41.42323499999999
 20
-222.0185
 30
0.0
 11
41.82323499999999
 21
-222.0185
 31
0.0
  0
LINE
  5
3B
330
1E
100
AcDbEntity
  8
0
100
AcDbLine
 10
41.323235
 20
-170.5185
 30
0.0
 11
42.423235
 21
-170.5185
 31
0.0
  0
LINE
  5
3C
330
1E
100
AcDbEntity
  8
0
100
AcDbLine
 10
40.923235
 20
-170.5185
 30
0.0
 11
41.42323499999999
 21
-170.0185
 31
0.0
  0
LINE
  5
3D
330
1E
100
AcDbEntity
  8
0
100
AcDbLine
 10
40.923235
 20
-170.5185
 30
0.0
 11
41.323235
 21
-170.5185
 31
0.0
  0
LINE
  5
3E
330
1E
100
AcDbEntity
  8
0
100
AcDbLine
 10
40.923235
 20
-170.5185
 30
0.0
 11
40.923235
 21
-221.5185
 31
0.0
  0
LINE
  5
3F
330
1E
100
AcDbEntity
  8
0
100
AcDbLine
 10
42.82323499999999
 20
-222.0185
 30
0.0
 11
44.523235
 21
-222.0185
 31
0.0
  0
LINE
  5
40
330
1E
100
AcDbEntity
  8
0
100
AcDbLine
 10
44.123235
 20
-221.5185
 30
0.0
 11
46.42323499999999
 21
-221.5185
 31
0.0
  0
LINE
  5
41
330
1E
100
AcDbEntity
  8
0
100
AcDbLine
 10
42.423235
 20
-221.5185
 30
0.0
 11
44.123235
 21
-221.5185
 31
0.0
  0
LINE
  5
42
330
1E
100
AcDbEntity
  8
0
100
AcDbLine
 10
44.523235
 20
-222.0185
 30
0.0
 11
46.723235
 21
-222.0185
 31
0.0
  0
LINE
  5
43
330
1E
100
AcDbEntity
  8
0
100
AcDbLine
 10
44.123235
 20
-170.5185
 30
0.0
 11
46.42323499999999
 21
-170.5185
 31
0.0
  0
LINE
  5
44
330
1E
100
AcDbEntity
  8
0
100
AcDbLine
 10
42.423235
 20
-170.5185
 30
0.0
 11
44.123235
 21
-170.5185
 31
0.0
  0
LINE
  5
45
330
1E
100
AcDbEntity
  8
0
100
AcDbLine
 10
46.723235
 20
-222.0185
 30
0.0
 11
49.223235
 21
-222.0185
 31
0.0
  0
LINE
  5
46
330
1E
100
AcDbEntity
  8
0
100
AcDbLine
 10
49.123235
 20
-221.5185
 30
0.0
 11
51.923235
 21
-221.5185
 31
0.0
  0
LINE
  5
47
330
1E
100
AcDbEntity
  8
0
100
AcDbLine
 10
46.42323499999999
 20
-221.5185
 30
0.0
 11
49.123235
 21
-221.5185
 31
0.0
  0
LINE
  5
48
330
1E
100
AcDbEntity
  8
0
100
AcDbLine
 10
49.223235
 20
-222.0185
 30
0.0
 11
51.923235
 21
-222.0185
 31
0.0
  0
LINE
  5
49
330
1E
100
AcDbEntity
  8
0
100
AcDbLine
 10
49.123235
 20
-170.5185
 30
0.0
 11
51.923235
 21
-170.5185
 31
0.0
  0
LINE
  5
4A
330
1E
100
AcDbEntity
  8
0
100
AcDbLine
 10
46.42323499999999
 20
-170.5185
 30
0.0
 11
49.123235
 21
-170.5185
 31
0.0
  0
LINE
  5
4B
330
1E
100
AcDbEntity
  8
0
100
AcDbLine
 10
51.923235
 20
-222.0185
 30
0.0
 11
62.423235
 21
-222.0185
 31
0.0
  0
LINE
  5
4C
330
1E
100
AcDbEntity
  8
0
100
AcDbLine
 10
51.923235
 20
-222.0185
 30
0.0
 11
54.623235
 21
-222.0185
 31
0.0
  0
LINE
  5
4D
330
1E
100
AcDbEntity
  8
0
100
AcDbLine
 10
51.923235
 20
-221.5185
 30
0.0
 11
54.72323499999999
 21
-221.5185
 31
0.0
  0
LINE
  5
4E
330
1E
100
AcDbEntity
  8
0
100
AcDbLine
 10
51.923235
 20
-170.5185
 30
0.0
 11
54.72323499999999
 21
-170.5185
 31
0.0
  0
LINE
  5
4F
330
1E
100
AcDbEntity
  8
0
100
AcDbLine
 10
54.623235
 20
-222.0185
 30
0.0
 11
57.123235
 21
-222.0185
 31
0.0
  0
LINE
  5
50
330
1E
100
AcDbEntity
  8
0
100
AcDbLine
 10
57.123235
 20
-222.0185
 30
0.0
 11
59.32323499999999
 21
-222.0185
 31
0.0
  0
LINE
  5
51
330
1E
100
AcDbEntity
  8
0
100
AcDbLine
 10
54.72323499999999
 20
-221.5185
 30
0.0
 11
57.423235
 21
-221.5185
 31
0.0
  0
LINE
  5
52
330
1E
100
AcDbEntity
  8
0
100
AcDbLine
 10
54.72323499999999
 20
-170.5185
 30
0.0
 11
57.423235
 21
-170.5185
 31
0.0
  0
LINE
  5
53
330
1E
100
AcDbEntity
  8
0
100
AcDbLine
 10
51.923235
 20
-170.0185
 30
0.0
 11
54.623235
 21
-170.0185
 31
0.0
  0
LINE
  5
54
330
1E
100
AcDbEntity
  8
0
100
AcDbLine
 10
54.623235
 20
-170.0185
 30
0.0
 11
57.123235
 21
-170.0185
 31
0.0
  0
LINE
  5
55
330
1E
100
AcDbEntity
  8
0
100
AcDbLine
 10
57.423235
 20
-221.5185
 30
0.0
 11
59.72323499999999
 21
-221.5185
 31
0.0
  0
LINE
  5
56
330
1E
100
AcDbEntity
  8
0
100
AcDbLine
 10
59.32323499999999
 20
-222.0185
 30
0.0
 11
61.023235
 21
-222.0185
 31
0.0
  0
LINE
  5
57
330
1E
100
AcDbEntity
  8
0
100
AcDbLine
 10
61.023235
 20
-222.0185
 30
0.0
 11
62.023235
 21
-222.0185
 31
0.0
  0
LINE
  5
58
330
1E
100
AcDbEntity
  8
0
100
AcDbLine
 10
59.72323499999999
 20
-221.5185
 30
0.0
 11
61.42323499999999
 21
-221.5185
 31
0.0
  0
LINE
  5
59
330
1E
100
AcDbEntity
  8
0
100
AcDbLine
 10
57.423235
 20
-170.5185
 30
0.0
 11
59.72323499999999
 21
-170.5185
 31
0.0
  0
LINE
  5
5A
330
1E
100
AcDbEntity
  8
0
100
AcDbLine
 10
59.72323499999999
 20
-170.5185
 30
0.0
 11
61.42323499999999
 21
-170.5185
 31
0.0
  0
LINE
  5
5B
330
1E
100
AcDbEntity
  8
0
100
AcDbLine
 10
57.123235
 20
-170.0185
 30
0.0
 11
59.32323499999999
 21
-170.0185
 31
0.0
  0
LINE
  5
5C
330
1E
100
AcDbEntity
  8
0
100
AcDbLine
 10
59.32323499999999
 20
-170.0185
 30
0.0
 11
61.023235
 21
-170.0185
 31
0.0
  0
LINE
  5
5D
330
1E
100
AcDbEntity
  8
0
100
AcDbLine
 10
62.023235
 20
-222.0185
 30
0.0
 11
62.423235
 21
-222.0185
 31
0.0
  0
LINE
  5
5E
330
1E
100
AcDbEntity
  8
0
100
AcDbLine
 10
61.42323499999999
 20
-221.5185
 30
0.0
 11
62.523235
 21
-221.5185
 31
0.0
  0
LINE
  5
5F
330
1E
100
AcDbEntity
  8
0
100
AcDbLine
 10
62.523235
 20
-221.5185
 30
0.0
 11
62.923235
 21
-221.5185
 31
0.0
  0
LINE
  5
60
330
1E
100
AcDbEntity
  8
0
100
AcDbLine
 10
61.42323499999999
 20
-170.5185
 30
0.0
 11
62.523235
 21
-170.5185
 31
0.0
  0
LINE
  5
61
330
1E
100
AcDbEntity
  8
0
100
AcDbLine
 10
73.412035
 20
-289.9815
 30
0.0
 11
74.29783499999999
 21
525.3645
 31
0.0
  0
LINE
  5
62
330
1E
100
AcDbEntity
  8
0
100
AcDbLine
 10
73.412035
 20
-289.9815
 30
0.0
 11
73.675135
 21
-289.8525
 31
0.0
  0
LINE
  5
63
330
1E
100
AcDbEntity
  8
0
100
AcDbLine
 10
73.412035
 20
-289.9815
 30
0.0
 11
74.29783499999999
 21
525.3645
 31
0.0
  0
LINE
  5
65
330
1E
100
AcDbEntity
  8
0
100
AcDbLine
 10
75.0194551613305
 20
-289.1920827579208
 30
0.0
 11
75.32808864682841
 21
-289.0406247648827
 31
0.0
  0
LINE
  5
66
330
1E
100
AcDbEntity
  8
0
100
AcDbLine
 10
73.675135
 20
-289.8525
 30
0.0
 11
75.10613499999999
 21
-289.1495
 31
0.0
  0
LINE
  5
69
330
1E
100
AcDbEntity
  8
0
100
AcDbLine
 10
75.10613499999999
 20
-289.1495
 30
0.0
 11
77.503535
 21
-287.9735
 31
0.0
  0
LINE
  5
6C
330
1E
100
AcDbEntity
  8
0
100
AcDbLine
 10
82.32753499999999
 20
-285.6065
 30
0.0
 11
85.236835
 21
-284.1785
 31
0.0
  0
LINE
  5
6E
330
1E
100
AcDbEntity
  8
0
100
AcDbLine
 10
85.236835
 20
-284.1785
 30
0.0
 11
87.632835
 21
-283.0025
 31
0.0
  0
LINE
  5
70
330
1E
100
AcDbEntity
  8
0
100
AcDbLine
 10
87.632835
 20
-283.0025
 30
0.0
 11
89.06753499999998
 21
-282.2985
 31
0.0
  0
LINE
  5
71
330
1E
100
AcDbEntity
  8
0
100
AcDbLine
 10
89.06753499999998
 20
-282.2985
 30
0.0
 11
89.33423499999999
 21
-282.1675
 31
0.0
  0
LINE
  5
72
330
1E
100
AcDbEntity
  8
0
100
AcDbLine
 10
89.33423499999999
 20
-282.1675
 30
0.0
 11
90.29803499999999
 21
525.3635
 31
0.0
  0
LINE
  5
73
330
1E
100
AcDbEntity
  8
0
100
AcDbLine
 10
89.33423499999999
 20
-282.1675
 30
0.0
 11
90.29803499999999
 21
525.3635
 31
0.0
  0
LINE
  5
76
330
1E
100
AcDbEntity
  8
0
100
AcDbLine
 10
88.304135
 20
-282.6725
 30
0.0
 11
89.33423499999999
 21
-282.1675
 31
0.0
  0
LINE
  5
78
330
1E
100
AcDbEntity
  8
0
100
AcDbLine
 10
86.364835
 20
-283.6245
 30
0.0
 11
88.304135
 21
-282.6725
 31
0.0
  0
LINE
  5
7A
330
1E
100
AcDbEntity
  8
0
100
AcDbLine
 10
83.56583499999999
 20
-284.9985
 30
0.0
 11
86.364835
 21
-283.6245
 31
0.0
  0
LINE
  5
7B
330
1E
100
AcDbEntity
  8
0
100
AcDbLine
 10
80.66317029413751
 20
-286.4223235294021
 30
0.0
 11
82.32753499999999
 21
-285.6065
 31
0.0
  0
LINE
  5
7D
330
1E
100
AcDbEntity
  8
0
100
AcDbLine
 10
80.416135
 20
-286.5435
 30
0.0
 11
83.56583499999999
 21
-284.9985
 31
0.0
  0
LINE
  5
7E
330
1E
100
AcDbEntity
  8
0
100
AcDbLine
 10
77.503535
 20
-287.9735
 30
0.0
 11
80.416135
 21
-286.5435
 31
0.0
  0
LINE
  5
80
330
1E
100
AcDbEntity
  8
0
100
AcDbLine
 10
62.523235
 20
-170.5185
 30
0.0
 11
62.923235
 21
-170.5185
 31
0.0
  0
LINE
  5
81
330
1E
100
AcDbEntity
  8
0
100
AcDbLine
 10
62.423235
 20
-170.0185
 30
0.0
 11
62.923235
 21
-170.5185
 31
0.0
  0
LINE
  5
82
330
1E
100
AcDbEntity
  8
0
100
AcDbLine
 10
62.423235
 20
-170.0185
 30
0.0
 11
62.923235
 21
-169.5174999999999
 31
0.0
  0
LINE
  5
83
330
1E
100
AcDbEntity
  8
0
100
AcDbLine
 10
61.023235
 20
-170.0185
 30
0.0
 11
62.023235
 21
-170.0185
 31
0.0
  0
LINE
  5
84
330
1E
100
AcDbEntity
  8
0
100
AcDbLine
 10
62.023235
 20
-170.0185
 30
0.0
 11
62.423235
 21
-170.0185
 31
0.0
  0
LINE
  5
85
330
1E
100
AcDbEntity
  8
0
100
AcDbLine
 10
49.223235
 20
-170.0185
 30
0.0
 11
51.923235
 21
-170.0185
 31
0.0
  0
LINE
  5
86
330
1E
100
AcDbEntity
  8
0
100
AcDbLine
 10
46.723235
 20
-170.0185
 30
0.0
 11
49.223235
 21
-170.0185
 31
0.0
  0
LINE
  5
87
330
1E
100
AcDbEntity
  8
0
100
AcDbLine
 10
44.523235
 20
-170.0185
 30
0.0
 11
46.723235
 21
-170.0185
 31
0.0
  0
LINE
  5
88
330
1E
100
AcDbEntity
  8
0
100
AcDbLine
 10
42.82323499999999
 20
-170.0185
 30
0.0
 11
44.523235
 21
-170.0185
 31
0.0
  0
LINE
  5
89
330
1E
100
AcDbEntity
  8
0
100
AcDbLine
 10
41.82323499999999
 20
-170.0185
 30
0.0
 11
42.82323499999999
 21
-170.0185
 31
0.0
  0
LINE
  5
8A
330
1E
100
AcDbEntity
  8
0
100
AcDbLine
 10
6.384735
 20
667.9814999999999
 30
0.0
 11
37.46173499999999
 21
667.9814999999999
 31
0.0
  0
LINE
  5
8B
330
1E
100
AcDbEntity
  8
0
100
AcDbLine
 10
41.323235
 20
-169.5174999999999
 30
0.0
 11
42.423235
 21
-169.5174999999999
 31
0.0
  0
LINE
  5
8C
330
1E
100
AcDbEntity
  8
0
100
AcDbLine
 10
40.923235
 20
667.9814999999999
 30
0.0
 11
40.923235
 21
-169.5174999999999
 31
0.0
  0
LINE
  5
8D
330
1E
100
AcDbEntity
  8
0
100
AcDbLine
 10
40.923235
 20
-169.5174999999999
 30
0.0
 11
41.323235
 21
-169.5174999999999
 31
0.0
  0
LINE
  5
8E
330
1E
100
AcDbEntity
  8
0
100
AcDbLine
 10
40.923235
 20
-169.5174999999999
 30
0.0
 11
41.42323499999999
 21
-170.0185
 31
0.0
  0
LINE
  5
8F
330
1E
100
AcDbEntity
  8
0
100
AcDbLine
 10
40.923235
 20
-169.5174999999999
 30
0.0
 11
40.923235
 21
667.9814999999999
 31
0.0
  0
LINE
  5
90
330
1E
100
AcDbEntity
  8
0
100
AcDbLine
 10
38.384735
 20
667.9814999999999
 30
0.0
 11
40.923235
 21
667.9814999999999
 31
0.0
  0
LINE
  5
91
330
1E
100
AcDbEntity
  8
0
100
AcDbLine
 10
38.384735
 20
667.9814999999999
 30
0.0
 11
38.384735
 21
668.6475
 31
0.0
  0
LINE
  5
92
330
1E
100
AcDbEntity
  8
0
100
AcDbLine
 10
38.384735
 20
667.9814999999999
 30
0.0
 11
40.923235
 21
667.9814999999999
 31
0.0
  0
LINE
  5
93
330
1E
100
AcDbEntity
  8
0
100
AcDbLine
 10
6.384735
 20
667.9814999999999
 30
0.0
 11
6.384735
 21
668.6475
 31
0.0
  0
LINE
  5
94
330
1E
100
AcDbEntity
  8
0
100
AcDbLine
 10
6.384735
 20
667.9814999999999
 30
0.0
 11
37.46173499999999
 21
667.9814999999999
 31
0.0
  0
LINE
  5
95
330
1E
100
AcDbEntity
  8
0
100
AcDbLine
 10
5.923235
 20
668.4255
 30
0.0
 11
5.923235
 21
669.0915
 31
0.0
  0
LINE
  5
96
330
1E
100
AcDbEntity
  8
0
100
AcDbLine
 10
5.923235
 20
668.4255
 30
0.0
 11
6.384735
 21
667.9814999999999
 31
0.0
  0
LINE
  5
97
330
1E
100
AcDbEntity
  8
0
100
AcDbLine
 10
6.384735
 20
668.6475
 30
0.0
 11
6.384735
 21
670.4234999999999
 31
0.0
  0
LINE
  5
98
330
1E
100
AcDbEntity
  8
0
100
AcDbLine
 10
6.384735
 20
668.6475
 30
0.0
 11
6.384735
 21
667.9814999999999
 31
0.0
  0
LINE
  5
99
330
1E
100
AcDbEntity
  8
0
100
AcDbLine
 10
37.923235
 20
668.4255
 30
0.0
 11
37.923235
 21
669.0915
 31
0.0
  0
LINE
  5
9A
330
1E
100
AcDbEntity
  8
0
100
AcDbLine
 10
37.923235
 20
668.4255
 30
0.0
 11
38.384735
 21
667.9814999999999
 31
0.0
  0
LINE
  5
9B
330
1E
100
AcDbEntity
  8
0
100
AcDbLine
 10
5.923235
 20
669.0915
 30
0.0
 11
5.923235
 21
670.8674999999999
 31
0.0
  0
LINE
  5
9C
330
1E
100
AcDbEntity
  8
0
100
AcDbLine
 10
5.923235
 20
669.0915
 30
0.0
 11
5.923235
 21
668.4255
 31
0.0
  0
LINE
  5
9D
330
1E
100
AcDbEntity
  8
0
100
AcDbLine
 10
5.923235
 20
669.0915
 30
0.0
 11
5.923235
 21
670.8674999999999
 31
0.0
  0
LINE
  5
9E
330
1E
100
AcDbEntity
  8
0
100
AcDbLine
 10
6.384735
 20
670.4234999999999
 30
0.0
 11
6.384735
 21
673.3835
 31
0.0
  0
LINE
  5
9F
330
1E
100
AcDbEntity
  8
0
100
AcDbLine
 10
6.384735
 20
670.4234999999999
 30
0.0
 11
6.384735
 21
668.6475
 31
0.0
  0
LINE
  5
A0
330
1E
100
AcDbEntity
  8
0
100
AcDbLine
 10
5.923235
 20
670.8674999999999
 30
0.0
 11
5.923235
 21
669.0915
 31
0.0
  0
LINE
  5
A1
330
1E
100
AcDbEntity
  8
0
100
AcDbLine
 10
5.923235
 20
670.8674999999999
 30
0.0
 11
5.923235
 21
673.7535
 31
0.0
  0
LINE
  5
A2
330
1E
100
AcDbEntity
  8
0
100
AcDbLine
 10
5.923235
 20
670.8674999999999
 30
0.0
 11
5.923235
 21
673.7535
 31
0.0
  0
LINE
  5
A3
330
1E
100
AcDbEntity
  8
0
100
AcDbLine
 10
5.923235
 20
670.8674999999999
 30
0.0
 11
5.923235
 21
669.0915
 31
0.0
  0
LINE
  5
A4
330
1E
100
AcDbEntity
  8
0
100
AcDbLine
 10
6.384735
 20
673.3835
 30
0.0
 11
6.384735
 21
677.3055
 31
0.0
  0
LINE
  5
A5
330
1E
100
AcDbEntity
  8
0
100
AcDbLine
 10
6.384735
 20
673.3835
 30
0.0
 11
6.384735
 21
670.4234999999999
 31
0.0
  0
LINE
  5
A6
330
1E
100
AcDbEntity
  8
0
100
AcDbLine
 10
5.923235
 20
673.7535
 30
0.0
 11
5.923235
 21
677.5275
 31
0.0
  0
LINE
  5
A7
330
1E
100
AcDbEntity
  8
0
100
AcDbLine
 10
5.923235
 20
673.7535
 30
0.0
 11
5.923235
 21
670.8674999999999
 31
0.0
  0
LINE
  5
A8
330
1E
100
AcDbEntity
  8
0
100
AcDbLine
 10
5.923235
 20
673.7535
 30
0.0
 11
5.923235
 21
670.8674999999999
 31
0.0
  0
LINE
  5
A9
330
1E
100
AcDbEntity
  8
0
100
AcDbLine
 10
5.923235
 20
673.7535
 30
0.0
 11
5.923235
 21
677.5275
 31
0.0
  0
LINE
  5
AA
330
1E
100
AcDbEntity
  8
0
100
AcDbLine
 10
6.384735
 20
677.3055
 30
0.0
 11
6.384735
 21
681.7454999999999
 31
0.0
  0
LINE
  5
AB
330
1E
100
AcDbEntity
  8
0
100
AcDbLine
 10
6.384735
 20
677.3055
 30
0.0
 11
6.384735
 21
673.3835
 31
0.0
  0
LINE
  5
AC
330
1E
100
AcDbEntity
  8
0
100
AcDbLine
 10
5.923235
 20
677.5275
 30
0.0
 11
5.923235
 21
673.7535
 31
0.0
  0
LINE
  5
AD
330
1E
100
AcDbEntity
  8
0
100
AcDbLine
 10
5.923235
 20
677.5275
 30
0.0
 11
5.923235
 21
681.8194999999999
 31
0.0
  0
LINE
  5
AE
330
1E
100
AcDbEntity
  8
0
100
AcDbLine
 10
5.923235
 20
677.5275
 30
0.0
 11
5.923235
 21
681.8194999999999
 31
0.0
  0
LINE
  5
AF
330
1E
100
AcDbEntity
  8
0
100
AcDbLine
 10
5.923235
 20
677.5275
 30
0.0
 11
5.923235
 21
673.7535
 31
0.0
  0
LINE
  5
B0
330
1E
100
AcDbEntity
  8
0
100
AcDbLine
 10
6.384735
 20
681.7454999999999
 30
0.0
 11
6.384735
 21
686.4815
 31
0.0
  0
LINE
  5
B1
330
1E
100
AcDbEntity
  8
0
100
AcDbLine
 10
6.384735
 20
681.7454999999999
 30
0.0
 11
6.384735
 21
677.3055
 31
0.0
  0
LINE
  5
B2
330
1E
100
AcDbEntity
  8
0
100
AcDbLine
 10
5.923235
 20
686.4815
 30
0.0
 11
5.923235
 21
681.8194999999999
 31
0.0
  0
LINE
  5
B3
330
1E
100
AcDbEntity
  8
0
100
AcDbLine
 10
5.923235
 20
686.4815
 30
0.0
 11
5.923235
 21
691.1434999999999
 31
0.0
  0
LINE
  5
B4
330
1E
100
AcDbEntity
  8
0
100
AcDbLine
 10
5.923235
 20
681.8194999999999
 30
0.0
 11
5.923235
 21
686.4815
 31
0.0
  0
LINE
  5
B5
330
1E
100
AcDbEntity
  8
0
100
AcDbLine
 10
5.923235
 20
681.8194999999999
 30
0.0
 11
5.923235
 21
677.5275
 31
0.0
  0
LINE
  5
B6
330
1E
100
AcDbEntity
  8
0
100
AcDbLine
 10
5.923235
 20
681.8194999999999
 30
0.0
 11
5.923235
 21
677.5275
 31
0.0
  0
LINE
  5
B7
330
1E
100
AcDbEntity
  8
0
100
AcDbLine
 10
6.384735
 20
686.4815
 30
0.0
 11
6.384735
 21
681.7454999999999
 31
0.0
  0
LINE
  5
B8
330
1E
100
AcDbEntity
  8
0
100
AcDbLine
 10
6.384735
 20
686.4815
 30
0.0
 11
6.384735
 21
691.2174999999999
 31
0.0
  0
LINE
  5
B9
330
1E
100
AcDbEntity
  8
0
100
AcDbLine
 10
5.923235
 20
691.1434999999999
 30
0.0
 11
5.923235
 21
695.4355
 31
0.0
  0
LINE
  5
BA
330
1E
100
AcDbEntity
  8
0
100
AcDbLine
 10
5.923235
 20
691.1434999999999
 30
0.0
 11
5.923235
 21
686.4815
 31
0.0
  0
LINE
  5
BB
330
1E
100
AcDbEntity
  8
0
100
AcDbLine
 10
5.923235
 20
695.4355
 30
0.0
 11
5.923235
 21
699.2095
 31
0.0
  0
LINE
  5
BC
330
1E
100
AcDbEntity
  8
0
100
AcDbLine
 10
5.923235
 20
695.4355
 30
0.0
 11
5.923235
 21
691.1434999999999
 31
0.0
  0
LINE
  5
BD
330
1E
100
AcDbEntity
  8
0
100
AcDbLine
 10
5.923235
 20
695.4355
 30
0.0
 11
5.923235
 21
698.311899350412
 31
0.0
  0
LINE
  5
BE
330
1E
100
AcDbEntity
  8
0
100
AcDbLine
 10
6.384735
 20
691.2174999999999
 30
0.0
 11
6.384735
 21
695.6575
 31
0.0
  0
LINE
  5
BF
330
1E
100
AcDbEntity
  8
0
100
AcDbLine
 10
6.384735
 20
691.2174999999999
 30
0.0
 11
6.384735
 21
686.4815
 31
0.0
  0
LINE
  5
C0
330
1E
100
AcDbEntity
  8
0
100
AcDbLine
 10
5.923235
 20
698.311899350412
 30
0.0
 11
5.923235
 21
695.4355
 31
0.0
  0
LINE
  5
C1
330
1E
100
AcDbEntity
  8
0
100
AcDbLine
 10
5.923235
 20
699.2095
 30
0.0
 11
5.923235
 21
702.0955
 31
0.0
  0
LINE
  5
C2
330
1E
100
AcDbEntity
  8
0
100
AcDbLine
 10
5.923235
 20
699.2095
 30
0.0
 11
5.923235
 21
695.4355
 31
0.0
  0
LINE
  5
C3
330
1E
100
AcDbEntity
  8
0
100
AcDbLine
 10
5.923235
 20
702.0955
 30
0.0
 11
5.923235
 21
703.8714999999999
 31
0.0
  0
LINE
  5
C4
330
1E
100
AcDbEntity
  8
0
100
AcDbLine
 10
5.923235
 20
702.0955
 30
0.0
 11
5.923235
 21
699.2095
 31
0.0
  0
LINE
  5
C5
330
1E
100
AcDbEntity
  8
0
100
AcDbLine
 10
6.384735
 20
695.6575
 30
0.0
 11
6.384735
 21
699.5795000000001
 31
0.0
  0
LINE
  5
C6
330
1E
100
AcDbEntity
  8
0
100
AcDbLine
 10
6.384735
 20
695.6575
 30
0.0
 11
6.384735
 21
691.2174999999999
 31
0.0
  0
LINE
  5
C7
330
1E
100
AcDbEntity
  8
0
100
AcDbLine
 10
6.384735
 20
699.5795000000001
 30
0.0
 11
6.384735
 21
702.5394999999999
 31
0.0
  0
LINE
  5
C8
330
1E
100
AcDbEntity
  8
0
100
AcDbLine
 10
6.384735
 20
699.5795000000001
 30
0.0
 11
6.384735
 21
695.6575
 31
0.0
  0
LINE
  5
C9
330
1E
100
AcDbEntity
  8
0
100
AcDbLine
 10
5.923235
 20
703.8714999999999
 30
0.0
 11
5.923235
 21
702.0955
 31
0.0
  0
LINE
  5
CA
330
1E
100
AcDbEntity
  8
0
100
AcDbLine
 10
6.384735
 20
704.4649960907769
 30
0.0
 11
6.384735
 21
704.3155
 31
0.0
  0
LINE
  5
CB
330
1E
100
AcDbEntity
  8
0
100
AcDbLine
 10
6.384735
 20
702.5394999999999
 30
0.0
 11
6.384735
 21
704.3155
 31
0.0
  0
LINE
  5
CC
330
1E
100
AcDbEntity
  8
0
100
AcDbLine
 10
6.384735
 20
702.5394999999999
 30
0.0
 11
6.384735
 21
699.5795000000001
 31
0.0
  0
LINE
  5
CD
330
1E
100
AcDbEntity
  8
0
100
AcDbLine
 10
37.46173499999999
 20
691.2174999999999
 30
0.0
 11
37.46173499999999
 21
686.4815
 31
0.0
  0
LINE
  5
CE
330
1E
100
AcDbEntity
  8
0
100
AcDbLine
 10
37.46173499999999
 20
691.2174999999999
 30
0.0
 11
37.46173499999999
 21
695.6575
 31
0.0
  0
LINE
  5
CF
330
1E
100
AcDbEntity
  8
0
100
AcDbLine
 10
37.46173499999999
 20
695.6575
 30
0.0
 11
37.46173499999999
 21
691.2174999999999
 31
0.0
  0
LINE
  5
D0
330
1E
100
AcDbEntity
  8
0
100
AcDbLine
 10
37.46173499999999
 20
695.6575
 30
0.0
 11
37.46173499999999
 21
699.5795000000001
 31
0.0
  0
LINE
  5
D1
330
1E
100
AcDbEntity
  8
0
100
AcDbLine
 10
37.46173499999999
 20
699.5795000000001
 30
0.0
 11
37.46173499999999
 21
695.6575
 31
0.0
  0
LINE
  5
D2
330
1E
100
AcDbEntity
  8
0
100
AcDbLine
 10
37.46173499999999
 20
699.5795000000001
 30
0.0
 11
37.46173499999999
 21
702.5394999999999
 31
0.0
  0
LINE
  5
D3
330
1E
100
AcDbEntity
  8
0
100
AcDbLine
 10
37.923235
 20
691.1434999999999
 30
0.0
 11
37.923235
 21
686.4815
 31
0.0
  0
LINE
  5
D4
330
1E
100
AcDbEntity
  8
0
100
AcDbLine
 10
37.923235
 20
691.1434999999999
 30
0.0
 11
37.923235
 21
695.4355
 31
0.0
  0
LINE
  5
D5
330
1E
100
AcDbEntity
  8
0
100
AcDbLine
 10
37.923235
 20
695.4355
 30
0.0
 11
37.923235
 21
691.1434999999999
 31
0.0
  0
LINE
  5
D6
330
1E
100
AcDbEntity
  8
0
100
AcDbLine
 10
37.923235
 20
695.4355
 30
0.0
 11
37.923235
 21
699.2095
 31
0.0
  0
LINE
  5
D7
330
1E
100
AcDbEntity
  8
0
100
AcDbLine
 10
37.923235
 20
699.2095
 30
0.0
 11
37.923235
 21
695.4355
 31
0.0
  0
LINE
  5
D8
330
1E
100
AcDbEntity
  8
0
100
AcDbLine
 10
37.923235
 20
699.2095
 30
0.0
 11
37.923235
 21
702.0955
 31
0.0
  0
LINE
  5
D9
330
1E
100
AcDbEntity
  8
0
100
AcDbLine
 10
37.923235
 20
702.0955
 30
0.0
 11
37.923235
 21
699.2095
 31
0.0
  0
LINE
  5
DA
330
1E
100
AcDbEntity
  8
0
100
AcDbLine
 10
37.923235
 20
702.0955
 30
0.0
 11
37.923235
 21
703.8714999999999
 31
0.0
  0
LINE
  5
DB
330
1E
100
AcDbEntity
  8
0
100
AcDbLine
 10
37.923235
 20
703.8714999999999
 30
0.0
 11
37.923235
 21
702.0955
 31
0.0
  0
LINE
  5
DC
330
1E
100
AcDbEntity
  8
0
100
AcDbLine
 10
37.923235
 20
703.8714999999999
 30
0.0
 11
37.923235
 21
704.5374999999999
 31
0.0
  0
LINE
  5
DD
330
1E
100
AcDbEntity
  8
0
100
AcDbLine
 10
37.46173499999999
 20
702.5394999999999
 30
0.0
 11
37.46173499999999
 21
699.5795000000001
 31
0.0
  0
LINE
  5
DE
330
1E
100
AcDbEntity
  8
0
100
AcDbLine
 10
37.46173499999999
 20
702.5394999999999
 30
0.0
 11
37.46173499999999
 21
704.3155
 31
0.0
  0
LINE
  5
DF
330
1E
100
AcDbEntity
  8
0
100
AcDbLine
 10
37.923235
 20
704.5374999999999
 30
0.0
 11
37.923235
 21
703.8714999999999
 31
0.0
  0
LINE
  5
E0
330
1E
100
AcDbEntity
  8
0
100
AcDbLine
 10
37.923235
 20
704.5374999999999
 30
0.0
 11
38.384735
 21
704.9814999999999
 31
0.0
  0
LINE
  5
E1
330
1E
100
AcDbEntity
  8
0
100
AcDbLine
 10
37.46173499999999
 20
704.3155
 30
0.0
 11
37.46173499999999
 21
702.5394999999999
 31
0.0
  0
LINE
  5
E2
330
1E
100
AcDbEntity
  8
0
100
AcDbLine
 10
37.46173499999999
 20
704.3155
 30
0.0
 11
37.46173499999999
 21
704.9814999999999
 31
0.0
  0
LINE
  5
E3
330
1E
100
AcDbEntity
  8
0
100
AcDbLine
 10
9.807533168176838
 20
704.9814999999999
 30
0.0
 11
37.46173499999999
 21
704.9814999999999
 31
0.0
  0
LINE
  5
E4
330
1E
100
AcDbEntity
  8
0
100
AcDbLine
 10
37.46173499999999
 20
704.9814999999999
 30
0.0
 11
37.46173499999999
 21
704.3155
 31
0.0
  0
LINE
  5
E5
330
1E
100
AcDbEntity
  8
0
100
AcDbLine
 10
37.46173499999999
 20
704.9814999999999
 30
0.0
 11
37.923235
 21
704.5374999999999
 31
0.0
  0
LINE
  5
E6
330
1E
100
AcDbEntity
  8
0
100
AcDbLine
 10
6.384735
 20
704.3155
 30
0.0
 11
6.384735
 21
704.4649960907769
 31
0.0
  0
LINE
  5
E7
330
1E
100
AcDbEntity
  8
0
100
AcDbLine
 10
6.384735
 20
704.3155
 30
0.0
 11
6.384735
 21
702.5394999999999
 31
0.0
  0
LINE
  5
E8
330
1E
100
AcDbEntity
  8
0
100
AcDbLine
 10
37.46173499999999
 20
686.4815
 30
0.0
 11
37.46173499999999
 21
681.7454999999999
 31
0.0
  0
LINE
  5
E9
330
1E
100
AcDbEntity
  8
0
100
AcDbLine
 10
37.46173499999999
 20
686.4815
 30
0.0
 11
37.46173499999999
 21
691.2174999999999
 31
0.0
  0
LINE
  5
EA
330
1E
100
AcDbEntity
  8
0
100
AcDbLine
 10
37.923235
 20
686.4815
 30
0.0
 11
37.923235
 21
681.8194999999999
 31
0.0
  0
LINE
  5
EB
330
1E
100
AcDbEntity
  8
0
100
AcDbLine
 10
37.923235
 20
686.4815
 30
0.0
 11
37.923235
 21
691.1434999999999
 31
0.0
  0
LINE
  5
EC
330
1E
100
AcDbEntity
  8
0
100
AcDbLine
 10
37.46173499999999
 20
681.7454999999999
 30
0.0
 11
37.46173499999999
 21
686.4815
 31
0.0
  0
LINE
  5
ED
330
1E
100
AcDbEntity
  8
0
100
AcDbLine
 10
37.46173499999999
 20
681.7454999999999
 30
0.0
 11
37.46173499999999
 21
677.3055
 31
0.0
  0
LINE
  5
EE
330
1E
100
AcDbEntity
  8
0
100
AcDbLine
 10
37.923235
 20
681.8194999999999
 30
0.0
 11
37.923235
 21
677.5275
 31
0.0
  0
LINE
  5
EF
330
1E
100
AcDbEntity
  8
0
100
AcDbLine
 10
37.923235
 20
681.8194999999999
 30
0.0
 11
37.923235
 21
686.4815
 31
0.0
  0
LINE
  5
F0
330
1E
100
AcDbEntity
  8
0
100
AcDbLine
 10
37.46173499999999
 20
677.3055
 30
0.0
 11
37.46173499999999
 21
681.7454999999999
 31
0.0
  0
LINE
  5
F1
330
1E
100
AcDbEntity
  8
0
100
AcDbLine
 10
37.46173499999999
 20
677.3055
 30
0.0
 11
37.46173499999999
 21
673.3835
 31
0.0
  0
LINE
  5
F2
330
1E
100
AcDbEntity
  8
0
100
AcDbLine
 10
37.923235
 20
677.5275
 30
0.0
 11
37.923235
 21
673.7535
 31
0.0
  0
LINE
  5
F3
330
1E
100
AcDbEntity
  8
0
100
AcDbLine
 10
37.923235
 20
677.5275
 30
0.0
 11
37.923235
 21
681.8194999999999
 31
0.0
  0
LINE
  5
F4
330
1E
100
AcDbEntity
  8
0
100
AcDbLine
 10
37.46173499999999
 20
673.3835
 30
0.0
 11
37.46173499999999
 21
677.3055
 31
0.0
  0
LINE
  5
F5
330
1E
100
AcDbEntity
  8
0
100
AcDbLine
 10
37.46173499999999
 20
673.3835
 30
0.0
 11
37.46173499999999
 21
670.4234999999999
 31
0.0
  0
LINE
  5
F6
330
1E
100
AcDbEntity
  8
0
100
AcDbLine
 10
37.923235
 20
673.7535
 30
0.0
 11
37.923235
 21
670.8674999999999
 31
0.0
  0
LINE
  5
F7
330
1E
100
AcDbEntity
  8
0
100
AcDbLine
 10
37.923235
 20
673.7535
 30
0.0
 11
37.923235
 21
677.5275
 31
0.0
  0
LINE
  5
F8
330
1E
100
AcDbEntity
  8
0
100
AcDbLine
 10
37.46173499999999
 20
670.4234999999999
 30
0.0
 11
37.46173499999999
 21
673.3835
 31
0.0
  0
LINE
  5
F9
330
1E
100
AcDbEntity
  8
0
100
AcDbLine
 10
37.46173499999999
 20
670.4234999999999
 30
0.0
 11
37.46173499999999
 21
668.6475
 31
0.0
  0
LINE
  5
FA
330
1E
100
AcDbEntity
  8
0
100
AcDbLine
 10
37.923235
 20
670.8674999999999
 30
0.0
 11
37.923235
 21
669.0915
 31
0.0
  0
LINE
  5
FB
330
1E
100
AcDbEntity
  8
0
100
AcDbLine
 10
37.923235
 20
670.8674999999999
 30
0.0
 11
37.923235
 21
673.7535
 31
0.0
  0
LINE
  5
FC
330
1E
100
AcDbEntity
  8
0
100
AcDbLine
 10
37.46173499999999
 20
668.6475
 30
0.0
 11
37.46173499999999
 21
670.4234999999999
 31
0.0
  0
LINE
  5
FD
330
1E
100
AcDbEntity
  8
0
100
AcDbLine
 10
37.46173499999999
 20
668.6475
 30
0.0
 11
37.46173499999999
 21
667.9814999999999
 31
0.0
  0
LINE
  5
FE
330
1E
100
AcDbEntity
  8
0
100
AcDbLine
 10
38.384735
 20
691.2174999999999
 30
0.0
 11
38.384735
 21
695.6575
 31
0.0
  0
LINE
  5
FF
330
1E
100
AcDbEntity
  8
0
100
AcDbLine
 10
38.384735
 20
691.2174999999999
 30
0.0
 11
38.384735
 21
686.4815
 31
0.0
  0
LINE
  5
100
330
1E
100
AcDbEntity
  8
0
100
AcDbLine
 10
38.384735
 20
695.6575
 30
0.0
 11
38.384735
 21
699.5795000000001
 31
0.0
  0
LINE
  5
101
330
1E
100
AcDbEntity
  8
0
100
AcDbLine
 10
38.384735
 20
695.6575
 30
0.0
 11
38.384735
 21
691.2174999999999
 31
0.0
  0
LINE
  5
102
330
1E
100
AcDbEntity
  8
0
100
AcDbLine
 10
38.384735
 20
699.5795000000001
 30
0.0
 11
38.384735
 21
702.5394999999999
 31
0.0
  0
LINE
  5
103
330
1E
100
AcDbEntity
  8
0
100
AcDbLine
 10
38.384735
 20
699.5795000000001
 30
0.0
 11
38.384735
 21
695.6575
 31
0.0
  0
LINE
  5
104
330
1E
100
AcDbEntity
  8
0
100
AcDbLine
 10
38.384735
 20
702.5394999999999
 30
0.0
 11
38.384735
 21
704.3155
 31
0.0
  0
LINE
  5
105
330
1E
100
AcDbEntity
  8
0
100
AcDbLine
 10
38.384735
 20
702.5394999999999
 30
0.0
 11
38.384735
 21
699.5795000000001
 31
0.0
  0
LINE
  5
106
330
1E
100
AcDbEntity
  8
0
100
AcDbLine
 10
38.384735
 20
704.9814999999999
 30
0.0
 11
40.923235
 21
704.9814999999999
 31
0.0
  0
LINE
  5
107
330
1E
100
AcDbEntity
  8
0
100
AcDbLine
 10
38.384735
 20
704.9814999999999
 30
0.0
 11
40.923235
 21
704.9814999999999
 31
0.0
  0
LINE
  5
108
330
1E
100
AcDbEntity
  8
0
100
AcDbLine
 10
38.384735
 20
704.9814999999999
 30
0.0
 11
38.384735
 21
704.3155
 31
0.0
  0
LINE
  5
109
330
1E
100
AcDbEntity
  8
0
100
AcDbLine
 10
38.384735
 20
704.3155
 30
0.0
 11
38.384735
 21
704.9814999999999
 31
0.0
  0
LINE
  5
10A
330
1E
100
AcDbEntity
  8
0
100
AcDbLine
 10
38.384735
 20
704.3155
 30
0.0
 11
38.384735
 21
702.5394999999999
 31
0.0
  0
LINE
  5
10B
330
1E
100
AcDbEntity
  8
0
100
AcDbLine
 10
38.384735
 20
686.4815
 30
0.0
 11
38.384735
 21
681.7454999999999
 31
0.0
  0
LINE
  5
10C
330
1E
100
AcDbEntity
  8
0
100
AcDbLine
 10
38.384735
 20
686.4815
 30
0.0
 11
38.384735
 21
691.2174999999999
 31
0.0
  0
LINE
  5
10D
330
1E
100
AcDbEntity
  8
0
100
AcDbLine
 10
38.384735
 20
681.7454999999999
 30
0.0
 11
38.384735
 21
686.4815
 31
0.0
  0
LINE
  5
10E
330
1E
100
AcDbEntity
  8
0
100
AcDbLine
 10
38.384735
 20
681.7454999999999
 30
0.0
 11
38.384735
 21
677.3055
 31
0.0
  0
LINE
  5
10F
330
1E
100
AcDbEntity
  8
0
100
AcDbLine
 10
38.384735
 20
677.3055
 30
0.0
 11
38.384735
 21
681.7454999999999
 31
0.0
  0
LINE
  5
110
330
1E
100
AcDbEntity
  8
0
100
AcDbLine
 10
38.384735
 20
677.3055
 30
0.0
 11
38.384735
 21
673.3835
 31
0.0
  0
LINE
  5
111
330
1E
100
AcDbEntity
  8
0
100
AcDbLine
 10
38.384735
 20
673.3835
 30
0.0
 11
38.384735
 21
677.3055
 31
0.0
  0
LINE
  5
112
330
1E
100
AcDbEntity
  8
0
100
AcDbLine
 10
38.384735
 20
673.3835
 30
0.0
 11
38.384735
 21
670.4234999999999
 31
0.0
  0
LINE
  5
113
330
1E
100
AcDbEntity
  8
0
100
AcDbLine
 10
40.923235
 20
704.9538192881059
 30
0.0
 11
40.923235
 21
974.4815
 31
0.0
  0
LINE
  5
114
330
1E
100
AcDbEntity
  8
0
100
AcDbLine
 10
41.323235
 20
974.4815
 30
0.0
 11
42.423235
 21
974.4815
 31
0.0
  0
LINE
  5
115
330
1E
100
AcDbEntity
  8
0
100
AcDbLine
 10
40.923235
 20
974.4815
 30
0.0
 11
40.923235
 21
704.9538192881059
 31
0.0
  0
LINE
  5
116
330
1E
100
AcDbEntity
  8
0
100
AcDbLine
 10
40.923235
 20
974.4815
 30
0.0
 11
41.323235
 21
974.4815
 31
0.0
  0
LINE
  5
117
330
1E
100
AcDbEntity
  8
0
100
AcDbLine
 10
40.923235
 20
974.4815
 30
0.0
 11
41.42323499999999
 21
974.9814999999999
 31
0.0
  0
LINE
  5
118
330
1E
100
AcDbEntity
  8
0
100
AcDbLine
 10
38.384735
 20
670.4234999999999
 30
0.0
 11
38.384735
 21
673.3835
 31
0.0
  0
LINE
  5
119
330
1E
100
AcDbEntity
  8
0
100
AcDbLine
 10
38.384735
 20
670.4234999999999
 30
0.0
 11
38.384735
 21
668.6475
 31
0.0
  0
LINE
  5
11A
330
1E
100
AcDbEntity
  8
0
100
AcDbLine
 10
38.384735
 20
668.6475
 30
0.0
 11
38.384735
 21
670.4234999999999
 31
0.0
  0
LINE
  5
11B
330
1E
100
AcDbEntity
  8
0
100
AcDbLine
 10
38.384735
 20
668.6475
 30
0.0
 11
38.384735
 21
667.9814999999999
 31
0.0
  0
LINE
  5
11C
330
1E
100
AcDbEntity
  8
0
100
AcDbLine
 10
37.923235
 20
669.0915
 30
0.0
 11
37.923235
 21
668.4255
 31
0.0
  0
LINE
  5
11D
330
1E
100
AcDbEntity
  8
0
100
AcDbLine
 10
37.923235
 20
669.0915
 30
0.0
 11
37.923235
 21
670.8674999999999
 31
0.0
  0
LINE
  5
11E
330
1E
100
AcDbEntity
  8
0
100
AcDbLine
 10
37.46173499999999
 20
667.9814999999999
 30
0.0
 11
37.46173499999999
 21
668.6475
 31
0.0
  0
LINE
  5
11F
330
1E
100
AcDbEntity
  8
0
100
AcDbLine
 10
37.46173499999999
 20
667.9814999999999
 30
0.0
 11
37.923235
 21
668.4255
 31
0.0
  0
LINE
  5
120
330
1E
100
AcDbEntity
  8
0
100
AcDbLine
 10
41.323235
 20
975.4815
 30
0.0
 11
42.423235
 21
975.4815
 31
0.0
  0
LINE
  5
121
330
1E
100
AcDbEntity
  8
0
100
AcDbLine
 10
40.923235
 20
975.4815
 30
0.0
 11
40.923235
 21
1026.4815
 31
0.0
  0
LINE
  5
122
330
1E
100
AcDbEntity
  8
0
100
AcDbLine
 10
40.923235
 20
975.4815
 30
0.0
 11
41.323235
 21
975.4815
 31
0.0
  0
LINE
  5
123
330
1E
100
AcDbEntity
  8
0
100
AcDbLine
 10
41.42323499999999
 20
974.9814999999999
 30
0.0
 11
41.82323499999999
 21
974.9814999999999
 31
0.0
  0
LINE
  5
124
330
1E
100
AcDbEntity
  8
0
100
AcDbLine
 10
41.323235
 20
1026.4815
 30
0.0
 11
42.423235
 21
1026.4815
 31
0.0
  0
LINE
  5
125
330
1E
100
AcDbEntity
  8
0
100
AcDbLine
 10
40.923235
 20
1026.4815
 30
0.0
 11
41.42323499999999
 21
1026.9815
 31
0.0
  0
LINE
  5
126
330
1E
100
AcDbEntity
  8
0
100
AcDbLine
 10
40.923235
 20
1026.4815
 30
0.0
 11
41.323235
 21
1026.4815
 31
0.0
  0
LINE
  5
127
330
1E
100
AcDbEntity
  8
0
100
AcDbLine
 10
40.923235
 20
1026.4815
 30
0.0
 11
40.923235
 21
975.4815
 31
0.0
  0
LINE
  5
128
330
1E
100
AcDbEntity
  8
0
100
AcDbLine
 10
42.423235
 20
974.4815
 30
0.0
 11
44.123235
 21
974.4815
 31
0.0
  0
LINE
  5
129
330
1E
100
AcDbEntity
  8
0
100
AcDbLine
 10
42.423235
 20
-169.5174999999999
 30
0.0
 11
44.123235
 21
-169.5174999999999
 31
0.0
  0
LINE
  5
12A
330
1E
100
AcDbEntity
  8
0
100
AcDbLine
 10
41.82323499999999
 20
974.9814999999999
 30
0.0
 11
42.82323499999999
 21
974.9814999999999
 31
0.0
  0
LINE
  5
12B
330
1E
100
AcDbEntity
  8
0
100
AcDbLine
 10
42.82323499999999
 20
974.9814999999999
 30
0.0
 11
44.523235
 21
974.9814999999999
 31
0.0
  0
LINE
  5
12C
330
1E
100
AcDbEntity
  8
0
100
AcDbLine
 10
42.423235
 20
975.4815
 30
0.0
 11
44.123235
 21
975.4815
 31
0.0
  0
LINE
  5
12D
330
1E
100
AcDbEntity
  8
0
100
AcDbLine
 10
42.423235
 20
1026.4815
 30
0.0
 11
44.123235
 21
1026.4815
 31
0.0
  0
LINE
  5
12E
330
1E
100
AcDbEntity
  8
0
100
AcDbLine
 10
44.123235
 20
974.4815
 30
0.0
 11
46.42323499999999
 21
974.4815
 31
0.0
  0
LINE
  5
12F
330
1E
100
AcDbEntity
  8
0
100
AcDbLine
 10
46.42323499999999
 20
974.4815
 30
0.0
 11
49.123235
 21
974.4815
 31
0.0
  0
LINE
  5
130
330
1E
100
AcDbEntity
  8
0
100
AcDbLine
 10
46.42323499999999
 20
-169.5174999999999
 30
0.0
 11
49.123235
 21
-169.5174999999999
 31
0.0
  0
LINE
  5
131
330
1E
100
AcDbEntity
  8
0
100
AcDbLine
 10
44.123235
 20
-169.5174999999999
 30
0.0
 11
46.42323499999999
 21
-169.5174999999999
 31
0.0
  0
LINE
  5
132
330
1E
100
AcDbEntity
  8
0
100
AcDbLine
 10
44.523235
 20
974.9814999999999
 30
0.0
 11
46.723235
 21
974.9814999999999
 31
0.0
  0
LINE
  5
133
330
1E
100
AcDbEntity
  8
0
100
AcDbLine
 10
46.42323499999999
 20
975.4815
 30
0.0
 11
49.123235
 21
975.4815
 31
0.0
  0
LINE
  5
134
330
1E
100
AcDbEntity
  8
0
100
AcDbLine
 10
44.123235
 20
975.4815
 30
0.0
 11
46.42323499999999
 21
975.4815
 31
0.0
  0
LINE
  5
135
330
1E
100
AcDbEntity
  8
0
100
AcDbLine
 10
46.723235
 20
974.9814999999999
 30
0.0
 11
49.223235
 21
974.9814999999999
 31
0.0
  0
LINE
  5
136
330
1E
100
AcDbEntity
  8
0
100
AcDbLine
 10
46.42323499999999
 20
1026.4815
 30
0.0
 11
49.123235
 21
1026.4815
 31
0.0
  0
LINE
  5
137
330
1E
100
AcDbEntity
  8
0
100
AcDbLine
 10
44.123235
 20
1026.4815
 30
0.0
 11
46.42323499999999
 21
1026.4815
 31
0.0
  0
LINE
  5
138
330
1E
100
AcDbEntity
  8
0
100
AcDbLine
 10
49.123235
 20
974.4815
 30
0.0
 11
51.923235
 21
974.4815
 31
0.0
  0
LINE
  5
139
330
1E
100
AcDbEntity
  8
0
100
AcDbLine
 10
49.123235
 20
-169.5174999999999
 30
0.0
 11
51.923235
 21
-169.5174999999999
 31
0.0
  0
LINE
  5
13A
330
1E
100
AcDbEntity
  8
0
100
AcDbLine
 10
49.123235
 20
975.4815
 30
0.0
 11
51.923235
 21
975.4815
 31
0.0
  0
LINE
  5
13B
330
1E
100
AcDbEntity
  8
0
100
AcDbLine
 10
51.923235
 20
974.4815
 30
0.0
 11
54.72323499999999
 21
974.4815
 31
0.0
  0
LINE
  5
13C
330
1E
100
AcDbEntity
  8
0
100
AcDbLine
 10
51.923235
 20
-169.5174999999999
 30
0.0
 11
54.72323499999999
 21
-169.5174999999999
 31
0.0
  0
LINE
  5
13D
330
1E
100
AcDbEntity
  8
0
100
AcDbLine
 10
51.923235
 20
974.9814999999999
 30
0.0
 11
54.623235
 21
974.9814999999999
 31
0.0
  0
LINE
  5
13E
330
1E
100
AcDbEntity
  8
0
100
AcDbLine
 10
54.72323499999999
 20
-169.5174999999999
 30
0.0
 11
57.423235
 21
-169.5174999999999
 31
0.0
  0
LINE
  5
13F
330
1E
100
AcDbEntity
  8
0
100
AcDbLine
 10
54.72323499999999
 20
974.4815
 30
0.0
 11
57.423235
 21
974.4815
 31
0.0
  0
LINE
  5
140
330
1E
100
AcDbEntity
  8
0
100
AcDbLine
 10
57.423235
 20
974.4815
 30
0.0
 11
59.72323499999999
 21
974.4815
 31
0.0
  0
LINE
  5
141
330
1E
100
AcDbEntity
  8
0
100
AcDbLine
 10
57.423235
 20
-169.5174999999999
 30
0.0
 11
59.72323499999999
 21
-169.5174999999999
 31
0.0
  0
LINE
  5
142
330
1E
100
AcDbEntity
  8
0
100
AcDbLine
 10
54.623235
 20
974.9814999999999
 30
0.0
 11
57.123235
 21
974.9814999999999
 31
0.0
  0
LINE
  5
143
330
1E
100
AcDbEntity
  8
0
100
AcDbLine
 10
57.123235
 20
974.9814999999999
 30
0.0
 11
59.32323499999999
 21
974.9814999999999
 31
0.0
  0
LINE
  5
144
330
1E
100
AcDbEntity
  8
0
100
AcDbLine
 10
59.72323499999999
 20
-169.5174999999999
 30
0.0
 11
61.42323499999999
 21
-169.5174999999999
 31
0.0
  0
LINE
  5
145
330
1E
100
AcDbEntity
  8
0
100
AcDbLine
 10
59.72323499999999
 20
974.4815
 30
0.0
 11
61.42323499999999
 21
974.4815
 31
0.0
  0
LINE
  5
146
330
1E
100
AcDbEntity
  8
0
100
AcDbLine
 10
61.42323499999999
 20
974.4815
 30
0.0
 11
62.523235
 21
974.4815
 31
0.0
  0
LINE
  5
147
330
1E
100
AcDbEntity
  8
0
100
AcDbLine
 10
61.42323499999999
 20
-169.5174999999999
 30
0.0
 11
62.523235
 21
-169.5174999999999
 31
0.0
  0
LINE
  5
148
330
1E
100
AcDbEntity
  8
0
100
AcDbLine
 10
59.32323499999999
 20
974.9814999999999
 30
0.0
 11
61.023235
 21
974.9814999999999
 31
0.0
  0
LINE
  5
149
330
1E
100
AcDbEntity
  8
0
100
AcDbLine
 10
61.023235
 20
974.9814999999999
 30
0.0
 11
62.023235
 21
974.9814999999999
 31
0.0
  0
LINE
  5
14A
330
1E
100
AcDbEntity
  8
0
100
AcDbLine
 10
62.923235
 20
-169.5174999999999
 30
0.0
 11
62.92323500000001
 21
667.9814999999999
 31
0.0
  0
LINE
  5
14B
330
1E
100
AcDbEntity
  8
0
100
AcDbLine
 10
62.523235
 20
-169.5174999999999
 30
0.0
 11
62.923235
 21
-169.5174999999999
 31
0.0
  0
LINE
  5
14C
330
1E
100
AcDbEntity
  8
0
100
AcDbLine
 10
74.281935
 20
558.3655
 30
0.0
 11
74.29783499999999
 21
525.3645
 31
0.0
  0
LINE
  5
14D
330
1E
100
AcDbEntity
  8
0
100
AcDbLine
 10
74.25383499999999
 20
581.3625
 30
0.0
 11
74.281935
 21
558.3655
 31
0.0
  0
LINE
  5
150
330
1E
100
AcDbEntity
  8
0
100
AcDbLine
 10
74.211935
 20
606.1594999999999
 30
0.0
 11
74.25383499999999
 21
581.3625
 31
0.0
  0
LINE
  5
155
330
1E
100
AcDbEntity
  8
0
100
AcDbLine
 10
74.15803499999999
 20
631.2564999999999
 30
0.0
 11
74.211935
 21
606.1594999999999
 31
0.0
  0
LINE
  5
15C
330
1E
100
AcDbEntity
  8
0
100
AcDbLine
 10
74.087835
 20
654.3624999999999
 30
0.0
 11
74.32613547036691
 21
667.9814999999999
 31
0.0
  0
LINE
  5
15D
330
1E
100
AcDbEntity
  8
0
100
AcDbLine
 10
74.087835
 20
654.3624999999999
 30
0.0
 11
74.15803499999999
 21
631.2564999999999
 31
0.0
  0
LINE
  5
166
330
1E
100
AcDbEntity
  8
0
100
AcDbLine
 10
90.281835
 20
558.3645
 30
0.0
 11
90.29803499999999
 21
525.3635
 31
0.0
  0
LINE
  5
16B
330
1E
100
AcDbEntity
  8
0
100
AcDbLine
 10
90.252835
 20
581.3715
 30
0.0
 11
90.281835
 21
558.3645
 31
0.0
  0
LINE
  5
16F
330
1E
100
AcDbEntity
  8
0
100
AcDbLine
 10
90.21183499999999
 20
606.1684999999999
 30
0.0
 11
90.252835
 21
581.3715
 31
0.0
  0
LINE
  5
175
330
1E
100
AcDbEntity
  8
0
100
AcDbLine
 10
90.15693500000001
 20
631.2654999999999
 30
0.0
 11
90.21183499999999
 21
606.1684999999999
 31
0.0
  0
LINE
  5
179
330
1E
100
AcDbEntity
  8
0
100
AcDbLine
 10
90.08703500000001
 20
654.3614999999999
 30
0.0
 11
90.32667160870742
 21
667.9814999999999
 31
0.0
  0
LINE
  5
17A
330
1E
100
AcDbEntity
  8
0
100
AcDbLine
 10
90.08703500000001
 20
654.3614999999999
 30
0.0
 11
90.15693500000001
 21
631.2654999999999
 31
0.0
  0
LINE
  5
187
330
1E
100
AcDbEntity
  8
0
100
AcDbLine
 10
40.923235
 20
667.9814999999999
 30
0.0
 11
99.461235
 21
667.9814999999999
 31
0.0
  0
LINE
  5
188
330
1E
100
AcDbEntity
  8
0
100
AcDbLine
 10
62.92323500000001
 20
667.9814999999999
 30
0.0
 11
62.923235
 21
-169.5174999999999
 31
0.0
  0
LINE
  5
189
330
1E
100
AcDbEntity
  8
0
100
AcDbLine
 10
99.92323499999999
 20
668.4255
 30
0.0
 11
99.92323499999999
 21
669.0915
 31
0.0
  0
LINE
  5
18A
330
1E
100
AcDbEntity
  8
0
100
AcDbLine
 10
82.222235
 20
696.7835
 30
0.0
 11
85.222235
 21
696.9835
 31
0.0
  0
LINE
  5
18B
330
1E
100
AcDbEntity
  8
0
100
AcDbLine
 10
85.222235
 20
696.9835
 30
0.0
 11
87.922235
 21
697.5335
 31
0.0
  0
LINE
  5
18C
330
1E
100
AcDbEntity
  8
0
100
AcDbLine
 10
87.922235
 20
697.5335
 30
0.0
 11
90.32223499999998
 21
698.4835
 31
0.0
  0
LINE
  5
18D
330
1E
100
AcDbEntity
  8
0
100
AcDbLine
 10
79.222235
 20
696.9835
 30
0.0
 11
82.222235
 21
696.7835
 31
0.0
  0
LINE
  5
18E
330
1E
100
AcDbEntity
  8
0
100
AcDbLine
 10
90.32223499999998
 20
698.4835
 30
0.0
 11
92.05756833333339
 21
699.5795000000001
 31
0.0
  0
LINE
  5
18F
330
1E
100
AcDbEntity
  8
0
100
AcDbLine
 10
76.52223499999999
 20
697.5335
 30
0.0
 11
79.222235
 21
696.9835
 31
0.0
  0
LINE
  5
190
330
1E
100
AcDbEntity
  8
0
100
AcDbLine
 10
74.122235
 20
698.4835
 30
0.0
 11
76.52223499999999
 21
697.5335
 31
0.0
  0
LINE
  5
191
330
1E
100
AcDbEntity
  8
0
100
AcDbLine
 10
71.122235
 20
704.0334999999999
 30
0.0
 11
72.222235
 21
705.3835
 31
0.0
  0
LINE
  5
192
330
1E
100
AcDbEntity
  8
0
100
AcDbLine
 10
72.38690166666659
 20
699.5795000000001
 30
0.0
 11
74.122235
 21
698.4835
 31
0.0
  0
LINE
  5
193
330
1E
100
AcDbEntity
  8
0
100
AcDbLine
 10
99.461235
 20
691.2174999999999
 30
0.0
 11
99.461235
 21
686.4815
 31
0.0
  0
LINE
  5
194
330
1E
100
AcDbEntity
  8
0
100
AcDbLine
 10
99.461235
 20
691.2174999999999
 30
0.0
 11
99.461235
 21
695.6575
 31
0.0
  0
LINE
  5
195
330
1E
100
AcDbEntity
  8
0
100
AcDbLine
 10
99.461235
 20
695.6575
 30
0.0
 11
99.461235
 21
691.2174999999999
 31
0.0
  0
LINE
  5
196
330
1E
100
AcDbEntity
  8
0
100
AcDbLine
 10
99.461235
 20
695.6575
 30
0.0
 11
99.461235
 21
699.5795000000001
 31
0.0
  0
LINE
  5
197
330
1E
100
AcDbEntity
  8
0
100
AcDbLine
 10
99.461235
 20
699.5795000000001
 30
0.0
 11
99.461235
 21
695.6575
 31
0.0
  0
LINE
  5
198
330
1E
100
AcDbEntity
  8
0
100
AcDbLine
 10
99.461235
 20
699.5795000000001
 30
0.0
 11
99.461235
 21
702.5394999999999
 31
0.0
  0
LINE
  5
199
330
1E
100
AcDbEntity
  8
0
100
AcDbLine
 10
99.461235
 20
702.5394999999999
 30
0.0
 11
99.461235
 21
699.5795000000001
 31
0.0
  0
LINE
  5
19A
330
1E
100
AcDbEntity
  8
0
100
AcDbLine
 10
99.461235
 20
702.5394999999999
 30
0.0
 11
99.461235
 21
704.3155
 31
0.0
  0
LINE
  5
19B
330
1E
100
AcDbEntity
  8
0
100
AcDbLine
 10
99.461235
 20
704.3155
 30
0.0
 11
99.461235
 21
702.5394999999999
 31
0.0
  0
LINE
  5
19C
330
1E
100
AcDbEntity
  8
0
100
AcDbLine
 10
99.461235
 20
704.3155
 30
0.0
 11
99.461235
 21
704.9814999999999
 31
0.0
  0
LINE
  5
19D
330
1E
100
AcDbEntity
  8
0
100
AcDbLine
 10
92.5497905555555
 20
704.9814999999999
 30
0.0
 11
99.461235
 21
704.9814999999999
 31
0.0
  0
LINE
  5
19E
330
1E
100
AcDbEntity
  8
0
100
AcDbLine
 10
62.423235
 20
974.9814999999999
 30
0.0
 11
62.923235
 21
974.4815
 31
0.0
  0
LINE
  5
19F
330
1E
100
AcDbEntity
  8
0
100
AcDbLine
 10
90.32223499999998
 20
706.5834999999999
 30
0.0
 11
92.222235
 21
705.3835
 31
0.0
  0
LINE
  5
1A0
330
1E
100
AcDbEntity
  8
0
100
AcDbLine
 10
92.222235
 20
705.3835
 30
0.0
 11
93.32223499999999
 21
704.0334999999999
 31
0.0
  0
LINE
  5
1A1
330
1E
100
AcDbEntity
  8
0
100
AcDbLine
 10
85.222235
 20
708.0834999999999
 30
0.0
 11
87.922235
 21
707.5334999999999
 31
0.0
  0
LINE
  5
1A2
330
1E
100
AcDbEntity
  8
0
100
AcDbLine
 10
87.922235
 20
707.5334999999999
 30
0.0
 11
90.32223499999998
 21
706.5834999999999
 31
0.0
  0
LINE
  5
1A3
330
1E
100
AcDbEntity
  8
0
100
AcDbLine
 10
82.222235
 20
708.2835
 30
0.0
 11
85.222235
 21
708.0834999999999
 31
0.0
  0
LINE
  5
1A4
330
1E
100
AcDbEntity
  8
0
100
AcDbLine
 10
79.222235
 20
708.0834999999999
 30
0.0
 11
82.222235
 21
708.2835
 31
0.0
  0
LINE
  5
1A5
330
1E
100
AcDbEntity
  8
0
100
AcDbLine
 10
76.52223499999999
 20
707.5334999999999
 30
0.0
 11
79.222235
 21
708.0834999999999
 31
0.0
  0
LINE
  5
1A6
330
1E
100
AcDbEntity
  8
0
100
AcDbLine
 10
74.122235
 20
706.5834999999999
 30
0.0
 11
76.52223499999999
 21
707.5334999999999
 31
0.0
  0
LINE
  5
1A7
330
1E
100
AcDbEntity
  8
0
100
AcDbLine
 10
72.222235
 20
705.3835
 30
0.0
 11
74.122235
 21
706.5834999999999
 31
0.0
  0
LINE
  5
1A8
330
1E
100
AcDbEntity
  8
0
100
AcDbLine
 10
62.923235
 20
974.4815
 30
0.0
 11
62.923235
 21
704.9814999999999
 31
0.0
  0
LINE
  5
1A9
330
1E
100
AcDbEntity
  8
0
100
AcDbLine
 10
62.523235
 20
974.4815
 30
0.0
 11
62.923235
 21
974.4815
 31
0.0
  0
LINE
  5
1AA
330
1E
100
AcDbEntity
  8
0
100
AcDbLine
 10
40.923235
 20
704.9814999999999
 30
0.0
 11
71.89467944444451
 21
704.9814999999999
 31
0.0
  0
LINE
  5
1AB
330
1E
100
AcDbEntity
  8
0
100
AcDbLine
 10
62.923235
 20
704.9814999999999
 30
0.0
 11
62.923235
 21
974.4815
 31
0.0
  0
LINE
  5
1AC
330
1E
100
AcDbEntity
  8
0
100
AcDbLine
 10
99.92323499999999
 20
691.1434999999999
 30
0.0
 11
99.92323499999999
 21
686.4815
 31
0.0
  0
LINE
  5
1AD
330
1E
100
AcDbEntity
  8
0
100
AcDbLine
 10
99.92323499999999
 20
691.1434999999999
 30
0.0
 11
99.92323499999999
 21
695.4355
 31
0.0
  0
LINE
  5
1AE
330
1E
100
AcDbEntity
  8
0
100
AcDbLine
 10
99.92323499999999
 20
695.4355
 30
0.0
 11
99.92323499999999
 21
691.1434999999999
 31
0.0
  0
LINE
  5
1AF
330
1E
100
AcDbEntity
  8
0
100
AcDbLine
 10
99.92323499999999
 20
695.4355
 30
0.0
 11
99.92323499999999
 21
699.2095
 31
0.0
  0
LINE
  5
1B0
330
1E
100
AcDbEntity
  8
0
100
AcDbLine
 10
99.92323499999999
 20
699.2095
 30
0.0
 11
99.92323499999999
 21
695.4355
 31
0.0
  0
LINE
  5
1B1
330
1E
100
AcDbEntity
  8
0
100
AcDbLine
 10
99.92323499999999
 20
699.2095
 30
0.0
 11
99.92323499999999
 21
702.0955
 31
0.0
  0
LINE
  5
1B2
330
1E
100
AcDbEntity
  8
0
100
AcDbLine
 10
99.92323499999999
 20
702.0955
 30
0.0
 11
99.92323499999999
 21
699.2095
 31
0.0
  0
LINE
  5
1B3
330
1E
100
AcDbEntity
  8
0
100
AcDbLine
 10
99.92323499999999
 20
702.0955
 30
0.0
 11
99.92323499999999
 21
703.8714999999999
 31
0.0
  0
LINE
  5
1B4
330
1E
100
AcDbEntity
  8
0
100
AcDbLine
 10
99.92323499999999
 20
703.8714999999999
 30
0.0
 11
99.92323499999999
 21
702.0955
 31
0.0
  0
LINE
  5
1B5
330
1E
100
AcDbEntity
  8
0
100
AcDbLine
 10
99.92323499999999
 20
703.8714999999999
 30
0.0
 11
99.92323499999999
 21
704.5374999999999
 31
0.0
  0
LINE
  5
1B6
330
1E
100
AcDbEntity
  8
0
100
AcDbLine
 10
99.92323499999999
 20
704.5374999999999
 30
0.0
 11
99.92323499999999
 21
703.8714999999999
 31
0.0
  0
LINE
  5
1B7
330
1E
100
AcDbEntity
  8
0
100
AcDbLine
 10
99.461235
 20
704.9814999999999
 30
0.0
 11
99.461235
 21
704.3155
 31
0.0
  0
LINE
  5
1B8
330
1E
100
AcDbEntity
  8
0
100
AcDbLine
 10
99.461235
 20
704.9814999999999
 30
0.0
 11
99.92323499999999
 21
704.5374999999999
 31
0.0
  0
LINE
  5
1B9
330
1E
100
AcDbEntity
  8
0
100
AcDbLine
 10
99.461235
 20
686.4815
 30
0.0
 11
99.461235
 21
681.7454999999999
 31
0.0
  0
LINE
  5
1BA
330
1E
100
AcDbEntity
  8
0
100
AcDbLine
 10
99.461235
 20
686.4815
 30
0.0
 11
99.461235
 21
691.2174999999999
 31
0.0
  0
LINE
  5
1BB
330
1E
100
AcDbEntity
  8
0
100
AcDbLine
 10
99.92323499999999
 20
686.4815
 30
0.0
 11
99.92323499999999
 21
681.8194999999999
 31
0.0
  0
LINE
  5
1BC
330
1E
100
AcDbEntity
  8
0
100
AcDbLine
 10
99.92323499999999
 20
686.4815
 30
0.0
 11
99.92323499999999
 21
691.1434999999999
 31
0.0
  0
LINE
  5
1BD
330
1E
100
AcDbEntity
  8
0
100
AcDbLine
 10
99.461235
 20
681.7454999999999
 30
0.0
 11
99.461235
 21
686.4815
 31
0.0
  0
LINE
  5
1BE
330
1E
100
AcDbEntity
  8
0
100
AcDbLine
 10
99.461235
 20
681.7454999999999
 30
0.0
 11
99.461235
 21
677.3055
 31
0.0
  0
LINE
  5
1BF
330
1E
100
AcDbEntity
  8
0
100
AcDbLine
 10
99.92323499999999
 20
681.8194999999999
 30
0.0
 11
99.92323499999999
 21
677.5275
 31
0.0
  0
LINE
  5
1C0
330
1E
100
AcDbEntity
  8
0
100
AcDbLine
 10
99.92323499999999
 20
681.8194999999999
 30
0.0
 11
99.92323499999999
 21
686.4815
 31
0.0
  0
LINE
  5
1C1
330
1E
100
AcDbEntity
  8
0
100
AcDbLine
 10
99.461235
 20
677.3055
 30
0.0
 11
99.461235
 21
681.7454999999999
 31
0.0
  0
LINE
  5
1C2
330
1E
100
AcDbEntity
  8
0
100
AcDbLine
 10
99.461235
 20
677.3055
 30
0.0
 11
99.461235
 21
673.3835
 31
0.0
  0
LINE
  5
1C3
330
1E
100
AcDbEntity
  8
0
100
AcDbLine
 10
99.92323499999999
 20
677.5275
 30
0.0
 11
99.92323499999999
 21
673.7535
 31
0.0
  0
LINE
  5
1C4
330
1E
100
AcDbEntity
  8
0
100
AcDbLine
 10
99.92323499999999
 20
677.5275
 30
0.0
 11
99.92323499999999
 21
681.8194999999999
 31
0.0
  0
LINE
  5
1C5
330
1E
100
AcDbEntity
  8
0
100
AcDbLine
 10
99.461235
 20
673.3835
 30
0.0
 11
99.461235
 21
677.3055
 31
0.0
  0
LINE
  5
1C6
330
1E
100
AcDbEntity
  8
0
100
AcDbLine
 10
99.461235
 20
673.3835
 30
0.0
 11
99.461235
 21
670.4234999999999
 31
0.0
  0
LINE
  5
1C7
330
1E
100
AcDbEntity
  8
0
100
AcDbLine
 10
99.92323499999999
 20
673.7535
 30
0.0
 11
99.92323499999999
 21
670.8674999999999
 31
0.0
  0
LINE
  5
1C8
330
1E
100
AcDbEntity
  8
0
100
AcDbLine
 10
99.92323499999999
 20
673.7535
 30
0.0
 11
99.92323499999999
 21
677.5275
 31
0.0
  0
LINE
  5
1C9
330
1E
100
AcDbEntity
  8
0
100
AcDbLine
 10
99.461235
 20
670.4234999999999
 30
0.0
 11
99.461235
 21
673.3835
 31
0.0
  0
LINE
  5
1CA
330
1E
100
AcDbEntity
  8
0
100
AcDbLine
 10
99.461235
 20
670.4234999999999
 30
0.0
 11
99.461235
 21
668.6475
 31
0.0
  0
LINE
  5
1CB
330
1E
100
AcDbEntity
  8
0
100
AcDbLine
 10
99.92323499999999
 20
670.8674999999999
 30
0.0
 11
99.92323499999999
 21
669.0915
 31
0.0
  0
LINE
  5
1CC
330
1E
100
AcDbEntity
  8
0
100
AcDbLine
 10
99.92323499999999
 20
670.8674999999999
 30
0.0
 11
99.92323499999999
 21
673.7535
 31
0.0
  0
LINE
  5
1CD
330
1E
100
AcDbEntity
  8
0
100
AcDbLine
 10
99.461235
 20
668.6475
 30
0.0
 11
99.461235
 21
670.4234999999999
 31
0.0
  0
LINE
  5
1CE
330
1E
100
AcDbEntity
  8
0
100
AcDbLine
 10
99.461235
 20
668.6475
 30
0.0
 11
99.461235
 21
667.9814999999999
 31
0.0
  0
LINE
  5
1CF
330
1E
100
AcDbEntity
  8
0
100
AcDbLine
 10
99.92323499999999
 20
669.0915
 30
0.0
 11
99.92323499999999
 21
668.4255
 31
0.0
  0
LINE
  5
1D0
330
1E
100
AcDbEntity
  8
0
100
AcDbLine
 10
99.92323499999999
 20
669.0915
 30
0.0
 11
99.92323499999999
 21
670.8674999999999
 31
0.0
  0
LINE
  5
1D1
330
1E
100
AcDbEntity
  8
0
100
AcDbLine
 10
99.461235
 20
667.9814999999999
 30
0.0
 11
99.461235
 21
668.6475
 31
0.0
  0
LINE
  5
1D2
330
1E
100
AcDbEntity
  8
0
100
AcDbLine
 10
99.461235
 20
667.9814999999999
 30
0.0
 11
99.92323499999999
 21
668.4255
 31
0.0
  0
LINE
  5
1D3
330
1E
100
AcDbEntity
  8
0
100
AcDbLine
 10
62.023235
 20
974.9814999999999
 30
0.0
 11
62.423235
 21
974.9814999999999
 31
0.0
  0
LINE
  5
1D4
330
1E
100
AcDbEntity
  8
0
100
AcDbLine
 10
51.923235
 20
975.4815
 30
0.0
 11
54.72323499999999
 21
975.4815
 31
0.0
  0
LINE
  5
1D5
330
1E
100
AcDbEntity
  8
0
100
AcDbLine
 10
51.923235
 20
1026.4815
 30
0.0
 11
54.72323499999999
 21
1026.4815
 31
0.0
  0
LINE
  5
1D6
330
1E
100
AcDbEntity
  8
0
100
AcDbLine
 10
51.923235
 20
1026.9815
 30
0.0
 11
54.623235
 21
1026.9815
 31
0.0
  0
LINE
  5
1D7
330
1E
100
AcDbEntity
  8
0
100
AcDbLine
 10
54.72323499999999
 20
975.4815
 30
0.0
 11
57.423235
 21
975.4815
 31
0.0
  0
LINE
  5
1D8
330
1E
100
AcDbEntity
  8
0
100
AcDbLine
 10
57.423235
 20
975.4815
 30
0.0
 11
59.72323499999999
 21
975.4815
 31
0.0
  0
LINE
  5
1D9
330
1E
100
AcDbEntity
  8
0
100
AcDbLine
 10
54.72323499999999
 20
1026.4815
 30
0.0
 11
57.423235
 21
1026.4815
 31
0.0
  0
LINE
  5
1DA
330
1E
100
AcDbEntity
  8
0
100
AcDbLine
 10
57.423235
 20
1026.4815
 30
0.0
 11
59.72323499999999
 21
1026.4815
 31
0.0
  0
LINE
  5
1DB
330
1E
100
AcDbEntity
  8
0
100
AcDbLine
 10
54.623235
 20
1026.9815
 30
0.0
 11
57.123235
 21
1026.9815
 31
0.0
  0
LINE
  5
1DC
330
1E
100
AcDbEntity
  8
0
100
AcDbLine
 10
57.123235
 20
1026.9815
 30
0.0
 11
59.32323499999999
 21
1026.9815
 31
0.0
  0
LINE
  5
1DD
330
1E
100
AcDbEntity
  8
0
100
AcDbLine
 10
59.72323499999999
 20
975.4815
 30
0.0
 11
61.42323499999999
 21
975.4815
 31
0.0
  0
LINE
  5
1DE
330
1E
100
AcDbEntity
  8
0
100
AcDbLine
 10
61.42323499999999
 20
975.4815
 30
0.0
 11
62.523235
 21
975.4815
 31
0.0
  0
LINE
  5
1DF
330
1E
100
AcDbEntity
  8
0
100
AcDbLine
 10
59.72323499999999
 20
1026.4815
 30
0.0
 11
61.42323499999999
 21
1026.4815
 31
0.0
  0
LINE
  5
1E0
330
1E
100
AcDbEntity
  8
0
100
AcDbLine
 10
61.42323499999999
 20
1026.4815
 30
0.0
 11
62.523235
 21
1026.4815
 31
0.0
  0
LINE
  5
1E1
330
1E
100
AcDbEntity
  8
0
100
AcDbLine
 10
59.32323499999999
 20
1026.9815
 30
0.0
 11
61.023235
 21
1026.9815
 31
0.0
  0
LINE
  5
1E2
330
1E
100
AcDbEntity
  8
0
100
AcDbLine
 10
61.023235
 20
1026.9815
 30
0.0
 11
62.023235
 21
1026.9815
 31
0.0
  0
LINE
  5
1E3
330
1E
100
AcDbEntity
  8
0
100
AcDbLine
 10
62.523235
 20
975.4815
 30
0.0
 11
62.923235
 21
975.4815
 31
0.0
  0
LINE
  5
1E4
330
1E
100
AcDbEntity
  8
0
100
AcDbLine
 10
62.923235
 20
975.4815
 30
0.0
 11
62.923235
 21
1026.4815
 31
0.0
  0
LINE
  5
1E5
330
1E
100
AcDbEntity
  8
0
100
AcDbLine
 10
62.923235
 20
1026.4815
 30
0.0
 11
62.923235
 21
975.4815
 31
0.0
  0
LINE
  5
1E6
330
1E
100
AcDbEntity
  8
0
100
AcDbLine
 10
62.523235
 20
1026.4815
 30
0.0
 11
62.923235
 21
1026.4815
 31
0.0
  0
LINE
  5
1E7
330
1E
100
AcDbEntity
  8
0
100
AcDbLine
 10
62.423235
 20
1026.9815
 30
0.0
 11
62.923235
 21
1026.4815
 31
0.0
  0
LINE
  5
1E8
330
1E
100
AcDbEntity
  8
0
100
AcDbLine
 10
62.023235
 20
1026.9815
 30
0.0
 11
62.423235
 21
1026.9815
 31
0.0
  0
LINE
  5
1E9
330
1E
100
AcDbEntity
  8
0
100
AcDbLine
 10
49.223235
 20
974.9814999999999
 30
0.0
 11
51.923235
 21
974.9814999999999
 31
0.0
  0
LINE
  5
1EA
330
1E
100
AcDbEntity
  8
0
100
AcDbLine
 10
49.123235
 20
1026.4815
 30
0.0
 11
51.923235
 21
1026.4815
 31
0.0
  0
LINE
  5
1EB
330
1E
100
AcDbEntity
  8
0
100
AcDbLine
 10
49.223235
 20
1026.9815
 30
0.0
 11
51.923235
 21
1026.9815
 31
0.0
  0
LINE
  5
1EC
330
1E
100
AcDbEntity
  8
0
100
AcDbLine
 10
46.723235
 20
1026.9815
 30
0.0
 11
49.223235
 21
1026.9815
 31
0.0
  0
LINE
  5
1ED
330
1E
100
AcDbEntity
  8
0
100
AcDbLine
 10
44.523235
 20
1026.9815
 30
0.0
 11
46.723235
 21
1026.9815
 31
0.0
  0
LINE
  5
1EE
330
1E
100
AcDbEntity
  8
0
100
AcDbLine
 10
42.82323499999999
 20
1026.9815
 30
0.0
 11
44.523235
 21
1026.9815
 31
0.0
  0
LINE
  5
1EF
330
1E
100
AcDbEntity
  8
0
100
AcDbLine
 10
41.82323499999999
 20
1026.9815
 30
0.0
 11
42.82323499999999
 21
1026.9815
 31
0.0
  0
LINE
  5
1F0
330
1E
100
AcDbEntity
  8
0
100
AcDbLine
 10
41.42323499999999
 20
1026.9815
 30
0.0
 11
41.82323499999999
 21
1026.9815
 31
0.0
  0
LINE
  5
1F1
330
1E
100
AcDbEntity
  8
0
100
AcDbLine
 10
41.42323499999999
 20
-170.0185
 30
0.0
 11
41.82323499999999
 21
-170.0185
 31
0.0
  0
LINE
  5
1F2
330
1E
100
AcDbEntity
  8
0
100
AcDbLine
 10
5.852475
 20
716.0495
 30
0.0
 11
9.908456881366969
 21
704.905984384819
 31
0.0
  0
LINE
  5
1F7
330
1E
100
AcDbEntity
  8
0
100
AcDbLine
 10
71.122235
 20
704.0334999999999
 30
0.0
 11
70.83414527840159
 21
703.12101642995
 31
0.0
  0
LINE
  5
1F8
330
1E
100
AcDbEntity
  8
0
100
AcDbLine
 10
70.83414527840159
 20
703.12101642995
 30
0.0
 11
70.83414527840159
 21
702.1330969246159
 31
0.0
  0
LINE
  5
1F9
330
1E
100
AcDbEntity
  8
0
100
AcDbLine
 10
70.83414527840159
 20
702.1330969246159
 30
0.0
 11
71.10030000255938
 21
701.1831741379924
 31
0.0
  0
LINE
  5
1FA
330
1E
100
AcDbEntity
  8
0
100
AcDbLine
 10
71.10030000255938
 20
701.1831741379924
 30
0.0
 11
71.67062797786184
 21
700.3092471982199
 31
0.0
  0
LINE
  5
1FB
330
1E
100
AcDbEntity
  8
0
100
AcDbLine
 10
71.67062797786184
 20
700.3092471982199
 30
0.0
 11
72.38690166666659
 21
699.5795000000001
 31
0.0
  0
LINE
  5
1FC
330
1E
100
AcDbEntity
  8
0
100
AcDbLine
 10
93.32223499999999
 20
704.0334999999999
 30
0.0
 11
93.57136743392947
 21
703.197009867371
 31
0.0
  0
LINE
  5
1FD
330
1E
100
AcDbEntity
  8
0
100
AcDbLine
 10
93.57136743392947
 20
703.197009867371
 30
0.0
 11
93.60939096796665
 21
702.1710936433264
 31
0.0
  0
LINE
  5
1FE
330
1E
100
AcDbEntity
  8
0
100
AcDbLine
 10
93.60939096796665
 20
702.1710936433264
 30
0.0
 11
93.38125977784512
 21
701.1071807005714
 31
0.0
  0
LINE
  5
1FF
330
1E
100
AcDbEntity
  8
0
100
AcDbLine
 10
93.38125977784512
 20
701.1071807005714
 30
0.0
 11
92.81092679549329
 21
700.157260323378
 31
0.0
  0
LINE
  5
200
330
1E
100
AcDbEntity
  8
0
100
AcDbLine
 10
92.81092679549329
 20
700.157260323378
 30
0.0
 11
92.05756833333339
 21
699.5795000000001
 31
0.0
  0
LINE
  5
201
330
1E
100
AcDbEntity
  8
0
100
AcDbLine
 10
62.923235
 20
-170.5185
 30
0.0
 11
62.923235
 21
-221.5185
 31
0.0
  0
LINE
  5
202
330
1E
100
AcDbEntity
  8
0
100
AcDbLine
 10
62.923235
 20
-221.5185
 30
0.0
 11
62.423235
 21
-222.0185
 31
0.0
  0
ENDSEC
  0
SECTION
  2
OBJECTS
  0
DICTIONARY
  5
C
330
0
100
AcDbDictionary
281
     1
  3
ACAD_GROUP
350
D
  3
ACAD_LAYOUT
350
19
  3
ACAD_MLINESTYLE
350
16
  3
ACAD_PLOTSETTINGS
350
18
  3
ACAD_PLOTSTYLENAME
350
E
  3
AcDbVariableDictionary
350
203
  0
DICTIONARY
  5
D
102
{ACAD_REACTORS
330
C
102
}
330
C
100
AcDbDictionary
281
     1
  0
DICTIONARY
  5
19
102
{ACAD_REACTORS
330
C
102
}
330
C
100
AcDbDictionary
281
     1
  3
Layout1
350
1D
  3
Model
350
21
  0
DICTIONARY
  5
16
102
{ACAD_REACTORS
330
C
102
}
330
C
100
AcDbDictionary
281
     1
  3
Standard
350
17
  0
DICTIONARY
  5
18
102
{ACAD_REACTORS
330
C
102
}
330
C
100
AcDbDictionary
281
     1
  0
ACDBDICTIONARYWDFLT
  5
E
102
{ACAD_REACTORS
330
C
102
}
330
C
100
AcDbDictionary
281
     1
  3
Normal
350
F
100
AcDbDictionaryWithDefault
340
F
  0
DICTIONARY
  5
203
102
{ACAD_REACTORS
330
C
102
}
330
C
100
AcDbDictionary
281
     1
  3
DIMASSOC
350
204
  0
LAYOUT
  5
1D
102
{ACAD_REACTORS
330
19
102
}
330
19
100
AcDbPlotSettings
  1

  2
hp deskjet 980c series
  4

  6

 40
0.0
 41
0.0
 42
0.0
 43
0.0
 44
0.0
 45
0.0
 46
0.0
 47
0.0
 48
0.0
 49
0.0
140
0.0
141
0.0
142
1.0
143
1.0
 70
   688
 72
     0
 73
     0
 74
     5
  7

 75
    16
147
1.0
148
0.0
149
0.0
100
AcDbLayout
  1
Layout1
 70
     1
 71
     1
 10
0.0
 20
0.0
 11
12.0
 21
9.0
 12
0.0
 22
0.0
 32
0.0
 14
1.000000000000000E+20
 24
1.000000000000000E+20
 34
1.000000000000000E+20
 15
-1.000000000000000E+20
 25
-1.000000000000000E+20
 35
-1.000000000000000E+20
146
0.0
 13
0.0
 23
0.0
 33
0.0
 16
1.0
 26
0.0
 36
0.0
 17
0.0
 27
1.0
 37
0.0
 76
     0
330
1A
  0
LAYOUT
  5
21
102
{ACAD_REACTORS
330
19
102
}
330
19
100
AcDbPlotSettings
  1

  2
hp deskjet 980c series
  4

  6

 40
0.0
 41
0.0
 42
0.0
 43
0.0
 44
0.0
 45
0.0
 46
0.0
 47
0.0
 48
0.0
 49
0.0
140
0.0
141
0.0
142
1.0
143
1.0
 70
  1712
 72
     0
 73
     0
 74
     0
  7

 75
     0
147
1.0
148
0.0
149
0.0
100
AcDbLayout
  1
Model
 70
     1
 71
     0
 10
0.0
 20
0.0
 11
12.0
 21
9.0
 12
0.0
 22
0.0
 32
0.0
 14
0.0
 24
0.0
 34
0.0
 15
0.0
 25
0.0
 35
0.0
146
0.0
 13
0.0
 23
0.0
 33
0.0
 16
1.0
 26
0.0
 36
0.0
 17
0.0
 27
1.0
 37
0.0
 76
     0
330
1E
  0
MLINESTYLE
  5
17
102
{ACAD_REACTORS
330
16
102
}
330
16
100
AcDbMlineStyle
  2
STANDARD
 70
     0
  3

 62
   256
 51
90.0
 52
90.0
 71
     2
 49
0.5
 62
   256
  6
BYLAYER
 49
-0.5
 62
   256
  6
BYLAYER
  0
ACDBPLACEHOLDER
  5
F
102
{ACAD_REACTORS
330
E
102
}
330
E
  0
DICTIONARYVAR
  5
204
102
{ACAD_REACTORS
330
203
102
}
330
203
100
DictionaryVariables
280
     0
  1
1
  0
ENDSEC
  0
EOF
