  0
SECTION
  2
HEADER
  9
$ACADVER
  1
AC1015
  9
$ACADMAINTVER
 70
    13
  9
$DWGCODEPAGE
  3
ANSI_1252
  9
$INSBASE
 10
0.0
 20
0.0
 30
0.0
  9
$EXTMIN
 10
0.141024999999998
 20
-0.0320000000000148
 30
0.0
  9
$EXTMAX
 10
233.858975
 20
330.0319999999999
 30
0.0
  9
$LIMMIN
 10
0.0
 20
0.0
  9
$LIMMAX
 10
12.0
 20
9.0
  9
$ORTHOMODE
 70
     0
  9
$REGENMODE
 70
     1
  9
$FILLMODE
 70
     1
  9
$QTEXTMODE
 70
     0
  9
$MIRRTEXT
 70
     1
  9
$LTSCALE
 40
1.0
  9
$ATTMODE
 70
     1
  9
$TEXTSIZE
 40
0.2
  9
$TRACEWID
 40
0.05
  9
$TEXTSTYLE
  7
Standard
  9
$CLAYER
  8
0
  9
$CELTYPE
  6
Continuous
  9
$CECOLOR
 62
   256
  9
$CELTSCALE
 40
1.0
  9
$DISPSILH
 70
     0
  9
$DIMSCALE
 40
1.0
  9
$DIMASZ
 40
0.18
  9
$DIMEXO
 40
0.0625
  9
$DIMDLI
 40
0.38
  9
$DIMRND
 40
0.0
  9
$DIMDLE
 40
0.0
  9
$DIMEXE
 40
0.18
  9
$DIMTP
 40
0.0
  9
$DIMTM
 40
0.0
  9
$DIMTXT
 40
0.18
  9
$DIMCEN
 40
0.09
  9
$DIMTSZ
 40
0.0
  9
$DIMTOL
 70
     0
  9
$DIMLIM
 70
     0
  9
$DIMTIH
 70
     1
  9
$DIMTOH
 70
     1
  9
$DIMSE1
 70
     0
  9
$DIMSE2
 70
     0
  9
$DIMTAD
 70
     0
  9
$DIMZIN
 70
     0
  9
$DIMBLK
  1

  9
$DIMASO
 70
     1
  9
$DIMSHO
 70
     1
  9
$DIMPOST
  1

  9
$DIMAPOST
  1

  9
$DIMALT
 70
     0
  9
$DIMALTD
 70
     2
  9
$DIMALTF
 40
25.4
  9
$DIMLFAC
 40
1.0
  9
$DIMTOFL
 70
     0
  9
$DIMTVP
 40
0.0
  9
$DIMTIX
 70
     0
  9
$DIMSOXD
 70
     0
  9
$DIMSAH
 70
     0
  9
$DIMBLK1
  1

  9
$DIMBLK2
  1

  9
$DIMSTYLE
  2
Standard
  9
$DIMCLRD
 70
     0
  9
$DIMCLRE
 70
     0
  9
$DIMCLRT
 70
     0
  9
$DIMTFAC
 40
1.0
  9
$DIMGAP
 40
0.09
  9
$DIMJUST
 70
     0
  9
$DIMSD1
 70
     0
  9
$DIMSD2
 70
     0
  9
$DIMTOLJ
 70
     1
  9
$DIMTZIN
 70
     0
  9
$DIMALTZ
 70
     0
  9
$DIMALTTZ
 70
     0
  9
$DIMUPT
 70
     0
  9
$DIMDEC
 70
     4
  9
$DIMTDEC
 70
     4
  9
$DIMALTU
 70
     2
  9
$DIMALTTD
 70
     2
  9
$DIMTXSTY
  7
Standard
  9
$DIMAUNIT
 70
     0
  9
$DIMADEC
 70
     0
  9
$DIMALTRND
 40
0.0
  9
$DIMAZIN
 70
     0
  9
$DIMDSEP
 70
    46
  9
$DIMATFIT
 70
     3
  9
$DIMFRAC
 70
     0
  9
$DIMLDRBLK
  1

  9
$DIMLUNIT
 70
     2
  9
$DIMLWD
 70
    -2
  9
$DIMLWE
 70
    -2
  9
$DIMTMOVE
 70
     0
  9
$LUNITS
 70
     2
  9
$LUPREC
 70
     4
  9
$SKETCHINC
 40
0.1
  9
$FILLETRAD
 40
0.0
  9
$AUNITS
 70
     0
  9
$AUPREC
 70
     0
  9
$MENU
  1
.
  9
$ELEVATION
 40
0.0
  9
$PELEVATION
 40
0.0
  9
$THICKNESS
 40
0.0
  9
$LIMCHECK
 70
     0
  9
$CHAMFERA
 40
0.0
  9
$CHAMFERB
 40
0.0
  9
$CHAMFERC
 40
0.0
  9
$CHAMFERD
 40
0.0
  9
$SKPOLY
 70
     0
  9
$TDCREATE
 40
2454762.840210138
  9
$TDUCREATE
 40
2454762.756876805
  9
$TDUPDATE
 40
2454762.843759942
  9
$TDUUPDATE
 40
2454762.760426608
  9
$TDINDWG
 40
0.0035499884
  9
$TDUSRTIMER
 40
0.0035499884
  9
$USRTIMER
 70
     1
  9
$ANGBASE
 50
0.0
  9
$ANGDIR
 70
     0
  9
$PDMODE
 70
     0
  9
$PDSIZE
 40
0.0
  9
$PLINEWID
 40
0.0
  9
$SPLFRAME
 70
     0
  9
$SPLINETYPE
 70
     6
  9
$SPLINESEGS
 70
     8
  9
$HANDSEED
  5
2DA
  9
$SURFTAB1
 70
     6
  9
$SURFTAB2
 70
     6
  9
$SURFTYPE
 70
     6
  9
$SURFU
 70
     6
  9
$SURFV
 70
     6
  9
$UCSBASE
  2

  9
$UCSNAME
  2

  9
$UCSORG
 10
0.0
 20
0.0
 30
0.0
  9
$UCSXDIR
 10
1.0
 20
0.0
 30
0.0
  9
$UCSYDIR
 10
0.0
 20
1.0
 30
0.0
  9
$UCSORTHOREF
  2

  9
$UCSORTHOVIEW
 70
     1
  9
$UCSORGTOP
 10
0.0
 20
0.0
 30
0.0
  9
$UCSORGBOTTOM
 10
0.0
 20
0.0
 30
0.0
  9
$UCSORGLEFT
 10
0.0
 20
0.0
 30
0.0
  9
$UCSORGRIGHT
 10
0.0
 20
0.0
 30
0.0
  9
$UCSORGFRONT
 10
0.0
 20
0.0
 30
0.0
  9
$UCSORGBACK
 10
0.0
 20
0.0
 30
0.0
  9
$PUCSBASE
  2

  9
$PUCSNAME
  2

  9
$PUCSORG
 10
0.0
 20
0.0
 30
0.0
  9
$PUCSXDIR
 10
1.0
 20
0.0
 30
0.0
  9
$PUCSYDIR
 10
0.0
 20
1.0
 30
0.0
  9
$PUCSORTHOREF
  2

  9
$PUCSORTHOVIEW
 70
     0
  9
$PUCSORGTOP
 10
0.0
 20
0.0
 30
0.0
  9
$PUCSORGBOTTOM
 10
0.0
 20
0.0
 30
0.0
  9
$PUCSORGLEFT
 10
0.0
 20
0.0
 30
0.0
  9
$PUCSORGRIGHT
 10
0.0
 20
0.0
 30
0.0
  9
$PUCSORGFRONT
 10
0.0
 20
0.0
 30
0.0
  9
$PUCSORGBACK
 10
0.0
 20
0.0
 30
0.0
  9
$USERI1
 70
     0
  9
$USERI2
 70
     0
  9
$USERI3
 70
     0
  9
$USERI4
 70
     0
  9
$USERI5
 70
     0
  9
$USERR1
 40
0.0
  9
$USERR2
 40
0.0
  9
$USERR3
 40
0.0
  9
$USERR4
 40
0.0
  9
$USERR5
 40
0.0
  9
$WORLDVIEW
 70
     1
  9
$SHADEDGE
 70
     3
  9
$SHADEDIF
 70
    70
  9
$TILEMODE
 70
     1
  9
$MAXACTVP
 70
    64
  9
$PINSBASE
 10
0.0
 20
0.0
 30
0.0
  9
$PLIMCHECK
 70
     0
  9
$PEXTMIN
 10
1.000000000000000E+20
 20
1.000000000000000E+20
 30
1.000000000000000E+20
  9
$PEXTMAX
 10
-1.000000000000000E+20
 20
-1.000000000000000E+20
 30
-1.000000000000000E+20
  9
$PLIMMIN
 10
0.0
 20
0.0
  9
$PLIMMAX
 10
12.0
 20
9.0
  9
$UNITMODE
 70
     0
  9
$VISRETAIN
 70
     1
  9
$PLINEGEN
 70
     0
  9
$PSLTSCALE
 70
     1
  9
$TREEDEPTH
 70
  3020
  9
$CMLSTYLE
  2
Standard
  9
$CMLJUST
 70
     0
  9
$CMLSCALE
 40
1.0
  9
$PROXYGRAPHICS
 70
     1
  9
$MEASUREMENT
 70
     0
  9
$CELWEIGHT
370
    -1
  9
$ENDCAPS
280
     0
  9
$JOINSTYLE
280
     0
  9
$LWDISPLAY
290
     0
  9
$INSUNITS
 70
     0
  9
$HYPERLINKBASE
  1

  9
$STYLESHEET
  1

  9
$XEDIT
290
     1
  9
$CEPSNTYPE
380
     0
  9
$PSTYLEMODE
290
     1
  9
$FINGERPRINTGUID
  2
{A1863205-7C6E-424B-A148-83AE3AEE835D}
  9
$VERSIONGUID
  2
{21D505A5-BF09-453E-8C5F-04F3A4E58511}
  9
$EXTNAMES
290
     1
  9
$PSVPSCALE
 40
0.0
  9
$OLESTARTUP
290
     0
  0
ENDSEC
  0
SECTION
  2
CLASSES
  0
CLASS
  1
ACDBDICTIONARYWDFLT
  2
AcDbDictionaryWithDefault
  3
AutoCAD 2000
 90
        0
280
     0
281
     0
  0
CLASS
  1
ACDBPLACEHOLDER
  2
AcDbPlaceHolder
  3
AutoCAD 2000
 90
        0
280
     0
281
     0
  0
CLASS
  1
LAYOUT
  2
AcDbLayout
  3
AutoCAD 2000
 90
        0
280
     0
281
     0
  0
CLASS
  1
DICTIONARYVAR
  2
AcDbDictionaryVar
  3
AutoCAD 2000
 90
        0
280
     0
281
     0
  0
ENDSEC
  0
SECTION
  2
TABLES
  0
TABLE
  2
VPORT
  5
8
330
0
100
AcDbSymbolTable
 70
     3
  0
VPORT
  5
2D9
330
8
100
AcDbSymbolTableRecord
100
AcDbViewportTableRecord
  2
*Active
 70
     0
 10
0.0
 20
0.0
 11
1.0
 21
1.0
 12
117.0
 22
165.0
 13
0.0
 23
0.0
 14
1.0
 24
1.0
 15
0.0
 25
0.0
 16
0.0
 26
0.0
 36
1.0
 17
0.0
 27
0.0
 37
0.0
 40
332.5964603580562
 41
2.078104993597951
 42
50.0
 43
0.0
 44
0.0
 50
0.0
 51
0.0
 71
     0
 72
   100
 73
     1
 74
     3
 75
     0
 76
     0
 77
     0
 78
     0
281
     0
 65
     1
110
0.0
120
0.0
130
0.0
111
1.0
121
0.0
131
0.0
112
0.0
122
1.0
132
0.0
 79
     1
146
0.0
  0
ENDTAB
  0
TABLE
  2
LTYPE
  5
5
330
0
100
AcDbSymbolTable
 70
     1
  0
LTYPE
  5
13
330
5
100
AcDbSymbolTableRecord
100
AcDbLinetypeTableRecord
  2
ByBlock
 70
     0
  3

 72
    65
 73
     0
 40
0.0
  0
LTYPE
  5
14
330
5
100
AcDbSymbolTableRecord
100
AcDbLinetypeTableRecord
  2
ByLayer
 70
     0
  3

 72
    65
 73
     0
 40
0.0
  0
LTYPE
  5
15
330
5
100
AcDbSymbolTableRecord
100
AcDbLinetypeTableRecord
  2
Continuous
 70
     0
  3
Solid line
 72
    65
 73
     0
 40
0.0
  0
ENDTAB
  0
TABLE
  2
LAYER
  5
2
330
0
100
AcDbSymbolTable
 70
     1
  0
LAYER
  5
10
330
2
100
AcDbSymbolTableRecord
100
AcDbLayerTableRecord
  2
0
 70
     0
 62
     7
  6
Continuous
370
    -3
390
F
  0
ENDTAB
  0
TABLE
  2
STYLE
  5
3
330
0
100
AcDbSymbolTable
 70
     1
  0
STYLE
  5
11
330
3
100
AcDbSymbolTableRecord
100
AcDbTextStyleTableRecord
  2
Standard
 70
     0
 40
0.0
 41
1.0
 50
0.0
 71
     0
 42
0.2
  3
txt
  4

  0
ENDTAB
  0
TABLE
  2
VIEW
  5
6
330
0
100
AcDbSymbolTable
 70
     0
  0
ENDTAB
  0
TABLE
  2
UCS
  5
7
330
0
100
AcDbSymbolTable
 70
     0
  0
ENDTAB
  0
TABLE
  2
APPID
  5
9
330
0
100
AcDbSymbolTable
 70
     1
  0
APPID
  5
12
330
9
100
AcDbSymbolTableRecord
100
AcDbRegAppTableRecord
  2
ACAD
 70
     0
  0
ENDTAB
  0
TABLE
  2
DIMSTYLE
  5
A
330
0
100
AcDbSymbolTable
 70
     1
100
AcDbDimStyleTable
 71
     0
  0
DIMSTYLE
105
2C6
330
A
100
AcDbSymbolTableRecord
100
AcDbDimStyleTableRecord
  2
Standard
 70
     0
340
11
  0
ENDTAB
  0
TABLE
  2
BLOCK_RECORD
  5
1
330
0
100
AcDbSymbolTable
 70
     0
  0
BLOCK_RECORD
  5
1E
330
1
100
AcDbSymbolTableRecord
100
AcDbBlockTableRecord
  2
*Model_Space
340
21
  0
BLOCK_RECORD
  5
1A
330
1
100
AcDbSymbolTableRecord
100
AcDbBlockTableRecord
  2
*Paper_Space
340
1D
  0
ENDTAB
  0
ENDSEC
  0
SECTION
  2
BLOCKS
  0
BLOCK
  5
1F
330
1E
100
AcDbEntity
  8
0
100
AcDbBlockBegin
  2
*Model_Space
 70
     0
 10
0.0
 20
0.0
 30
0.0
  3
*Model_Space
  1

  0
ENDBLK
  5
20
330
1E
100
AcDbEntity
  8
0
100
AcDbBlockEnd
  0
BLOCK
  5
1B
330
1A
100
AcDbEntity
 67
     1
  8
0
100
AcDbBlockBegin
  2
*Paper_Space
 70
     0
 10
0.0
 20
0.0
 30
0.0
  3
*Paper_Space
  1

  0
ENDBLK
  5
1C
330
1A
100
AcDbEntity
 67
     1
  8
0
100
AcDbBlockEnd
  0
ENDSEC
  0
SECTION
  2
ENTITIES
  0
LINE
  5
22
330
1E
100
AcDbEntity
  8
0
100
AcDbLine
 10
172.66218105568
 20
162.262235182551
 30
0.0
 11
173.653975
 21
160.0379999999999
 31
0.0
  0
LINE
  5
23
330
1E
100
AcDbEntity
  8
0
100
AcDbLine
 10
183.094975
 20
146.364
 30
0.0
 11
183.874975
 21
146.814
 31
0.0
  0
LINE
  5
26
330
1E
100
AcDbEntity
  8
0
100
AcDbLine
 10
183.92397871656
 20
146.842305395847
 30
0.0
 11
193.431975
 21
124.6709999999999
 31
0.0
  0
LINE
  5
27
330
1E
100
AcDbEntity
  8
0
100
AcDbLine
 10
183.874975
 20
146.814
 30
0.0
 11
184.4814034493399
 21
147.164283580846
 31
0.0
  0
LINE
  5
28
330
1E
100
AcDbEntity
  8
0
100
AcDbLine
 10
182.7489749999999
 20
146.1639999999999
 30
0.0
 11
183.094975
 21
146.364
 31
0.0
  0
LINE
  5
29
330
1E
100
AcDbEntity
  8
0
100
AcDbLine
 10
174.301791975386
 20
159.240316025157
 30
0.0
 11
182.7489749999999
 21
146.1639999999999
 31
0.0
  0
LINE
  5
2A
330
1E
100
AcDbEntity
  8
0
100
AcDbLine
 10
175.34985508624
 20
157.949792343444
 30
0.0
 11
182.3899749999999
 21
148.657
 31
0.0
  0
LINE
  5
2B
330
1E
100
AcDbEntity
  8
0
100
AcDbLine
 10
182.3899749999999
 20
148.657
 30
0.0
 11
191.653975
 21
142.0449999999999
 31
0.0
  0
LINE
  5
2F
330
1E
100
AcDbEntity
  8
0
100
AcDbLine
 10
166.869975
 20
170.2552999999999
 30
0.0
 11
167.219975
 21
170.5092
 31
0.0
  0
LINE
  5
31
330
1E
100
AcDbEntity
  8
0
100
AcDbLine
 10
155.272975
 20
181.0217
 30
0.0
 11
165.417975
 21
170.4651
 31
0.0
  0
LINE
  5
33
330
1E
100
AcDbEntity
  8
0
100
AcDbLine
 10
168.1519749999999
 20
171.1864999999999
 30
0.0
 11
169.7049749999999
 21
172.3153
 31
0.0
  0
LINE
  5
34
330
1E
100
AcDbEntity
  8
0
100
AcDbLine
 10
167.219975
 20
170.5092
 30
0.0
 11
168.1519749999999
 21
171.1864999999999
 31
0.0
  0
LINE
  5
35
330
1E
100
AcDbEntity
  8
0
100
AcDbLine
 10
165.794975
 20
170.7418999999999
 30
0.0
 11
166.801975
 21
171.4799
 31
0.0
  0
LINE
  5
36
330
1E
100
AcDbEntity
  8
0
100
AcDbLine
 10
166.801975
 20
171.4799
 30
0.0
 11
168.478975
 21
172.71
 31
0.0
  0
LINE
  5
37
330
1E
100
AcDbEntity
  8
0
100
AcDbLine
 10
169.7049749999999
 20
172.3153
 30
0.0
 11
171.762975
 21
173.8109
 31
0.0
  0
LINE
  5
38
330
1E
100
AcDbEntity
  8
0
100
AcDbLine
 10
168.478975
 20
172.71
 30
0.0
 11
170.700975
 21
174.3398
 31
0.0
  0
LINE
  5
39
330
1E
100
AcDbEntity
  8
0
100
AcDbLine
 10
170.700975
 20
174.3398
 30
0.0
 11
173.2169749999999
 21
176.1848999999999
 31
0.0
  0
LINE
  5
3A
330
1E
100
AcDbEntity
  8
0
100
AcDbLine
 10
165.417975
 20
170.4651
 30
0.0
 11
166.869975
 21
170.2552999999999
 31
0.0
  0
LINE
  5
3B
330
1E
100
AcDbEntity
  8
0
100
AcDbLine
 10
165.417975
 20
170.4651
 30
0.0
 11
165.794975
 21
170.7418999999999
 31
0.0
  0
LINE
  5
3C
330
1E
100
AcDbEntity
  8
0
100
AcDbLine
 10
167.0853036173889
 20
170.4115055312999
 30
0.0
 11
173.358648298151
 21
160.7003110015559
 31
0.0
  0
LINE
  5
46
330
1E
100
AcDbEntity
  8
0
100
AcDbLine
 10
171.762975
 20
173.8109
 30
0.0
 11
174.0919749999999
 21
175.5041
 31
0.0
  0
LINE
  5
4B
330
1E
100
AcDbEntity
  8
0
100
AcDbLine
 10
174.0919749999999
 20
175.5041
 30
0.0
 11
176.3629749999999
 21
177.154
 31
0.0
  0
LINE
  5
4C
330
1E
100
AcDbEntity
  8
0
100
AcDbLine
 10
173.2169749999999
 20
176.1848999999999
 30
0.0
 11
175.767975
 21
178.0558
 31
0.0
  0
LINE
  5
4D
330
1E
100
AcDbEntity
  8
0
100
AcDbLine
 10
176.3629749999999
 20
177.154
 30
0.0
 11
178.8429749999999
 21
178.9680999999999
 31
0.0
  0
LINE
  5
4E
330
1E
100
AcDbEntity
  8
0
100
AcDbLine
 10
175.767975
 20
178.0558
 30
0.0
 11
178.461975
 21
180.0094999999999
 31
0.0
  0
LINE
  5
4F
330
1E
100
AcDbEntity
  8
0
100
AcDbLine
 10
178.461975
 20
180.0094999999999
 30
0.0
 11
180.986975
 21
181.8411
 31
0.0
  0
LINE
  5
50
330
1E
100
AcDbEntity
  8
0
100
AcDbLine
 10
178.8429749999999
 20
178.9680999999999
 30
0.0
 11
181.166975
 21
180.6689
 31
0.0
  0
LINE
  5
54
330
1E
100
AcDbEntity
  8
0
100
AcDbLine
 10
181.166975
 20
180.6689
 30
0.0
 11
183.219975
 21
182.1711999999999
 31
0.0
  0
LINE
  5
57
330
1E
100
AcDbEntity
  8
0
100
AcDbLine
 10
180.986975
 20
181.8411
 30
0.0
 11
183.2189749999999
 21
183.459
 31
0.0
  0
LINE
  5
58
330
1E
100
AcDbEntity
  8
0
100
AcDbLine
 10
183.2189749999999
 20
183.459
 30
0.0
 11
184.901975
 21
184.6801
 31
0.0
  0
LINE
  5
5A
330
1E
100
AcDbEntity
  8
0
100
AcDbLine
 10
183.219975
 20
182.1711999999999
 30
0.0
 11
184.768975
 21
183.305
 31
0.0
  0
LINE
  5
5E
330
1E
100
AcDbEntity
  8
0
100
AcDbLine
 10
171.767975
 20
164.2059999999999
 30
0.0
 11
171.881975
 21
163.8959999999999
 31
0.0
  0
LINE
  5
5F
330
1E
100
AcDbEntity
  8
0
100
AcDbLine
 10
171.881975
 20
163.8959999999999
 30
0.0
 11
172.66218105568
 21
162.262235182551
 31
0.0
  0
LINE
  5
60
330
1E
100
AcDbEntity
  8
0
100
AcDbLine
 10
184.768975
 20
183.305
 30
0.0
 11
185.6989749999999
 21
183.9854
 31
0.0
  0
LINE
  5
62
330
1E
100
AcDbEntity
  8
0
100
AcDbLine
 10
184.901975
 20
184.6801
 30
0.0
 11
185.9129749999999
 21
185.4128
 31
0.0
  0
LINE
  5
63
330
1E
100
AcDbEntity
  8
0
100
AcDbLine
 10
185.9129749999999
 20
185.4128
 30
0.0
 11
186.291975
 21
185.6875
 31
0.0
  0
LINE
  5
64
330
1E
100
AcDbEntity
  8
0
100
AcDbLine
 10
185.6989749999999
 20
183.9854
 30
0.0
 11
186.046975
 21
184.2405
 31
0.0
  0
LINE
  5
66
330
1E
100
AcDbEntity
  8
0
100
AcDbLine
 10
193.431975
 20
124.6709999999999
 30
0.0
 11
201.332975
 21
101.875
 31
0.0
  0
LINE
  5
67
330
1E
100
AcDbEntity
  8
0
100
AcDbLine
 10
186.046975
 20
184.2405
 30
0.0
 11
186.291975
 21
185.6875
 31
0.0
  0
LINE
  5
68
330
1E
100
AcDbEntity
  8
0
100
AcDbLine
 10
191.653975
 20
142.0449999999999
 30
0.0
 11
200.9189749999999
 21
136.368
 31
0.0
  0
LINE
  5
69
330
1E
100
AcDbEntity
  8
0
100
AcDbLine
 10
186.046975
 20
184.2405
 30
0.0
 11
191.653975
 21
187.72
 31
0.0
  0
LINE
  5
6A
330
1E
100
AcDbEntity
  8
0
100
AcDbLine
 10
145.237975
 20
192.6223999999999
 30
0.0
 11
155.272975
 21
181.0217
 31
0.0
  0
LINE
  5
6B
330
1E
100
AcDbEntity
  8
0
100
AcDbLine
 10
191.653975
 20
187.72
 30
0.0
 11
200.9189749999999
 21
191.72
 31
0.0
  0
LINE
  5
6C
330
1E
100
AcDbEntity
  8
0
100
AcDbLine
 10
215.030975
 20
31.574
 30
0.0
 11
216.831975
 21
-0.0270000000000119
 31
0.0
  0
LINE
  5
6D
330
1E
100
AcDbEntity
  8
0
100
AcDbLine
 10
215.030975
 20
31.574
 30
0.0
 11
216.831975
 21
-0.0270000000000141
 31
0.0
  0
LINE
  5
6E
330
1E
100
AcDbEntity
  8
0
100
AcDbLine
 10
217.405975
 20
-0.0250000000000131
 30
0.0
 11
219.182975
 21
-0.029000000000011
 31
0.0
  0
LINE
  5
6F
330
1E
100
AcDbEntity
  8
0
100
AcDbLine
 10
217.4589749999999
 20
-0.0280000000000132
 30
0.0
 11
218.0354917295439
 21
-0.0264170325932463
 31
0.0
  0
LINE
  5
70
330
1E
100
AcDbEntity
  8
0
100
AcDbLine
 10
216.831975
 20
-0.0270000000000119
 30
0.0
 11
217.4589749999999
 21
-0.0280000000000132
 31
0.0
  0
LINE
  5
71
330
1E
100
AcDbEntity
  8
0
100
AcDbLine
 10
216.831975
 20
-0.0270000000000119
 30
0.0
 11
217.405975
 21
-0.0250000000000131
 31
0.0
  0
LINE
  5
72
330
1E
100
AcDbEntity
  8
0
100
AcDbLine
 10
212.131975
 20
53.271
 30
0.0
 11
215.030975
 21
31.574
 31
0.0
  0
LINE
  5
73
330
1E
100
AcDbEntity
  8
0
100
AcDbLine
 10
207.5329749999999
 20
77.47800000000001
 30
0.0
 11
212.131975
 21
53.271
 31
0.0
  0
LINE
  5
74
330
1E
100
AcDbEntity
  8
0
100
AcDbLine
 10
215.231975
 20
109.881
 30
0.0
 11
222.0319749999999
 21
84.17299999999999
 31
0.0
  0
LINE
  5
75
330
1E
100
AcDbEntity
  8
0
100
AcDbLine
 10
201.332975
 20
101.875
 30
0.0
 11
207.5329749999999
 21
77.47800000000001
 31
0.0
  0
LINE
  5
76
330
1E
100
AcDbEntity
  8
0
100
AcDbLine
 10
219.182975
 20
-0.029000000000011
 30
0.0
 11
221.667975
 21
-0.0320000000000148
 31
0.0
  0
LINE
  5
77
330
1E
100
AcDbEntity
  8
0
100
AcDbLine
 10
217.5999749999999
 20
131.0579999999999
 30
0.0
 11
220.4669749999999
 21
130.4859999999999
 31
0.0
  0
LINE
  5
78
330
1E
100
AcDbEntity
  8
0
100
AcDbLine
 10
206.832975
 20
133.367
 30
0.0
 11
215.231975
 21
109.881
 31
0.0
  0
LINE
  5
79
330
1E
100
AcDbEntity
  8
0
100
AcDbLine
 10
206.2768062517069
 20
134.57341331883
 30
0.0
 11
206.832975
 21
133.367
 31
0.0
  0
LINE
  5
7A
330
1E
100
AcDbEntity
  8
0
100
AcDbLine
 10
214.5569749999999
 20
131.8
 30
0.0
 11
217.5999749999999
 21
131.0579999999999
 31
0.0
  0
LINE
  5
7B
330
1E
100
AcDbEntity
  8
0
100
AcDbLine
 10
200.9189749999999
 20
191.72
 30
0.0
 11
208.124975
 21
193.7199999999999
 31
0.0
  0
LINE
  5
7C
330
1E
100
AcDbEntity
  8
0
100
AcDbLine
 10
0.141024999999998
 20
309.509
 30
0.0
 11
0.5560749999999972
 21
305.228
 31
0.0
  0
LINE
  5
7D
330
1E
100
AcDbEntity
  8
0
100
AcDbLine
 10
0.141024999999998
 20
309.509
 30
0.0
 11
0.524974999999999
 21
312.174
 31
0.0
  0
LINE
  5
7E
330
1E
100
AcDbEntity
  8
0
100
AcDbLine
 10
0.141024999999998
 20
309.509
 30
0.0
 11
0.524974999999999
 21
312.174
 31
0.0
  0
LINE
  5
7F
330
1E
100
AcDbEntity
  8
0
100
AcDbLine
 10
0.141024999999998
 20
309.509
 30
0.0
 11
0.5560749999999972
 21
305.228
 31
0.0
  0
LINE
  5
80
330
1E
100
AcDbEntity
  8
0
100
AcDbLine
 10
2.047974999509989
 20
303.212000000283
 30
0.0
 11
2.394375
 21
303.012
 31
0.0
  0
LINE
  5
81
330
1E
100
AcDbEntity
  8
0
100
AcDbLine
 10
2.047974999509989
 20
303.212000000283
 30
0.0
 11
2.394375
 21
303.012
 31
0.0
  0
LINE
  5
82
330
1E
100
AcDbEntity
  8
0
100
AcDbLine
 10
2.020175
 20
299.764
 30
0.0
 11
5.033375
 21
293.983
 31
0.0
  0
LINE
  5
83
330
1E
100
AcDbEntity
  8
0
100
AcDbLine
 10
0.922074999999997
 20
303.862
 30
0.0
 11
2.047975
 21
303.2119999999999
 31
0.0
  0
LINE
  5
84
330
1E
100
AcDbEntity
  8
0
100
AcDbLine
 10
1.068475
 20
303.3159999999999
 30
0.0
 11
1.355152930085229
 21
303.6119772141789
 31
0.0
  0
LINE
  5
85
330
1E
100
AcDbEntity
  8
0
100
AcDbLine
 10
1.068475
 20
303.3159999999999
 30
0.0
 11
2.020175
 21
299.764
 31
0.0
  0
LINE
  5
86
330
1E
100
AcDbEntity
  8
0
100
AcDbLine
 10
1.068475
 20
303.3159999999999
 30
0.0
 11
2.280975
 21
302.6159999999999
 31
0.0
  0
LINE
  5
87
330
1E
100
AcDbEntity
  8
0
100
AcDbLine
 10
2.047975
 20
303.2119999999999
 30
0.0
 11
5.252275
 21
301.362
 31
0.0
  0
LINE
  5
88
330
1E
100
AcDbEntity
  8
0
100
AcDbLine
 10
0.5560749999999972
 20
305.228
 30
0.0
 11
0.922074999999997
 21
303.862
 31
0.0
  0
LINE
  5
89
330
1E
100
AcDbEntity
  8
0
100
AcDbLine
 10
0.524974999999999
 20
312.174
 30
0.0
 11
2.091975
 21
315.8889999999999
 31
0.0
  0
LINE
  5
8A
330
1E
100
AcDbEntity
  8
0
100
AcDbLine
 10
2.091975
 20
315.8889999999999
 30
0.0
 11
2.774974999999999
 21
316.0719999999999
 31
0.0
  0
LINE
  5
8B
330
1E
100
AcDbEntity
  8
0
100
AcDbLine
 10
2.091975
 20
315.8889999999999
 30
0.0
 11
3.391074999999999
 21
315.139
 31
0.0
  0
LINE
  5
8C
330
1E
100
AcDbEntity
  8
0
100
AcDbLine
 10
2.394375
 20
303.012
 30
0.0
 11
5.512075
 21
301.2119999999999
 31
0.0
  0
LINE
  5
8D
330
1E
100
AcDbEntity
  8
0
100
AcDbLine
 10
3.391074999999999
 20
315.139
 30
0.0
 11
7.028374999999999
 21
313.0389999999999
 31
0.0
  0
LINE
  5
8E
330
1E
100
AcDbEntity
  8
0
100
AcDbLine
 10
5.033375
 20
293.983
 30
0.0
 11
5.383857464304879
 21
293.452172852835
 31
0.0
  0
LINE
  5
8F
330
1E
100
AcDbEntity
  8
0
100
AcDbLine
 10
5.019675
 20
292.8929999999999
 30
0.0
 11
5.371974999999999
 21
292.288
 31
0.0
  0
LINE
  5
91
330
1E
100
AcDbEntity
  8
0
100
AcDbLine
 10
4.868674999999999
 20
293.1519999999999
 30
0.0
 11
5.019675
 21
292.8929999999999
 31
0.0
  0
LINE
  5
92
330
1E
100
AcDbEntity
  8
0
100
AcDbLine
 10
4.868674999999999
 20
293.1519999999999
 30
0.0
 11
5.383857464304879
 21
293.452172852835
 31
0.0
  0
LINE
  5
93
330
1E
100
AcDbEntity
  8
0
100
AcDbLine
 10
4.868674999999999
 20
293.1519999999999
 30
0.0
 11
5.383857464304879
 21
293.452172852835
 31
0.0
  0
LINE
  5
94
330
1E
100
AcDbEntity
  8
0
100
AcDbLine
 10
4.074074999999999
 20
315.322
 30
0.0
 11
7.624774999999999
 21
313.2719999999999
 31
0.0
  0
LINE
  5
95
330
1E
100
AcDbEntity
  8
0
100
AcDbLine
 10
2.774974999999999
 20
316.0719999999999
 30
0.0
 11
4.074074999999999
 21
315.322
 31
0.0
  0
LINE
  5
96
330
1E
100
AcDbEntity
  8
0
100
AcDbLine
 10
3.457974999999999
 20
316.2549999999999
 30
0.0
 11
7.095274999999999
 21
314.1549999999999
 31
0.0
  0
LINE
  5
97
330
1E
100
AcDbEntity
  8
0
100
AcDbLine
 10
2.158974999999999
 20
317.0049999999999
 30
0.0
 11
4.658974999999999
 21
321.3349999999999
 31
0.0
  0
LINE
  5
98
330
1E
100
AcDbEntity
  8
0
100
AcDbLine
 10
2.158974999999999
 20
317.0049999999999
 30
0.0
 11
2.774974999999999
 21
316.0719999999999
 31
0.0
  0
LINE
  5
99
330
1E
100
AcDbEntity
  8
0
100
AcDbLine
 10
2.158974999999999
 20
317.0049999999999
 30
0.0
 11
3.457974999999999
 21
316.2549999999999
 31
0.0
  0
LINE
  5
9A
330
1E
100
AcDbEntity
  8
0
100
AcDbLine
 10
4.658974999999999
 20
321.3349999999999
 30
0.0
 11
5.341974999999999
 21
321.5179999999999
 31
0.0
  0
LINE
  5
9C
330
1E
100
AcDbEntity
  8
0
100
AcDbLine
 10
5.953174999999999
 20
291.9529999999999
 30
0.0
 11
6.354775
 21
291.319
 31
0.0
  0
LINE
  5
9D
330
1E
100
AcDbEntity
  8
0
100
AcDbLine
 10
5.875375
 20
291.424
 30
0.0
 11
6.176952691418518
 21
291.5997254572729
 31
0.0
  0
LINE
  5
9E
330
1E
100
AcDbEntity
  8
0
100
AcDbLine
 10
5.724274999999999
 20
291.683
 30
0.0
 11
5.875375
 21
291.424
 31
0.0
  0
LINE
  5
A0
330
1E
100
AcDbEntity
  8
0
100
AcDbLine
 10
5.512075
 20
301.2119999999999
 30
0.0
 11
10.621575
 21
298.262
 31
0.0
  0
LINE
  5
A1
330
1E
100
AcDbEntity
  8
0
100
AcDbLine
 10
5.252275
 20
301.362
 30
0.0
 11
10.36177499999999
 21
298.412
 31
0.0
  0
LINE
  5
A2
330
1E
100
AcDbEntity
  8
0
100
AcDbLine
 10
5.686074999999999
 20
292.5079999999999
 30
0.0
 11
5.953174999999999
 21
291.9529999999999
 31
0.0
  0
LINE
  5
A3
330
1E
100
AcDbEntity
  8
0
100
AcDbLine
 10
5.686074999999999
 20
292.5079999999999
 30
0.0
 11
5.699675
 21
292.672
 31
0.0
  0
LINE
  5
A4
330
1E
100
AcDbEntity
  8
0
100
AcDbLine
 10
5.699675
 20
292.672
 30
0.0
 11
5.999774999999999
 21
292.327
 31
0.0
  0
LINE
  5
A6
330
1E
100
AcDbEntity
  8
0
100
AcDbLine
 10
5.371974999999999
 20
292.288
 30
0.0
 11
5.724274999999999
 21
291.683
 31
0.0
  0
LINE
  5
A8
330
1E
100
AcDbEntity
  8
0
100
AcDbLine
 10
6.40137499999999
 20
291.694
 30
0.0
 11
6.668574999999999
 21
291.1379999999999
 31
0.0
  0
LINE
  5
AA
330
1E
100
AcDbEntity
  8
0
100
AcDbLine
 10
5.999774999999999
 20
292.327
 30
0.0
 11
6.40137499999999
 21
291.694
 31
0.0
  0
LINE
  5
AC
330
1E
100
AcDbEntity
  8
0
100
AcDbLine
 10
6.354775
 20
291.319
 30
0.0
 11
6.654975
 21
290.9739999999999
 31
0.0
  0
LINE
  5
AF
330
1E
100
AcDbEntity
  8
0
100
AcDbLine
 10
7.028374999999999
 20
313.0389999999999
 30
0.0
 11
12.744075
 21
309.739
 31
0.0
  0
LINE
  5
B0
330
1E
100
AcDbEntity
  8
0
100
AcDbLine
 10
6.91622291906436
 20
291.1313115670159
 30
0.0
 11
8.113474999999999
 21
289.318
 31
0.0
  0
LINE
  5
B2
330
1E
100
AcDbEntity
  8
0
100
AcDbLine
 10
6.654975
 20
290.9739999999999
 30
0.0
 11
6.668574999999999
 21
291.1379999999999
 31
0.0
  0
LINE
  5
B5
330
1E
100
AcDbEntity
  8
0
100
AcDbLine
 10
9.241875
 20
286.987
 30
0.0
 11
9.688375
 21
286.408
 31
0.0
  0
LINE
  5
B6
330
1E
100
AcDbEntity
  8
0
100
AcDbLine
 10
9.467874999999999
 20
286.856
 30
0.0
 11
9.846674999999999
 21
286.3159999999999
 31
0.0
  0
LINE
  5
B8
330
1E
100
AcDbEntity
  8
0
100
AcDbLine
 10
9.021375
 20
287.435
 30
0.0
 11
9.467874999999999
 21
286.856
 31
0.0
  0
LINE
  5
BA
330
1E
100
AcDbEntity
  8
0
100
AcDbLine
 10
8.113474999999999
 20
289.318
 30
0.0
 11
9.225527896467429
 21
288.0639325316759
 31
0.0
  0
LINE
  5
BB
330
1E
100
AcDbEntity
  8
0
100
AcDbLine
 10
7.957474999999999
 20
291.197
 30
0.0
 11
8.109375
 21
290.7079999999999
 31
0.0
  0
LINE
  5
BC
330
1E
100
AcDbEntity
  8
0
100
AcDbLine
 10
7.957474999999999
 20
291.197
 30
0.0
 11
8.139874999999999
 21
291.264
 31
0.0
  0
LINE
  5
BE
330
1E
100
AcDbEntity
  8
0
100
AcDbLine
 10
8.109375
 20
290.7079999999999
 30
0.0
 11
8.521074999999999
 21
290.0679999999999
 31
0.0
  0
LINE
  5
BF
330
1E
100
AcDbEntity
  8
0
100
AcDbLine
 10
8.521074999999999
 20
290.0679999999999
 30
0.0
 11
8.944974999999999
 21
289.6519999999999
 31
0.0
  0
LINE
  5
C0
330
1E
100
AcDbEntity
  8
0
100
AcDbLine
 10
8.563674999999999
 20
290.8469999999999
 30
0.0
 11
8.975374999999999
 21
290.2079999999999
 31
0.0
  0
LINE
  5
C2
330
1E
100
AcDbEntity
  8
0
100
AcDbLine
 10
8.139874999999999
 20
291.264
 30
0.0
 11
8.563674999999999
 21
290.8469999999999
 31
0.0
  0
LINE
  5
C5
330
1E
100
AcDbEntity
  8
0
100
AcDbLine
 10
8.944974999999999
 20
289.6519999999999
 30
0.0
 11
9.12727499999999
 21
289.718
 31
0.0
  0
LINE
  5
C6
330
1E
100
AcDbEntity
  8
0
100
AcDbLine
 10
8.975374999999999
 20
290.2079999999999
 30
0.0
 11
9.12727499999999
 21
289.718
 31
0.0
  0
LINE
  5
C8
330
1E
100
AcDbEntity
  8
0
100
AcDbLine
 10
8.765475
 20
287.72
 30
0.0
 11
8.863175
 21
287.526
 31
0.0
  0
LINE
  5
C9
330
1E
100
AcDbEntity
  8
0
100
AcDbLine
 10
8.765475
 20
287.72
 30
0.0
 11
9.021375
 21
287.435
 31
0.0
  0
LINE
  5
CA
330
1E
100
AcDbEntity
  8
0
100
AcDbLine
 10
8.765475
 20
287.72
 30
0.0
 11
9.423714464552089
 21
288.2120955116919
 31
0.0
  0
LINE
  5
CB
330
1E
100
AcDbEntity
  8
0
100
AcDbLine
 10
8.863175
 20
287.526
 30
0.0
 11
9.241875
 21
286.987
 31
0.0
  0
LINE
  5
CC
330
1E
100
AcDbEntity
  8
0
100
AcDbLine
 10
7.624774999999999
 20
313.2719999999999
 30
0.0
 11
13.340475
 21
309.972
 31
0.0
  0
LINE
  5
CD
330
1E
100
AcDbEntity
  8
0
100
AcDbLine
 10
7.095274999999999
 20
314.1549999999999
 30
0.0
 11
12.984275
 21
310.7549999999999
 31
0.0
  0
LINE
  5
CE
330
1E
100
AcDbEntity
  8
0
100
AcDbLine
 10
9.944375
 20
286.122
 30
0.0
 11
10.3242711340886
 21
286.4060256150339
 31
0.0
  0
LINE
  5
CF
330
1E
100
AcDbEntity
  8
0
100
AcDbLine
 10
9.688375
 20
286.408
 30
0.0
 11
9.944375
 21
286.122
 31
0.0
  0
LINE
  5
D0
330
1E
100
AcDbEntity
  8
0
100
AcDbLine
 10
9.846674999999999
 20
286.3159999999999
 30
0.0
 11
9.944375
 21
286.122
 31
0.0
  0
LINE
  5
D2
330
1E
100
AcDbEntity
  8
0
100
AcDbLine
 10
10.087075
 20
286.8199999999999
 30
0.0
 11
10.36267499999999
 21
286.3389999999999
 31
0.0
  0
LINE
  5
D3
330
1E
100
AcDbEntity
  8
0
100
AcDbLine
 10
10.087075
 20
286.8199999999999
 30
0.0
 11
10.15837499999999
 21
286.9159999999999
 31
0.0
  0
LINE
  5
D4
330
1E
100
AcDbEntity
  8
0
100
AcDbLine
 10
10.15837499999999
 20
286.9159999999999
 30
0.0
 11
10.551075
 21
286.552
 31
0.0
  0
LINE
  5
D6
330
1E
100
AcDbEntity
  8
0
100
AcDbLine
 10
22.0286750017828
 20
277.819999998971
 30
0.0
 11
22.46167499999999
 21
277.57
 31
0.0
  0
LINE
  5
D7
330
1E
100
AcDbEntity
  8
0
100
AcDbLine
 10
22.46167499999999
 20
277.57
 30
0.0
 11
24.62677499999999
 21
276.3199999999999
 31
0.0
  0
LINE
  5
D8
330
1E
100
AcDbEntity
  8
0
100
AcDbLine
 10
24.315975
 20
277.9629999999999
 30
0.0
 11
24.888675
 21
277.494
 31
0.0
  0
LINE
  5
E0
330
1E
100
AcDbEntity
  8
0
100
AcDbLine
 10
20.953475
 20
279.904
 30
0.0
 11
21.119575
 21
280.129
 31
0.0
  0
LINE
  5
E2
330
1E
100
AcDbEntity
  8
0
100
AcDbLine
 10
20.425075
 20
280.0709999999999
 30
0.0
 11
20.953475
 21
279.904
 31
0.0
  0
LINE
  5
E3
330
1E
100
AcDbEntity
  8
0
100
AcDbLine
 10
20.213875
 20
281.11
 30
0.0
 11
20.805675
 21
280.6309999999999
 31
0.0
  0
LINE
  5
E5
330
1E
100
AcDbEntity
  8
0
100
AcDbLine
 10
20.805675
 20
280.6309999999999
 30
0.0
 11
21.119575
 21
280.129
 31
0.0
  0
LINE
  5
E7
330
1E
100
AcDbEntity
  8
0
100
AcDbLine
 10
19.833375
 20
280.5509999999999
 30
0.0
 11
20.425075
 21
280.0709999999999
 31
0.0
  0
LINE
  5
E8
330
1E
100
AcDbEntity
  8
0
100
AcDbLine
 10
19.519375
 20
281.0529999999999
 30
0.0
 11
19.685575
 21
281.278
 31
0.0
  0
LINE
  5
E9
330
1E
100
AcDbEntity
  8
0
100
AcDbLine
 10
19.519375
 20
281.0529999999999
 30
0.0
 11
19.833375
 21
280.5509999999999
 31
0.0
  0
LINE
  5
EB
330
1E
100
AcDbEntity
  8
0
100
AcDbLine
 10
16.841675
 20
282.278
 30
0.0
 11
16.848175
 21
282.595
 31
0.0
  0
LINE
  5
ED
330
1E
100
AcDbEntity
  8
0
100
AcDbLine
 10
16.44637499999999
 20
282.3679999999999
 30
0.0
 11
16.841675
 21
282.278
 31
0.0
  0
LINE
  5
EE
330
1E
100
AcDbEntity
  8
0
100
AcDbLine
 10
19.685575
 20
281.278
 30
0.0
 11
20.213875
 21
281.11
 31
0.0
  0
LINE
  5
F0
330
1E
100
AcDbEntity
  8
0
100
AcDbLine
 10
22.317775
 20
282.103
 30
0.0
 11
22.887175
 21
281.602
 31
0.0
  0
LINE
  5
F1
330
1E
100
AcDbEntity
  8
0
100
AcDbLine
 10
14.657675
 20
282.653
 30
0.0
 11
17.005775
 21
280.72
 31
0.0
  0
LINE
  5
F2
330
1E
100
AcDbEntity
  8
0
100
AcDbLine
 10
15.875775
 20
283.6149999999999
 30
0.0
 11
16.442375
 21
283.1499999999999
 31
0.0
  0
LINE
  5
F4
330
1E
100
AcDbEntity
  8
0
100
AcDbLine
 10
16.442375
 20
283.1499999999999
 30
0.0
 11
16.848175
 21
282.595
 31
0.0
  0
LINE
  5
F6
330
1E
100
AcDbEntity
  8
0
100
AcDbLine
 10
15.879775
 20
282.8329999999999
 30
0.0
 11
16.44637499999999
 21
282.3679999999999
 31
0.0
  0
LINE
  5
F7
330
1E
100
AcDbEntity
  8
0
100
AcDbLine
 10
15.474075
 20
283.3879999999999
 30
0.0
 11
15.480475
 21
283.7059999999999
 31
0.0
  0
LINE
  5
F8
330
1E
100
AcDbEntity
  8
0
100
AcDbLine
 10
15.474075
 20
283.3879999999999
 30
0.0
 11
15.879775
 21
282.8329999999999
 31
0.0
  0
LINE
  5
F9
330
1E
100
AcDbEntity
  8
0
100
AcDbLine
 10
12.66757499999999
 20
285.009
 30
0.0
 11
13.128175
 21
284.422
 31
0.0
  0
LINE
  5
FA
330
1E
100
AcDbEntity
  8
0
100
AcDbLine
 10
13.128175
 20
284.422
 30
0.0
 11
13.626875
 21
283.9959999999999
 31
0.0
  0
LINE
  5
FC
330
1E
100
AcDbEntity
  8
0
100
AcDbLine
 10
13.626875
 20
283.9959999999999
 30
0.0
 11
13.866275
 21
283.9959999999999
 31
0.0
  0
LINE
  5
FD
330
1E
100
AcDbEntity
  8
0
100
AcDbLine
 10
13.721975
 20
284.3999999999999
 30
0.0
 11
13.866275
 21
283.9959999999999
 31
0.0
  0
LINE
  5
FF
330
1E
100
AcDbEntity
  8
0
100
AcDbLine
 10
13.261475
 20
284.987
 30
0.0
 11
13.721975
 21
284.3999999999999
 31
0.0
  0
LINE
  5
101
330
1E
100
AcDbEntity
  8
0
100
AcDbLine
 10
15.480475
 20
283.7059999999999
 30
0.0
 11
15.875775
 21
283.6149999999999
 31
0.0
  0
LINE
  5
103
330
1E
100
AcDbEntity
  8
0
100
AcDbLine
 10
17.83997499999999
 20
284.688
 30
0.0
 11
17.975775
 21
285.0109999999999
 31
0.0
  0
LINE
  5
106
330
1E
100
AcDbEntity
  8
0
100
AcDbLine
 10
17.353175
 20
284.797
 30
0.0
 11
17.83997499999999
 21
284.688
 31
0.0
  0
LINE
  5
107
330
1E
100
AcDbEntity
  8
0
100
AcDbLine
 10
16.78997499999999
 20
285.294
 30
0.0
 11
17.353175
 21
284.797
 31
0.0
  0
LINE
  5
108
330
1E
100
AcDbEntity
  8
0
100
AcDbLine
 10
22.10457499999999
 20
282.628
 30
0.0
 11
22.39317499999999
 21
282.862
 31
0.0
  0
LINE
  5
109
330
1E
100
AcDbEntity
  8
0
100
AcDbLine
 10
22.10457499999999
 20
282.628
 30
0.0
 11
22.317775
 21
282.103
 31
0.0
  0
LINE
  5
10B
330
1E
100
AcDbEntity
  8
0
100
AcDbLine
 10
23.488975
 20
281.427
 30
0.0
 11
23.77747499999999
 21
281.662
 31
0.0
  0
LINE
  5
10C
330
1E
100
AcDbEntity
  8
0
100
AcDbLine
 10
22.994875
 20
282.6869999999999
 30
0.0
 11
23.564275
 21
282.186
 31
0.0
  0
LINE
  5
10F
330
1E
100
AcDbEntity
  8
0
100
AcDbLine
 10
23.564275
 20
282.186
 30
0.0
 11
23.77747499999999
 21
281.662
 31
0.0
  0
LINE
  5
111
330
1E
100
AcDbEntity
  8
0
100
AcDbLine
 10
22.887175
 20
281.602
 30
0.0
 11
23.488975
 21
281.427
 31
0.0
  0
LINE
  5
112
330
1E
100
AcDbEntity
  8
0
100
AcDbLine
 10
22.39317499999999
 20
282.862
 30
0.0
 11
22.994875
 21
282.6869999999999
 31
0.0
  0
LINE
  5
114
330
1E
100
AcDbEntity
  8
0
100
AcDbLine
 10
24.124775
 20
278.394
 30
0.0
 11
24.448775
 21
278.528
 31
0.0
  0
LINE
  5
115
330
1E
100
AcDbEntity
  8
0
100
AcDbLine
 10
24.124775
 20
278.394
 30
0.0
 11
24.315975
 21
277.9629999999999
 31
0.0
  0
LINE
  5
117
330
1E
100
AcDbEntity
  8
0
100
AcDbLine
 10
24.62677499999999
 20
276.3199999999999
 30
0.0
 11
26.965075
 21
274.97
 31
0.0
  0
LINE
  5
118
330
1E
100
AcDbEntity
  8
0
100
AcDbLine
 10
29.303275
 20
273.62
 30
0.0
 11
31.901375
 21
272.12
 31
0.0
  0
LINE
  5
119
330
1E
100
AcDbEntity
  8
0
100
AcDbLine
 10
26.965075
 20
274.97
 30
0.0
 11
29.303275
 21
273.62
 31
0.0
  0
LINE
  5
11B
330
1E
100
AcDbEntity
  8
0
100
AcDbLine
 10
25.518075
 20
277.269
 30
0.0
 11
25.842075
 21
277.4019999999999
 31
0.0
  0
LINE
  5
11C
330
1E
100
AcDbEntity
  8
0
100
AcDbLine
 10
25.078275
 20
278.302
 30
0.0
 11
25.650775
 21
277.834
 31
0.0
  0
LINE
  5
11E
330
1E
100
AcDbEntity
  8
0
100
AcDbLine
 10
29.506075
 20
277.9529999999999
 30
0.0
 11
29.939775
 21
278.104
 31
0.0
  0
LINE
  5
11F
330
1E
100
AcDbEntity
  8
0
100
AcDbLine
 10
28.825375
 20
278.174
 30
0.0
 11
29.506075
 21
277.9529999999999
 31
0.0
  0
LINE
  5
120
330
1E
100
AcDbEntity
  8
0
100
AcDbLine
 10
29.322075
 20
279.034
 30
0.0
 11
29.853775
 21
278.555
 31
0.0
  0
LINE
  5
122
330
1E
100
AcDbEntity
  8
0
100
AcDbLine
 10
28.293675
 20
278.653
 30
0.0
 11
28.825375
 21
278.174
 31
0.0
  0
LINE
  5
123
330
1E
100
AcDbEntity
  8
0
100
AcDbLine
 10
28.207675
 20
279.104
 30
0.0
 11
28.641375
 21
279.2549999999999
 31
0.0
  0
LINE
  5
124
330
1E
100
AcDbEntity
  8
0
100
AcDbLine
 10
28.207675
 20
279.104
 30
0.0
 11
28.293675
 21
278.653
 31
0.0
  0
LINE
  5
125
330
1E
100
AcDbEntity
  8
0
100
AcDbLine
 10
28.641375
 20
279.2549999999999
 30
0.0
 11
29.322075
 21
279.034
 31
0.0
  0
LINE
  5
127
330
1E
100
AcDbEntity
  8
0
100
AcDbLine
 10
25.650775
 20
277.834
 30
0.0
 11
25.842075
 21
277.4019999999999
 31
0.0
  0
LINE
  5
129
330
1E
100
AcDbEntity
  8
0
100
AcDbLine
 10
24.888675
 20
277.494
 30
0.0
 11
25.518075
 21
277.269
 31
0.0
  0
LINE
  5
12A
330
1E
100
AcDbEntity
  8
0
100
AcDbLine
 10
24.448775
 20
278.528
 30
0.0
 11
25.078275
 21
278.302
 31
0.0
  0
LINE
  5
12C
330
1E
100
AcDbEntity
  8
0
100
AcDbLine
 10
11.47459228357049
 20
285.57269201507
 30
0.0
 11
14.657675
 21
282.653
 31
0.0
  0
LINE
  5
12E
330
1E
100
AcDbEntity
  8
0
100
AcDbLine
 10
10.837175
 20
285.745
 30
0.0
 11
11.229875
 21
285.38
 31
0.0
  0
LINE
  5
12F
330
1E
100
AcDbEntity
  8
0
100
AcDbLine
 10
12.523375
 20
285.4129999999999
 30
0.0
 11
12.66757499999999
 21
285.009
 31
0.0
  0
LINE
  5
130
330
1E
100
AcDbEntity
  8
0
100
AcDbLine
 10
12.523375
 20
285.4129999999999
 30
0.0
 11
12.76277499999999
 21
285.412
 31
0.0
  0
LINE
  5
132
330
1E
100
AcDbEntity
  8
0
100
AcDbLine
 10
12.76277499999999
 20
285.412
 30
0.0
 11
13.261475
 21
284.987
 31
0.0
  0
LINE
  5
134
330
1E
100
AcDbEntity
  8
0
100
AcDbLine
 10
10.36267499999999
 20
286.3389999999999
 30
0.0
 11
10.837175
 21
285.745
 31
0.0
  0
LINE
  5
135
330
1E
100
AcDbEntity
  8
0
100
AcDbLine
 10
11.025575
 20
285.957
 30
0.0
 11
11.301175
 21
285.477
 31
0.0
  0
LINE
  5
137
330
1E
100
AcDbEntity
  8
0
100
AcDbLine
 10
10.621575
 20
298.262
 30
0.0
 11
17.203375
 21
294.462
 31
0.0
  0
LINE
  5
138
330
1E
100
AcDbEntity
  8
0
100
AcDbLine
 10
10.36177499999999
 20
298.412
 30
0.0
 11
17.030175
 21
294.562
 31
0.0
  0
LINE
  5
139
330
1E
100
AcDbEntity
  8
0
100
AcDbLine
 10
10.551075
 20
286.552
 30
0.0
 11
11.025575
 21
285.957
 31
0.0
  0
LINE
  5
13C
330
1E
100
AcDbEntity
  8
0
100
AcDbLine
 10
12.547775
 20
288.547
 30
0.0
 11
12.929775
 21
287.925
 31
0.0
  0
LINE
  5
13E
330
1E
100
AcDbEntity
  8
0
100
AcDbLine
 10
12.929775
 20
287.925
 30
0.0
 11
12.94417499999999
 21
287.515
 31
0.0
  0
LINE
  5
140
330
1E
100
AcDbEntity
  8
0
100
AcDbLine
 10
12.600575
 20
287.541
 30
0.0
 11
12.94417499999999
 21
287.515
 31
0.0
  0
LINE
  5
141
330
1E
100
AcDbEntity
  8
0
100
AcDbLine
 10
12.086975
 20
288.01
 30
0.0
 11
12.600575
 21
287.541
 31
0.0
  0
LINE
  5
142
330
1E
100
AcDbEntity
  8
0
100
AcDbLine
 10
12.034175
 20
289.0149999999999
 30
0.0
 11
12.547775
 21
288.547
 31
0.0
  0
LINE
  5
144
330
1E
100
AcDbEntity
  8
0
100
AcDbLine
 10
11.70497499999999
 20
288.6319999999999
 30
0.0
 11
12.086975
 21
288.01
 31
0.0
  0
LINE
  5
145
330
1E
100
AcDbEntity
  8
0
100
AcDbLine
 10
11.690575
 20
289.042
 30
0.0
 11
12.034175
 21
289.0149999999999
 31
0.0
  0
LINE
  5
146
330
1E
100
AcDbEntity
  8
0
100
AcDbLine
 10
11.690575
 20
289.042
 30
0.0
 11
11.70497499999999
 21
288.6319999999999
 31
0.0
  0
LINE
  5
148
330
1E
100
AcDbEntity
  8
0
100
AcDbLine
 10
16.475675
 20
285.877
 30
0.0
 11
16.61157499999999
 21
286.2
 31
0.0
  0
LINE
  5
149
330
1E
100
AcDbEntity
  8
0
100
AcDbLine
 10
16.475675
 20
285.877
 30
0.0
 11
16.78997499999999
 21
285.294
 31
0.0
  0
LINE
  5
14A
330
1E
100
AcDbEntity
  8
0
100
AcDbLine
 10
17.030175
 20
294.562
 30
0.0
 11
24.737775
 21
290.112
 31
0.0
  0
LINE
  5
14B
330
1E
100
AcDbEntity
  8
0
100
AcDbLine
 10
24.624375
 20
289.7159999999999
 30
0.0
 11
32.765075
 21
285.0159999999999
 31
0.0
  0
LINE
  5
14C
330
1E
100
AcDbEntity
  8
0
100
AcDbLine
 10
24.737775
 20
290.112
 30
0.0
 11
32.965075
 21
285.362
 31
0.0
  0
LINE
  5
14D
330
1E
100
AcDbEntity
  8
0
100
AcDbLine
 10
29.111975
 20
300.2889999999999
 30
0.0
 11
38.46507499999999
 21
294.889
 31
0.0
  0
LINE
  5
14E
330
1E
100
AcDbEntity
  8
0
100
AcDbLine
 10
17.203375
 20
294.462
 30
0.0
 11
24.824375
 21
290.0619999999999
 31
0.0
  0
LINE
  5
14F
330
1E
100
AcDbEntity
  8
0
100
AcDbLine
 10
24.824375
 20
290.0619999999999
 30
0.0
 11
32.965075
 21
285.362
 31
0.0
  0
LINE
  5
150
330
1E
100
AcDbEntity
  8
0
100
AcDbLine
 10
24.824375
 20
290.0619999999999
 30
0.0
 11
32.9650749999998
 21
285.362
 31
0.0
  0
LINE
  5
151
330
1E
100
AcDbEntity
  8
0
100
AcDbLine
 10
17.098275
 20
286.091
 30
0.0
 11
17.66147499999999
 21
285.594
 31
0.0
  0
LINE
  5
153
330
1E
100
AcDbEntity
  8
0
100
AcDbLine
 10
17.66147499999999
 20
285.594
 30
0.0
 11
17.975775
 21
285.0109999999999
 31
0.0
  0
LINE
  5
155
330
1E
100
AcDbEntity
  8
0
100
AcDbLine
 10
16.61157499999999
 20
286.2
 30
0.0
 11
17.098275
 21
286.091
 31
0.0
  0
LINE
  5
157
330
1E
100
AcDbEntity
  8
0
100
AcDbLine
 10
11.229875
 20
285.38
 30
0.0
 11
11.47459228357049
 21
285.57269201507
 31
0.0
  0
LINE
  5
158
330
1E
100
AcDbEntity
  8
0
100
AcDbLine
 10
11.229875
 20
285.38
 30
0.0
 11
11.301175
 21
285.477
 31
0.0
  0
LINE
  5
15A
330
1E
100
AcDbEntity
  8
0
100
AcDbLine
 10
10.3242711340886
 20
286.4060256150339
 30
0.0
 11
10.36267499999999
 21
286.3389999999999
 31
0.0
  0
LINE
  5
15B
330
1E
100
AcDbEntity
  8
0
100
AcDbLine
 10
20.278475
 20
305.3889999999999
 30
0.0
 11
29.111975
 21
300.2889999999999
 31
0.0
  0
LINE
  5
15C
330
1E
100
AcDbEntity
  8
0
100
AcDbLine
 10
29.448575
 20
300.672
 30
0.0
 11
38.71507499999999
 21
295.3219999999999
 31
0.0
  0
LINE
  5
15D
330
1E
100
AcDbEntity
  8
0
100
AcDbLine
 10
29.633175
 20
275.214
 30
0.0
 11
29.679175
 21
274.866
 31
0.0
  0
LINE
  5
15E
330
1E
100
AcDbEntity
  8
0
100
AcDbLine
 10
29.633175
 20
275.214
 30
0.0
 11
30.102375
 21
275.2639999999999
 31
0.0
  0
LINE
  5
160
330
1E
100
AcDbEntity
  8
0
100
AcDbLine
 10
30.102375
 20
275.2639999999999
 30
0.0
 11
30.794075
 21
275.002
 31
0.0
  0
LINE
  5
162
330
1E
100
AcDbEntity
  8
0
100
AcDbLine
 10
29.679175
 20
274.866
 30
0.0
 11
30.18937499999999
 21
274.434
 31
0.0
  0
LINE
  5
163
330
1E
100
AcDbEntity
  8
0
100
AcDbLine
 10
30.18937499999999
 20
274.434
 30
0.0
 11
30.881175
 21
274.172
 31
0.0
  0
LINE
  5
164
330
1E
100
AcDbEntity
  8
0
100
AcDbLine
 10
31.901375
 20
272.12
 30
0.0
 11
33.979875
 21
270.92
 31
0.0
  0
LINE
  5
166
330
1E
100
AcDbEntity
  8
0
100
AcDbLine
 10
30.881175
 20
274.172
 30
0.0
 11
31.350375
 21
274.2219999999999
 31
0.0
  0
LINE
  5
167
330
1E
100
AcDbEntity
  8
0
100
AcDbLine
 10
31.304375
 20
274.5699999999999
 30
0.0
 11
31.350375
 21
274.2219999999999
 31
0.0
  0
LINE
  5
169
330
1E
100
AcDbEntity
  8
0
100
AcDbLine
 10
30.794075
 20
275.002
 30
0.0
 11
31.304375
 21
274.5699999999999
 31
0.0
  0
LINE
  5
16B
330
1E
100
AcDbEntity
  8
0
100
AcDbLine
 10
29.853775
 20
278.555
 30
0.0
 11
29.939775
 21
278.104
 31
0.0
  0
LINE
  5
16D
330
1E
100
AcDbEntity
  8
0
100
AcDbLine
 10
29.525375
 20
301.2049999999999
 30
0.0
 11
38.965075
 21
295.7549999999999
 31
0.0
  0
LINE
  5
16E
330
1E
100
AcDbEntity
  8
0
100
AcDbLine
 10
20.874975
 20
305.622
 30
0.0
 11
29.448575
 21
300.672
 31
0.0
  0
LINE
  5
16F
330
1E
100
AcDbEntity
  8
0
100
AcDbLine
 10
20.69187499999999
 20
306.305
 30
0.0
 11
29.525375
 21
301.2049999999999
 31
0.0
  0
LINE
  5
171
330
1E
100
AcDbEntity
  8
0
100
AcDbLine
 10
36.924375
 20
269.22
 30
0.0
 11
39.77237499999999
 21
268.153
 31
0.0
  0
LINE
  5
174
330
1E
100
AcDbEntity
  8
0
100
AcDbLine
 10
34.652975
 20
271.857
 30
0.0
 11
35.36377499999999
 21
271.584
 31
0.0
  0
LINE
  5
175
330
1E
100
AcDbEntity
  8
0
100
AcDbLine
 10
35.36377499999999
 20
271.584
 30
0.0
 11
35.955775
 21
271.5629999999999
 31
0.0
  0
LINE
  5
177
330
1E
100
AcDbEntity
  8
0
100
AcDbLine
 10
35.955775
 20
271.5629999999999
 30
0.0
 11
36.067575
 21
271.8199999999999
 31
0.0
  0
LINE
  5
178
330
1E
100
AcDbEntity
  8
0
100
AcDbLine
 10
32.765075
 20
285.0159999999999
 30
0.0
 11
63.249175
 21
267.416
 31
0.0
  0
LINE
  5
179
330
1E
100
AcDbEntity
  8
0
100
AcDbLine
 10
32.965075
 20
285.362
 30
0.0
 11
41.192275
 21
280.612
 31
0.0
  0
LINE
  5
17A
330
1E
100
AcDbEntity
  8
0
100
AcDbLine
 10
34.94747499999999
 20
272.466
 30
0.0
 11
35.658375
 21
272.194
 31
0.0
  0
LINE
  5
17D
330
1E
100
AcDbEntity
  8
0
100
AcDbLine
 10
34.353975
 20
275.5549999999999
 30
0.0
 11
34.914875
 21
275.6329999999999
 31
0.0
  0
LINE
  5
17F
330
1E
100
AcDbEntity
  8
0
100
AcDbLine
 10
34.294875
 20
275.1879999999999
 30
0.0
 11
34.74757499999999
 21
274.7549999999999
 31
0.0
  0
LINE
  5
180
330
1E
100
AcDbEntity
  8
0
100
AcDbLine
 10
34.294875
 20
275.1879999999999
 30
0.0
 11
34.353975
 21
275.5549999999999
 31
0.0
  0
LINE
  5
181
330
1E
100
AcDbEntity
  8
0
100
AcDbLine
 10
34.914875
 20
275.6329999999999
 30
0.0
 11
35.63327499999999
 21
275.3899999999999
 31
0.0
  0
LINE
  5
183
330
1E
100
AcDbEntity
  8
0
100
AcDbLine
 10
34.74757499999999
 20
274.7549999999999
 30
0.0
 11
35.465975
 21
274.512
 31
0.0
  0
LINE
  5
184
330
1E
100
AcDbEntity
  8
0
100
AcDbLine
 10
35.465975
 20
274.512
 30
0.0
 11
36.026975
 21
274.589
 31
0.0
  0
LINE
  5
185
330
1E
100
AcDbEntity
  8
0
100
AcDbLine
 10
38.46507499999999
 20
294.889
 30
0.0
 11
47.81817499999999
 21
289.489
 31
0.0
  0
LINE
  5
187
330
1E
100
AcDbEntity
  8
0
100
AcDbLine
 10
36.026975
 20
274.589
 30
0.0
 11
36.086075
 21
274.9569999999999
 31
0.0
  0
LINE
  5
189
330
1E
100
AcDbEntity
  8
0
100
AcDbLine
 10
35.63327499999999
 20
275.3899999999999
 30
0.0
 11
36.086075
 21
274.9569999999999
 31
0.0
  0
LINE
  5
18B
330
1E
100
AcDbEntity
  8
0
100
AcDbLine
 10
34.355575
 20
272.487
 30
0.0
 11
34.94747499999999
 21
272.466
 31
0.0
  0
LINE
  5
18D
330
1E
100
AcDbEntity
  8
0
100
AcDbLine
 10
34.243675
 20
272.2309999999999
 30
0.0
 11
34.652975
 21
271.857
 31
0.0
  0
LINE
  5
18E
330
1E
100
AcDbEntity
  8
0
100
AcDbLine
 10
34.243675
 20
272.2309999999999
 30
0.0
 11
34.355575
 21
272.487
 31
0.0
  0
LINE
  5
190
330
1E
100
AcDbEntity
  8
0
100
AcDbLine
 10
35.658375
 20
272.194
 30
0.0
 11
36.067575
 21
271.8199999999999
 31
0.0
  0
LINE
  5
192
330
1E
100
AcDbEntity
  8
0
100
AcDbLine
 10
38.626975
 20
270.0209999999999
 30
0.0
 11
39.310775
 21
269.947
 31
0.0
  0
LINE
  5
194
330
1E
100
AcDbEntity
  8
0
100
AcDbLine
 10
38.355475
 20
269.857
 30
0.0
 11
38.631675
 21
269.56
 31
0.0
  0
LINE
  5
195
330
1E
100
AcDbEntity
  8
0
100
AcDbLine
 10
38.355475
 20
269.857
 30
0.0
 11
38.626975
 21
270.0209999999999
 31
0.0
  0
LINE
  5
197
330
1E
100
AcDbEntity
  8
0
100
AcDbLine
 10
38.631675
 20
269.56
 30
0.0
 11
39.317375
 21
269.301
 31
0.0
  0
LINE
  5
198
330
1E
100
AcDbEntity
  8
0
100
AcDbLine
 10
38.71507499999999
 20
295.3219999999999
 30
0.0
 11
47.981575
 21
289.9719999999999
 31
0.0
  0
LINE
  5
199
330
1E
100
AcDbEntity
  8
0
100
AcDbLine
 10
41.451175
 20
267.932
 30
0.0
 11
42.068975
 21
267.7129999999999
 31
0.0
  0
LINE
  5
19A
330
1E
100
AcDbEntity
  8
0
100
AcDbLine
 10
39.77237499999999
 20
268.153
 30
0.0
 11
43.8926286229585
 21
266.856167694402
 31
0.0
  0
LINE
  5
19B
330
1E
100
AcDbEntity
  8
0
100
AcDbLine
 10
39.943775
 20
271.927
 30
0.0
 11
40.28157499999999
 21
271.559
 31
0.0
  0
LINE
  5
19C
330
1E
100
AcDbEntity
  8
0
100
AcDbLine
 10
39.943775
 20
271.927
 30
0.0
 11
40.155675
 21
272.2059999999999
 31
0.0
  0
LINE
  5
19E
330
1E
100
AcDbEntity
  8
0
100
AcDbLine
 10
39.310775
 20
269.947
 30
0.0
 11
39.996475
 21
269.689
 31
0.0
  0
LINE
  5
1A0
330
1E
100
AcDbEntity
  8
0
100
AcDbLine
 10
39.317375
 20
269.301
 30
0.0
 11
40.001175
 21
269.228
 31
0.0
  0
LINE
  5
1A1
330
1E
100
AcDbEntity
  8
0
100
AcDbLine
 10
40.155675
 20
272.2059999999999
 30
0.0
 11
40.817675
 21
272.225
 31
0.0
  0
LINE
  5
1A3
330
1E
100
AcDbEntity
  8
0
100
AcDbLine
 10
40.28157499999999
 20
271.559
 30
0.0
 11
40.993775
 21
271.32
 31
0.0
  0
LINE
  5
1A4
330
1E
100
AcDbEntity
  8
0
100
AcDbLine
 10
40.993775
 20
271.32
 30
0.0
 11
41.655775
 21
271.3399999999999
 31
0.0
  0
LINE
  5
1A5
330
1E
100
AcDbEntity
  8
0
100
AcDbLine
 10
41.655775
 20
271.3399999999999
 30
0.0
 11
41.867575
 21
271.619
 31
0.0
  0
LINE
  5
1A6
330
1E
100
AcDbEntity
  8
0
100
AcDbLine
 10
41.192275
 20
280.612
 30
0.0
 11
48.899875
 21
276.162
 31
0.0
  0
LINE
  5
1A7
330
1E
100
AcDbEntity
  8
0
100
AcDbLine
 10
40.817675
 20
272.225
 30
0.0
 11
41.529875
 21
271.986
 31
0.0
  0
LINE
  5
1A9
330
1E
100
AcDbEntity
  8
0
100
AcDbLine
 10
41.529875
 20
271.986
 30
0.0
 11
41.867575
 21
271.619
 31
0.0
  0
LINE
  5
1AC
330
1E
100
AcDbEntity
  8
0
100
AcDbLine
 10
40.001175
 20
269.228
 30
0.0
 11
40.27267499999999
 21
269.3919999999999
 31
0.0
  0
LINE
  5
1AD
330
1E
100
AcDbEntity
  8
0
100
AcDbLine
 10
39.996475
 20
269.689
 30
0.0
 11
40.27267499999999
 21
269.3919999999999
 31
0.0
  0
LINE
  5
1AF
330
1E
100
AcDbEntity
  8
0
100
AcDbLine
 10
41.330875
 20
268.1389999999999
 30
0.0
 11
41.753175
 21
268.216
 31
0.0
  0
LINE
  5
1B0
330
1E
100
AcDbEntity
  8
0
100
AcDbLine
 10
41.330875
 20
268.1389999999999
 30
0.0
 11
41.451175
 21
267.932
 31
0.0
  0
LINE
  5
1B2
330
1E
100
AcDbEntity
  8
0
100
AcDbLine
 10
38.965075
 20
295.7549999999999
 30
0.0
 11
48.404775
 21
290.3049999999999
 31
0.0
  0
LINE
  5
1B4
330
1E
100
AcDbEntity
  8
0
100
AcDbLine
 10
46.233275
 20
265.6299999999999
 30
0.0
 11
46.889975
 21
265.5709999999999
 31
0.0
  0
LINE
  5
1B5
330
1E
100
AcDbEntity
  8
0
100
AcDbLine
 10
45.508775
 20
265.727
 30
0.0
 11
46.233275
 21
265.6299999999999
 31
0.0
  0
LINE
  5
1B6
330
1E
100
AcDbEntity
  8
0
100
AcDbLine
 10
43.84817499999999
 20
266.548
 30
0.0
 11
43.896075
 21
266.658
 31
0.0
  0
LINE
  5
1B7
330
1E
100
AcDbEntity
  8
0
100
AcDbLine
 10
43.84817499999999
 20
266.548
 30
0.0
 11
44.359975
 21
266.3899999999999
 31
0.0
  0
LINE
  5
1B9
330
1E
100
AcDbEntity
  8
0
100
AcDbLine
 10
45.112475
 20
266.277
 30
0.0
 11
45.66607499999999
 21
266.278
 31
0.0
  0
LINE
  5
1BA
330
1E
100
AcDbEntity
  8
0
100
AcDbLine
 10
44.359975
 20
266.3899999999999
 30
0.0
 11
45.112475
 21
266.277
 31
0.0
  0
LINE
  5
1BB
330
1E
100
AcDbEntity
  8
0
100
AcDbLine
 10
43.896075
 20
266.658
 30
0.0
 11
44.44967499999999
 21
266.6589999999999
 31
0.0
  0
LINE
  5
1BD
330
1E
100
AcDbEntity
  8
0
100
AcDbLine
 10
42.068975
 20
267.7129999999999
 30
0.0
 11
42.80757499999999
 21
267.607
 31
0.0
  0
LINE
  5
1BF
330
1E
100
AcDbEntity
  8
0
100
AcDbLine
 10
41.753175
 20
268.216
 30
0.0
 11
42.491675
 21
268.1109999999999
 31
0.0
  0
LINE
  5
1C1
330
1E
100
AcDbEntity
  8
0
100
AcDbLine
 10
44.839575
 20
269.1
 30
0.0
 11
45.03427499999999
 21
268.8159999999999
 31
0.0
  0
LINE
  5
1C2
330
1E
100
AcDbEntity
  8
0
100
AcDbLine
 10
44.839575
 20
269.1
 30
0.0
 11
45.20177499999999
 21
269.292
 31
0.0
  0
LINE
  5
1C4
330
1E
100
AcDbEntity
  8
0
100
AcDbLine
 10
45.20177499999999
 20
269.292
 30
0.0
 11
45.931375
 21
269.2729999999999
 31
0.0
  0
LINE
  5
1C6
330
1E
100
AcDbEntity
  8
0
100
AcDbLine
 10
45.03427499999999
 20
268.8159999999999
 30
0.0
 11
45.69687499999999
 21
268.605
 31
0.0
  0
LINE
  5
1C8
330
1E
100
AcDbEntity
  8
0
100
AcDbLine
 10
43.109475
 20
267.892
 30
0.0
 11
43.22987499999999
 21
267.6849999999999
 31
0.0
  0
LINE
  5
1CA
330
1E
100
AcDbEntity
  8
0
100
AcDbLine
 10
42.80757499999999
 20
267.607
 30
0.0
 11
43.22987499999999
 21
267.6849999999999
 31
0.0
  0
LINE
  5
1CB
330
1E
100
AcDbEntity
  8
0
100
AcDbLine
 10
42.491675
 20
268.1109999999999
 30
0.0
 11
43.109475
 21
267.892
 31
0.0
  0
LINE
  5
1CD
330
1E
100
AcDbEntity
  8
0
100
AcDbLine
 10
44.44967499999999
 20
266.6589999999999
 30
0.0
 11
45.202075
 21
266.5459999999999
 31
0.0
  0
LINE
  5
1CF
330
1E
100
AcDbEntity
  8
0
100
AcDbLine
 10
45.202075
 20
266.5459999999999
 30
0.0
 11
45.713875
 21
266.3879999999999
 31
0.0
  0
LINE
  5
1D1
330
1E
100
AcDbEntity
  8
0
100
AcDbLine
 10
45.133675
 20
265.8059999999999
 30
0.0
 11
45.35057499999999
 21
265.8179999999999
 31
0.0
  0
LINE
  5
1D2
330
1E
100
AcDbEntity
  8
0
100
AcDbLine
 10
45.133675
 20
265.8059999999999
 30
0.0
 11
45.508775
 21
265.727
 31
0.0
  0
LINE
  5
1D3
330
1E
100
AcDbEntity
  8
0
100
AcDbLine
 10
45.133675
 20
265.8059999999999
 30
0.0
 11
45.18969854641639
 21
266.2771394933999
 31
0.0
  0
LINE
  5
1D4
330
1E
100
AcDbEntity
  8
0
100
AcDbLine
 10
45.69687499999999
 20
268.605
 30
0.0
 11
46.426475
 21
268.5849999999999
 31
0.0
  0
LINE
  5
1D5
330
1E
100
AcDbEntity
  8
0
100
AcDbLine
 10
46.426475
 20
268.5849999999999
 30
0.0
 11
46.78867499999999
 21
268.778
 31
0.0
  0
LINE
  5
1D6
330
1E
100
AcDbEntity
  8
0
100
AcDbLine
 10
45.931375
 20
269.2729999999999
 30
0.0
 11
46.59397499999999
 21
269.062
 31
0.0
  0
LINE
  5
1D8
330
1E
100
AcDbEntity
  8
0
100
AcDbLine
 10
46.59397499999999
 20
269.062
 30
0.0
 11
46.78867499999999
 21
268.778
 31
0.0
  0
LINE
  5
1DB
330
1E
100
AcDbEntity
  8
0
100
AcDbLine
 10
45.66607499999999
 20
266.278
 30
0.0
 11
45.713875
 21
266.3879999999999
 31
0.0
  0
LINE
  5
1DC
330
1E
100
AcDbEntity
  8
0
100
AcDbLine
 10
45.35057499999999
 20
265.8179999999999
 30
0.0
 11
46.007275
 21
265.7599999999999
 31
0.0
  0
LINE
  5
1DE
330
1E
100
AcDbEntity
  8
0
100
AcDbLine
 10
46.007275
 20
265.7599999999999
 30
0.0
 11
46.731675
 21
265.663
 31
0.0
  0
LINE
  5
1E1
330
1E
100
AcDbEntity
  8
0
100
AcDbLine
 10
47.17462946305519
 20
266.1540343667309
 30
0.0
 11
48.81667499999999
 21
265.8179999999999
 31
0.0
  0
LINE
  5
1E2
330
1E
100
AcDbEntity
  8
0
100
AcDbLine
 10
47.81817499999999
 20
289.489
 30
0.0
 11
56.651575
 21
284.389
 31
0.0
  0
LINE
  5
1E3
330
1E
100
AcDbEntity
  8
0
100
AcDbLine
 10
47.106875
 20
265.5839999999999
 30
0.0
 11
47.2038369990308
 21
266.399764293925
 31
0.0
  0
LINE
  5
1E4
330
1E
100
AcDbEntity
  8
0
100
AcDbLine
 10
46.889975
 20
265.5709999999999
 30
0.0
 11
47.106875
 21
265.5839999999999
 31
0.0
  0
LINE
  5
1E5
330
1E
100
AcDbEntity
  8
0
100
AcDbLine
 10
46.731675
 20
265.663
 30
0.0
 11
47.106875
 21
265.5839999999999
 31
0.0
  0
LINE
  5
1E7
330
1E
100
AcDbEntity
  8
0
100
AcDbLine
 10
47.981575
 20
289.9719999999999
 30
0.0
 11
56.555175
 21
285.0219999999999
 31
0.0
  0
LINE
  5
1E8
330
1E
100
AcDbEntity
  8
0
100
AcDbLine
 10
48.81667499999999
 20
265.8179999999999
 30
0.0
 11
50.98544673832421
 21
265.68779829531
 31
0.0
  0
LINE
  5
1E9
330
1E
100
AcDbEntity
  8
0
100
AcDbLine
 10
49.262675
 20
266.5459999999999
 30
0.0
 11
50.022075
 21
266.509
 31
0.0
  0
LINE
  5
1EA
330
1E
100
AcDbEntity
  8
0
100
AcDbLine
 10
48.68977499999999
 20
266.7049999999999
 30
0.0
 11
49.262675
 21
266.5459999999999
 31
0.0
  0
LINE
  5
1EB
330
1E
100
AcDbEntity
  8
0
100
AcDbLine
 10
48.656475
 20
266.8959999999999
 30
0.0
 11
49.156075
 21
267.009
 31
0.0
  0
LINE
  5
1EC
330
1E
100
AcDbEntity
  8
0
100
AcDbLine
 10
48.656475
 20
266.8959999999999
 30
0.0
 11
48.68977499999999
 21
266.7049999999999
 31
0.0
  0
LINE
  5
1EE
330
1E
100
AcDbEntity
  8
0
100
AcDbLine
 10
48.899875
 20
276.162
 30
0.0
 11
55.568275
 21
272.312
 31
0.0
  0
LINE
  5
1EF
330
1E
100
AcDbEntity
  8
0
100
AcDbLine
 10
49.156075
 20
267.009
 30
0.0
 11
49.915475
 21
266.9719999999999
 31
0.0
  0
LINE
  5
1F2
330
1E
100
AcDbEntity
  8
0
100
AcDbLine
 10
50.488375
 20
266.814
 30
0.0
 11
50.521675
 21
266.622
 31
0.0
  0
LINE
  5
1F4
330
1E
100
AcDbEntity
  8
0
100
AcDbLine
 10
50.022075
 20
266.509
 30
0.0
 11
50.521675
 21
266.622
 31
0.0
  0
LINE
  5
1F5
330
1E
100
AcDbEntity
  8
0
100
AcDbLine
 10
49.915475
 20
266.9719999999999
 30
0.0
 11
50.488375
 21
266.814
 31
0.0
  0
LINE
  5
1F7
330
1E
100
AcDbEntity
  8
0
100
AcDbLine
 10
50.97977499999999
 20
265.3829999999999
 30
0.0
 11
50.98544673832421
 21
265.68779829531
 31
0.0
  0
LINE
  5
1F8
330
1E
100
AcDbEntity
  8
0
100
AcDbLine
 10
50.97977499999999
 20
265.3829999999999
 30
0.0
 11
51.115275
 21
265.477
 31
0.0
  0
LINE
  5
1F9
330
1E
100
AcDbEntity
  8
0
100
AcDbLine
 10
50.97977499999999
 20
265.3829999999999
 30
0.0
 11
51.428975
 21
265.2959999999999
 31
0.0
  0
LINE
  5
1FB
330
1E
100
AcDbEntity
  8
0
100
AcDbLine
 10
48.404775
 20
290.3049999999999
 30
0.0
 11
57.238175
 21
285.2049999999999
 31
0.0
  0
LINE
  5
1FD
330
1E
100
AcDbEntity
  8
0
100
AcDbLine
 10
51.115275
 20
265.477
 30
0.0
 11
51.730075
 21
265.5229999999999
 31
0.0
  0
LINE
  5
1FF
330
1E
100
AcDbEntity
  8
0
100
AcDbLine
 10
51.730075
 20
265.5229999999999
 30
0.0
 11
52.47937499999999
 21
265.492
 31
0.0
  0
LINE
  5
201
330
1E
100
AcDbEntity
  8
0
100
AcDbLine
 10
51.428975
 20
265.2959999999999
 30
0.0
 11
51.7608005497573
 21
265.2818288835019
 31
0.0
  0
LINE
  5
202
330
1E
100
AcDbEntity
  8
0
100
AcDbLine
 10
51.428975
 20
265.2959999999999
 30
0.0
 11
52.178275
 21
265.264
 31
0.0
  0
LINE
  5
203
330
1E
100
AcDbEntity
  8
0
100
AcDbLine
 10
51.759475
 20
264.9329999999999
 30
0.0
 11
52.059475
 21
264.932
 31
0.0
  0
LINE
  5
204
330
1E
100
AcDbEntity
  8
0
100
AcDbLine
 10
51.759475
 20
264.9329999999999
 30
0.0
 11
51.7608005497573
 21
265.2818288835019
 31
0.0
  0
LINE
  5
205
330
1E
100
AcDbEntity
  8
0
100
AcDbLine
 10
53.759475
 20
264.925
 30
0.0
 11
53.7618780869675
 21
265.557391307223
 31
0.0
  0
LINE
  5
206
330
1E
100
AcDbEntity
  8
0
100
AcDbLine
 10
53.459475
 20
264.9259999999999
 30
0.0
 11
53.759475
 21
264.925
 31
0.0
  0
LINE
  5
208
330
1E
100
AcDbEntity
  8
0
100
AcDbLine
 10
52.178275
 20
265.264
 30
0.0
 11
52.793175
 21
265.3109999999999
 31
0.0
  0
LINE
  5
209
330
1E
100
AcDbEntity
  8
0
100
AcDbLine
 10
53.761740271814
 20
265.5211241615639
 30
0.0
 11
54.396775
 21
265.483
 31
0.0
  0
LINE
  5
20A
330
1E
100
AcDbEntity
  8
0
100
AcDbLine
 10
55.568275
 20
272.312
 30
0.0
 11
60.677875
 21
269.362
 31
0.0
  0
LINE
  5
20B
330
1E
100
AcDbEntity
  8
0
100
AcDbLine
 10
54.396775
 20
265.483
 30
0.0
 11
60.909875
 21
265.764
 31
0.0
  0
LINE
  5
20C
330
1E
100
AcDbEntity
  8
0
100
AcDbLine
 10
56.651575
 20
284.389
 30
0.0
 11
64.185975
 21
280.0389999999999
 31
0.0
  0
LINE
  5
20E
330
1E
100
AcDbEntity
  8
0
100
AcDbLine
 10
52.793175
 20
265.3109999999999
 30
0.0
 11
52.928475
 21
265.4049999999999
 31
0.0
  0
LINE
  5
20F
330
1E
100
AcDbEntity
  8
0
100
AcDbLine
 10
52.47937499999999
 20
265.492
 30
0.0
 11
52.928475
 21
265.4049999999999
 31
0.0
  0
LINE
  5
211
330
1E
100
AcDbEntity
  8
0
100
AcDbLine
 10
52.759475
 20
264.929
 30
0.0
 11
53.459475
 21
264.9259999999999
 31
0.0
  0
LINE
  5
213
330
1E
100
AcDbEntity
  8
0
100
AcDbLine
 10
52.059475
 20
264.932
 30
0.0
 11
52.759475
 21
264.929
 31
0.0
  0
LINE
  5
215
330
1E
100
AcDbEntity
  8
0
100
AcDbLine
 10
56.555175
 20
285.0219999999999
 30
0.0
 11
64.08957499999999
 21
280.672
 31
0.0
  0
LINE
  5
216
330
1E
100
AcDbEntity
  8
0
100
AcDbLine
 10
57.238175
 20
285.2049999999999
 30
0.0
 11
64.945775
 21
280.7549999999999
 31
0.0
  0
LINE
  5
218
330
1E
100
AcDbEntity
  8
0
100
AcDbLine
 10
136.267975
 20
203.9325
 30
0.0
 11
145.237975
 21
192.6223999999999
 31
0.0
  0
LINE
  5
219
330
1E
100
AcDbEntity
  8
0
100
AcDbLine
 10
117.4169749999999
 20
236.2455999999999
 30
0.0
 11
123.475975
 21
224.4396999999999
 31
0.0
  0
LINE
  5
21A
330
1E
100
AcDbEntity
  8
0
100
AcDbLine
 10
128.7399749999999
 20
215.3469999999999
 30
0.0
 11
136.267975
 21
203.9325
 31
0.0
  0
LINE
  5
21B
330
1E
100
AcDbEntity
  8
0
100
AcDbLine
 10
123.475975
 20
224.4396999999999
 30
0.0
 11
128.7399749999999
 21
215.3469999999999
 31
0.0
  0
LINE
  5
21C
330
1E
100
AcDbEntity
  8
0
100
AcDbLine
 10
113.597975
 20
243.3842999999999
 30
0.0
 11
117.4169749999999
 21
236.2455999999999
 31
0.0
  0
LINE
  5
21D
330
1E
100
AcDbEntity
  8
0
100
AcDbLine
 10
146.865975
 20
240.2108
 30
0.0
 11
153.3319749999999
 21
232.1655
 31
0.0
  0
LINE
  5
21E
330
1E
100
AcDbEntity
  8
0
100
AcDbLine
 10
153.3319749999999
 20
232.1655
 30
0.0
 11
161.583975
 21
221.7954
 31
0.0
  0
LINE
  5
21F
330
1E
100
AcDbEntity
  8
0
100
AcDbLine
 10
80.61507500000001
 20
260.5269999999999
 30
0.0
 11
82.246775
 21
260.964
 31
0.0
  0
LINE
  5
220
330
1E
100
AcDbEntity
  8
0
100
AcDbLine
 10
83.502275
 20
261.716
 30
0.0
 11
84.37777500000001
 21
262.721
 31
0.0
  0
LINE
  5
221
330
1E
100
AcDbEntity
  8
0
100
AcDbLine
 10
82.246775
 20
260.964
 30
0.0
 11
83.502275
 21
261.716
 31
0.0
  0
LINE
  5
222
330
1E
100
AcDbEntity
  8
0
100
AcDbLine
 10
78.579775
 20
260.586
 30
0.0
 11
80.61507500000001
 21
260.5269999999999
 31
0.0
  0
LINE
  5
223
330
1E
100
AcDbEntity
  8
0
100
AcDbLine
 10
76.105875
 20
261.194
 30
0.0
 11
78.579775
 21
260.586
 31
0.0
  0
LINE
  5
224
330
1E
100
AcDbEntity
  8
0
100
AcDbLine
 10
84.37777500000001
 20
262.721
 30
0.0
 11
85.170875
 21
264.2649999999999
 31
0.0
  0
LINE
  5
225
330
1E
100
AcDbEntity
  8
0
100
AcDbLine
 10
85.170875
 20
264.2649999999999
 30
0.0
 11
85.409775
 21
265.7029999999999
 31
0.0
  0
LINE
  5
226
330
1E
100
AcDbEntity
  8
0
100
AcDbLine
 10
73.186575
 20
262.4529999999999
 30
0.0
 11
76.105875
 21
261.194
 31
0.0
  0
LINE
  5
227
330
1E
100
AcDbEntity
  8
0
100
AcDbLine
 10
70.78647499999999
 20
263.8709999999999
 30
0.0
 11
73.186575
 21
262.4529999999999
 31
0.0
  0
LINE
  5
228
330
1E
100
AcDbEntity
  8
0
100
AcDbLine
 10
101.054975
 20
259.2699999999999
 30
0.0
 11
107.206975
 21
252.5949999999999
 31
0.0
  0
LINE
  5
229
330
1E
100
AcDbEntity
  8
0
100
AcDbLine
 10
107.206975
 20
252.5949999999999
 30
0.0
 11
113.597975
 21
243.3842999999999
 31
0.0
  0
LINE
  5
22A
330
1E
100
AcDbEntity
  8
0
100
AcDbLine
 10
60.909875
 20
265.764
 30
0.0
 11
64.46157499999999
 21
266.7159999999999
 31
0.0
  0
LINE
  5
22B
330
1E
100
AcDbEntity
  8
0
100
AcDbLine
 10
63.249175
 20
267.416
 30
0.0
 11
64.46157499999999
 21
266.7159999999999
 31
0.0
  0
LINE
  5
22C
330
1E
100
AcDbEntity
  8
0
100
AcDbLine
 10
64.46157499999999
 20
266.7159999999999
 30
0.0
 11
64.57497499999999
 21
267.112
 31
0.0
  0
LINE
  5
22D
330
1E
100
AcDbEntity
  8
0
100
AcDbLine
 10
65.007975
 20
266.862
 30
0.0
 11
65.98177403313579
 21
267.122915407121
 31
0.0
  0
LINE
  5
22E
330
1E
100
AcDbEntity
  8
0
100
AcDbLine
 10
60.677875
 20
269.362
 30
0.0
 11
63.88217499999999
 21
267.512
 31
0.0
  0
LINE
  5
22F
330
1E
100
AcDbEntity
  8
0
100
AcDbLine
 10
63.88217499958379
 20
267.51200000024
 30
0.0
 11
64.57497499999999
 21
267.112
 31
0.0
  0
LINE
  5
230
330
1E
100
AcDbEntity
  8
0
100
AcDbLine
 10
63.88217499999999
 20
267.512
 30
0.0
 11
65.007975
 21
266.862
 31
0.0
  0
LINE
  5
231
330
1E
100
AcDbEntity
  8
0
100
AcDbLine
 10
85.108475
 20
267.058
 30
0.0
 11
85.409775
 21
265.7029999999999
 31
0.0
  0
LINE
  5
232
330
1E
100
AcDbEntity
  8
0
100
AcDbLine
 10
84.222575
 20
268.653
 30
0.0
 11
85.108475
 21
267.058
 31
0.0
  0
LINE
  5
233
330
1E
100
AcDbEntity
  8
0
100
AcDbLine
 10
82.835475
 20
270.1759999999999
 30
0.0
 11
84.222575
 21
268.653
 31
0.0
  0
LINE
  5
234
330
1E
100
AcDbEntity
  8
0
100
AcDbLine
 10
81.21427500000001
 20
271.408
 30
0.0
 11
82.835475
 21
270.1759999999999
 31
0.0
  0
LINE
  5
235
330
1E
100
AcDbEntity
  8
0
100
AcDbLine
 10
79.176175
 20
272.486
 30
0.0
 11
81.21427500000001
 21
271.408
 31
0.0
  0
LINE
  5
236
330
1E
100
AcDbEntity
  8
0
100
AcDbLine
 10
76.73157500000001
 20
273.372
 30
0.0
 11
79.176175
 21
272.486
 31
0.0
  0
LINE
  5
237
330
1E
100
AcDbEntity
  8
0
100
AcDbLine
 10
67.98377499999999
 20
266.0149999999999
 30
0.0
 11
70.78647499999999
 21
263.8709999999999
 31
0.0
  0
LINE
  5
238
330
1E
100
AcDbEntity
  8
0
100
AcDbLine
 10
65.98177403313579
 20
267.122915407121
 30
0.0
 11
67.98377499999999
 21
266.0149999999999
 31
0.0
  0
LINE
  5
239
330
1E
100
AcDbEntity
  8
0
100
AcDbLine
 10
74.78924353881899
 20
274.071250754025
 30
0.0
 11
76.73157500000001
 21
273.372
 31
0.0
  0
LINE
  5
23A
330
1E
100
AcDbEntity
  8
0
100
AcDbLine
 10
76.87717499999999
 20
274.04
 30
0.0
 11
85.469775
 21
269.8389999999999
 31
0.0
  0
LINE
  5
23B
330
1E
100
AcDbEntity
  8
0
100
AcDbLine
 10
85.469775
 20
269.8389999999999
 30
0.0
 11
92.477975
 21
265.5359999999999
 31
0.0
  0
LINE
  5
23C
330
1E
100
AcDbEntity
  8
0
100
AcDbLine
 10
92.477975
 20
265.5359999999999
 30
0.0
 11
101.054975
 21
259.2699999999999
 31
0.0
  0
LINE
  5
23D
330
1E
100
AcDbEntity
  8
0
100
AcDbLine
 10
132.302975
 20
257.635
 30
0.0
 11
138.685975
 21
250.497
 31
0.0
  0
LINE
  5
23E
330
1E
100
AcDbEntity
  8
0
100
AcDbLine
 10
121.364975
 20
269.5019999999999
 30
0.0
 11
132.302975
 21
257.635
 31
0.0
  0
LINE
  5
23F
330
1E
100
AcDbEntity
  8
0
100
AcDbLine
 10
138.685975
 20
250.497
 30
0.0
 11
146.865975
 21
240.2108
 31
0.0
  0
LINE
  5
240
330
1E
100
AcDbEntity
  8
0
100
AcDbLine
 10
161.583975
 20
221.7954
 30
0.0
 11
169.6029749999999
 21
210.1846
 31
0.0
  0
LINE
  5
241
330
1E
100
AcDbEntity
  8
0
100
AcDbLine
 10
169.6029749999999
 20
210.1846
 30
0.0
 11
178.2699749999999
 21
197.8168
 31
0.0
  0
LINE
  5
242
330
1E
100
AcDbEntity
  8
0
100
AcDbLine
 10
178.2699749999999
 20
197.8168
 30
0.0
 11
186.291975
 21
185.6875
 31
0.0
  0
LINE
  5
243
330
1E
100
AcDbEntity
  8
0
100
AcDbLine
 10
64.185975
 20
280.0389999999999
 30
0.0
 11
69.901775
 21
276.739
 31
0.0
  0
LINE
  5
244
330
1E
100
AcDbEntity
  8
0
100
AcDbLine
 10
64.08957499999999
 20
280.672
 30
0.0
 11
69.805375
 21
277.372
 31
0.0
  0
LINE
  5
245
330
1E
100
AcDbEntity
  8
0
100
AcDbLine
 10
64.945775
 20
280.7549999999999
 30
0.0
 11
70.83477499999999
 21
277.355
 31
0.0
  0
LINE
  5
246
330
1E
100
AcDbEntity
  8
0
100
AcDbLine
 10
69.901775
 20
276.739
 30
0.0
 11
73.539075
 21
274.639
 31
0.0
  0
LINE
  5
247
330
1E
100
AcDbEntity
  8
0
100
AcDbLine
 10
73.539075
 20
274.639
 30
0.0
 11
74.83807500000001
 21
273.889
 31
0.0
  0
LINE
  5
248
330
1E
100
AcDbEntity
  8
0
100
AcDbLine
 10
73.356075
 20
275.322
 30
0.0
 11
74.655075
 21
274.5719999999999
 31
0.0
  0
LINE
  5
249
330
1E
100
AcDbEntity
  8
0
100
AcDbLine
 10
69.805375
 20
277.372
 30
0.0
 11
73.356075
 21
275.322
 31
0.0
  0
LINE
  5
24A
330
1E
100
AcDbEntity
  8
0
100
AcDbLine
 10
70.83477499999999
 20
277.355
 30
0.0
 11
74.47207500000001
 21
275.2549999999999
 31
0.0
  0
LINE
  5
24B
330
1E
100
AcDbEntity
  8
0
100
AcDbLine
 10
74.47207500000001
 20
275.2549999999999
 30
0.0
 11
75.77117499999999
 21
274.5049999999999
 31
0.0
  0
LINE
  5
24F
330
1E
100
AcDbEntity
  8
0
100
AcDbLine
 10
75.82983617366901
 20
274.606601152795
 30
0.0
 11
76.87717499999999
 21
274.04
 31
0.0
  0
LINE
  5
250
330
1E
100
AcDbEntity
  8
0
100
AcDbLine
 10
106.258975
 20
284.042
 30
0.0
 11
115.144975
 21
275.619
 31
0.0
  0
LINE
  5
251
330
1E
100
AcDbEntity
  8
0
100
AcDbLine
 10
115.144975
 20
275.619
 30
0.0
 11
121.364975
 21
269.5019999999999
 31
0.0
  0
LINE
  5
252
330
1E
100
AcDbEntity
  8
0
100
AcDbLine
 10
74.655075
 20
274.5719999999999
 30
0.0
 11
75.77117499999999
 21
274.5049999999999
 31
0.0
  0
LINE
  5
253
330
1E
100
AcDbEntity
  8
0
100
AcDbLine
 10
74.655075
 20
274.5719999999999
 30
0.0
 11
74.78924353881899
 21
274.071250754025
 31
0.0
  0
LINE
  5
254
330
1E
100
AcDbEntity
  8
0
100
AcDbLine
 10
75.77117499999999
 20
274.5049999999999
 30
0.0
 11
75.82983617366901
 21
274.606601152795
 31
0.0
  0
LINE
  5
256
330
1E
100
AcDbEntity
  8
0
100
AcDbLine
 10
99.14297500000001
 20
290.6
 30
0.0
 11
106.258975
 21
284.042
 31
0.0
  0
LINE
  5
259
330
1E
100
AcDbEntity
  8
0
100
AcDbLine
 10
90.62397500000001
 20
297.3879999999999
 30
0.0
 11
99.14297500000001
 21
290.6
 31
0.0
  0
LINE
  5
25C
330
1E
100
AcDbEntity
  8
0
100
AcDbLine
 10
83.80337500000001
 20
302.7719999999999
 30
0.0
 11
90.62397500000001
 21
297.3879999999999
 31
0.0
  0
LINE
  5
25F
330
1E
100
AcDbEntity
  8
0
100
AcDbLine
 10
12.744075
 20
309.739
 30
0.0
 11
20.278475
 21
305.3889999999999
 31
0.0
  0
LINE
  5
260
330
1E
100
AcDbEntity
  8
0
100
AcDbLine
 10
13.340475
 20
309.972
 30
0.0
 11
20.874975
 21
305.622
 31
0.0
  0
LINE
  5
261
330
1E
100
AcDbEntity
  8
0
100
AcDbLine
 10
12.984275
 20
310.7549999999999
 30
0.0
 11
20.69187499999999
 21
306.305
 31
0.0
  0
LINE
  5
267
330
1E
100
AcDbEntity
  8
0
100
AcDbLine
 10
61.1217406566991
 20
318.100737471948
 30
0.0
 11
72.347975
 21
310.9309999999999
 31
0.0
  0
LINE
  5
268
330
1E
100
AcDbEntity
  8
0
100
AcDbLine
 10
72.347975
 20
310.9309999999999
 30
0.0
 11
83.80337500000001
 21
302.7719999999999
 31
0.0
  0
LINE
  5
26F
330
1E
100
AcDbEntity
  8
0
100
AcDbLine
 10
10.180075
 20
325.3159999999999
 30
0.0
 11
18.06127499999999
 21
328.784
 31
0.0
  0
LINE
  5
270
330
1E
100
AcDbEntity
  8
0
100
AcDbLine
 10
18.06127499999999
 20
328.784
 30
0.0
 11
27.011375
 21
330.0319999999999
 31
0.0
  0
LINE
  5
271
330
1E
100
AcDbEntity
  8
0
100
AcDbLine
 10
27.011375
 20
330.0319999999999
 30
0.0
 11
36.148875
 21
329.568
 31
0.0
  0
LINE
  5
272
330
1E
100
AcDbEntity
  8
0
100
AcDbLine
 10
36.148875
 20
329.568
 30
0.0
 11
45.300175
 21
327.091
 31
0.0
  0
LINE
  5
273
330
1E
100
AcDbEntity
  8
0
100
AcDbLine
 10
45.300175
 20
327.091
 30
0.0
 11
54.465075
 21
322.601
 31
0.0
  0
LINE
  5
274
330
1E
100
AcDbEntity
  8
0
100
AcDbLine
 10
54.465075
 20
322.601
 30
0.0
 11
61.1217406566991
 21
318.100737471948
 31
0.0
  0
LINE
  5
276
330
1E
100
AcDbEntity
  8
0
100
AcDbLine
 10
5.158974999999999
 20
322.2009999999999
 30
0.0
 11
5.341974999999999
 21
321.5179999999999
 31
0.0
  0
LINE
  5
278
330
1E
100
AcDbEntity
  8
0
100
AcDbLine
 10
5.158974999999999
 20
322.2009999999999
 30
0.0
 11
10.180075
 21
325.3159999999999
 31
0.0
  0
LINE
  5
279
330
1E
100
AcDbEntity
  8
0
100
AcDbLine
 10
208.124975
 20
193.7199999999999
 30
0.0
 11
219.447975
 21
195.72
 31
0.0
  0
LINE
  5
27A
330
1E
100
AcDbEntity
  8
0
100
AcDbLine
 10
224.7639749999999
 20
-0.0250000000000135
 30
0.0
 11
227.867975
 21
-0.0200000000000147
 31
0.0
  0
LINE
  5
27B
330
1E
100
AcDbEntity
  8
0
100
AcDbLine
 10
221.667975
 20
-0.0320000000000148
 30
0.0
 11
224.7639749999999
 21
-0.0250000000000135
 31
0.0
  0
LINE
  5
27C
330
1E
100
AcDbEntity
  8
0
100
AcDbLine
 10
225.168515532789
 20
-0.0243483561005472
 30
0.0
 11
227.993975
 21
-0.0280000000000138
 31
0.0
  0
LINE
  5
27D
330
1E
100
AcDbEntity
  8
0
100
AcDbLine
 10
222.0319749999999
 20
84.17299999999999
 30
0.0
 11
227.1319749999999
 21
58.77600000000001
 31
0.0
  0
LINE
  5
27E
330
1E
100
AcDbEntity
  8
0
100
AcDbLine
 10
227.867975
 20
-0.0200000000000147
 30
0.0
 11
230.3839749999999
 21
-0.0270000000000128
 31
0.0
  0
LINE
  5
27F
330
1E
100
AcDbEntity
  8
0
100
AcDbLine
 10
227.993975
 20
-0.0280000000000138
 30
0.0
 11
230.4789749999999
 21
-0.0300000000000129
 31
0.0
  0
LINE
  5
280
330
1E
100
AcDbEntity
  8
0
100
AcDbLine
 10
227.1319749999999
 20
58.77600000000001
 30
0.0
 11
230.8319749999999
 21
34.378
 31
0.0
  0
LINE
  5
281
330
1E
100
AcDbEntity
  8
0
100
AcDbLine
 10
232.204975
 20
-0.0220000000000139
 30
0.0
 11
232.8319749999999
 21
-0.0230000000000116
 31
0.0
  0
LINE
  5
282
330
1E
100
AcDbEntity
  8
0
100
AcDbLine
 10
230.3839749999999
 20
-0.0270000000000128
 30
0.0
 11
232.204975
 21
-0.0220000000000139
 31
0.0
  0
LINE
  5
283
330
1E
100
AcDbEntity
  8
0
100
AcDbLine
 10
230.8319749999999
 20
34.378
 30
0.0
 11
232.8319749999999
 21
-0.0230000000000137
 31
0.0
  0
LINE
  5
284
330
1E
100
AcDbEntity
  8
0
100
AcDbLine
 10
230.8319749999999
 20
34.378
 30
0.0
 11
232.8319749999999
 21
-0.0230000000000116
 31
0.0
  0
LINE
  5
285
330
1E
100
AcDbEntity
  8
0
100
AcDbLine
 10
232.2569749999999
 20
-0.0240000000000128
 30
0.0
 11
232.8319749999999
 21
-0.0230000000000116
 31
0.0
  0
LINE
  5
286
330
1E
100
AcDbEntity
  8
0
100
AcDbLine
 10
230.4789749999999
 20
-0.0300000000000129
 30
0.0
 11
232.2569749999999
 21
-0.0240000000000128
 31
0.0
  0
LINE
  5
287
330
1E
100
AcDbEntity
  8
0
100
AcDbLine
 10
233.858975
 20
125.72
 30
0.0
 11
233.858975
 21
125.92
 31
0.0
  0
LINE
  5
288
330
1E
100
AcDbEntity
  8
0
100
AcDbLine
 10
233.858975
 20
127.0199999999999
 30
0.0
 11
233.858975
 21
126.3199999999999
 31
0.0
  0
LINE
  5
289
330
1E
100
AcDbEntity
  8
0
100
AcDbLine
 10
233.858975
 20
127.0199999999999
 30
0.0
 11
233.858975
 21
127.82
 31
0.0
  0
LINE
  5
28A
330
1E
100
AcDbEntity
  8
0
100
AcDbLine
 10
233.858975
 20
126.3199999999999
 30
0.0
 11
233.858975
 21
125.92
 31
0.0
  0
LINE
  5
28B
330
1E
100
AcDbEntity
  8
0
100
AcDbLine
 10
233.858975
 20
126.3199999999999
 30
0.0
 11
233.858975
 21
127.0199999999999
 31
0.0
  0
LINE
  5
28C
330
1E
100
AcDbEntity
  8
0
100
AcDbLine
 10
233.858975
 20
125.92
 30
0.0
 11
233.858975
 21
125.72
 31
0.0
  0
LINE
  5
28D
330
1E
100
AcDbEntity
  8
0
100
AcDbLine
 10
233.858975
 20
125.92
 30
0.0
 11
233.858975
 21
126.3199999999999
 31
0.0
  0
LINE
  5
28E
330
1E
100
AcDbEntity
  8
0
100
AcDbLine
 10
233.858975
 20
127.82
 30
0.0
 11
233.858975
 21
127.0199999999999
 31
0.0
  0
LINE
  5
28F
330
1E
100
AcDbEntity
  8
0
100
AcDbLine
 10
233.858975
 20
127.82
 30
0.0
 11
233.858975
 21
128.62
 31
0.0
  0
LINE
  5
290
330
1E
100
AcDbEntity
  8
0
100
AcDbLine
 10
228.646039723496
 20
127.807269954463
 30
0.0
 11
228.711975
 21
127.72
 31
0.0
  0
LINE
  5
291
330
1E
100
AcDbEntity
  8
0
100
AcDbLine
 10
228.711975
 20
127.72
 30
0.0
 11
233.858975
 21
125.72
 31
0.0
  0
LINE
  5
292
330
1E
100
AcDbEntity
  8
0
100
AcDbLine
 10
228.386975
 20
127.9109999999999
 30
0.0
 11
228.711975
 21
127.72
 31
0.0
  0
LINE
  5
293
330
1E
100
AcDbEntity
  8
0
100
AcDbLine
 10
233.858975
 20
129.22
 30
0.0
 11
233.858975
 21
128.62
 31
0.0
  0
LINE
  5
294
330
1E
100
AcDbEntity
  8
0
100
AcDbLine
 10
233.858975
 20
129.22
 30
0.0
 11
233.858975
 21
131.4199999999999
 31
0.0
  0
LINE
  5
295
330
1E
100
AcDbEntity
  8
0
100
AcDbLine
 10
233.858975
 20
128.62
 30
0.0
 11
233.858975
 21
127.82
 31
0.0
  0
LINE
  5
296
330
1E
100
AcDbEntity
  8
0
100
AcDbLine
 10
233.858975
 20
128.62
 30
0.0
 11
233.858975
 21
129.22
 31
0.0
  0
LINE
  5
297
330
1E
100
AcDbEntity
  8
0
100
AcDbLine
 10
227.4069749999999
 20
128.292
 30
0.0
 11
228.386975
 21
127.9109999999999
 31
0.0
  0
LINE
  5
298
330
1E
100
AcDbEntity
  8
0
100
AcDbLine
 10
225.5579749999999
 20
128.96
 30
0.0
 11
227.4069749999999
 21
128.292
 31
0.0
  0
LINE
  5
299
330
1E
100
AcDbEntity
  8
0
100
AcDbLine
 10
220.4669749999999
 20
130.4859999999999
 30
0.0
 11
223.2579749999999
 21
129.7229999999999
 31
0.0
  0
LINE
  5
29A
330
1E
100
AcDbEntity
  8
0
100
AcDbLine
 10
233.858975
 20
174.2199999999999
 30
0.0
 11
233.858975
 21
166.72
 31
0.0
  0
LINE
  5
29B
330
1E
100
AcDbEntity
  8
0
100
AcDbLine
 10
233.858975
 20
174.2199999999999
 30
0.0
 11
233.858975
 21
180.12
 31
0.0
  0
LINE
  5
29C
330
1E
100
AcDbEntity
  8
0
100
AcDbLine
 10
233.858975
 20
180.12
 30
0.0
 11
233.858975
 21
184.52
 31
0.0
  0
LINE
  5
29D
330
1E
100
AcDbEntity
  8
0
100
AcDbLine
 10
233.858975
 20
180.12
 30
0.0
 11
233.858975
 21
174.2199999999999
 31
0.0
  0
LINE
  5
29E
330
1E
100
AcDbEntity
  8
0
100
AcDbLine
 10
233.858975
 20
166.72
 30
0.0
 11
233.858975
 21
163.4199999999999
 31
0.0
  0
LINE
  5
29F
330
1E
100
AcDbEntity
  8
0
100
AcDbLine
 10
233.858975
 20
166.72
 30
0.0
 11
233.858975
 21
174.2199999999999
 31
0.0
  0
LINE
  5
2A0
330
1E
100
AcDbEntity
  8
0
100
AcDbLine
 10
233.858975
 20
163.4199999999999
 30
0.0
 11
233.858975
 21
159.82
 31
0.0
  0
LINE
  5
2A1
330
1E
100
AcDbEntity
  8
0
100
AcDbLine
 10
233.858975
 20
163.4199999999999
 30
0.0
 11
233.858975
 21
166.72
 31
0.0
  0
LINE
  5
2A2
330
1E
100
AcDbEntity
  8
0
100
AcDbLine
 10
233.858975
 20
159.82
 30
0.0
 11
233.858975
 21
154.22
 31
0.0
  0
LINE
  5
2A3
330
1E
100
AcDbEntity
  8
0
100
AcDbLine
 10
233.858975
 20
159.82
 30
0.0
 11
233.858975
 21
163.4199999999999
 31
0.0
  0
LINE
  5
2A4
330
1E
100
AcDbEntity
  8
0
100
AcDbLine
 10
233.858975
 20
154.22
 30
0.0
 11
233.858975
 21
141.9199999999999
 31
0.0
  0
LINE
  5
2A5
330
1E
100
AcDbEntity
  8
0
100
AcDbLine
 10
233.858975
 20
154.22
 30
0.0
 11
233.858975
 21
159.82
 31
0.0
  0
LINE
  5
2A6
330
1E
100
AcDbEntity
  8
0
100
AcDbLine
 10
233.858975
 20
141.9199999999999
 30
0.0
 11
233.858975
 21
135.4199999999999
 31
0.0
  0
LINE
  5
2A7
330
1E
100
AcDbEntity
  8
0
100
AcDbLine
 10
233.858975
 20
141.9199999999999
 30
0.0
 11
233.858975
 21
154.22
 31
0.0
  0
LINE
  5
2A8
330
1E
100
AcDbEntity
  8
0
100
AcDbLine
 10
233.858975
 20
135.4199999999999
 30
0.0
 11
233.858975
 21
131.4199999999999
 31
0.0
  0
LINE
  5
2A9
330
1E
100
AcDbEntity
  8
0
100
AcDbLine
 10
233.858975
 20
135.4199999999999
 30
0.0
 11
233.858975
 21
141.9199999999999
 31
0.0
  0
LINE
  5
2AA
330
1E
100
AcDbEntity
  8
0
100
AcDbLine
 10
233.858975
 20
184.52
 30
0.0
 11
233.858975
 21
187.8199999999999
 31
0.0
  0
LINE
  5
2AB
330
1E
100
AcDbEntity
  8
0
100
AcDbLine
 10
233.858975
 20
187.8199999999999
 30
0.0
 11
233.858975
 21
184.52
 31
0.0
  0
LINE
  5
2AC
330
1E
100
AcDbEntity
  8
0
100
AcDbLine
 10
233.858975
 20
187.8199999999999
 30
0.0
 11
233.858975
 21
190.7199999999999
 31
0.0
  0
LINE
  5
2AD
330
1E
100
AcDbEntity
  8
0
100
AcDbLine
 10
233.858975
 20
190.7199999999999
 30
0.0
 11
233.858975
 21
187.8199999999999
 31
0.0
  0
LINE
  5
2AE
330
1E
100
AcDbEntity
  8
0
100
AcDbLine
 10
233.858975
 20
190.7199999999999
 30
0.0
 11
233.858975
 21
191.22
 31
0.0
  0
LINE
  5
2AF
330
1E
100
AcDbEntity
  8
0
100
AcDbLine
 10
233.858975
 20
191.22
 30
0.0
 11
233.858975
 21
190.7199999999999
 31
0.0
  0
LINE
  5
2B0
330
1E
100
AcDbEntity
  8
0
100
AcDbLine
 10
233.858975
 20
191.22
 30
0.0
 11
233.858975
 21
191.8199999999999
 31
0.0
  0
LINE
  5
2B1
330
1E
100
AcDbEntity
  8
0
100
AcDbLine
 10
233.858975
 20
191.8199999999999
 30
0.0
 11
233.858975
 21
191.22
 31
0.0
  0
LINE
  5
2B2
330
1E
100
AcDbEntity
  8
0
100
AcDbLine
 10
233.858975
 20
191.8199999999999
 30
0.0
 11
233.858975
 21
193.02
 31
0.0
  0
LINE
  5
2B3
330
1E
100
AcDbEntity
  8
0
100
AcDbLine
 10
233.858975
 20
193.02
 30
0.0
 11
233.858975
 21
191.8199999999999
 31
0.0
  0
LINE
  5
2B4
330
1E
100
AcDbEntity
  8
0
100
AcDbLine
 10
233.858975
 20
193.02
 30
0.0
 11
233.858975
 21
194.02
 31
0.0
  0
LINE
  5
2B5
330
1E
100
AcDbEntity
  8
0
100
AcDbLine
 10
233.858975
 20
194.02
 30
0.0
 11
233.858975
 21
193.02
 31
0.0
  0
LINE
  5
2B6
330
1E
100
AcDbEntity
  8
0
100
AcDbLine
 10
233.858975
 20
194.02
 30
0.0
 11
233.858975
 21
194.2199999999999
 31
0.0
  0
LINE
  5
2B7
330
1E
100
AcDbEntity
  8
0
100
AcDbLine
 10
233.858975
 20
131.4199999999999
 30
0.0
 11
233.858975
 21
129.22
 31
0.0
  0
LINE
  5
2B8
330
1E
100
AcDbEntity
  8
0
100
AcDbLine
 10
233.858975
 20
131.4199999999999
 30
0.0
 11
233.858975
 21
135.4199999999999
 31
0.0
  0
LINE
  5
2B9
330
1E
100
AcDbEntity
  8
0
100
AcDbLine
 10
233.858975
 20
194.2199999999999
 30
0.0
 11
233.858975
 21
194.02
 31
0.0
  0
LINE
  5
2BA
330
1E
100
AcDbEntity
  8
0
100
AcDbLine
 10
233.858975
 20
194.2199999999999
 30
0.0
 11
233.858975
 21
194.72
 31
0.0
  0
LINE
  5
2BB
330
1E
100
AcDbEntity
  8
0
100
AcDbLine
 10
233.858975
 20
194.72
 30
0.0
 11
233.858975
 21
194.2199999999999
 31
0.0
  0
LINE
  5
2BC
330
1E
100
AcDbEntity
  8
0
100
AcDbLine
 10
233.858975
 20
194.72
 30
0.0
 11
233.858975
 21
195.32
 31
0.0
  0
LINE
  5
2BD
330
1E
100
AcDbEntity
  8
0
100
AcDbLine
 10
233.858975
 20
195.32
 30
0.0
 11
233.858975
 21
194.72
 31
0.0
  0
LINE
  5
2BE
330
1E
100
AcDbEntity
  8
0
100
AcDbLine
 10
233.858975
 20
195.32
 30
0.0
 11
233.858975
 21
196.02
 31
0.0
  0
LINE
  5
2BF
330
1E
100
AcDbEntity
  8
0
100
AcDbLine
 10
233.858975
 20
196.02
 30
0.0
 11
233.858975
 21
195.32
 31
0.0
  0
LINE
  5
2C0
330
1E
100
AcDbEntity
  8
0
100
AcDbLine
 10
233.858975
 20
196.02
 30
0.0
 11
233.858975
 21
196.52
 31
0.0
  0
LINE
  5
2C1
330
1E
100
AcDbEntity
  8
0
100
AcDbLine
 10
233.858975
 20
196.52
 30
0.0
 11
233.858975
 21
196.02
 31
0.0
  0
LINE
  5
2C2
330
1E
100
AcDbEntity
  8
0
100
AcDbLine
 10
233.858975
 20
196.52
 30
0.0
 11
233.858975
 21
196.72
 31
0.0
  0
LINE
  5
2C3
330
1E
100
AcDbEntity
  8
0
100
AcDbLine
 10
233.858975
 20
196.72
 30
0.0
 11
233.858975
 21
196.52
 31
0.0
  0
LINE
  5
2C4
330
1E
100
AcDbEntity
  8
0
100
AcDbLine
 10
223.2579749999999
 20
129.7229999999999
 30
0.0
 11
225.5579749999999
 21
128.96
 31
0.0
  0
LINE
  5
2C5
330
1E
100
AcDbEntity
  8
0
100
AcDbLine
 10
219.447975
 20
195.72
 30
0.0
 11
233.858975
 21
196.72
 31
0.0
  0
LINE
  5
2CA
330
1E
100
AcDbEntity
  8
0
100
AcDbLine
 10
200.9189749999999
 20
136.368
 30
0.0
 11
206.2768062517069
 21
134.57341331883
 31
0.0
  0
LINE
  5
2CB
330
1E
100
AcDbEntity
  8
0
100
AcDbLine
 10
206.2768062517069
 20
134.57341331883
 30
0.0
 11
214.5569749999999
 21
131.8
 31
0.0
  0
LINE
  5
2CC
330
1E
100
AcDbEntity
  8
0
100
AcDbLine
 10
173.653975
 20
160.0379999999999
 30
0.0
 11
175.34985508624
 21
157.949792343444
 31
0.0
  0
LINE
  5
2CD
330
1E
100
AcDbEntity
  8
0
100
AcDbLine
 10
171.767975
 20
164.2059999999999
 30
0.0
 11
171.2059636411986
 21
165.8073765057766
 31
0.0
  0
LINE
  5
2CE
330
1E
100
AcDbEntity
  8
0
100
AcDbLine
 10
171.2059636411986
 20
165.8073765057766
 30
0.0
 11
170.8050528099493
 21
167.7104459940709
 31
0.0
  0
LINE
  5
2CF
330
1E
100
AcDbEntity
  8
0
100
AcDbLine
 10
170.8050528099493
 20
167.7104459940709
 30
0.0
 11
170.779995078368
 21
169.4382323281983
 31
0.0
  0
LINE
  5
2D0
330
1E
100
AcDbEntity
  8
0
100
AcDbLine
 10
170.779995078368
 20
169.4382323281983
 30
0.0
 11
170.9804504939927
 21
170.6151309617627
 31
0.0
  0
LINE
  5
2D1
330
1E
100
AcDbEntity
  8
0
100
AcDbLine
 10
170.9804504939927
 20
170.6151309617627
 30
0.0
 11
171.9030822538047
 21
172.9128115382217
 31
0.0
  0
LINE
  5
2D2
330
1E
100
AcDbEntity
  8
0
100
AcDbLine
 10
171.9030822538047
 20
172.9128115382217
 30
0.0
 11
172.7944960484926
 21
174.4093916241322
 31
0.0
  0
LINE
  5
2D3
330
1E
100
AcDbEntity
  8
0
100
AcDbLine
 10
172.7944960484926
 20
174.4093916241322
 30
0.0
 11
176.3629749999999
 21
177.154
 31
0.0
  0
LINE
  5
2D4
330
1E
100
AcDbEntity
  8
0
100
AcDbLine
 10
36.924375
 20
269.22
 30
0.0
 11
33.979875
 21
270.92
 31
0.0
  0
LINE
  5
2D5
330
1E
100
AcDbEntity
  8
0
100
AcDbLine
 10
22.0286750017828
 20
277.819999998971
 30
0.0
 11
17.005775
 21
280.72
 31
0.0
  0
ENDSEC
  0
SECTION
  2
OBJECTS
  0
DICTIONARY
  5
C
330
0
100
AcDbDictionary
281
     1
  3
ACAD_GROUP
350
D
  3
ACAD_LAYOUT
350
19
  3
ACAD_MLINESTYLE
350
16
  3
ACAD_PLOTSETTINGS
350
18
  3
ACAD_PLOTSTYLENAME
350
E
  3
AcDbVariableDictionary
350
2D6
  0
DICTIONARY
  5
D
102
{ACAD_REACTORS
330
C
102
}
330
C
100
AcDbDictionary
281
     1
  0
DICTIONARY
  5
19
102
{ACAD_REACTORS
330
C
102
}
330
C
100
AcDbDictionary
281
     1
  3
Layout1
350
1D
  3
Model
350
21
  0
DICTIONARY
  5
16
102
{ACAD_REACTORS
330
C
102
}
330
C
100
AcDbDictionary
281
     1
  3
Standard
350
17
  0
DICTIONARY
  5
18
102
{ACAD_REACTORS
330
C
102
}
330
C
100
AcDbDictionary
281
     1
  0
ACDBDICTIONARYWDFLT
  5
E
102
{ACAD_REACTORS
330
C
102
}
330
C
100
AcDbDictionary
281
     1
  3
Normal
350
F
100
AcDbDictionaryWithDefault
340
F
  0
DICTIONARY
  5
2D6
102
{ACAD_REACTORS
330
C
102
}
330
C
100
AcDbDictionary
281
     1
  3
DIMASSOC
350
2D7
  0
LAYOUT
  5
1D
102
{ACAD_REACTORS
330
19
102
}
330
19
100
AcDbPlotSettings
  1

  2
hp deskjet 980c series
  4

  6

 40
0.0
 41
0.0
 42
0.0
 43
0.0
 44
0.0
 45
0.0
 46
0.0
 47
0.0
 48
0.0
 49
0.0
140
0.0
141
0.0
142
1.0
143
1.0
 70
   688
 72
     0
 73
     0
 74
     5
  7

 75
    16
147
1.0
148
0.0
149
0.0
100
AcDbLayout
  1
Layout1
 70
     1
 71
     1
 10
0.0
 20
0.0
 11
12.0
 21
9.0
 12
0.0
 22
0.0
 32
0.0
 14
1.000000000000000E+20
 24
1.000000000000000E+20
 34
1.000000000000000E+20
 15
-1.000000000000000E+20
 25
-1.000000000000000E+20
 35
-1.000000000000000E+20
146
0.0
 13
0.0
 23
0.0
 33
0.0
 16
1.0
 26
0.0
 36
0.0
 17
0.0
 27
1.0
 37
0.0
 76
     0
330
1A
  0
LAYOUT
  5
21
102
{ACAD_REACTORS
330
19
102
}
330
19
100
AcDbPlotSettings
  1

  2
hp deskjet 980c series
  4

  6

 40
0.0
 41
0.0
 42
0.0
 43
0.0
 44
0.0
 45
0.0
 46
0.0
 47
0.0
 48
0.0
 49
0.0
140
0.0
141
0.0
142
1.0
143
1.0
 70
  1712
 72
     0
 73
     0
 74
     0
  7

 75
     0
147
1.0
148
0.0
149
0.0
100
AcDbLayout
  1
Model
 70
     1
 71
     0
 10
0.0
 20
0.0
 11
12.0
 21
9.0
 12
0.0
 22
0.0
 32
0.0
 14
0.0
 24
0.0
 34
0.0
 15
0.0
 25
0.0
 35
0.0
146
0.0
 13
0.0
 23
0.0
 33
0.0
 16
1.0
 26
0.0
 36
0.0
 17
0.0
 27
1.0
 37
0.0
 76
     0
330
1E
  0
MLINESTYLE
  5
17
102
{ACAD_REACTORS
330
16
102
}
330
16
100
AcDbMlineStyle
  2
STANDARD
 70
     0
  3

 62
   256
 51
90.0
 52
90.0
 71
     2
 49
0.5
 62
   256
  6
BYLAYER
 49
-0.5
 62
   256
  6
BYLAYER
  0
ACDBPLACEHOLDER
  5
F
102
{ACAD_REACTORS
330
E
102
}
330
E
  0
DICTIONARYVAR
  5
2D7
102
{ACAD_REACTORS
330
2D6
102
}
330
2D6
100
DictionaryVariables
280
     0
  1
1
  0
ENDSEC
  0
EOF
