  0
SECTION
  2
HEADER
  9
$ACADVER
  1
AC1015
  9
$ACADMAINTVER
 70
    13
  9
$DWGCODEPAGE
  3
ANSI_1252
  9
$INSBASE
 10
0.0
 20
0.0
 30
0.0
  9
$EXTMIN
 10
0.0000000000000012
 20
-0.0320000000000148
 30
0.0
  9
$EXTMAX
 10
85.0
 20
330.0319999999999
 30
0.0
  9
$LIMMIN
 10
0.0
 20
0.0
  9
$LIMMAX
 10
12.0
 20
9.0
  9
$ORTHOMODE
 70
     0
  9
$REGENMODE
 70
     1
  9
$FILLMODE
 70
     1
  9
$QTEXTMODE
 70
     0
  9
$MIRRTEXT
 70
     1
  9
$LTSCALE
 40
1.0
  9
$ATTMODE
 70
     1
  9
$TEXTSIZE
 40
0.2
  9
$TRACEWID
 40
0.05
  9
$TEXTSTYLE
  7
Standard
  9
$CLAYER
  8
0
  9
$CELTYPE
  6
Continuous
  9
$CECOLOR
 62
   256
  9
$CELTSCALE
 40
1.0
  9
$DISPSILH
 70
     0
  9
$DIMSCALE
 40
1.0
  9
$DIMASZ
 40
0.18
  9
$DIMEXO
 40
0.0625
  9
$DIMDLI
 40
0.38
  9
$DIMRND
 40
0.0
  9
$DIMDLE
 40
0.0
  9
$DIMEXE
 40
0.18
  9
$DIMTP
 40
0.0
  9
$DIMTM
 40
0.0
  9
$DIMTXT
 40
0.18
  9
$DIMCEN
 40
0.09
  9
$DIMTSZ
 40
0.0
  9
$DIMTOL
 70
     0
  9
$DIMLIM
 70
     0
  9
$DIMTIH
 70
     1
  9
$DIMTOH
 70
     1
  9
$DIMSE1
 70
     0
  9
$DIMSE2
 70
     0
  9
$DIMTAD
 70
     0
  9
$DIMZIN
 70
     0
  9
$DIMBLK
  1

  9
$DIMASO
 70
     1
  9
$DIMSHO
 70
     1
  9
$DIMPOST
  1

  9
$DIMAPOST
  1

  9
$DIMALT
 70
     0
  9
$DIMALTD
 70
     2
  9
$DIMALTF
 40
25.4
  9
$DIMLFAC
 40
1.0
  9
$DIMTOFL
 70
     0
  9
$DIMTVP
 40
0.0
  9
$DIMTIX
 70
     0
  9
$DIMSOXD
 70
     0
  9
$DIMSAH
 70
     0
  9
$DIMBLK1
  1

  9
$DIMBLK2
  1

  9
$DIMSTYLE
  2
Standard
  9
$DIMCLRD
 70
     0
  9
$DIMCLRE
 70
     0
  9
$DIMCLRT
 70
     0
  9
$DIMTFAC
 40
1.0
  9
$DIMGAP
 40
0.09
  9
$DIMJUST
 70
     0
  9
$DIMSD1
 70
     0
  9
$DIMSD2
 70
     0
  9
$DIMTOLJ
 70
     1
  9
$DIMTZIN
 70
     0
  9
$DIMALTZ
 70
     0
  9
$DIMALTTZ
 70
     0
  9
$DIMUPT
 70
     0
  9
$DIMDEC
 70
     4
  9
$DIMTDEC
 70
     4
  9
$DIMALTU
 70
     2
  9
$DIMALTTD
 70
     2
  9
$DIMTXSTY
  7
Standard
  9
$DIMAUNIT
 70
     0
  9
$DIMADEC
 70
     0
  9
$DIMALTRND
 40
0.0
  9
$DIMAZIN
 70
     0
  9
$DIMDSEP
 70
    46
  9
$DIMATFIT
 70
     3
  9
$DIMFRAC
 70
     0
  9
$DIMLDRBLK
  1

  9
$DIMLUNIT
 70
     2
  9
$DIMLWD
 70
    -2
  9
$DIMLWE
 70
    -2
  9
$DIMTMOVE
 70
     0
  9
$LUNITS
 70
     2
  9
$LUPREC
 70
     4
  9
$SKETCHINC
 40
0.1
  9
$FILLETRAD
 40
0.0
  9
$AUNITS
 70
     0
  9
$AUPREC
 70
     0
  9
$MENU
  1
.
  9
$ELEVATION
 40
0.0
  9
$PELEVATION
 40
0.0
  9
$THICKNESS
 40
0.0
  9
$LIMCHECK
 70
     0
  9
$CHAMFERA
 40
0.0
  9
$CHAMFERB
 40
0.0
  9
$CHAMFERC
 40
0.0
  9
$CHAMFERD
 40
0.0
  9
$SKPOLY
 70
     0
  9
$TDCREATE
 40
2454762.840207604
  9
$TDUCREATE
 40
2454762.756874270
  9
$TDUPDATE
 40
2454762.846754918
  9
$TDUUPDATE
 40
2454762.763421586
  9
$TDINDWG
 40
0.0065474884
  9
$TDUSRTIMER
 40
0.0065474884
  9
$USRTIMER
 70
     1
  9
$ANGBASE
 50
0.0
  9
$ANGDIR
 70
     0
  9
$PDMODE
 70
     0
  9
$PDSIZE
 40
0.0
  9
$PLINEWID
 40
0.0
  9
$SPLFRAME
 70
     0
  9
$SPLINETYPE
 70
     6
  9
$SPLINESEGS
 70
     8
  9
$HANDSEED
  5
434
  9
$SURFTAB1
 70
     6
  9
$SURFTAB2
 70
     6
  9
$SURFTYPE
 70
     6
  9
$SURFU
 70
     6
  9
$SURFV
 70
     6
  9
$UCSBASE
  2

  9
$UCSNAME
  2

  9
$UCSORG
 10
0.0
 20
0.0
 30
0.0
  9
$UCSXDIR
 10
1.0
 20
0.0
 30
0.0
  9
$UCSYDIR
 10
0.0
 20
1.0
 30
0.0
  9
$UCSORTHOREF
  2

  9
$UCSORTHOVIEW
 70
     1
  9
$UCSORGTOP
 10
0.0
 20
0.0
 30
0.0
  9
$UCSORGBOTTOM
 10
0.0
 20
0.0
 30
0.0
  9
$UCSORGLEFT
 10
0.0
 20
0.0
 30
0.0
  9
$UCSORGRIGHT
 10
0.0
 20
0.0
 30
0.0
  9
$UCSORGFRONT
 10
0.0
 20
0.0
 30
0.0
  9
$UCSORGBACK
 10
0.0
 20
0.0
 30
0.0
  9
$PUCSBASE
  2

  9
$PUCSNAME
  2

  9
$PUCSORG
 10
0.0
 20
0.0
 30
0.0
  9
$PUCSXDIR
 10
1.0
 20
0.0
 30
0.0
  9
$PUCSYDIR
 10
0.0
 20
1.0
 30
0.0
  9
$PUCSORTHOREF
  2

  9
$PUCSORTHOVIEW
 70
     0
  9
$PUCSORGTOP
 10
0.0
 20
0.0
 30
0.0
  9
$PUCSORGBOTTOM
 10
0.0
 20
0.0
 30
0.0
  9
$PUCSORGLEFT
 10
0.0
 20
0.0
 30
0.0
  9
$PUCSORGRIGHT
 10
0.0
 20
0.0
 30
0.0
  9
$PUCSORGFRONT
 10
0.0
 20
0.0
 30
0.0
  9
$PUCSORGBACK
 10
0.0
 20
0.0
 30
0.0
  9
$USERI1
 70
     0
  9
$USERI2
 70
     0
  9
$USERI3
 70
     0
  9
$USERI4
 70
     0
  9
$USERI5
 70
     0
  9
$USERR1
 40
0.0
  9
$USERR2
 40
0.0
  9
$USERR3
 40
0.0
  9
$USERR4
 40
0.0
  9
$USERR5
 40
0.0
  9
$WORLDVIEW
 70
     1
  9
$SHADEDGE
 70
     3
  9
$SHADEDIF
 70
    70
  9
$TILEMODE
 70
     1
  9
$MAXACTVP
 70
    64
  9
$PINSBASE
 10
0.0
 20
0.0
 30
0.0
  9
$PLIMCHECK
 70
     0
  9
$PEXTMIN
 10
1.000000000000000E+20
 20
1.000000000000000E+20
 30
1.000000000000000E+20
  9
$PEXTMAX
 10
-1.000000000000000E+20
 20
-1.000000000000000E+20
 30
-1.000000000000000E+20
  9
$PLIMMIN
 10
0.0
 20
0.0
  9
$PLIMMAX
 10
12.0
 20
9.0
  9
$UNITMODE
 70
     0
  9
$VISRETAIN
 70
     1
  9
$PLINEGEN
 70
     0
  9
$PSLTSCALE
 70
     1
  9
$TREEDEPTH
 70
  3020
  9
$CMLSTYLE
  2
Standard
  9
$CMLJUST
 70
     0
  9
$CMLSCALE
 40
1.0
  9
$PROXYGRAPHICS
 70
     1
  9
$MEASUREMENT
 70
     0
  9
$CELWEIGHT
370
    -1
  9
$ENDCAPS
280
     0
  9
$JOINSTYLE
280
     0
  9
$LWDISPLAY
290
     0
  9
$INSUNITS
 70
     0
  9
$HYPERLINKBASE
  1

  9
$STYLESHEET
  1

  9
$XEDIT
290
     1
  9
$CEPSNTYPE
380
     0
  9
$PSTYLEMODE
290
     1
  9
$FINGERPRINTGUID
  2
{51AC19A7-1987-4C1C-9F30-DC896C2CE52C}
  9
$VERSIONGUID
  2
{EAE85A63-C351-4C4F-AA8A-3D35A3130ACA}
  9
$EXTNAMES
290
     1
  9
$PSVPSCALE
 40
0.0
  9
$OLESTARTUP
290
     0
  0
ENDSEC
  0
SECTION
  2
CLASSES
  0
CLASS
  1
ACDBDICTIONARYWDFLT
  2
AcDbDictionaryWithDefault
  3
AutoCAD 2000
 90
        0
280
     0
281
     0
  0
CLASS
  1
ACDBPLACEHOLDER
  2
AcDbPlaceHolder
  3
AutoCAD 2000
 90
        0
280
     0
281
     0
  0
CLASS
  1
LAYOUT
  2
AcDbLayout
  3
AutoCAD 2000
 90
        0
280
     0
281
     0
  0
CLASS
  1
DICTIONARYVAR
  2
AcDbDictionaryVar
  3
AutoCAD 2000
 90
        0
280
     0
281
     0
  0
ENDSEC
  0
SECTION
  2
TABLES
  0
TABLE
  2
VPORT
  5
8
330
0
100
AcDbSymbolTable
 70
     3
  0
VPORT
  5
433
330
8
100
AcDbSymbolTableRecord
100
AcDbViewportTableRecord
  2
*Active
 70
     0
 10
0.0
 20
0.0
 11
1.0
 21
1.0
 12
42.5
 22
165.0
 13
0.0
 23
0.0
 14
1.0
 24
1.0
 15
0.0
 25
0.0
 16
0.0
 26
0.0
 36
1.0
 17
0.0
 27
0.0
 37
0.0
 40
332.5964603580562
 41
2.078104993597951
 42
50.0
 43
0.0
 44
0.0
 50
0.0
 51
0.0
 71
     0
 72
   100
 73
     1
 74
     3
 75
     0
 76
     0
 77
     0
 78
     0
281
     0
 65
     1
110
0.0
120
0.0
130
0.0
111
1.0
121
0.0
131
0.0
112
0.0
122
1.0
132
0.0
 79
     1
146
0.0
  0
ENDTAB
  0
TABLE
  2
LTYPE
  5
5
330
0
100
AcDbSymbolTable
 70
     1
  0
LTYPE
  5
13
330
5
100
AcDbSymbolTableRecord
100
AcDbLinetypeTableRecord
  2
ByBlock
 70
     0
  3

 72
    65
 73
     0
 40
0.0
  0
LTYPE
  5
14
330
5
100
AcDbSymbolTableRecord
100
AcDbLinetypeTableRecord
  2
ByLayer
 70
     0
  3

 72
    65
 73
     0
 40
0.0
  0
LTYPE
  5
15
330
5
100
AcDbSymbolTableRecord
100
AcDbLinetypeTableRecord
  2
Continuous
 70
     0
  3
Solid line
 72
    65
 73
     0
 40
0.0
  0
ENDTAB
  0
TABLE
  2
LAYER
  5
2
330
0
100
AcDbSymbolTable
 70
     1
  0
LAYER
  5
10
330
2
100
AcDbSymbolTableRecord
100
AcDbLayerTableRecord
  2
0
 70
     0
 62
     7
  6
Continuous
370
    -3
390
F
  0
ENDTAB
  0
TABLE
  2
STYLE
  5
3
330
0
100
AcDbSymbolTable
 70
     1
  0
STYLE
  5
11
330
3
100
AcDbSymbolTableRecord
100
AcDbTextStyleTableRecord
  2
Standard
 70
     0
 40
0.0
 41
1.0
 50
0.0
 71
     0
 42
0.2
  3
txt
  4

  0
ENDTAB
  0
TABLE
  2
VIEW
  5
6
330
0
100
AcDbSymbolTable
 70
     0
  0
ENDTAB
  0
TABLE
  2
UCS
  5
7
330
0
100
AcDbSymbolTable
 70
     0
  0
ENDTAB
  0
TABLE
  2
APPID
  5
9
330
0
100
AcDbSymbolTable
 70
     1
  0
APPID
  5
12
330
9
100
AcDbSymbolTableRecord
100
AcDbRegAppTableRecord
  2
ACAD
 70
     0
  0
ENDTAB
  0
TABLE
  2
DIMSTYLE
  5
A
330
0
100
AcDbSymbolTable
 70
     1
100
AcDbDimStyleTable
 71
     0
  0
DIMSTYLE
105
42A
330
A
100
AcDbSymbolTableRecord
100
AcDbDimStyleTableRecord
  2
Standard
 70
     0
340
11
  0
ENDTAB
  0
TABLE
  2
BLOCK_RECORD
  5
1
330
0
100
AcDbSymbolTable
 70
     0
  0
BLOCK_RECORD
  5
1E
330
1
100
AcDbSymbolTableRecord
100
AcDbBlockTableRecord
  2
*Model_Space
340
21
  0
BLOCK_RECORD
  5
1A
330
1
100
AcDbSymbolTableRecord
100
AcDbBlockTableRecord
  2
*Paper_Space
340
1D
  0
ENDTAB
  0
ENDSEC
  0
SECTION
  2
BLOCKS
  0
BLOCK
  5
1F
330
1E
100
AcDbEntity
  8
0
100
AcDbBlockBegin
  2
*Model_Space
 70
     0
 10
0.0
 20
0.0
 30
0.0
  3
*Model_Space
  1

  0
ENDBLK
  5
20
330
1E
100
AcDbEntity
  8
0
100
AcDbBlockEnd
  0
BLOCK
  5
1B
330
1A
100
AcDbEntity
 67
     1
  8
0
100
AcDbBlockBegin
  2
*Paper_Space
 70
     0
 10
0.0
 20
0.0
 30
0.0
  3
*Paper_Space
  1

  0
ENDBLK
  5
1C
330
1A
100
AcDbEntity
 67
     1
  8
0
100
AcDbBlockEnd
  0
ENDSEC
  0
SECTION
  2
ENTITIES
  0
LINE
  5
22
330
1E
100
AcDbEntity
  8
0
100
AcDbLine
 10
26.6
 20
159.82
 30
0.0
 11
27.0
 21
154.22
 31
0.0
  0
LINE
  5
23
330
1E
100
AcDbEntity
  8
0
100
AcDbLine
 10
26.5
 20
164.1999999999999
 30
0.0
 11
26.5017642907551
 21
164.250158786168
 31
0.0
  0
LINE
  5
24
330
1E
100
AcDbEntity
  8
0
100
AcDbLine
 10
26.5
 20
164.1999999999999
 30
0.0
 11
26.5
 21
163.68
 31
0.0
  0
LINE
  5
28
330
1E
100
AcDbEntity
  8
0
100
AcDbLine
 10
26.5
 20
163.68
 30
0.0
 11
26.5
 21
163.4199999999999
 31
0.0
  0
LINE
  5
29
330
1E
100
AcDbEntity
  8
0
100
AcDbLine
 10
26.5
 20
163.68
 30
0.0
 11
26.5
 21
164.1999999999999
 31
0.0
  0
LINE
  5
2A
330
1E
100
AcDbEntity
  8
0
100
AcDbLine
 10
26.5
 20
163.4199999999999
 30
0.0
 11
26.5
 21
163.68
 31
0.0
  0
LINE
  5
2B
330
1E
100
AcDbEntity
  8
0
100
AcDbLine
 10
26.5
 20
163.4199999999999
 30
0.0
 11
26.503861003861
 21
163.5474131274129
 31
0.0
  0
LINE
  5
2C
330
1E
100
AcDbEntity
  8
0
100
AcDbLine
 10
26.5
 20
163.4199999999999
 30
0.0
 11
26.6
 21
159.82
 31
0.0
  0
LINE
  5
2D
330
1E
100
AcDbEntity
  8
0
100
AcDbLine
 10
27.0
 20
154.22
 30
0.0
 11
27.9
 21
141.9199999999999
 31
0.0
  0
LINE
  5
2E
330
1E
100
AcDbEntity
  8
0
100
AcDbLine
 10
26.77272727272729
 20
171.0381818181819
 30
0.0
 11
26.89999999999999
 21
174.2199999999999
 31
0.0
  0
LINE
  5
2F
330
1E
100
AcDbEntity
  8
0
100
AcDbLine
 10
26.89999999999999
 20
174.2199999999999
 30
0.0
 11
27.2
 21
180.12
 31
0.0
  0
LINE
  5
30
330
1E
100
AcDbEntity
  8
0
100
AcDbLine
 10
27.2
 20
180.12
 30
0.0
 11
27.5
 21
184.52
 31
0.0
  0
LINE
  5
31
330
1E
100
AcDbEntity
  8
0
100
AcDbLine
 10
27.5
 20
184.52
 30
0.0
 11
27.8
 21
187.8199999999999
 31
0.0
  0
LINE
  5
32
330
1E
100
AcDbEntity
  8
0
100
AcDbLine
 10
27.9
 20
141.9199999999999
 30
0.0
 11
28.9
 21
135.4199999999999
 31
0.0
  0
LINE
  5
33
330
1E
100
AcDbEntity
  8
0
100
AcDbLine
 10
27.8
 20
187.8199999999999
 30
0.0
 11
28.2
 21
190.7199999999999
 31
0.0
  0
LINE
  5
34
330
1E
100
AcDbEntity
  8
0
100
AcDbLine
 10
0.0000000000000012
 20
295.7549999999999
 30
0.0
 11
1.5
 21
301.2049999999999
 31
0.0
  0
LINE
  5
35
330
1E
100
AcDbEntity
  8
0
100
AcDbLine
 10
0.0000000000000012
 20
295.7549999999999
 30
0.0
 11
0.788372093023253
 21
292.8905813953489
 31
0.0
  0
LINE
  5
36
330
1E
100
AcDbEntity
  8
0
100
AcDbLine
 10
0.0000000000000012
 20
300.0849999999999
 30
0.0
 11
1.5
 21
305.535
 31
0.0
  0
LINE
  5
37
330
1E
100
AcDbEntity
  8
0
100
AcDbLine
 10
1.0
 20
291.424
 30
0.0
 11
2.5
 21
286.074
 31
0.0
  0
LINE
  5
38
330
1E
100
AcDbEntity
  8
0
100
AcDbLine
 10
1.0
 20
291.424
 30
0.0
 11
2.5
 21
286.074
 31
0.0
  0
LINE
  5
39
330
1E
100
AcDbEntity
  8
0
100
AcDbLine
 10
0.500000000000001
 20
294.889
 30
0.0
 11
2.0
 21
300.2889999999999
 31
0.0
  0
LINE
  5
3A
330
1E
100
AcDbEntity
  8
0
100
AcDbLine
 10
0.500000000000001
 20
294.889
 30
0.0
 11
2.0
 21
300.2889999999999
 31
0.0
  0
LINE
  5
3B
330
1E
100
AcDbEntity
  8
0
100
AcDbLine
 10
0.500000000000001
 20
294.889
 30
0.0
 11
1.0
 21
291.424
 31
0.0
  0
LINE
  5
3C
330
1E
100
AcDbEntity
  8
0
100
AcDbLine
 10
0.0000000000000013
 20
295.7549999999999
 30
0.0
 11
1.5
 21
301.2049999999999
 31
0.0
  0
LINE
  5
3D
330
1E
100
AcDbEntity
  8
0
100
AcDbLine
 10
0.0000000000000013
 20
295.7549999999999
 30
0.0
 11
0.0000000000000013
 21
300.0849999999999
 31
0.0
  0
LINE
  5
3E
330
1E
100
AcDbEntity
  8
0
100
AcDbLine
 10
0.0000000000000013
 20
295.7549999999999
 30
0.0
 11
0.7883720930232521
 21
292.8905813953489
 31
0.0
  0
LINE
  5
3F
330
1E
100
AcDbEntity
  8
0
100
AcDbLine
 10
0.0000000000000013
 20
300.9509999999999
 30
0.0
 11
0.119174311926602
 21
300.5179999999999
 31
0.0
  0
LINE
  5
40
330
1E
100
AcDbEntity
  8
0
100
AcDbLine
 10
0.0000000000000013
 20
300.9509999999999
 30
0.0
 11
1.5
 21
306.401
 31
0.0
  0
LINE
  5
41
330
1E
100
AcDbEntity
  8
0
100
AcDbLine
 10
1.5
 20
301.2049999999999
 30
0.0
 11
5.7
 21
306.305
 31
0.0
  0
LINE
  5
42
330
1E
100
AcDbEntity
  8
0
100
AcDbLine
 10
1.5
 20
305.535
 30
0.0
 11
5.7
 21
310.6349999999999
 31
0.0
  0
LINE
  5
43
330
1E
100
AcDbEntity
  8
0
100
AcDbLine
 10
0.0000000000000013
 20
300.0849999999999
 30
0.0
 11
1.5
 21
305.535
 31
0.0
  0
LINE
  5
44
330
1E
100
AcDbEntity
  8
0
100
AcDbLine
 10
0.0000000000000013
 20
300.0849999999999
 30
0.0
 11
0.0000000000000013
 21
295.7549999999999
 31
0.0
  0
LINE
  5
45
330
1E
100
AcDbEntity
  8
0
100
AcDbLine
 10
3.5
 20
284.059
 30
0.0
 11
7.4
 21
279.259
 31
0.0
  0
LINE
  5
46
330
1E
100
AcDbEntity
  8
0
100
AcDbLine
 10
2.5
 20
286.074
 30
0.0
 11
3.5
 21
284.059
 31
0.0
  0
LINE
  5
47
330
1E
100
AcDbEntity
  8
0
100
AcDbLine
 10
5.5
 20
285.362
 30
0.0
 11
6.799999999999999
 21
290.112
 31
0.0
  0
LINE
  5
48
330
1E
100
AcDbEntity
  8
0
100
AcDbLine
 10
5.5
 20
285.362
 30
0.0
 11
6.799999999999999
 21
280.612
 31
0.0
  0
LINE
  5
49
330
1E
100
AcDbEntity
  8
0
100
AcDbLine
 10
2.0
 20
300.2889999999999
 30
0.0
 11
6.2
 21
305.3889999999999
 31
0.0
  0
LINE
  5
4A
330
1E
100
AcDbEntity
  8
0
100
AcDbLine
 10
4.216359999999999
 20
310.552
 30
0.0
 11
8.085449999999999
 21
315.3379999999999
 31
0.0
  0
LINE
  5
4E
330
1E
100
AcDbEntity
  8
0
100
AcDbLine
 10
6.799999999999999
 20
280.612
 30
0.0
 11
10.5
 21
276.162
 31
0.0
  0
LINE
  5
4F
330
1E
100
AcDbEntity
  8
0
100
AcDbLine
 10
6.799999999999999
 20
290.112
 30
0.0
 11
10.5
 21
294.562
 31
0.0
  0
LINE
  5
50
330
1E
100
AcDbEntity
  8
0
100
AcDbLine
 10
6.2
 20
305.3889999999999
 30
0.0
 11
12.8
 21
309.739
 31
0.0
  0
LINE
  5
52
330
1E
100
AcDbEntity
  8
0
100
AcDbLine
 10
13.2
 20
274.264
 30
0.0
 11
18.5
 21
270.764
 31
0.0
  0
LINE
  5
53
330
1E
100
AcDbEntity
  8
0
100
AcDbLine
 10
11.643410852713
 20
275.415875968992
 30
0.0
 11
13.2
 21
274.264
 31
0.0
  0
LINE
  5
54
330
1E
100
AcDbEntity
  8
0
100
AcDbLine
 10
10.5
 20
276.162
 30
0.0
 11
11.643410852713
 21
275.415875968992
 31
0.0
  0
LINE
  5
55
330
1E
100
AcDbEntity
  8
0
100
AcDbLine
 10
9.599999999999999
 20
276.7279999999999
 30
0.0
 11
10.5
 21
276.162
 31
0.0
  0
LINE
  5
56
330
1E
100
AcDbEntity
  8
0
100
AcDbLine
 10
15.30269999999999
 20
275.6329999999999
 30
0.0
 11
15.8119
 21
275.5549999999999
 31
0.0
  0
LINE
  5
58
330
1E
100
AcDbEntity
  8
0
100
AcDbLine
 10
15.665
 20
274.9569999999999
 30
0.0
 11
16.3295
 21
274.589
 31
0.0
  0
LINE
  5
59
330
1E
100
AcDbEntity
  8
0
100
AcDbLine
 10
15.2324
 20
275.3899999999999
 30
0.0
 11
15.665
 21
274.9569999999999
 31
0.0
  0
LINE
  5
5A
330
1E
100
AcDbEntity
  8
0
100
AcDbLine
 10
15.2324
 20
275.3899999999999
 30
0.0
 11
15.30269999999999
 21
275.6329999999999
 31
0.0
  0
LINE
  5
5B
330
1E
100
AcDbEntity
  8
0
100
AcDbLine
 10
14.5333
 20
278.555
 30
0.0
 11
15.1408
 21
278.104
 31
0.0
  0
LINE
  5
5C
330
1E
100
AcDbEntity
  8
0
100
AcDbLine
 10
15.1408
 20
278.104
 30
0.0
 11
15.7484
 21
277.9529999999999
 31
0.0
  0
LINE
  5
5D
330
1E
100
AcDbEntity
  8
0
100
AcDbLine
 10
15.7484
 20
277.9529999999999
 30
0.0
 11
16.0088
 21
278.174
 31
0.0
  0
LINE
  5
5E
330
1E
100
AcDbEntity
  8
0
100
AcDbLine
 10
18.5
 20
270.764
 30
0.0
 11
22.25011729616369
 21
269.3443127378809
 31
0.0
  0
LINE
  5
60
330
1E
100
AcDbEntity
  8
0
100
AcDbLine
 10
18.9778
 20
271.927
 30
0.0
 11
19.5533
 21
271.559
 31
0.0
  0
LINE
  5
62
330
1E
100
AcDbEntity
  8
0
100
AcDbLine
 10
19.5533
 20
271.559
 30
0.0
 11
19.6778
 21
271.32
 31
0.0
  0
LINE
  5
64
330
1E
100
AcDbEntity
  8
0
100
AcDbLine
 10
19.3017
 20
271.3399999999999
 30
0.0
 11
19.6778
 21
271.32
 31
0.0
  0
LINE
  5
65
330
1E
100
AcDbEntity
  8
0
100
AcDbLine
 10
18.62549999999999
 20
271.619
 30
0.0
 11
19.3017
 21
271.3399999999999
 31
0.0
  0
LINE
  5
66
330
1E
100
AcDbEntity
  8
0
100
AcDbLine
 10
15.8119
 20
275.5549999999999
 30
0.0
 11
16.4764
 21
275.1879999999999
 31
0.0
  0
LINE
  5
69
330
1E
100
AcDbEntity
  8
0
100
AcDbLine
 10
16.4764
 20
275.1879999999999
 30
0.0
 11
16.90909999999999
 21
274.7549999999999
 31
0.0
  0
LINE
  5
6B
330
1E
100
AcDbEntity
  8
0
100
AcDbLine
 10
16.83869999999999
 20
274.512
 30
0.0
 11
16.90909999999999
 21
274.7549999999999
 31
0.0
  0
LINE
  5
6D
330
1E
100
AcDbEntity
  8
0
100
AcDbLine
 10
16.3295
 20
274.589
 30
0.0
 11
16.83869999999999
 21
274.512
 31
0.0
  0
LINE
  5
6E
330
1E
100
AcDbEntity
  8
0
100
AcDbLine
 10
17.9255
 20
272.225
 30
0.0
 11
18.3017
 21
272.2059999999999
 31
0.0
  0
LINE
  5
6F
330
1E
100
AcDbEntity
  8
0
100
AcDbLine
 10
17.9255
 20
272.225
 30
0.0
 11
18.0501
 21
271.986
 31
0.0
  0
LINE
  5
71
330
1E
100
AcDbEntity
  8
0
100
AcDbLine
 10
18.3017
 20
272.2059999999999
 30
0.0
 11
18.9778
 21
271.927
 31
0.0
  0
LINE
  5
73
330
1E
100
AcDbEntity
  8
0
100
AcDbLine
 10
18.0501
 20
271.986
 30
0.0
 11
18.62549999999999
 21
271.619
 31
0.0
  0
LINE
  5
74
330
1E
100
AcDbEntity
  8
0
100
AcDbLine
 10
21.9585
 20
272.466
 30
0.0
 11
22.4372
 21
272.487
 31
0.0
  0
LINE
  5
75
330
1E
100
AcDbEntity
  8
0
100
AcDbLine
 10
21.9585
 20
272.466
 30
0.0
 11
21.972
 21
272.194
 31
0.0
  0
LINE
  5
77
330
1E
100
AcDbEntity
  8
0
100
AcDbLine
 10
21.972
 20
272.194
 30
0.0
 11
22.4942
 21
271.8199999999999
 31
0.0
  0
LINE
  5
78
330
1E
100
AcDbEntity
  8
0
100
AcDbLine
 10
22.0018
 20
274.172
 30
0.0
 11
22.18339999999999
 21
274.434
 31
0.0
  0
LINE
  5
79
330
1E
100
AcDbEntity
  8
0
100
AcDbLine
 10
21.404
 20
274.2219999999999
 30
0.0
 11
22.0018
 21
274.172
 31
0.0
  0
LINE
  5
7A
330
1E
100
AcDbEntity
  8
0
100
AcDbLine
 10
20.5452
 20
275.2639999999999
 30
0.0
 11
21.143
 21
275.214
 31
0.0
  0
LINE
  5
7D
330
1E
100
AcDbEntity
  8
0
100
AcDbLine
 10
21.143
 20
275.214
 30
0.0
 11
21.81909999999999
 21
274.866
 31
0.0
  0
LINE
  5
7F
330
1E
100
AcDbEntity
  8
0
100
AcDbLine
 10
21.81909999999999
 20
274.866
 30
0.0
 11
22.18339999999999
 21
274.434
 31
0.0
  0
LINE
  5
81
330
1E
100
AcDbEntity
  8
0
100
AcDbLine
 10
20.7279
 20
274.5699999999999
 30
0.0
 11
21.404
 21
274.2219999999999
 31
0.0
  0
LINE
  5
82
330
1E
100
AcDbEntity
  8
0
100
AcDbLine
 10
20.3636
 20
275.002
 30
0.0
 11
20.7279
 21
274.5699999999999
 31
0.0
  0
LINE
  5
83
330
1E
100
AcDbEntity
  8
0
100
AcDbLine
 10
20.3636
 20
275.002
 30
0.0
 11
20.5452
 21
275.2639999999999
 31
0.0
  0
LINE
  5
85
330
1E
100
AcDbEntity
  8
0
100
AcDbLine
 10
20.5452
 20
277.834
 30
0.0
 11
21.143
 21
277.4019999999999
 31
0.0
  0
LINE
  5
86
330
1E
100
AcDbEntity
  8
0
100
AcDbLine
 10
21.143
 20
277.4019999999999
 30
0.0
 11
21.81909999999999
 21
277.269
 31
0.0
  0
LINE
  5
87
330
1E
100
AcDbEntity
  8
0
100
AcDbLine
 10
21.81909999999999
 20
277.269
 30
0.0
 11
22.18339999999999
 21
277.494
 31
0.0
  0
LINE
  5
88
330
1E
100
AcDbEntity
  8
0
100
AcDbLine
 10
22.22309999999999
 20
269.2729999999999
 30
0.0
 11
22.4406
 21
269.292
 31
0.0
  0
LINE
  5
89
330
1E
100
AcDbEntity
  8
0
100
AcDbLine
 10
22.22309999999999
 20
269.2729999999999
 30
0.0
 11
22.534
 21
269.062
 31
0.0
  0
LINE
  5
8B
330
1E
100
AcDbEntity
  8
0
100
AcDbLine
 10
22.4406
 20
269.292
 30
0.0
 11
23.0823
 21
269.1
 31
0.0
  0
LINE
  5
8D
330
1E
100
AcDbEntity
  8
0
100
AcDbLine
 10
23.0823
 20
269.1
 30
0.0
 11
23.76139999999999
 21
268.8159999999999
 31
0.0
  0
LINE
  5
8F
330
1E
100
AcDbEntity
  8
0
100
AcDbLine
 10
22.534
 20
269.062
 30
0.0
 11
23.213
 21
268.778
 31
0.0
  0
LINE
  5
90
330
1E
100
AcDbEntity
  8
0
100
AcDbLine
 10
22.4372
 20
272.487
 30
0.0
 11
23.1456
 21
272.2309999999999
 31
0.0
  0
LINE
  5
92
330
1E
100
AcDbEntity
  8
0
100
AcDbLine
 10
22.4942
 20
271.8199999999999
 30
0.0
 11
23.2026
 21
271.5629999999999
 31
0.0
  0
LINE
  5
95
330
1E
100
AcDbEntity
  8
0
100
AcDbLine
 10
22.0018
 20
277.9629999999999
 30
0.0
 11
22.18339999999999
 21
277.494
 31
0.0
  0
LINE
  5
97
330
1E
100
AcDbEntity
  8
0
100
AcDbLine
 10
21.404
 20
278.394
 30
0.0
 11
22.0018
 21
277.9629999999999
 31
0.0
  0
LINE
  5
99
330
1E
100
AcDbEntity
  8
0
100
AcDbLine
 10
20.7279
 20
278.528
 30
0.0
 11
21.404
 21
278.394
 31
0.0
  0
LINE
  5
9A
330
1E
100
AcDbEntity
  8
0
100
AcDbLine
 10
20.3636
 20
278.302
 30
0.0
 11
20.7279
 21
278.528
 31
0.0
  0
LINE
  5
9B
330
1E
100
AcDbEntity
  8
0
100
AcDbLine
 10
20.3636
 20
278.302
 30
0.0
 11
20.5452
 21
277.834
 31
0.0
  0
LINE
  5
9D
330
1E
100
AcDbEntity
  8
0
100
AcDbLine
 10
15.7484
 20
278.653
 30
0.0
 11
16.0088
 21
278.174
 31
0.0
  0
LINE
  5
A0
330
1E
100
AcDbEntity
  8
0
100
AcDbLine
 10
7.4
 20
279.259
 30
0.0
 11
9.599999999999999
 21
276.7279999999999
 31
0.0
  0
LINE
  5
A1
330
1E
100
AcDbEntity
  8
0
100
AcDbLine
 10
15.30269999999999
 20
282.186
 30
0.0
 11
15.8119
 21
281.662
 31
0.0
  0
LINE
  5
A2
330
1E
100
AcDbEntity
  8
0
100
AcDbLine
 10
15.8119
 20
281.662
 30
0.0
 11
16.4764
 21
281.427
 31
0.0
  0
LINE
  5
A4
330
1E
100
AcDbEntity
  8
0
100
AcDbLine
 10
16.4764
 20
281.427
 30
0.0
 11
16.90909999999999
 21
281.602
 31
0.0
  0
LINE
  5
A5
330
1E
100
AcDbEntity
  8
0
100
AcDbLine
 10
16.83869999999999
 20
282.103
 30
0.0
 11
16.90909999999999
 21
281.602
 31
0.0
  0
LINE
  5
A7
330
1E
100
AcDbEntity
  8
0
100
AcDbLine
 10
16.3295
 20
282.628
 30
0.0
 11
16.83869999999999
 21
282.103
 31
0.0
  0
LINE
  5
A9
330
1E
100
AcDbEntity
  8
0
100
AcDbLine
 10
17.9255
 20
285.594
 30
0.0
 11
18.3017
 21
285.0109999999999
 31
0.0
  0
LINE
  5
AA
330
1E
100
AcDbEntity
  8
0
100
AcDbLine
 10
17.9255
 20
285.594
 30
0.0
 11
18.0501
 21
286.091
 31
0.0
  0
LINE
  5
AB
330
1E
100
AcDbEntity
  8
0
100
AcDbLine
 10
18.3017
 20
285.0109999999999
 30
0.0
 11
18.9778
 21
284.688
 31
0.0
  0
LINE
  5
AC
330
1E
100
AcDbEntity
  8
0
100
AcDbLine
 10
18.9778
 20
284.688
 30
0.0
 11
19.5533
 21
284.797
 31
0.0
  0
LINE
  5
AE
330
1E
100
AcDbEntity
  8
0
100
AcDbLine
 10
19.5533
 20
284.797
 30
0.0
 11
19.6778
 21
285.294
 31
0.0
  0
LINE
  5
B0
330
1E
100
AcDbEntity
  8
0
100
AcDbLine
 10
19.3017
 20
285.877
 30
0.0
 11
19.6778
 21
285.294
 31
0.0
  0
LINE
  5
B2
330
1E
100
AcDbEntity
  8
0
100
AcDbLine
 10
18.62549999999999
 20
286.2
 30
0.0
 11
19.3017
 21
285.877
 31
0.0
  0
LINE
  5
B4
330
1E
100
AcDbEntity
  8
0
100
AcDbLine
 10
18.0501
 20
286.091
 30
0.0
 11
18.62549999999999
 21
286.2
 31
0.0
  0
LINE
  5
B6
330
1E
100
AcDbEntity
  8
0
100
AcDbLine
 10
15.665
 20
282.862
 30
0.0
 11
16.3295
 21
282.628
 31
0.0
  0
LINE
  5
B8
330
1E
100
AcDbEntity
  8
0
100
AcDbLine
 10
15.2324
 20
282.6869999999999
 30
0.0
 11
15.665
 21
282.862
 31
0.0
  0
LINE
  5
B9
330
1E
100
AcDbEntity
  8
0
100
AcDbLine
 10
15.2324
 20
282.6869999999999
 30
0.0
 11
15.30269999999999
 21
282.186
 31
0.0
  0
LINE
  5
BB
330
1E
100
AcDbEntity
  8
0
100
AcDbLine
 10
21.9585
 20
280.6309999999999
 30
0.0
 11
22.4372
 21
280.129
 31
0.0
  0
LINE
  5
BC
330
1E
100
AcDbEntity
  8
0
100
AcDbLine
 10
21.9585
 20
280.6309999999999
 30
0.0
 11
21.972
 21
281.11
 31
0.0
  0
LINE
  5
BD
330
1E
100
AcDbEntity
  8
0
100
AcDbLine
 10
22.4372
 20
280.129
 30
0.0
 11
23.1456
 21
279.904
 31
0.0
  0
LINE
  5
BE
330
1E
100
AcDbEntity
  8
0
100
AcDbLine
 10
22.4942
 20
281.278
 30
0.0
 11
23.2026
 21
281.0529999999999
 31
0.0
  0
LINE
  5
BF
330
1E
100
AcDbEntity
  8
0
100
AcDbLine
 10
21.972
 20
281.11
 30
0.0
 11
22.4942
 21
281.278
 31
0.0
  0
LINE
  5
C0
330
1E
100
AcDbEntity
  8
0
100
AcDbLine
 10
15.1408
 20
279.104
 30
0.0
 11
15.7484
 21
278.653
 31
0.0
  0
LINE
  5
C2
330
1E
100
AcDbEntity
  8
0
100
AcDbLine
 10
14.5333
 20
279.2549999999999
 30
0.0
 11
15.1408
 21
279.104
 31
0.0
  0
LINE
  5
C4
330
1E
100
AcDbEntity
  8
0
100
AcDbLine
 10
14.2729
 20
279.034
 30
0.0
 11
14.5333
 21
279.2549999999999
 31
0.0
  0
LINE
  5
C5
330
1E
100
AcDbEntity
  8
0
100
AcDbLine
 10
14.2729
 20
279.034
 30
0.0
 11
14.5333
 21
278.555
 31
0.0
  0
LINE
  5
C7
330
1E
100
AcDbEntity
  8
0
100
AcDbLine
 10
23.1456
 20
272.2309999999999
 30
0.0
 11
23.66779999999999
 21
271.857
 31
0.0
  0
LINE
  5
C9
330
1E
100
AcDbEntity
  8
0
100
AcDbLine
 10
23.213
 20
268.778
 30
0.0
 11
23.8548
 21
268.5849999999999
 31
0.0
  0
LINE
  5
CA
330
1E
100
AcDbEntity
  8
0
100
AcDbLine
 10
23.66779999999999
 20
271.857
 30
0.0
 11
23.6813
 21
271.584
 31
0.0
  0
LINE
  5
CC
330
1E
100
AcDbEntity
  8
0
100
AcDbLine
 10
23.2026
 20
271.5629999999999
 30
0.0
 11
23.6813
 21
271.584
 31
0.0
  0
LINE
  5
CD
330
1E
100
AcDbEntity
  8
0
100
AcDbLine
 10
23.1456
 20
279.904
 30
0.0
 11
23.66779999999999
 21
280.0709999999999
 31
0.0
  0
LINE
  5
CE
330
1E
100
AcDbEntity
  8
0
100
AcDbLine
 10
23.76139999999999
 20
268.8159999999999
 30
0.0
 11
24.0722
 21
268.605
 31
0.0
  0
LINE
  5
D0
330
1E
100
AcDbEntity
  8
0
100
AcDbLine
 10
23.8548
 20
268.5849999999999
 30
0.0
 11
24.0722
 21
268.605
 31
0.0
  0
LINE
  5
D3
330
1E
100
AcDbEntity
  8
0
100
AcDbLine
 10
23.66779999999999
 20
280.0709999999999
 30
0.0
 11
23.6813
 21
280.5509999999999
 31
0.0
  0
LINE
  5
D5
330
1E
100
AcDbEntity
  8
0
100
AcDbLine
 10
23.2026
 20
281.0529999999999
 30
0.0
 11
23.6813
 21
280.5509999999999
 31
0.0
  0
LINE
  5
D6
330
1E
100
AcDbEntity
  8
0
100
AcDbLine
 10
23.0823
 20
287.515
 30
0.0
 11
23.76139999999999
 21
287.541
 31
0.0
  0
LINE
  5
D7
330
1E
100
AcDbEntity
  8
0
100
AcDbLine
 10
22.22309999999999
 20
288.547
 30
0.0
 11
22.4406
 21
287.925
 31
0.0
  0
LINE
  5
D8
330
1E
100
AcDbEntity
  8
0
100
AcDbLine
 10
22.22309999999999
 20
288.547
 30
0.0
 11
22.534
 21
289.0149999999999
 31
0.0
  0
LINE
  5
D9
330
1E
100
AcDbEntity
  8
0
100
AcDbLine
 10
22.4406
 20
287.925
 30
0.0
 11
23.0823
 21
287.515
 31
0.0
  0
LINE
  5
DA
330
1E
100
AcDbEntity
  8
0
100
AcDbLine
 10
23.76139999999999
 20
287.541
 30
0.0
 11
24.0722
 21
288.01
 31
0.0
  0
LINE
  5
DB
330
1E
100
AcDbEntity
  8
0
100
AcDbLine
 10
24.088603436808
 20
268.648314413208
 30
0.0
 11
25.5
 21
268.114
 31
0.0
  0
LINE
  5
DD
330
1E
100
AcDbEntity
  8
0
100
AcDbLine
 10
24.7716
 20
269.947
 30
0.0
 11
25.0987
 21
270.0209999999999
 31
0.0
  0
LINE
  5
DE
330
1E
100
AcDbEntity
  8
0
100
AcDbLine
 10
24.7716
 20
269.947
 30
0.0
 11
24.9793
 21
269.689
 31
0.0
  0
LINE
  5
E0
330
1E
100
AcDbEntity
  8
0
100
AcDbLine
 10
25.5
 20
268.114
 30
0.0
 11
28.0413008770747
 21
267.450538949592
 31
0.0
  0
LINE
  5
E1
330
1E
100
AcDbEntity
  8
0
100
AcDbLine
 10
26.31619999999999
 20
269.228
 30
0.0
 11
26.6433
 21
269.301
 31
0.0
  0
LINE
  5
E2
330
1E
100
AcDbEntity
  8
0
100
AcDbLine
 10
25.0987
 20
270.0209999999999
 30
0.0
 11
25.791
 21
269.857
 31
0.0
  0
LINE
  5
E4
330
1E
100
AcDbEntity
  8
0
100
AcDbLine
 10
25.791
 20
269.857
 30
0.0
 11
26.4356
 21
269.56
 31
0.0
  0
LINE
  5
E6
330
1E
100
AcDbEntity
  8
0
100
AcDbLine
 10
25.6239
 20
269.3919999999999
 30
0.0
 11
26.31619999999999
 21
269.228
 31
0.0
  0
LINE
  5
E7
330
1E
100
AcDbEntity
  8
0
100
AcDbLine
 10
24.9793
 20
269.689
 30
0.0
 11
25.6239
 21
269.3919999999999
 31
0.0
  0
LINE
  5
E8
330
1E
100
AcDbEntity
  8
0
100
AcDbLine
 10
24.7716
 20
283.1499999999999
 30
0.0
 11
25.0987
 21
282.595
 31
0.0
  0
LINE
  5
E9
330
1E
100
AcDbEntity
  8
0
100
AcDbLine
 10
24.7716
 20
283.1499999999999
 30
0.0
 11
24.9793
 21
283.6149999999999
 31
0.0
  0
LINE
  5
EA
330
1E
100
AcDbEntity
  8
0
100
AcDbLine
 10
25.0987
 20
282.595
 30
0.0
 11
25.791
 21
282.278
 31
0.0
  0
LINE
  5
EB
330
1E
100
AcDbEntity
  8
0
100
AcDbLine
 10
25.791
 20
282.278
 30
0.0
 11
26.4356
 21
282.3679999999999
 31
0.0
  0
LINE
  5
ED
330
1E
100
AcDbEntity
  8
0
100
AcDbLine
 10
26.4356
 20
269.56
 30
0.0
 11
26.6433
 21
269.301
 31
0.0
  0
LINE
  5
F1
330
1E
100
AcDbEntity
  8
0
100
AcDbLine
 10
26.4356
 20
282.3679999999999
 30
0.0
 11
26.6433
 21
282.8329999999999
 31
0.0
  0
LINE
  5
F3
330
1E
100
AcDbEntity
  8
0
100
AcDbLine
 10
26.31619999999999
 20
283.3879999999999
 30
0.0
 11
26.6433
 21
282.8329999999999
 31
0.0
  0
LINE
  5
F4
330
1E
100
AcDbEntity
  8
0
100
AcDbLine
 10
25.6239
 20
283.7059999999999
 30
0.0
 11
26.31619999999999
 21
283.3879999999999
 31
0.0
  0
LINE
  5
F5
330
1E
100
AcDbEntity
  8
0
100
AcDbLine
 10
24.9793
 20
283.6149999999999
 30
0.0
 11
25.6239
 21
283.7059999999999
 31
0.0
  0
LINE
  5
F6
330
1E
100
AcDbEntity
  8
0
100
AcDbLine
 10
23.8548
 20
288.6319999999999
 30
0.0
 11
24.0722
 21
288.01
 31
0.0
  0
LINE
  5
F8
330
1E
100
AcDbEntity
  8
0
100
AcDbLine
 10
23.213
 20
289.042
 30
0.0
 11
23.8548
 21
288.6319999999999
 31
0.0
  0
LINE
  5
FA
330
1E
100
AcDbEntity
  8
0
100
AcDbLine
 10
22.534
 20
289.0149999999999
 30
0.0
 11
23.213
 21
289.042
 31
0.0
  0
LINE
  5
FC
330
1E
100
AcDbEntity
  8
0
100
AcDbLine
 10
27.4743
 20
242.7521999999999
 30
0.0
 11
27.7723
 21
249.4979999999999
 31
0.0
  0
LINE
  5
FD
330
1E
100
AcDbEntity
  8
0
100
AcDbLine
 10
27.4743
 20
224.1788
 30
0.0
 11
27.6978
 21
213.4078
 31
0.0
  0
LINE
  5
FE
330
1E
100
AcDbEntity
  8
0
100
AcDbLine
 10
27.96229999999999
 20
267.009
 30
0.0
 11
28.5259
 21
266.8959999999999
 31
0.0
  0
LINE
  5
100
330
1E
100
AcDbEntity
  8
0
100
AcDbLine
 10
27.9184
 20
266.9719999999999
 30
0.0
 11
28.3944
 21
266.814
 31
0.0
  0
LINE
  5
101
330
1E
100
AcDbEntity
  8
0
100
AcDbLine
 10
27.9184
 20
266.9719999999999
 30
0.0
 11
27.96229999999999
 21
267.009
 31
0.0
  0
LINE
  5
102
330
1E
100
AcDbEntity
  8
0
100
AcDbLine
 10
27.9184
 20
266.9719999999999
 30
0.0
 11
28.04907714325089
 21
267.4808173848339
 31
0.0
  0
LINE
  5
103
330
1E
100
AcDbEntity
  8
0
100
AcDbLine
 10
27.98378769031879
 20
267.46555399942
 30
0.0
 11
28.00577016233289
 21
267.3121930621139
 31
0.0
  0
LINE
  5
104
330
1E
100
AcDbEntity
  8
0
100
AcDbLine
 10
27.7723
 20
249.4979999999999
 30
0.0
 11
28.51729999999999
 21
258.416
 31
0.0
  0
LINE
  5
105
330
1E
100
AcDbEntity
  8
0
100
AcDbLine
 10
27.3253
 20
232.6561
 30
0.0
 11
27.4743
 21
242.7521999999999
 31
0.0
  0
LINE
  5
106
330
1E
100
AcDbEntity
  8
0
100
AcDbLine
 10
27.3253
 20
232.6561
 30
0.0
 11
27.4743
 21
224.1788
 31
0.0
  0
LINE
  5
107
330
1E
100
AcDbEntity
  8
0
100
AcDbLine
 10
27.6978
 20
213.4078
 30
0.0
 11
27.9958
 21
201.9032999999999
 31
0.0
  0
LINE
  5
108
330
1E
100
AcDbEntity
  8
0
100
AcDbLine
 10
28.1862
 20
268.1109999999999
 30
0.0
 11
28.5739
 21
267.892
 31
0.0
  0
LINE
  5
109
330
1E
100
AcDbEntity
  8
0
100
AcDbLine
 10
28.1862
 20
268.1109999999999
 30
0.0
 11
28.3393
 21
268.216
 31
0.0
  0
LINE
  5
10B
330
1E
100
AcDbEntity
  8
0
100
AcDbLine
 10
28.1862
 20
284.987
 30
0.0
 11
28.5739
 21
285.412
 31
0.0
  0
LINE
  5
10C
330
1E
100
AcDbEntity
  8
0
100
AcDbLine
 10
28.1862
 20
284.987
 30
0.0
 11
28.3393
 21
284.3999999999999
 31
0.0
  0
LINE
  5
10E
330
1E
100
AcDbEntity
  8
0
100
AcDbLine
 10
28.0613333781777
 20
266.9245557274119
 30
0.0
 11
28.3683
 21
264.783
 31
0.0
  0
LINE
  5
10F
330
1E
100
AcDbEntity
  8
0
100
AcDbLine
 10
27.9958
 20
201.9032999999999
 30
0.0
 11
28.7407
 21
189.8832999999999
 31
0.0
  0
LINE
  5
112
330
1E
100
AcDbEntity
  8
0
100
AcDbLine
 10
16.39999999999999
 20
298.412
 30
0.0
 11
24.1
 21
301.362
 31
0.0
  0
LINE
  5
114
330
1E
100
AcDbEntity
  8
0
100
AcDbLine
 10
24.1
 20
301.362
 30
0.0
 11
33.0
 21
303.2119999999999
 31
0.0
  0
LINE
  5
116
330
1E
100
AcDbEntity
  8
0
100
AcDbLine
 10
10.5
 20
294.562
 30
0.0
 11
16.39999999999999
 21
298.412
 31
0.0
  0
LINE
  5
117
330
1E
100
AcDbEntity
  8
0
100
AcDbLine
 10
12.8
 20
309.739
 30
0.0
 11
13.2
 21
309.972
 31
0.0
  0
LINE
  5
119
330
1E
100
AcDbEntity
  8
0
100
AcDbLine
 10
27.96229999999999
 20
290.2079999999999
 30
0.0
 11
28.5259
 21
289.718
 31
0.0
  0
LINE
  5
11A
330
1E
100
AcDbEntity
  8
0
100
AcDbLine
 10
27.9184
 20
290.8469999999999
 30
0.0
 11
28.3944
 21
291.264
 31
0.0
  0
LINE
  5
11B
330
1E
100
AcDbEntity
  8
0
100
AcDbLine
 10
27.9184
 20
290.8469999999999
 30
0.0
 11
27.96229999999999
 21
290.2079999999999
 31
0.0
  0
LINE
  5
11E
330
1E
100
AcDbEntity
  8
0
100
AcDbLine
 10
13.2
 20
309.972
 30
0.0
 11
21.89999999999999
 21
313.2719999999999
 31
0.0
  0
LINE
  5
11F
330
1E
100
AcDbEntity
  8
0
100
AcDbLine
 10
5.7
 20
306.305
 30
0.0
 11
12.5
 21
310.7549999999999
 31
0.0
  0
LINE
  5
120
330
1E
100
AcDbEntity
  8
0
100
AcDbLine
 10
12.5
 20
310.7549999999999
 30
0.0
 11
21.4
 21
314.1549999999999
 31
0.0
  0
LINE
  5
121
330
1E
100
AcDbEntity
  8
0
100
AcDbLine
 10
5.7
 20
310.6349999999999
 30
0.0
 11
6.2
 21
311.0179999999999
 31
0.0
  0
LINE
  5
123
330
1E
100
AcDbEntity
  8
0
100
AcDbLine
 10
1.5
 20
306.401
 30
0.0
 11
5.7
 21
311.5009999999999
 31
0.0
  0
LINE
  5
124
330
1E
100
AcDbEntity
  8
0
100
AcDbLine
 10
1.5
 20
306.401
 30
0.0
 11
4.216359999999999
 21
310.552
 31
0.0
  0
LINE
  5
125
330
1E
100
AcDbEntity
  8
0
100
AcDbLine
 10
8.085449999999999
 20
315.3379999999999
 30
0.0
 11
12.5655
 21
320.079
 31
0.0
  0
LINE
  5
127
330
1E
100
AcDbEntity
  8
0
100
AcDbLine
 10
21.4
 20
314.1549999999999
 30
0.0
 11
31.6
 21
316.2549999999999
 31
0.0
  0
LINE
  5
128
330
1E
100
AcDbEntity
  8
0
100
AcDbLine
 10
12.8
 20
315.368
 30
0.0
 11
21.49999999999999
 21
318.6679999999999
 31
0.0
  0
LINE
  5
129
330
1E
100
AcDbEntity
  8
0
100
AcDbLine
 10
12.5655
 20
320.079
 30
0.0
 11
18.0636
 21
323.694
 31
0.0
  0
LINE
  5
12A
330
1E
100
AcDbEntity
  8
0
100
AcDbLine
 10
18.0636
 20
323.694
 30
0.0
 11
23.0527
 21
326.0099999999999
 31
0.0
  0
LINE
  5
12C
330
1E
100
AcDbEntity
  8
0
100
AcDbLine
 10
12.5
 20
315.9509999999999
 30
0.0
 11
21.4
 21
319.3509999999999
 31
0.0
  0
LINE
  5
12E
330
1E
100
AcDbEntity
  8
0
100
AcDbLine
 10
21.89999999999999
 20
313.2719999999999
 30
0.0
 11
31.8
 21
315.322
 31
0.0
  0
LINE
  5
12F
330
1E
100
AcDbEntity
  8
0
100
AcDbLine
 10
23.0527
 20
326.0099999999999
 30
0.0
 11
28.8564
 21
328.199
 31
0.0
  0
LINE
  5
130
330
1E
100
AcDbEntity
  8
0
100
AcDbLine
 10
21.49999999999999
 20
318.6679999999999
 30
0.0
 11
31.69999999999999
 21
320.7679999999999
 31
0.0
  0
LINE
  5
131
330
1E
100
AcDbEntity
  8
0
100
AcDbLine
 10
21.4
 20
319.3509999999999
 30
0.0
 11
31.6
 21
321.4509999999999
 31
0.0
  0
LINE
  5
132
330
1E
100
AcDbEntity
  8
0
100
AcDbLine
 10
6.2
 20
311.0179999999999
 30
0.0
 11
12.8
 21
315.368
 31
0.0
  0
LINE
  5
133
330
1E
100
AcDbEntity
  8
0
100
AcDbLine
 10
5.7
 20
311.5009999999999
 30
0.0
 11
12.5
 21
315.9509999999999
 31
0.0
  0
LINE
  5
135
330
1E
100
AcDbEntity
  8
0
100
AcDbLine
 10
0.0000000000000012
 20
300.9509999999999
 30
0.0
 11
1.5
 21
306.401
 31
0.0
  0
LINE
  5
136
330
1E
100
AcDbEntity
  8
0
100
AcDbLine
 10
0.0000000000000012
 20
300.9509999999999
 30
0.0
 11
0.119174311926602
 21
300.5179999999999
 31
0.0
  0
LINE
  5
137
330
1E
100
AcDbEntity
  8
0
100
AcDbLine
 10
28.2
 20
190.7199999999999
 30
0.0
 11
28.3
 21
191.22
 31
0.0
  0
LINE
  5
139
330
1E
100
AcDbEntity
  8
0
100
AcDbLine
 10
49.9488
 20
-0.0320000000000148
 30
0.0
 11
50.5758
 21
-0.0250000000000135
 31
0.0
  0
LINE
  5
13A
330
1E
100
AcDbEntity
  8
0
100
AcDbLine
 10
48.1277
 20
-0.029000000000011
 30
0.0
 11
49.9488
 21
-0.0320000000000148
 31
0.0
  0
LINE
  5
13B
330
1E
100
AcDbEntity
  8
0
100
AcDbLine
 10
37.0237
 20
-0.0300000000000129
 30
0.0
 11
38.5714521375297
 21
-0.0263075495725067
 31
0.0
  0
LINE
  5
13C
330
1E
100
AcDbEntity
  8
0
100
AcDbLine
 10
35.3863170526571
 20
-0.0282017649252316
 30
0.0
 11
37.0237
 21
-0.0300000000000129
 31
0.0
  0
LINE
  5
13D
330
1E
100
AcDbEntity
  8
0
100
AcDbLine
 10
35.14979999999999
 20
-0.0290000000000111
 30
0.0
 11
36.92759999999999
 21
-0.0230000000000108
 31
0.0
  0
LINE
  5
13E
330
1E
100
AcDbEntity
  8
0
100
AcDbLine
 10
34.5597
 20
32.97699999999999
 30
0.0
 11
34.5756
 21
-0.0240000000000115
 31
0.0
  0
LINE
  5
13F
330
1E
100
AcDbEntity
  8
0
100
AcDbLine
 10
34.5597
 20
32.97699999999999
 30
0.0
 11
34.5756
 21
-0.0240000000000123
 31
0.0
  0
LINE
  5
140
330
1E
100
AcDbEntity
  8
0
100
AcDbLine
 10
34.5756
 20
-0.0240000000000123
 30
0.0
 11
35.14979999999999
 21
-0.0290000000000111
 31
0.0
  0
LINE
  5
141
330
1E
100
AcDbEntity
  8
0
100
AcDbLine
 10
45.61269999999999
 20
-0.0250000000000131
 30
0.0
 11
48.1277
 21
-0.029000000000011
 31
0.0
  0
LINE
  5
142
330
1E
100
AcDbEntity
  8
0
100
AcDbLine
 10
42.5077
 20
-0.0270000000000119
 30
0.0
 11
45.61269999999999
 21
-0.0250000000000131
 31
0.0
  0
LINE
  5
143
330
1E
100
AcDbEntity
  8
0
100
AcDbLine
 10
36.92759999999999
 20
-0.0230000000000108
 30
0.0
 11
39.41259999999999
 21
-0.0280000000000132
 31
0.0
  0
LINE
  5
144
330
1E
100
AcDbEntity
  8
0
100
AcDbLine
 10
39.41259999999999
 20
-0.0280000000000132
 30
0.0
 11
42.5077
 21
-0.0270000000000119
 31
0.0
  0
LINE
  5
145
330
1E
100
AcDbEntity
  8
0
100
AcDbLine
 10
34.5316
 20
55.974
 30
0.0
 11
34.5597
 21
32.97699999999999
 31
0.0
  0
LINE
  5
146
330
1E
100
AcDbEntity
  8
0
100
AcDbLine
 10
34.4897
 20
80.77099999999999
 30
0.0
 11
34.5316
 21
55.974
 31
0.0
  0
LINE
  5
147
330
1E
100
AcDbEntity
  8
0
100
AcDbLine
 10
34.4358
 20
105.868
 30
0.0
 11
34.4897
 21
80.77099999999999
 31
0.0
  0
LINE
  5
14F
330
1E
100
AcDbEntity
  8
0
100
AcDbLine
 10
50.5596
 20
32.976
 30
0.0
 11
50.5758
 21
-0.0250000000000135
 31
0.0
  0
LINE
  5
150
330
1E
100
AcDbEntity
  8
0
100
AcDbLine
 10
50.5596
 20
32.976
 30
0.0
 11
50.5758
 21
-0.0250000000000139
 31
0.0
  0
LINE
  5
151
330
1E
100
AcDbEntity
  8
0
100
AcDbLine
 10
50.5306
 20
55.983
 30
0.0
 11
50.5596
 21
32.976
 31
0.0
  0
LINE
  5
152
330
1E
100
AcDbEntity
  8
0
100
AcDbLine
 10
50.48960000000001
 20
80.78000000000001
 30
0.0
 11
50.5306
 21
55.983
 31
0.0
  0
LINE
  5
153
330
1E
100
AcDbEntity
  8
0
100
AcDbLine
 10
50.4347
 20
105.877
 30
0.0
 11
50.48960000000001
 21
80.78000000000001
 31
0.0
  0
LINE
  5
154
330
1E
100
AcDbEntity
  8
0
100
AcDbLine
 10
52.0
 20
127.82
 30
0.0
 11
53.1
 21
128.62
 31
0.0
  0
LINE
  5
155
330
1E
100
AcDbEntity
  8
0
100
AcDbLine
 10
50.3706101853246
 20
127.053228322506
 30
0.0
 11
52.0
 21
127.82
 31
0.0
  0
LINE
  5
156
330
1E
100
AcDbEntity
  8
0
100
AcDbLine
 10
50.3648
 20
128.9729999999999
 30
0.0
 11
50.7055434263958
 21
148.339512873572
 31
0.0
  0
LINE
  5
157
330
1E
100
AcDbEntity
  8
0
100
AcDbLine
 10
50.3648
 20
128.9729999999999
 30
0.0
 11
50.4347
 21
105.877
 31
0.0
  0
LINE
  5
158
330
1E
100
AcDbEntity
  8
0
100
AcDbLine
 10
34.3656
 20
128.9739999999999
 30
0.0
 11
34.6997964809077
 21
148.0735085594039
 31
0.0
  0
LINE
  5
159
330
1E
100
AcDbEntity
  8
0
100
AcDbLine
 10
34.3656
 20
128.9739999999999
 30
0.0
 11
34.4358
 21
105.868
 31
0.0
  0
LINE
  5
15A
330
1E
100
AcDbEntity
  8
0
100
AcDbLine
 10
50.3653774907844
 20
129.005822299258
 30
0.0
 11
51.9505
 21
129.7229999999999
 31
0.0
  0
LINE
  5
15B
330
1E
100
AcDbEntity
  8
0
100
AcDbLine
 10
53.5
 20
129.22
 30
0.0
 11
54.7
 21
131.4199999999999
 31
0.0
  0
LINE
  5
15C
330
1E
100
AcDbEntity
  8
0
100
AcDbLine
 10
53.1
 20
128.62
 30
0.0
 11
53.5
 21
129.22
 31
0.0
  0
LINE
  5
15D
330
1E
100
AcDbEntity
  8
0
100
AcDbLine
 10
33.0
 20
127.82
 30
0.0
 11
34.3710663021963
 21
127.1747923283779
 31
0.0
  0
LINE
  5
15E
330
1E
100
AcDbEntity
  8
0
100
AcDbLine
 10
31.89999999999999
 20
128.62
 30
0.0
 11
33.0
 21
127.82
 31
0.0
  0
LINE
  5
15F
330
1E
100
AcDbEntity
  8
0
100
AcDbLine
 10
51.9505
 20
129.7229999999999
 30
0.0
 11
53.0503
 21
130.4859999999999
 31
0.0
  0
LINE
  5
160
330
1E
100
AcDbEntity
  8
0
100
AcDbLine
 10
53.0503
 20
130.4859999999999
 30
0.0
 11
53.52689999999999
 21
131.0579999999999
 31
0.0
  0
LINE
  5
161
330
1E
100
AcDbEntity
  8
0
100
AcDbLine
 10
54.7
 20
131.4199999999999
 30
0.0
 11
56.1
 21
135.4199999999999
 31
0.0
  0
LINE
  5
162
330
1E
100
AcDbEntity
  8
0
100
AcDbLine
 10
33.0495
 20
129.7229999999999
 30
0.0
 11
34.3682654813417
 21
129.126333691732
 31
0.0
  0
LINE
  5
163
330
1E
100
AcDbEntity
  8
0
100
AcDbLine
 10
31.9497
 20
130.4859999999999
 30
0.0
 11
33.0495
 21
129.7229999999999
 31
0.0
  0
LINE
  5
164
330
1E
100
AcDbEntity
  8
0
100
AcDbLine
 10
31.5
 20
129.22
 30
0.0
 11
31.89999999999999
 21
128.62
 31
0.0
  0
LINE
  5
165
330
1E
100
AcDbEntity
  8
0
100
AcDbLine
 10
31.4731
 20
131.0579999999999
 30
0.0
 11
31.9497
 21
130.4859999999999
 31
0.0
  0
LINE
  5
166
330
1E
100
AcDbEntity
  8
0
100
AcDbLine
 10
31.4731
 20
131.0579999999999
 30
0.0
 11
31.9497
 21
131.8
 31
0.0
  0
LINE
  5
16D
330
1E
100
AcDbEntity
  8
0
100
AcDbLine
 10
33.0
 20
148.657
 30
0.0
 11
33.0522
 21
159.857
 31
0.0
  0
LINE
  5
16E
330
1E
100
AcDbEntity
  8
0
100
AcDbLine
 10
33.0
 20
148.657
 30
0.0
 11
33.0
 21
142.0449999999999
 31
0.0
  0
LINE
  5
16F
330
1E
100
AcDbEntity
  8
0
100
AcDbLine
 10
33.0
 20
167.9909999999999
 30
0.0
 11
33.0
 21
169.499
 31
0.0
  0
LINE
  5
170
330
1E
100
AcDbEntity
  8
0
100
AcDbLine
 10
33.0
 20
167.9909999999999
 30
0.0
 11
33.0
 21
165.5159999999999
 31
0.0
  0
LINE
  5
171
330
1E
100
AcDbEntity
  8
0
100
AcDbLine
 10
33.0
 20
165.5159999999999
 30
0.0
 11
33.0
 21
167.9909999999999
 31
0.0
  0
LINE
  5
172
330
1E
100
AcDbEntity
  8
0
100
AcDbLine
 10
33.0
 20
165.5159999999999
 30
0.0
 11
33.0
 21
164.5079999999999
 31
0.0
  0
LINE
  5
173
330
1E
100
AcDbEntity
  8
0
100
AcDbLine
 10
33.0
 20
164.5079999999999
 30
0.0
 11
33.0
 21
165.5159999999999
 31
0.0
  0
LINE
  5
174
330
1E
100
AcDbEntity
  8
0
100
AcDbLine
 10
33.0
 20
164.5079999999999
 30
0.0
 11
33.0
 21
163.8459999999999
 31
0.0
  0
LINE
  5
175
330
1E
100
AcDbEntity
  8
0
100
AcDbLine
 10
33.0
 20
163.8459999999999
 30
0.0
 11
33.0522
 21
159.857
 31
0.0
  0
LINE
  5
176
330
1E
100
AcDbEntity
  8
0
100
AcDbLine
 10
33.0
 20
163.8459999999999
 30
0.0
 11
33.0
 21
164.5079999999999
 31
0.0
  0
LINE
  5
179
330
1E
100
AcDbEntity
  8
0
100
AcDbLine
 10
33.0
 20
142.0449999999999
 30
0.0
 11
33.0
 21
148.657
 31
0.0
  0
LINE
  5
17A
330
1E
100
AcDbEntity
  8
0
100
AcDbLine
 10
33.0
 20
142.0449999999999
 30
0.0
 11
33.0
 21
136.368
 31
0.0
  0
LINE
  5
17B
330
1E
100
AcDbEntity
  8
0
100
AcDbLine
 10
33.0
 20
136.368
 30
0.0
 11
33.0
 21
142.0449999999999
 31
0.0
  0
LINE
  5
17C
330
1E
100
AcDbEntity
  8
0
100
AcDbLine
 10
33.0
 20
136.368
 30
0.0
 11
33.0
 21
132.7529999999999
 31
0.0
  0
LINE
  5
17D
330
1E
100
AcDbEntity
  8
0
100
AcDbLine
 10
31.9497
 20
131.8
 30
0.0
 11
33.0
 21
132.7529999999999
 31
0.0
  0
LINE
  5
17E
330
1E
100
AcDbEntity
  8
0
100
AcDbLine
 10
52.0
 20
132.7529999999999
 30
0.0
 11
53.0503
 21
131.8
 31
0.0
  0
LINE
  5
17F
330
1E
100
AcDbEntity
  8
0
100
AcDbLine
 10
52.0
 20
132.7529999999999
 30
0.0
 11
52.0
 21
136.368
 31
0.0
  0
LINE
  5
180
330
1E
100
AcDbEntity
  8
0
100
AcDbLine
 10
52.0
 20
136.368
 30
0.0
 11
52.0
 21
132.7529999999999
 31
0.0
  0
LINE
  5
181
330
1E
100
AcDbEntity
  8
0
100
AcDbLine
 10
52.0
 20
136.368
 30
0.0
 11
52.0
 21
142.0449999999999
 31
0.0
  0
LINE
  5
184
330
1E
100
AcDbEntity
  8
0
100
AcDbLine
 10
42.5
 20
146.1639999999999
 30
0.0
 11
45.1
 21
146.364
 31
0.0
  0
LINE
  5
185
330
1E
100
AcDbEntity
  8
0
100
AcDbLine
 10
45.1
 20
146.364
 30
0.0
 11
47.5
 21
146.814
 31
0.0
  0
LINE
  5
186
330
1E
100
AcDbEntity
  8
0
100
AcDbLine
 10
47.5
 20
146.814
 30
0.0
 11
49.6
 21
147.614
 31
0.0
  0
LINE
  5
187
330
1E
100
AcDbEntity
  8
0
100
AcDbLine
 10
49.6
 20
147.614
 30
0.0
 11
51.2
 21
148.6639999999999
 31
0.0
  0
LINE
  5
188
330
1E
100
AcDbEntity
  8
0
100
AcDbLine
 10
39.9
 20
146.364
 30
0.0
 11
42.5
 21
146.1639999999999
 31
0.0
  0
LINE
  5
189
330
1E
100
AcDbEntity
  8
0
100
AcDbLine
 10
37.5
 20
146.814
 30
0.0
 11
39.9
 21
146.364
 31
0.0
  0
LINE
  5
18A
330
1E
100
AcDbEntity
  8
0
100
AcDbLine
 10
51.2
 20
148.6639999999999
 30
0.0
 11
51.9950268509974
 21
149.72403580133
 31
0.0
  0
LINE
  5
18B
330
1E
100
AcDbEntity
  8
0
100
AcDbLine
 10
35.4
 20
147.614
 30
0.0
 11
37.5
 21
146.814
 31
0.0
  0
LINE
  5
18C
330
1E
100
AcDbEntity
  8
0
100
AcDbLine
 10
33.79999999999999
 20
148.6639999999999
 30
0.0
 11
35.4
 21
147.614
 31
0.0
  0
LINE
  5
18D
330
1E
100
AcDbEntity
  8
0
100
AcDbLine
 10
33.0049731490026
 20
149.72403580133
 30
0.0
 11
33.79999999999999
 21
148.6639999999999
 31
0.0
  0
LINE
  5
18E
330
1E
100
AcDbEntity
  8
0
100
AcDbLine
 10
51.9998709846019
 20
148.6846814647349
 30
0.0
 11
52.0
 21
132.7529999999999
 31
0.0
  0
LINE
  5
18F
330
1E
100
AcDbEntity
  8
0
100
AcDbLine
 10
52.0
 20
142.0449999999999
 30
0.0
 11
52.0
 21
136.368
 31
0.0
  0
LINE
  5
190
330
1E
100
AcDbEntity
  8
0
100
AcDbLine
 10
52.0
 20
142.0449999999999
 30
0.0
 11
52.0
 21
148.657
 31
0.0
  0
LINE
  5
191
330
1E
100
AcDbEntity
  8
0
100
AcDbLine
 10
52.0
 20
148.657
 30
0.0
 11
52.0
 21
142.0449999999999
 31
0.0
  0
LINE
  5
192
330
1E
100
AcDbEntity
  8
0
100
AcDbLine
 10
51.9478
 20
159.857
 30
0.0
 11
52.0
 21
163.8459999999999
 31
0.0
  0
LINE
  5
193
330
1E
100
AcDbEntity
  8
0
100
AcDbLine
 10
51.9478
 20
159.857
 30
0.0
 11
52.0
 21
148.657
 31
0.0
  0
LINE
  5
194
330
1E
100
AcDbEntity
  8
0
100
AcDbLine
 10
53.0503
 20
131.8
 30
0.0
 11
53.52689999999999
 21
131.0579999999999
 31
0.0
  0
LINE
  5
198
330
1E
100
AcDbEntity
  8
0
100
AcDbLine
 10
52.0
 20
163.8459999999999
 30
0.0
 11
52.0
 21
164.5079999999999
 31
0.0
  0
LINE
  5
19A
330
1E
100
AcDbEntity
  8
0
100
AcDbLine
 10
58.5
 20
163.4199999999999
 30
0.0
 11
58.5
 21
163.68
 31
0.0
  0
LINE
  5
19B
330
1E
100
AcDbEntity
  8
0
100
AcDbLine
 10
58.4982357092449
 20
164.250158786168
 30
0.0
 11
58.5
 21
164.1999999999999
 31
0.0
  0
LINE
  5
19C
330
1E
100
AcDbEntity
  8
0
100
AcDbLine
 10
58.5
 20
164.1999999999999
 30
0.0
 11
58.5
 21
163.68
 31
0.0
  0
LINE
  5
19D
330
1E
100
AcDbEntity
  8
0
100
AcDbLine
 10
58.5
 20
163.68
 30
0.0
 11
58.5
 21
163.4199999999999
 31
0.0
  0
LINE
  5
19E
330
1E
100
AcDbEntity
  8
0
100
AcDbLine
 10
58.5
 20
163.68
 30
0.0
 11
58.5
 21
164.1999999999999
 31
0.0
  0
LINE
  5
19F
330
1E
100
AcDbEntity
  8
0
100
AcDbLine
 10
58.496138996139
 20
163.5474131274129
 30
0.0
 11
58.5
 21
163.4199999999999
 31
0.0
  0
LINE
  5
1A0
330
1E
100
AcDbEntity
  8
0
100
AcDbLine
 10
58.39999999999999
 20
159.82
 30
0.0
 11
58.5
 21
163.4199999999999
 31
0.0
  0
LINE
  5
1A1
330
1E
100
AcDbEntity
  8
0
100
AcDbLine
 10
58.0
 20
154.22
 30
0.0
 11
58.39999999999999
 21
159.82
 31
0.0
  0
LINE
  5
1A2
330
1E
100
AcDbEntity
  8
0
100
AcDbLine
 10
57.1
 20
141.9199999999999
 30
0.0
 11
58.0
 21
154.22
 31
0.0
  0
LINE
  5
1A3
330
1E
100
AcDbEntity
  8
0
100
AcDbLine
 10
56.1
 20
135.4199999999999
 30
0.0
 11
57.1
 21
141.9199999999999
 31
0.0
  0
LINE
  5
1A6
330
1E
100
AcDbEntity
  8
0
100
AcDbLine
 10
52.0
 20
165.5159999999999
 30
0.0
 11
52.0
 21
164.5079999999999
 31
0.0
  0
LINE
  5
1A7
330
1E
100
AcDbEntity
  8
0
100
AcDbLine
 10
52.0
 20
165.5159999999999
 30
0.0
 11
52.0
 21
167.9909999999999
 31
0.0
  0
LINE
  5
1A8
330
1E
100
AcDbEntity
  8
0
100
AcDbLine
 10
52.0
 20
164.5079999999999
 30
0.0
 11
52.0
 21
163.8459999999999
 31
0.0
  0
LINE
  5
1A9
330
1E
100
AcDbEntity
  8
0
100
AcDbLine
 10
52.0
 20
164.5079999999999
 30
0.0
 11
52.0
 21
165.5159999999999
 31
0.0
  0
LINE
  5
1AD
330
1E
100
AcDbEntity
  8
0
100
AcDbLine
 10
52.0
 20
167.9909999999999
 30
0.0
 11
52.0
 21
165.5159999999999
 31
0.0
  0
LINE
  5
1AE
330
1E
100
AcDbEntity
  8
0
100
AcDbLine
 10
52.0
 20
167.9909999999999
 30
0.0
 11
52.0
 21
169.499
 31
0.0
  0
LINE
  5
1B2
330
1E
100
AcDbEntity
  8
0
100
AcDbLine
 10
33.0002565367259
 20
164.4318651593679
 30
0.0
 11
33.0003
 21
169.799
 31
0.0
  0
LINE
  5
1B3
330
1E
100
AcDbEntity
  8
0
100
AcDbLine
 10
33.0002565367259
 20
164.4318651593679
 30
0.0
 11
33.0003
 21
169.799
 31
0.0
  0
LINE
  5
1B4
330
1E
100
AcDbEntity
  8
0
100
AcDbLine
 10
33.0
 20
132.7529999999999
 30
0.0
 11
33.0
 21
136.368
 31
0.0
  0
LINE
  5
1B5
330
1E
100
AcDbEntity
  8
0
100
AcDbLine
 10
33.0
 20
132.7529999999999
 30
0.0
 11
33.0001290153981
 21
148.684681464734
 31
0.0
  0
LINE
  5
1B6
330
1E
100
AcDbEntity
  8
0
100
AcDbLine
 10
30.3
 20
131.4199999999999
 30
0.0
 11
31.5
 21
129.22
 31
0.0
  0
LINE
  5
1B7
330
1E
100
AcDbEntity
  8
0
100
AcDbLine
 10
28.9
 20
135.4199999999999
 30
0.0
 11
30.3
 21
131.4199999999999
 31
0.0
  0
LINE
  5
1B8
330
1E
100
AcDbEntity
  8
0
100
AcDbLine
 10
29.5
 20
178.0558
 30
0.0
 11
29.968
 21
176.1848999999999
 31
0.0
  0
LINE
  5
1B9
330
1E
100
AcDbEntity
  8
0
100
AcDbLine
 10
29.968
 20
176.1848999999999
 30
0.0
 11
31.21599999999999
 21
174.3398
 31
0.0
  0
LINE
  5
1BA
330
1E
100
AcDbEntity
  8
0
100
AcDbLine
 10
31.21599999999999
 20
174.3398
 30
0.0
 11
33.296
 21
172.71
 31
0.0
  0
LINE
  5
1BB
330
1E
100
AcDbEntity
  8
0
100
AcDbLine
 10
28.3393
 20
268.216
 30
0.0
 11
28.96829999999999
 21
268.1389999999999
 31
0.0
  0
LINE
  5
1BD
330
1E
100
AcDbEntity
  8
0
100
AcDbLine
 10
28.3393
 20
284.3999999999999
 30
0.0
 11
28.96829999999999
 21
283.9959999999999
 31
0.0
  0
LINE
  5
1BE
330
1E
100
AcDbEntity
  8
0
100
AcDbLine
 10
28.3944
 20
266.814
 30
0.0
 11
29.1308
 21
266.622
 31
0.0
  0
LINE
  5
1BF
330
1E
100
AcDbEntity
  8
0
100
AcDbLine
 10
28.5259
 20
266.8959999999999
 30
0.0
 11
29.2623
 21
266.7049999999999
 31
0.0
  0
LINE
  5
1C1
330
1E
100
AcDbEntity
  8
0
100
AcDbLine
 10
28.5739
 20
267.892
 30
0.0
 11
29.2969
 21
267.6849999999999
 31
0.0
  0
LINE
  5
1C2
330
1E
100
AcDbEntity
  8
0
100
AcDbLine
 10
29.1308
 20
266.622
 30
0.0
 11
29.6944
 21
266.509
 31
0.0
  0
LINE
  5
1C3
330
1E
100
AcDbEntity
  8
0
100
AcDbLine
 10
29.2623
 20
266.7049999999999
 30
0.0
 11
29.7384
 21
266.5459999999999
 31
0.0
  0
LINE
  5
1C5
330
1E
100
AcDbEntity
  8
0
100
AcDbLine
 10
28.96829999999999
 20
268.1389999999999
 30
0.0
 11
29.69129999999999
 21
267.932
 31
0.0
  0
LINE
  5
1C7
330
1E
100
AcDbEntity
  8
0
100
AcDbLine
 10
28.5739
 20
285.412
 30
0.0
 11
29.2969
 21
285.4129999999999
 31
0.0
  0
LINE
  5
1C8
330
1E
100
AcDbEntity
  8
0
100
AcDbLine
 10
28.96829999999999
 20
283.9959999999999
 30
0.0
 11
29.69129999999999
 21
283.9959999999999
 31
0.0
  0
LINE
  5
1C9
330
1E
100
AcDbEntity
  8
0
100
AcDbLine
 10
29.2969
 20
267.6849999999999
 30
0.0
 11
29.92599999999999
 21
267.607
 31
0.0
  0
LINE
  5
1CA
330
1E
100
AcDbEntity
  8
0
100
AcDbLine
 10
29.8714740441226
 20
267.064150193946
 30
0.0
 11
34.53893018193159
 21
266.117130108014
 31
0.0
  0
LINE
  5
1CC
330
1E
100
AcDbEntity
  8
0
100
AcDbLine
 10
29.6944
 20
266.509
 30
0.0
 11
29.7384
 21
266.5459999999999
 31
0.0
  0
LINE
  5
1CE
330
1E
100
AcDbEntity
  8
0
100
AcDbLine
 10
29.92599999999999
 20
267.607
 30
0.0
 11
30.079
 21
267.7129999999999
 31
0.0
  0
LINE
  5
1CF
330
1E
100
AcDbEntity
  8
0
100
AcDbLine
 10
29.69129999999999
 20
267.932
 30
0.0
 11
30.079
 21
267.7129999999999
 31
0.0
  0
LINE
  5
1D1
330
1E
100
AcDbEntity
  8
0
100
AcDbLine
 10
29.2969
 20
285.4129999999999
 30
0.0
 11
29.92599999999999
 21
285.009
 31
0.0
  0
LINE
  5
1D3
330
1E
100
AcDbEntity
  8
0
100
AcDbLine
 10
29.92599999999999
 20
285.009
 30
0.0
 11
30.079
 21
284.422
 31
0.0
  0
LINE
  5
1D5
330
1E
100
AcDbEntity
  8
0
100
AcDbLine
 10
29.69129999999999
 20
283.9959999999999
 30
0.0
 11
30.079
 21
284.422
 31
0.0
  0
LINE
  5
1D6
330
1E
100
AcDbEntity
  8
0
100
AcDbLine
 10
29.2623
 20
289.6519999999999
 30
0.0
 11
29.7384
 21
290.0679999999999
 31
0.0
  0
LINE
  5
1D7
330
1E
100
AcDbEntity
  8
0
100
AcDbLine
 10
28.3944
 20
291.264
 30
0.0
 11
29.1308
 21
291.197
 31
0.0
  0
LINE
  5
1D9
330
1E
100
AcDbEntity
  8
0
100
AcDbLine
 10
29.1308
 20
291.197
 30
0.0
 11
29.6944
 21
290.7079999999999
 31
0.0
  0
LINE
  5
1DA
330
1E
100
AcDbEntity
  8
0
100
AcDbLine
 10
29.6944
 20
290.7079999999999
 30
0.0
 11
29.7384
 21
290.0679999999999
 31
0.0
  0
LINE
  5
1DB
330
1E
100
AcDbEntity
  8
0
100
AcDbLine
 10
28.5259
 20
289.718
 30
0.0
 11
29.2623
 21
289.6519999999999
 31
0.0
  0
LINE
  5
1DC
330
1E
100
AcDbEntity
  8
0
100
AcDbLine
 10
28.3683
 20
264.783
 30
0.0
 11
28.51729999999999
 21
258.416
 31
0.0
  0
LINE
  5
1DD
330
1E
100
AcDbEntity
  8
0
100
AcDbLine
 10
28.7407
 20
189.8832999999999
 30
0.0
 11
29.5
 21
178.0558
 31
0.0
  0
LINE
  5
1DF
330
1E
100
AcDbEntity
  8
0
100
AcDbLine
 10
31.6
 20
316.2549999999999
 30
0.0
 11
42.5
 21
317.0049999999999
 31
0.0
  0
LINE
  5
1E1
330
1E
100
AcDbEntity
  8
0
100
AcDbLine
 10
31.8
 20
315.322
 30
0.0
 11
42.5
 21
316.0719999999999
 31
0.0
  0
LINE
  5
1E2
330
1E
100
AcDbEntity
  8
0
100
AcDbLine
 10
31.69999999999999
 20
320.7679999999999
 30
0.0
 11
42.5
 21
321.5179999999999
 31
0.0
  0
LINE
  5
1E3
330
1E
100
AcDbEntity
  8
0
100
AcDbLine
 10
28.8564
 20
328.199
 30
0.0
 11
35.47449999999999
 21
329.523
 31
0.0
  0
LINE
  5
1E4
330
1E
100
AcDbEntity
  8
0
100
AcDbLine
 10
31.6
 20
321.4509999999999
 30
0.0
 11
42.5
 21
322.2009999999999
 31
0.0
  0
LINE
  5
1E6
330
1E
100
AcDbEntity
  8
0
100
AcDbLine
 10
42.5
 20
170.2552999999999
 30
0.0
 11
45.57199999999999
 21
170.5092
 31
0.0
  0
LINE
  5
1E7
330
1E
100
AcDbEntity
  8
0
100
AcDbLine
 10
45.57199999999999
 20
170.5092
 30
0.0
 11
48.452
 21
171.1864999999999
 31
0.0
  0
LINE
  5
1E8
330
1E
100
AcDbEntity
  8
0
100
AcDbLine
 10
42.5
 20
170.4651
 30
0.0
 11
45.828
 21
170.7418999999999
 31
0.0
  0
LINE
  5
1E9
330
1E
100
AcDbEntity
  8
0
100
AcDbLine
 10
45.828
 20
170.7418999999999
 30
0.0
 11
48.948
 21
171.4799
 31
0.0
  0
LINE
  5
1EA
330
1E
100
AcDbEntity
  8
0
100
AcDbLine
 10
39.428
 20
170.5092
 30
0.0
 11
42.5
 21
170.2552999999999
 31
0.0
  0
LINE
  5
1EB
330
1E
100
AcDbEntity
  8
0
100
AcDbLine
 10
48.452
 20
171.1864999999999
 30
0.0
 11
50.996
 21
172.3153
 31
0.0
  0
LINE
  5
1EC
330
1E
100
AcDbEntity
  8
0
100
AcDbLine
 10
48.948
 20
171.4799
 30
0.0
 11
51.70399999999999
 21
172.71
 31
0.0
  0
LINE
  5
1ED
330
1E
100
AcDbEntity
  8
0
100
AcDbLine
 10
36.548
 20
171.1864999999999
 30
0.0
 11
39.428
 21
170.5092
 31
0.0
  0
LINE
  5
1EE
330
1E
100
AcDbEntity
  8
0
100
AcDbLine
 10
36.05199999999999
 20
171.4799
 30
0.0
 11
39.17199999999999
 21
170.7418999999999
 31
0.0
  0
LINE
  5
1EF
330
1E
100
AcDbEntity
  8
0
100
AcDbLine
 10
39.17199999999999
 20
170.7418999999999
 30
0.0
 11
42.5
 21
170.4651
 31
0.0
  0
LINE
  5
1F0
330
1E
100
AcDbEntity
  8
0
100
AcDbLine
 10
52.41089999999999
 20
171.7759999999999
 30
0.0
 11
53.01401833275811
 21
173.7364749416969
 31
0.0
  0
LINE
  5
1F1
330
1E
100
AcDbEntity
  8
0
100
AcDbLine
 10
51.9997
 20
169.799
 30
0.0
 11
52.0
 21
169.499
 31
0.0
  0
LINE
  5
1F2
330
1E
100
AcDbEntity
  8
0
100
AcDbLine
 10
51.9997
 20
169.799
 30
0.0
 11
52.41089999999999
 21
171.7759999999999
 31
0.0
  0
LINE
  5
1F3
330
1E
100
AcDbEntity
  8
0
100
AcDbLine
 10
51.9997
 20
169.799
 30
0.0
 11
51.9997434632741
 21
164.4318651593679
 31
0.0
  0
LINE
  5
1F4
330
1E
100
AcDbEntity
  8
0
100
AcDbLine
 10
52.0
 20
169.499
 30
0.0
 11
52.0
 21
167.9909999999999
 31
0.0
  0
LINE
  5
1F5
330
1E
100
AcDbEntity
  8
0
100
AcDbLine
 10
33.0
 20
169.499
 30
0.0
 11
33.0003
 21
169.799
 31
0.0
  0
LINE
  5
1F6
330
1E
100
AcDbEntity
  8
0
100
AcDbLine
 10
33.0
 20
169.499
 30
0.0
 11
33.0
 21
167.9909999999999
 31
0.0
  0
LINE
  5
1F7
330
1E
100
AcDbEntity
  8
0
100
AcDbLine
 10
32.4
 20
274.486
 30
0.0
 11
33.39999999999999
 21
273.2359999999999
 31
0.0
  0
LINE
  5
1F8
330
1E
100
AcDbEntity
  8
0
100
AcDbLine
 10
32.12829629629629
 20
275.403
 30
0.0
 11
32.4
 21
274.486
 31
0.0
  0
LINE
  5
1F9
330
1E
100
AcDbEntity
  8
0
100
AcDbLine
 10
32.12829629629629
 20
275.403
 30
0.0
 11
32.4
 21
274.486
 31
0.0
  0
LINE
  5
1FA
330
1E
100
AcDbEntity
  8
0
100
AcDbLine
 10
32.4
 20
273.62
 30
0.0
 11
33.39999999999999
 21
272.37
 31
0.0
  0
LINE
  5
1FB
330
1E
100
AcDbEntity
  8
0
100
AcDbLine
 10
32.4
 20
276.3199999999999
 30
0.0
 11
33.39999999999999
 21
277.57
 31
0.0
  0
LINE
  5
1FC
330
1E
100
AcDbEntity
  8
0
100
AcDbLine
 10
32.0
 20
274.97
 30
0.0
 11
32.4
 21
276.3199999999999
 31
0.0
  0
LINE
  5
1FD
330
1E
100
AcDbEntity
  8
0
100
AcDbLine
 10
32.0
 20
274.97
 30
0.0
 11
32.4
 21
273.62
 31
0.0
  0
LINE
  5
1FE
330
1E
100
AcDbEntity
  8
0
100
AcDbLine
 10
33.01039999999999
 20
266.6589999999999
 30
0.0
 11
33.0418
 21
266.5459999999999
 31
0.0
  0
LINE
  5
1FF
330
1E
100
AcDbEntity
  8
0
100
AcDbLine
 10
33.01039999999999
 20
266.6589999999999
 30
0.0
 11
33.53349999999999
 21
266.658
 31
0.0
  0
LINE
  5
201
330
1E
100
AcDbEntity
  8
0
100
AcDbLine
 10
33.0418
 20
266.5459999999999
 30
0.0
 11
33.5831
 21
266.3879999999999
 31
0.0
  0
LINE
  5
202
330
1E
100
AcDbEntity
  8
0
100
AcDbLine
 10
33.01039999999999
 20
285.957
 30
0.0
 11
33.0418
 21
286.552
 31
0.0
  0
LINE
  5
203
330
1E
100
AcDbEntity
  8
0
100
AcDbLine
 10
33.01039999999999
 20
285.957
 30
0.0
 11
33.53349999999999
 21
285.477
 31
0.0
  0
LINE
  5
206
330
1E
100
AcDbEntity
  8
0
100
AcDbLine
 10
33.0
 20
303.2119999999999
 30
0.0
 11
42.5
 21
303.862
 31
0.0
  0
LINE
  5
207
330
1E
100
AcDbEntity
  8
0
100
AcDbLine
 10
33.0418
 20
286.552
 30
0.0
 11
33.5831
 21
286.9159999999999
 31
0.0
  0
LINE
  5
209
330
1E
100
AcDbEntity
  8
0
100
AcDbLine
 10
33.5831
 20
266.3879999999999
 30
0.0
 11
34.3352
 21
266.278
 31
0.0
  0
LINE
  5
20A
330
1E
100
AcDbEntity
  8
0
100
AcDbLine
 10
34.28549999999999
 20
266.548
 30
0.0
 11
34.8269
 21
266.3899999999999
 31
0.0
  0
LINE
  5
20C
330
1E
100
AcDbEntity
  8
0
100
AcDbLine
 10
33.39999999999999
 20
273.2359999999999
 30
0.0
 11
35.1
 21
272.1359999999999
 31
0.0
  0
LINE
  5
20D
330
1E
100
AcDbEntity
  8
0
100
AcDbLine
 10
33.39999999999999
 20
272.37
 30
0.0
 11
35.1
 21
271.2699999999999
 31
0.0
  0
LINE
  5
20E
330
1E
100
AcDbEntity
  8
0
100
AcDbLine
 10
33.39999999999999
 20
277.57
 30
0.0
 11
35.1
 21
278.67
 31
0.0
  0
LINE
  5
20F
330
1E
100
AcDbEntity
  8
0
100
AcDbLine
 10
33.53349999999999
 20
266.658
 30
0.0
 11
34.28549999999999
 21
266.548
 31
0.0
  0
LINE
  5
211
330
1E
100
AcDbEntity
  8
0
100
AcDbLine
 10
34.4619
 20
265.5229999999999
 30
0.0
 11
34.5944
 21
265.492
 31
0.0
  0
LINE
  5
212
330
1E
100
AcDbEntity
  8
0
100
AcDbLine
 10
34.4619
 20
265.5229999999999
 30
0.0
 11
34.9089
 21
265.477
 31
0.0
  0
LINE
  5
213
330
1E
100
AcDbEntity
  8
0
100
AcDbLine
 10
34.4619
 20
265.5229999999999
 30
0.0
 11
34.53893018193159
 21
266.117130108014
 31
0.0
  0
LINE
  5
214
330
1E
100
AcDbEntity
  8
0
100
AcDbLine
 10
35.2032
 20
265.4049999999999
 30
0.0
 11
35.9467
 21
265.3109999999999
 31
0.0
  0
LINE
  5
215
330
1E
100
AcDbEntity
  8
0
100
AcDbLine
 10
35.6524
 20
265.3829999999999
 30
0.0
 11
36.2612
 21
265.2959999999999
 31
0.0
  0
LINE
  5
217
330
1E
100
AcDbEntity
  8
0
100
AcDbLine
 10
34.9089
 20
265.477
 30
0.0
 11
35.6524
 21
265.3829999999999
 31
0.0
  0
LINE
  5
219
330
1E
100
AcDbEntity
  8
0
100
AcDbLine
 10
34.5944
 20
265.492
 30
0.0
 11
35.2032
 21
265.4049999999999
 31
0.0
  0
LINE
  5
21B
330
1E
100
AcDbEntity
  8
0
100
AcDbLine
 10
34.3352
 20
266.278
 30
0.0
 11
34.85819999999999
 21
266.277
 31
0.0
  0
LINE
  5
21C
330
1E
100
AcDbEntity
  8
0
100
AcDbLine
 10
35.1
 20
272.1359999999999
 30
0.0
 11
37.29999999999999
 21
271.286
 31
0.0
  0
LINE
  5
21D
330
1E
100
AcDbEntity
  8
0
100
AcDbLine
 10
35.1
 20
271.2699999999999
 30
0.0
 11
37.29999999999999
 21
270.42
 31
0.0
  0
LINE
  5
21E
330
1E
100
AcDbEntity
  8
0
100
AcDbLine
 10
35.1
 20
278.67
 30
0.0
 11
37.29999999999999
 21
279.5199999999999
 31
0.0
  0
LINE
  5
21F
330
1E
100
AcDbEntity
  8
0
100
AcDbLine
 10
34.8269
 20
266.3899999999999
 30
0.0
 11
34.85819999999999
 21
266.277
 31
0.0
  0
LINE
  5
221
330
1E
100
AcDbEntity
  8
0
100
AcDbLine
 10
34.28549999999999
 20
285.38
 30
0.0
 11
34.8269
 21
285.745
 31
0.0
  0
LINE
  5
222
330
1E
100
AcDbEntity
  8
0
100
AcDbLine
 10
34.4619
 20
291.694
 30
0.0
 11
34.5944
 21
292.327
 31
0.0
  0
LINE
  5
223
330
1E
100
AcDbEntity
  8
0
100
AcDbLine
 10
34.4619
 20
291.694
 30
0.0
 11
34.9089
 21
291.1379999999999
 31
0.0
  0
LINE
  5
224
330
1E
100
AcDbEntity
  8
0
100
AcDbLine
 10
34.5944
 20
292.327
 30
0.0
 11
35.2032
 21
292.672
 31
0.0
  0
LINE
  5
226
330
1E
100
AcDbEntity
  8
0
100
AcDbLine
 10
33.5831
 20
286.9159999999999
 30
0.0
 11
34.3352
 21
286.8199999999999
 31
0.0
  0
LINE
  5
227
330
1E
100
AcDbEntity
  8
0
100
AcDbLine
 10
34.3352
 20
286.8199999999999
 30
0.0
 11
34.85819999999999
 21
286.3389999999999
 31
0.0
  0
LINE
  5
228
330
1E
100
AcDbEntity
  8
0
100
AcDbLine
 10
35.2032
 20
292.672
 30
0.0
 11
35.9467
 21
292.5079999999999
 31
0.0
  0
LINE
  5
22A
330
1E
100
AcDbEntity
  8
0
100
AcDbLine
 10
35.6524
 20
290.9739999999999
 30
0.0
 11
36.2612
 21
291.319
 31
0.0
  0
LINE
  5
22B
330
1E
100
AcDbEntity
  8
0
100
AcDbLine
 10
34.9089
 20
291.1379999999999
 30
0.0
 11
35.6524
 21
290.9739999999999
 31
0.0
  0
LINE
  5
22C
330
1E
100
AcDbEntity
  8
0
100
AcDbLine
 10
34.8269
 20
285.745
 30
0.0
 11
34.85819999999999
 21
286.3389999999999
 31
0.0
  0
LINE
  5
22E
330
1E
100
AcDbEntity
  8
0
100
AcDbLine
 10
33.53349999999999
 20
285.477
 30
0.0
 11
34.28549999999999
 21
285.38
 31
0.0
  0
LINE
  5
230
330
1E
100
AcDbEntity
  8
0
100
AcDbLine
 10
41.5
 20
260.5269999999999
 30
0.0
 11
41.5
 21
260.586
 31
0.0
  0
LINE
  5
231
330
1E
100
AcDbEntity
  8
0
100
AcDbLine
 10
41.5
 20
260.5269999999999
 30
0.0
 11
43.5
 21
260.5269999999999
 31
0.0
  0
LINE
  5
232
330
1E
100
AcDbEntity
  8
0
100
AcDbLine
 10
41.5
 20
260.5269999999999
 30
0.0
 11
41.5
 21
260.964
 31
0.0
  0
LINE
  5
233
330
1E
100
AcDbEntity
  8
0
100
AcDbLine
 10
41.5
 20
261.716
 30
0.0
 11
41.5
 21
260.964
 31
0.0
  0
LINE
  5
234
330
1E
100
AcDbEntity
  8
0
100
AcDbLine
 10
41.5
 20
261.716
 30
0.0
 11
41.5
 21
262.721
 31
0.0
  0
LINE
  5
235
330
1E
100
AcDbEntity
  8
0
100
AcDbLine
 10
41.5
 20
260.964
 30
0.0
 11
41.5
 21
260.5269999999999
 31
0.0
  0
LINE
  5
236
330
1E
100
AcDbEntity
  8
0
100
AcDbLine
 10
41.5
 20
260.964
 30
0.0
 11
41.5
 21
261.716
 31
0.0
  0
LINE
  5
237
330
1E
100
AcDbEntity
  8
0
100
AcDbLine
 10
41.5
 20
260.586
 30
0.0
 11
41.5
 21
261.194
 31
0.0
  0
LINE
  5
238
330
1E
100
AcDbEntity
  8
0
100
AcDbLine
 10
41.5
 20
260.586
 30
0.0
 11
41.5
 21
260.5269999999999
 31
0.0
  0
LINE
  5
239
330
1E
100
AcDbEntity
  8
0
100
AcDbLine
 10
41.5
 20
261.194
 30
0.0
 11
41.5
 21
262.4529999999999
 31
0.0
  0
LINE
  5
23A
330
1E
100
AcDbEntity
  8
0
100
AcDbLine
 10
41.5
 20
261.194
 30
0.0
 11
41.5
 21
260.586
 31
0.0
  0
LINE
  5
23B
330
1E
100
AcDbEntity
  8
0
100
AcDbLine
 10
41.5
 20
262.721
 30
0.0
 11
41.5
 21
261.716
 31
0.0
  0
LINE
  5
23C
330
1E
100
AcDbEntity
  8
0
100
AcDbLine
 10
41.5
 20
262.721
 30
0.0
 11
41.5
 21
264.2649999999999
 31
0.0
  0
LINE
  5
23D
330
1E
100
AcDbEntity
  8
0
100
AcDbLine
 10
35.9467
 20
265.3109999999999
 30
0.0
 11
36.3937
 21
265.264
 31
0.0
  0
LINE
  5
23E
330
1E
100
AcDbEntity
  8
0
100
AcDbLine
 10
36.3937
 20
265.264
 30
0.0
 11
36.4831145717242
 21
265.953998095297
 31
0.0
  0
LINE
  5
23F
330
1E
100
AcDbEntity
  8
0
100
AcDbLine
 10
36.2612
 20
265.2959999999999
 30
0.0
 11
36.3937
 21
265.264
 31
0.0
  0
LINE
  5
241
330
1E
100
AcDbEntity
  8
0
100
AcDbLine
 10
37.29999999999999
 20
271.286
 30
0.0
 11
39.8
 21
270.786
 31
0.0
  0
LINE
  5
242
330
1E
100
AcDbEntity
  8
0
100
AcDbLine
 10
37.29999999999999
 20
270.42
 30
0.0
 11
39.8
 21
269.92
 31
0.0
  0
LINE
  5
243
330
1E
100
AcDbEntity
  8
0
100
AcDbLine
 10
36.4755512933085
 20
265.8956334730609
 30
0.0
 11
38.32875505153929
 21
265.768701708799
 31
0.0
  0
LINE
  5
244
330
1E
100
AcDbEntity
  8
0
100
AcDbLine
 10
37.29999999999999
 20
279.5199999999999
 30
0.0
 11
39.8
 21
280.0199999999999
 31
0.0
  0
LINE
  5
245
330
1E
100
AcDbEntity
  8
0
100
AcDbLine
 10
38.32829999999999
 20
265.7599999999999
 30
0.0
 11
38.5419
 21
265.663
 31
0.0
  0
LINE
  5
246
330
1E
100
AcDbEntity
  8
0
100
AcDbLine
 10
38.32829999999999
 20
265.7599999999999
 30
0.0
 11
38.7096
 21
265.8179999999999
 31
0.0
  0
LINE
  5
248
330
1E
100
AcDbEntity
  8
0
100
AcDbLine
 10
38.5419
 20
265.663
 30
0.0
 11
39.2
 21
265.5839999999999
 31
0.0
  0
LINE
  5
249
330
1E
100
AcDbEntity
  8
0
100
AcDbLine
 10
35.9467
 20
292.5079999999999
 30
0.0
 11
36.3937
 21
291.9529999999999
 31
0.0
  0
LINE
  5
24A
330
1E
100
AcDbEntity
  8
0
100
AcDbLine
 10
36.2612
 20
291.319
 30
0.0
 11
36.3937
 21
291.9529999999999
 31
0.0
  0
LINE
  5
24B
330
1E
100
AcDbEntity
  8
0
100
AcDbLine
 10
38.32829999999999
 20
286.856
 30
0.0
 11
38.5419
 21
287.435
 31
0.0
  0
LINE
  5
24C
330
1E
100
AcDbEntity
  8
0
100
AcDbLine
 10
38.32829999999999
 20
286.856
 30
0.0
 11
38.7096
 21
286.3159999999999
 31
0.0
  0
LINE
  5
24D
330
1E
100
AcDbEntity
  8
0
100
AcDbLine
 10
39.2
 20
265.5839999999999
 30
0.0
 11
39.9299
 21
265.5709999999999
 31
0.0
  0
LINE
  5
24E
330
1E
100
AcDbEntity
  8
0
100
AcDbLine
 10
39.4396
 20
265.8059999999999
 30
0.0
 11
40.09759999999999
 21
265.727
 31
0.0
  0
LINE
  5
250
330
1E
100
AcDbEntity
  8
0
100
AcDbLine
 10
38.7096
 20
265.8179999999999
 30
0.0
 11
39.4396
 21
265.8059999999999
 31
0.0
  0
LINE
  5
252
330
1E
100
AcDbEntity
  8
0
100
AcDbLine
 10
40.3113520407496
 20
265.6329073944689
 30
0.0
 11
41.5092
 21
265.5508630136989
 31
0.0
  0
LINE
  5
253
330
1E
100
AcDbEntity
  8
0
100
AcDbLine
 10
40.3113520407496
 20
265.6329073944689
 30
0.0
 11
41.5092
 21
265.5508630136989
 31
0.0
  0
LINE
  5
255
330
1E
100
AcDbEntity
  8
0
100
AcDbLine
 10
39.9299
 20
265.5709999999999
 30
0.0
 11
40.3112
 21
265.6299999999999
 31
0.0
  0
LINE
  5
256
330
1E
100
AcDbEntity
  8
0
100
AcDbLine
 10
39.8
 20
270.786
 30
0.0
 11
42.5
 21
270.586
 31
0.0
  0
LINE
  5
257
330
1E
100
AcDbEntity
  8
0
100
AcDbLine
 10
39.8
 20
269.92
 30
0.0
 11
42.5
 21
269.72
 31
0.0
  0
LINE
  5
258
330
1E
100
AcDbEntity
  8
0
100
AcDbLine
 10
39.8
 20
280.0199999999999
 30
0.0
 11
42.5
 21
280.22
 31
0.0
  0
LINE
  5
259
330
1E
100
AcDbEntity
  8
0
100
AcDbLine
 10
40.09759999999999
 20
265.727
 30
0.0
 11
40.3112
 21
265.6299999999999
 31
0.0
  0
LINE
  5
25B
330
1E
100
AcDbEntity
  8
0
100
AcDbLine
 10
39.4396
 20
286.122
 30
0.0
 11
40.09759999999999
 21
286.408
 31
0.0
  0
LINE
  5
25C
330
1E
100
AcDbEntity
  8
0
100
AcDbLine
 10
39.2
 20
287.72
 30
0.0
 11
39.9299
 21
287.526
 31
0.0
  0
LINE
  5
25D
330
1E
100
AcDbEntity
  8
0
100
AcDbLine
 10
39.9299
 20
287.526
 30
0.0
 11
40.3112
 21
286.987
 31
0.0
  0
LINE
  5
25E
330
1E
100
AcDbEntity
  8
0
100
AcDbLine
 10
40.09759999999999
 20
286.408
 30
0.0
 11
40.3112
 21
286.987
 31
0.0
  0
LINE
  5
25F
330
1E
100
AcDbEntity
  8
0
100
AcDbLine
 10
38.7096
 20
286.3159999999999
 30
0.0
 11
39.4396
 21
286.122
 31
0.0
  0
LINE
  5
260
330
1E
100
AcDbEntity
  8
0
100
AcDbLine
 10
38.5419
 20
287.435
 30
0.0
 11
39.2
 21
287.72
 31
0.0
  0
LINE
  5
262
330
1E
100
AcDbEntity
  8
0
100
AcDbLine
 10
41.5
 20
264.2649999999999
 30
0.0
 11
41.5
 21
262.721
 31
0.0
  0
LINE
  5
263
330
1E
100
AcDbEntity
  8
0
100
AcDbLine
 10
41.5
 20
264.2649999999999
 30
0.0
 11
41.5
 21
265.551493150685
 31
0.0
  0
LINE
  5
264
330
1E
100
AcDbEntity
  8
0
100
AcDbLine
 10
41.5
 20
265.551493150685
 30
0.0
 11
41.5
 21
264.2649999999999
 31
0.0
  0
LINE
  5
265
330
1E
100
AcDbEntity
  8
0
100
AcDbLine
 10
41.5
 20
265.551493150685
 30
0.0
 11
41.5
 21
263.8709999999999
 31
0.0
  0
LINE
  5
266
330
1E
100
AcDbEntity
  8
0
100
AcDbLine
 10
41.5
 20
262.4529999999999
 30
0.0
 11
41.5
 21
263.8709999999999
 31
0.0
  0
LINE
  5
267
330
1E
100
AcDbEntity
  8
0
100
AcDbLine
 10
41.5
 20
262.4529999999999
 30
0.0
 11
41.5
 21
261.194
 31
0.0
  0
LINE
  5
268
330
1E
100
AcDbEntity
  8
0
100
AcDbLine
 10
41.5092
 20
265.5508630136989
 30
0.0
 11
41.5092
 21
264.929
 31
0.0
  0
LINE
  5
269
330
1E
100
AcDbEntity
  8
0
100
AcDbLine
 10
41.5092
 20
264.929
 30
0.0
 11
41.80919999999999
 21
264.9259999999999
 31
0.0
  0
LINE
  5
26A
330
1E
100
AcDbEntity
  8
0
100
AcDbLine
 10
41.5092
 20
264.929
 30
0.0
 11
41.80919999999999
 21
264.932
 31
0.0
  0
LINE
  5
26B
330
1E
100
AcDbEntity
  8
0
100
AcDbLine
 10
41.5092
 20
264.929
 30
0.0
 11
41.5092
 21
265.5508630136989
 31
0.0
  0
LINE
  5
26D
330
1E
100
AcDbEntity
  8
0
100
AcDbLine
 10
41.80919999999999
 20
264.932
 30
0.0
 11
42.50919999999999
 21
264.9329999999999
 31
0.0
  0
LINE
  5
26F
330
1E
100
AcDbEntity
  8
0
100
AcDbLine
 10
42.5
 20
270.586
 30
0.0
 11
45.2
 21
270.786
 31
0.0
  0
LINE
  5
270
330
1E
100
AcDbEntity
  8
0
100
AcDbLine
 10
42.5
 20
269.72
 30
0.0
 11
45.2
 21
269.92
 31
0.0
  0
LINE
  5
271
330
1E
100
AcDbEntity
  8
0
100
AcDbLine
 10
42.5
 20
280.22
 30
0.0
 11
45.2
 21
280.0199999999999
 31
0.0
  0
LINE
  5
272
330
1E
100
AcDbEntity
  8
0
100
AcDbLine
 10
41.80919999999999
 20
264.9259999999999
 30
0.0
 11
42.50919999999999
 21
264.925
 31
0.0
  0
LINE
  5
273
330
1E
100
AcDbEntity
  8
0
100
AcDbLine
 10
41.80919999999999
 20
291.683
 30
0.0
 11
42.50919999999999
 21
291.424
 31
0.0
  0
LINE
  5
274
330
1E
100
AcDbEntity
  8
0
100
AcDbLine
 10
41.5092
 20
292.288
 30
0.0
 11
41.80919999999999
 21
292.8929999999999
 31
0.0
  0
LINE
  5
275
330
1E
100
AcDbEntity
  8
0
100
AcDbLine
 10
41.5092
 20
292.288
 30
0.0
 11
41.80919999999999
 21
291.683
 31
0.0
  0
LINE
  5
278
330
1E
100
AcDbEntity
  8
0
100
AcDbLine
 10
42.5
 20
303.862
 30
0.0
 11
52.0
 21
303.2119999999999
 31
0.0
  0
LINE
  5
27B
330
1E
100
AcDbEntity
  8
0
100
AcDbLine
 10
41.80919999999999
 20
292.8929999999999
 30
0.0
 11
42.50919999999999
 21
293.1519999999999
 31
0.0
  0
LINE
  5
27D
330
1E
100
AcDbEntity
  8
0
100
AcDbLine
 10
41.5
 20
263.8709999999999
 30
0.0
 11
41.5
 21
265.551493150685
 31
0.0
  0
LINE
  5
27E
330
1E
100
AcDbEntity
  8
0
100
AcDbLine
 10
41.5
 20
263.8709999999999
 30
0.0
 11
41.5
 21
262.4529999999999
 31
0.0
  0
LINE
  5
281
330
1E
100
AcDbEntity
  8
0
100
AcDbLine
 10
34.00399999999999
 20
172.3153
 30
0.0
 11
36.548
 21
171.1864999999999
 31
0.0
  0
LINE
  5
282
330
1E
100
AcDbEntity
  8
0
100
AcDbLine
 10
33.296
 20
172.71
 30
0.0
 11
36.05199999999999
 21
171.4799
 31
0.0
  0
LINE
  5
283
330
1E
100
AcDbEntity
  8
0
100
AcDbLine
 10
33.296
 20
172.71
 30
0.0
 11
34.00399999999999
 21
172.3153
 31
0.0
  0
LINE
  5
284
330
1E
100
AcDbEntity
  8
0
100
AcDbLine
 10
42.5
 20
316.0719999999999
 30
0.0
 11
53.2
 21
315.322
 31
0.0
  0
LINE
  5
285
330
1E
100
AcDbEntity
  8
0
100
AcDbLine
 10
50.996
 20
172.3153
 30
0.0
 11
51.70399999999999
 21
172.71
 31
0.0
  0
LINE
  5
286
330
1E
100
AcDbEntity
  8
0
100
AcDbLine
 10
43.5
 20
260.5269999999999
 30
0.0
 11
43.5
 21
260.586
 31
0.0
  0
LINE
  5
287
330
1E
100
AcDbEntity
  8
0
100
AcDbLine
 10
43.5
 20
260.586
 30
0.0
 11
43.5
 21
260.5269999999999
 31
0.0
  0
LINE
  5
288
330
1E
100
AcDbEntity
  8
0
100
AcDbLine
 10
43.5
 20
260.586
 30
0.0
 11
43.5
 21
261.194
 31
0.0
  0
LINE
  5
289
330
1E
100
AcDbEntity
  8
0
100
AcDbLine
 10
43.5
 20
261.194
 30
0.0
 11
43.5
 21
260.586
 31
0.0
  0
LINE
  5
28A
330
1E
100
AcDbEntity
  8
0
100
AcDbLine
 10
43.5
 20
261.194
 30
0.0
 11
43.5
 21
262.4529999999999
 31
0.0
  0
LINE
  5
28B
330
1E
100
AcDbEntity
  8
0
100
AcDbLine
 10
43.5
 20
262.4529999999999
 30
0.0
 11
43.5
 21
261.194
 31
0.0
  0
LINE
  5
28C
330
1E
100
AcDbEntity
  8
0
100
AcDbLine
 10
43.5
 20
262.4529999999999
 30
0.0
 11
43.5
 21
263.8709999999999
 31
0.0
  0
LINE
  5
28E
330
1E
100
AcDbEntity
  8
0
100
AcDbLine
 10
42.50919999999999
 20
264.925
 30
0.0
 11
43.2092
 21
264.9259999999999
 31
0.0
  0
LINE
  5
28F
330
1E
100
AcDbEntity
  8
0
100
AcDbLine
 10
42.50919999999999
 20
264.9329999999999
 30
0.0
 11
43.2092
 21
264.932
 31
0.0
  0
LINE
  5
291
330
1E
100
AcDbEntity
  8
0
100
AcDbLine
 10
42.50919999999999
 20
293.1519999999999
 30
0.0
 11
43.2092
 21
292.8929999999999
 31
0.0
  0
LINE
  5
293
330
1E
100
AcDbEntity
  8
0
100
AcDbLine
 10
43.2092
 20
264.9259999999999
 30
0.0
 11
43.5092
 21
264.929
 31
0.0
  0
LINE
  5
294
330
1E
100
AcDbEntity
  8
0
100
AcDbLine
 10
43.2092
 20
264.932
 30
0.0
 11
43.5092
 21
264.929
 31
0.0
  0
LINE
  5
297
330
1E
100
AcDbEntity
  8
0
100
AcDbLine
 10
43.2092
 20
292.8929999999999
 30
0.0
 11
43.5092
 21
292.288
 31
0.0
  0
LINE
  5
299
330
1E
100
AcDbEntity
  8
0
100
AcDbLine
 10
43.2092
 20
291.683
 30
0.0
 11
43.5092
 21
292.288
 31
0.0
  0
LINE
  5
29A
330
1E
100
AcDbEntity
  8
0
100
AcDbLine
 10
42.50919999999999
 20
291.424
 30
0.0
 11
43.2092
 21
291.683
 31
0.0
  0
LINE
  5
29B
330
1E
100
AcDbEntity
  8
0
100
AcDbLine
 10
43.5
 20
263.8709999999999
 30
0.0
 11
43.5
 21
262.4529999999999
 31
0.0
  0
LINE
  5
29C
330
1E
100
AcDbEntity
  8
0
100
AcDbLine
 10
43.5
 20
263.8709999999999
 30
0.0
 11
43.5
 21
264.928908
 31
0.0
  0
LINE
  5
29D
330
1E
100
AcDbEntity
  8
0
100
AcDbLine
 10
43.5092
 20
264.929
 30
0.0
 11
43.5092
 21
265.552123287671
 31
0.0
  0
LINE
  5
29E
330
1E
100
AcDbEntity
  8
0
100
AcDbLine
 10
43.5092
 20
265.552123287671
 30
0.0
 11
43.5092
 21
264.929
 31
0.0
  0
LINE
  5
29F
330
1E
100
AcDbEntity
  8
0
100
AcDbLine
 10
43.5092
 20
265.552123287671
 30
0.0
 11
44.6886479592504
 21
265.6329073944689
 31
0.0
  0
LINE
  5
2A0
330
1E
100
AcDbEntity
  8
0
100
AcDbLine
 10
44.6888
 20
265.6299999999999
 30
0.0
 11
44.9024
 21
265.727
 31
0.0
  0
LINE
  5
2A1
330
1E
100
AcDbEntity
  8
0
100
AcDbLine
 10
44.6888
 20
265.6299999999999
 30
0.0
 11
45.0701
 21
265.5709999999999
 31
0.0
  0
LINE
  5
2A2
330
1E
100
AcDbEntity
  8
0
100
AcDbLine
 10
45.0701
 20
265.5709999999999
 30
0.0
 11
45.8
 21
265.5839999999999
 31
0.0
  0
LINE
  5
2A3
330
1E
100
AcDbEntity
  8
0
100
AcDbLine
 10
44.9024
 20
265.727
 30
0.0
 11
45.5604
 21
265.8059999999999
 31
0.0
  0
LINE
  5
2A4
330
1E
100
AcDbEntity
  8
0
100
AcDbLine
 10
45.2
 20
270.786
 30
0.0
 11
47.7
 21
271.286
 31
0.0
  0
LINE
  5
2A5
330
1E
100
AcDbEntity
  8
0
100
AcDbLine
 10
45.2
 20
269.92
 30
0.0
 11
47.7
 21
270.42
 31
0.0
  0
LINE
  5
2A6
330
1E
100
AcDbEntity
  8
0
100
AcDbLine
 10
45.2
 20
280.0199999999999
 30
0.0
 11
47.7
 21
279.5199999999999
 31
0.0
  0
LINE
  5
2AA
330
1E
100
AcDbEntity
  8
0
100
AcDbLine
 10
45.5604
 20
265.8059999999999
 30
0.0
 11
46.29039999999999
 21
265.8179999999999
 31
0.0
  0
LINE
  5
2AB
330
1E
100
AcDbEntity
  8
0
100
AcDbLine
 10
48.6063
 20
265.264
 30
0.0
 11
48.73879999999999
 21
265.2959999999999
 31
0.0
  0
LINE
  5
2AC
330
1E
100
AcDbEntity
  8
0
100
AcDbLine
 10
48.6063
 20
265.264
 30
0.0
 11
49.0533
 21
265.3109999999999
 31
0.0
  0
LINE
  5
2AD
330
1E
100
AcDbEntity
  8
0
100
AcDbLine
 10
49.0533
 20
265.3109999999999
 30
0.0
 11
49.7968
 21
265.4049999999999
 31
0.0
  0
LINE
  5
2AE
330
1E
100
AcDbEntity
  8
0
100
AcDbLine
 10
48.73879999999999
 20
265.2959999999999
 30
0.0
 11
49.3476
 21
265.3829999999999
 31
0.0
  0
LINE
  5
2AF
330
1E
100
AcDbEntity
  8
0
100
AcDbLine
 10
49.3476
 20
265.3829999999999
 30
0.0
 11
50.09109999999999
 21
265.477
 31
0.0
  0
LINE
  5
2B0
330
1E
100
AcDbEntity
  8
0
100
AcDbLine
 10
50.09109999999999
 20
265.477
 30
0.0
 11
50.5381
 21
265.5229999999999
 31
0.0
  0
LINE
  5
2B1
330
1E
100
AcDbEntity
  8
0
100
AcDbLine
 10
50.4056
 20
265.492
 30
0.0
 11
50.5381
 21
265.5229999999999
 31
0.0
  0
LINE
  5
2B2
330
1E
100
AcDbEntity
  8
0
100
AcDbLine
 10
49.7968
 20
265.4049999999999
 30
0.0
 11
50.4056
 21
265.492
 31
0.0
  0
LINE
  5
2B4
330
1E
100
AcDbEntity
  8
0
100
AcDbLine
 10
46.6712449484607
 20
265.768701708799
 30
0.0
 11
48.5244487066915
 21
265.8956334730609
 31
0.0
  0
LINE
  5
2B5
330
1E
100
AcDbEntity
  8
0
100
AcDbLine
 10
48.51688542827579
 20
265.953998095297
 30
0.0
 11
48.6063
 21
265.264
 31
0.0
  0
LINE
  5
2B8
330
1E
100
AcDbEntity
  8
0
100
AcDbLine
 10
50.4610698180684
 20
266.117130108014
 30
0.0
 11
50.5381
 21
265.5229999999999
 31
0.0
  0
LINE
  5
2B9
330
1E
100
AcDbEntity
  8
0
100
AcDbLine
 10
50.4610698180684
 20
266.117130108014
 30
0.0
 11
55.1285259558774
 21
267.064150193946
 31
0.0
  0
LINE
  5
2BA
330
1E
100
AcDbEntity
  8
0
100
AcDbLine
 10
50.6648
 20
266.278
 30
0.0
 11
51.4169
 21
266.3879999999999
 31
0.0
  0
LINE
  5
2BB
330
1E
100
AcDbEntity
  8
0
100
AcDbLine
 10
50.1418
 20
266.277
 30
0.0
 11
50.1731
 21
266.3899999999999
 31
0.0
  0
LINE
  5
2BC
330
1E
100
AcDbEntity
  8
0
100
AcDbLine
 10
50.1418
 20
266.277
 30
0.0
 11
50.6648
 21
266.278
 31
0.0
  0
LINE
  5
2BD
330
1E
100
AcDbEntity
  8
0
100
AcDbLine
 10
51.4169
 20
266.3879999999999
 30
0.0
 11
51.9582
 21
266.5459999999999
 31
0.0
  0
LINE
  5
2BF
330
1E
100
AcDbEntity
  8
0
100
AcDbLine
 10
50.1731
 20
266.3899999999999
 30
0.0
 11
50.7145
 21
266.548
 31
0.0
  0
LINE
  5
2C2
330
1E
100
AcDbEntity
  8
0
100
AcDbLine
 10
47.7
 20
271.286
 30
0.0
 11
49.9
 21
272.1359999999999
 31
0.0
  0
LINE
  5
2C3
330
1E
100
AcDbEntity
  8
0
100
AcDbLine
 10
47.7
 20
270.42
 30
0.0
 11
49.9
 21
271.2699999999999
 31
0.0
  0
LINE
  5
2C4
330
1E
100
AcDbEntity
  8
0
100
AcDbLine
 10
49.9
 20
272.1359999999999
 30
0.0
 11
51.6
 21
273.2359999999999
 31
0.0
  0
LINE
  5
2C5
330
1E
100
AcDbEntity
  8
0
100
AcDbLine
 10
49.9
 20
271.2699999999999
 30
0.0
 11
51.6
 21
272.37
 31
0.0
  0
LINE
  5
2C6
330
1E
100
AcDbEntity
  8
0
100
AcDbLine
 10
47.7
 20
279.5199999999999
 30
0.0
 11
49.9
 21
278.67
 31
0.0
  0
LINE
  5
2C7
330
1E
100
AcDbEntity
  8
0
100
AcDbLine
 10
49.9
 20
278.67
 30
0.0
 11
51.6
 21
277.57
 31
0.0
  0
LINE
  5
2CA
330
1E
100
AcDbEntity
  8
0
100
AcDbLine
 10
50.7145
 20
266.548
 30
0.0
 11
51.46650000000001
 21
266.658
 31
0.0
  0
LINE
  5
2CB
330
1E
100
AcDbEntity
  8
0
100
AcDbLine
 10
51.46650000000001
 20
266.658
 30
0.0
 11
51.9896
 21
266.6589999999999
 31
0.0
  0
LINE
  5
2CD
330
1E
100
AcDbEntity
  8
0
100
AcDbLine
 10
46.29039999999999
 20
265.8179999999999
 30
0.0
 11
46.6717
 21
265.7599999999999
 31
0.0
  0
LINE
  5
2CE
330
1E
100
AcDbEntity
  8
0
100
AcDbLine
 10
46.45809999999999
 20
265.663
 30
0.0
 11
46.6717
 21
265.7599999999999
 31
0.0
  0
LINE
  5
2CF
330
1E
100
AcDbEntity
  8
0
100
AcDbLine
 10
45.8
 20
265.5839999999999
 30
0.0
 11
46.45809999999999
 21
265.663
 31
0.0
  0
LINE
  5
2D0
330
1E
100
AcDbEntity
  8
0
100
AcDbLine
 10
45.5604
 20
286.122
 30
0.0
 11
46.29039999999999
 21
286.3159999999999
 31
0.0
  0
LINE
  5
2D1
330
1E
100
AcDbEntity
  8
0
100
AcDbLine
 10
46.29039999999999
 20
286.3159999999999
 30
0.0
 11
46.6717
 21
286.856
 31
0.0
  0
LINE
  5
2D3
330
1E
100
AcDbEntity
  8
0
100
AcDbLine
 10
44.9024
 20
286.408
 30
0.0
 11
45.5604
 21
286.122
 31
0.0
  0
LINE
  5
2D4
330
1E
100
AcDbEntity
  8
0
100
AcDbLine
 10
50.1418
 20
286.3389999999999
 30
0.0
 11
50.1731
 21
285.745
 31
0.0
  0
LINE
  5
2D5
330
1E
100
AcDbEntity
  8
0
100
AcDbLine
 10
50.1418
 20
286.3389999999999
 30
0.0
 11
50.6648
 21
286.8199999999999
 31
0.0
  0
LINE
  5
2D6
330
1E
100
AcDbEntity
  8
0
100
AcDbLine
 10
50.6648
 20
286.8199999999999
 30
0.0
 11
51.4169
 21
286.9159999999999
 31
0.0
  0
LINE
  5
2D7
330
1E
100
AcDbEntity
  8
0
100
AcDbLine
 10
50.1731
 20
285.745
 30
0.0
 11
50.7145
 21
285.38
 31
0.0
  0
LINE
  5
2D8
330
1E
100
AcDbEntity
  8
0
100
AcDbLine
 10
50.7145
 20
285.38
 30
0.0
 11
51.46650000000001
 21
285.477
 31
0.0
  0
LINE
  5
2D9
330
1E
100
AcDbEntity
  8
0
100
AcDbLine
 10
51.6
 20
273.2359999999999
 30
0.0
 11
52.6
 21
274.486
 31
0.0
  0
LINE
  5
2DA
330
1E
100
AcDbEntity
  8
0
100
AcDbLine
 10
51.6
 20
272.37
 30
0.0
 11
52.6
 21
273.62
 31
0.0
  0
LINE
  5
2DB
330
1E
100
AcDbEntity
  8
0
100
AcDbLine
 10
51.6
 20
277.57
 30
0.0
 11
52.6
 21
276.3199999999999
 31
0.0
  0
LINE
  5
2DC
330
1E
100
AcDbEntity
  8
0
100
AcDbLine
 10
51.46650000000001
 20
285.477
 30
0.0
 11
51.9896
 21
285.957
 31
0.0
  0
LINE
  5
2DD
330
1E
100
AcDbEntity
  8
0
100
AcDbLine
 10
45.0701
 20
287.526
 30
0.0
 11
45.8
 21
287.72
 31
0.0
  0
LINE
  5
2DE
330
1E
100
AcDbEntity
  8
0
100
AcDbLine
 10
44.6888
 20
286.987
 30
0.0
 11
44.9024
 21
286.408
 31
0.0
  0
LINE
  5
2DF
330
1E
100
AcDbEntity
  8
0
100
AcDbLine
 10
44.6888
 20
286.987
 30
0.0
 11
45.0701
 21
287.526
 31
0.0
  0
LINE
  5
2E1
330
1E
100
AcDbEntity
  8
0
100
AcDbLine
 10
46.45809999999999
 20
287.435
 30
0.0
 11
46.6717
 21
286.856
 31
0.0
  0
LINE
  5
2E2
330
1E
100
AcDbEntity
  8
0
100
AcDbLine
 10
45.8
 20
287.72
 30
0.0
 11
46.45809999999999
 21
287.435
 31
0.0
  0
LINE
  5
2E3
330
1E
100
AcDbEntity
  8
0
100
AcDbLine
 10
48.6063
 20
291.9529999999999
 30
0.0
 11
48.73879999999999
 21
291.319
 31
0.0
  0
LINE
  5
2E4
330
1E
100
AcDbEntity
  8
0
100
AcDbLine
 10
48.6063
 20
291.9529999999999
 30
0.0
 11
49.0533
 21
292.5079999999999
 31
0.0
  0
LINE
  5
2E6
330
1E
100
AcDbEntity
  8
0
100
AcDbLine
 10
49.0533
 20
292.5079999999999
 30
0.0
 11
49.7968
 21
292.672
 31
0.0
  0
LINE
  5
2E7
330
1E
100
AcDbEntity
  8
0
100
AcDbLine
 10
48.73879999999999
 20
291.319
 30
0.0
 11
49.3476
 21
290.9739999999999
 31
0.0
  0
LINE
  5
2E8
330
1E
100
AcDbEntity
  8
0
100
AcDbLine
 10
49.3476
 20
290.9739999999999
 30
0.0
 11
50.09109999999999
 21
291.1379999999999
 31
0.0
  0
LINE
  5
2E9
330
1E
100
AcDbEntity
  8
0
100
AcDbLine
 10
50.09109999999999
 20
291.1379999999999
 30
0.0
 11
50.5381
 21
291.694
 31
0.0
  0
LINE
  5
2EB
330
1E
100
AcDbEntity
  8
0
100
AcDbLine
 10
50.4056
 20
292.327
 30
0.0
 11
50.5381
 21
291.694
 31
0.0
  0
LINE
  5
2EC
330
1E
100
AcDbEntity
  8
0
100
AcDbLine
 10
49.7968
 20
292.672
 30
0.0
 11
50.4056
 21
292.327
 31
0.0
  0
LINE
  5
2ED
330
1E
100
AcDbEntity
  8
0
100
AcDbLine
 10
51.4169
 20
286.9159999999999
 30
0.0
 11
51.9582
 21
286.552
 31
0.0
  0
LINE
  5
2EE
330
1E
100
AcDbEntity
  8
0
100
AcDbLine
 10
43.5
 20
264.928908
 30
0.0
 11
43.5
 21
263.8709999999999
 31
0.0
  0
LINE
  5
2F1
330
1E
100
AcDbEntity
  8
0
100
AcDbLine
 10
52.6
 20
274.486
 30
0.0
 11
52.8717037037037
 21
275.403
 31
0.0
  0
LINE
  5
2F2
330
1E
100
AcDbEntity
  8
0
100
AcDbLine
 10
52.6
 20
274.486
 30
0.0
 11
52.8717037037037
 21
275.403
 31
0.0
  0
LINE
  5
2F3
330
1E
100
AcDbEntity
  8
0
100
AcDbLine
 10
52.6
 20
273.62
 30
0.0
 11
53.0
 21
274.97
 31
0.0
  0
LINE
  5
2F4
330
1E
100
AcDbEntity
  8
0
100
AcDbLine
 10
52.6
 20
276.3199999999999
 30
0.0
 11
53.0
 21
274.97
 31
0.0
  0
LINE
  5
2F5
330
1E
100
AcDbEntity
  8
0
100
AcDbLine
 10
51.9582
 20
266.5459999999999
 30
0.0
 11
51.9896
 21
266.6589999999999
 31
0.0
  0
LINE
  5
2F7
330
1E
100
AcDbEntity
  8
0
100
AcDbLine
 10
52.0
 20
303.2119999999999
 30
0.0
 11
60.89999999999999
 21
301.362
 31
0.0
  0
LINE
  5
2FA
330
1E
100
AcDbEntity
  8
0
100
AcDbLine
 10
51.9582
 20
286.552
 30
0.0
 11
51.9896
 21
285.957
 31
0.0
  0
LINE
  5
2FB
330
1E
100
AcDbEntity
  8
0
100
AcDbLine
 10
51.70399999999999
 20
172.71
 30
0.0
 11
53.784
 21
174.3398
 31
0.0
  0
LINE
  5
2FC
330
1E
100
AcDbEntity
  8
0
100
AcDbLine
 10
53.2
 20
315.322
 30
0.0
 11
63.1
 21
313.2719999999999
 31
0.0
  0
LINE
  5
2FD
330
1E
100
AcDbEntity
  8
0
100
AcDbLine
 10
42.5
 20
317.0049999999999
 30
0.0
 11
53.39999999999999
 21
316.2549999999999
 31
0.0
  0
LINE
  5
2FF
330
1E
100
AcDbEntity
  8
0
100
AcDbLine
 10
53.39999999999999
 20
316.2549999999999
 30
0.0
 11
63.6
 21
314.1549999999999
 31
0.0
  0
LINE
  5
300
330
1E
100
AcDbEntity
  8
0
100
AcDbLine
 10
53.784
 20
174.3398
 30
0.0
 11
55.03199999999999
 21
176.1848999999999
 31
0.0
  0
LINE
  5
301
330
1E
100
AcDbEntity
  8
0
100
AcDbLine
 10
55.5
 20
178.0558
 30
0.0
 11
56.2593
 21
189.8832999999999
 31
0.0
  0
LINE
  5
302
330
1E
100
AcDbEntity
  8
0
100
AcDbLine
 10
55.03199999999999
 20
176.1848999999999
 30
0.0
 11
55.5
 21
178.0558
 31
0.0
  0
LINE
  5
303
330
1E
100
AcDbEntity
  8
0
100
AcDbLine
 10
55.3056
 20
266.509
 30
0.0
 11
55.8692
 21
266.622
 31
0.0
  0
LINE
  5
304
330
1E
100
AcDbEntity
  8
0
100
AcDbLine
 10
55.12852595587744
 20
267.064150193946
 30
0.0
 11
55.2616
 21
266.5459999999999
 31
0.0
  0
LINE
  5
306
330
1E
100
AcDbEntity
  8
0
100
AcDbLine
 10
55.2616
 20
266.5459999999999
 30
0.0
 11
55.73769999999999
 21
266.7049999999999
 31
0.0
  0
LINE
  5
307
330
1E
100
AcDbEntity
  8
0
100
AcDbLine
 10
55.2616
 20
266.5459999999999
 30
0.0
 11
55.3056
 21
266.509
 31
0.0
  0
LINE
  5
308
330
1E
100
AcDbEntity
  8
0
100
AcDbLine
 10
55.8692
 20
266.622
 30
0.0
 11
56.6056
 21
266.814
 31
0.0
  0
LINE
  5
309
330
1E
100
AcDbEntity
  8
0
100
AcDbLine
 10
55.73769999999999
 20
266.7049999999999
 30
0.0
 11
56.4741
 21
266.8959999999999
 31
0.0
  0
LINE
  5
30A
330
1E
100
AcDbEntity
  8
0
100
AcDbLine
 10
55.7031
 20
267.6849999999999
 30
0.0
 11
56.4261
 21
267.892
 31
0.0
  0
LINE
  5
30B
330
1E
100
AcDbEntity
  8
0
100
AcDbLine
 10
55.074
 20
267.607
 30
0.0
 11
55.7031
 21
267.6849999999999
 31
0.0
  0
LINE
  5
30C
330
1E
100
AcDbEntity
  8
0
100
AcDbLine
 10
54.921
 20
267.7129999999999
 30
0.0
 11
55.3087
 21
267.932
 31
0.0
  0
LINE
  5
30D
330
1E
100
AcDbEntity
  8
0
100
AcDbLine
 10
54.921
 20
267.7129999999999
 30
0.0
 11
55.074
 21
267.607
 31
0.0
  0
LINE
  5
311
330
1E
100
AcDbEntity
  8
0
100
AcDbLine
 10
55.3087
 20
267.932
 30
0.0
 11
56.0317
 21
268.1389999999999
 31
0.0
  0
LINE
  5
312
330
1E
100
AcDbEntity
  8
0
100
AcDbLine
 10
56.0317
 20
268.1389999999999
 30
0.0
 11
56.6608
 21
268.216
 31
0.0
  0
LINE
  5
314
330
1E
100
AcDbEntity
  8
0
100
AcDbLine
 10
55.3056
 20
290.7079999999999
 30
0.0
 11
55.8692
 21
291.197
 31
0.0
  0
LINE
  5
315
330
1E
100
AcDbEntity
  8
0
100
AcDbLine
 10
55.2616
 20
290.0679999999999
 30
0.0
 11
55.73769999999999
 21
289.6519999999999
 31
0.0
  0
LINE
  5
316
330
1E
100
AcDbEntity
  8
0
100
AcDbLine
 10
55.2616
 20
290.0679999999999
 30
0.0
 11
55.3056
 21
290.7079999999999
 31
0.0
  0
LINE
  5
318
330
1E
100
AcDbEntity
  8
0
100
AcDbLine
 10
55.8692
 20
291.197
 30
0.0
 11
56.6056
 21
291.264
 31
0.0
  0
LINE
  5
319
330
1E
100
AcDbEntity
  8
0
100
AcDbLine
 10
55.73769999999999
 20
289.6519999999999
 30
0.0
 11
56.4741
 21
289.718
 31
0.0
  0
LINE
  5
31A
330
1E
100
AcDbEntity
  8
0
100
AcDbLine
 10
55.7031
 20
285.4129999999999
 30
0.0
 11
56.4261
 21
285.412
 31
0.0
  0
LINE
  5
31B
330
1E
100
AcDbEntity
  8
0
100
AcDbLine
 10
55.074
 20
285.009
 30
0.0
 11
55.7031
 21
285.4129999999999
 31
0.0
  0
LINE
  5
31C
330
1E
100
AcDbEntity
  8
0
100
AcDbLine
 10
54.921
 20
284.422
 30
0.0
 11
55.3087
 21
283.9959999999999
 31
0.0
  0
LINE
  5
31D
330
1E
100
AcDbEntity
  8
0
100
AcDbLine
 10
54.921
 20
284.422
 30
0.0
 11
55.074
 21
285.009
 31
0.0
  0
LINE
  5
31E
330
1E
100
AcDbEntity
  8
0
100
AcDbLine
 10
55.3087
 20
283.9959999999999
 30
0.0
 11
56.0317
 21
283.9959999999999
 31
0.0
  0
LINE
  5
320
330
1E
100
AcDbEntity
  8
0
100
AcDbLine
 10
56.0317
 20
283.9959999999999
 30
0.0
 11
56.6608
 21
284.3999999999999
 31
0.0
  0
LINE
  5
321
330
1E
100
AcDbEntity
  8
0
100
AcDbLine
 10
56.2593
 20
189.8832999999999
 30
0.0
 11
57.0042
 21
201.9032999999999
 31
0.0
  0
LINE
  5
323
330
1E
100
AcDbEntity
  8
0
100
AcDbLine
 10
53.39999999999999
 20
321.4509999999999
 30
0.0
 11
63.6
 21
319.3509999999999
 31
0.0
  0
LINE
  5
324
330
1E
100
AcDbEntity
  8
0
100
AcDbLine
 10
53.3
 20
320.7679999999999
 30
0.0
 11
63.5
 21
318.6679999999999
 31
0.0
  0
LINE
  5
325
330
1E
100
AcDbEntity
  8
0
100
AcDbLine
 10
42.5
 20
330.0319999999999
 30
0.0
 11
49.5255
 21
329.523
 31
0.0
  0
LINE
  5
326
330
1E
100
AcDbEntity
  8
0
100
AcDbLine
 10
35.47449999999999
 20
329.523
 30
0.0
 11
42.5
 21
330.0319999999999
 31
0.0
  0
LINE
  5
327
330
1E
100
AcDbEntity
  8
0
100
AcDbLine
 10
56.1436
 20
328.199
 30
0.0
 11
61.94729999999999
 21
326.0099999999999
 31
0.0
  0
LINE
  5
328
330
1E
100
AcDbEntity
  8
0
100
AcDbLine
 10
49.5255
 20
329.523
 30
0.0
 11
56.1436
 21
328.199
 31
0.0
  0
LINE
  5
329
330
1E
100
AcDbEntity
  8
0
100
AcDbLine
 10
42.5
 20
322.2009999999999
 30
0.0
 11
53.39999999999999
 21
321.4509999999999
 31
0.0
  0
LINE
  5
32A
330
1E
100
AcDbEntity
  8
0
100
AcDbLine
 10
42.5
 20
321.5179999999999
 30
0.0
 11
53.3
 21
320.7679999999999
 31
0.0
  0
LINE
  5
32B
330
1E
100
AcDbEntity
  8
0
100
AcDbLine
 10
57.8
 20
180.12
 30
0.0
 11
58.1
 21
174.2199999999999
 31
0.0
  0
LINE
  5
32C
330
1E
100
AcDbEntity
  8
0
100
AcDbLine
 10
58.1
 20
174.2199999999999
 30
0.0
 11
58.2272727272727
 21
171.0381818181819
 31
0.0
  0
LINE
  5
32D
330
1E
100
AcDbEntity
  8
0
100
AcDbLine
 10
57.5
 20
184.52
 30
0.0
 11
57.8
 21
180.12
 31
0.0
  0
LINE
  5
32E
330
1E
100
AcDbEntity
  8
0
100
AcDbLine
 10
57.2
 20
187.8199999999999
 30
0.0
 11
57.5
 21
184.52
 31
0.0
  0
LINE
  5
32F
330
1E
100
AcDbEntity
  8
0
100
AcDbLine
 10
56.79999999999999
 20
190.7199999999999
 30
0.0
 11
57.2
 21
187.8199999999999
 31
0.0
  0
LINE
  5
330
330
1E
100
AcDbEntity
  8
0
100
AcDbLine
 10
56.4261
 20
267.892
 30
0.0
 11
56.8138
 21
268.1109999999999
 31
0.0
  0
LINE
  5
331
330
1E
100
AcDbEntity
  8
0
100
AcDbLine
 10
56.4741
 20
266.8959999999999
 30
0.0
 11
57.0377
 21
267.009
 31
0.0
  0
LINE
  5
332
330
1E
100
AcDbEntity
  8
0
100
AcDbLine
 10
56.6056
 20
266.814
 30
0.0
 11
57.0816
 21
266.9719999999999
 31
0.0
  0
LINE
  5
335
330
1E
100
AcDbEntity
  8
0
100
AcDbLine
 10
56.4741
 20
289.718
 30
0.0
 11
57.0377
 21
290.2079999999999
 31
0.0
  0
LINE
  5
337
330
1E
100
AcDbEntity
  8
0
100
AcDbLine
 10
56.6056
 20
291.264
 30
0.0
 11
57.0816
 21
290.8469999999999
 31
0.0
  0
LINE
  5
338
330
1E
100
AcDbEntity
  8
0
100
AcDbLine
 10
56.4261
 20
285.412
 30
0.0
 11
56.8138
 21
284.987
 31
0.0
  0
LINE
  5
339
330
1E
100
AcDbEntity
  8
0
100
AcDbLine
 10
56.4827
 20
258.416
 30
0.0
 11
56.6317
 21
264.783
 31
0.0
  0
LINE
  5
33A
330
1E
100
AcDbEntity
  8
0
100
AcDbLine
 10
56.4827
 20
258.416
 30
0.0
 11
57.2277
 21
249.4979999999999
 31
0.0
  0
LINE
  5
33B
330
1E
100
AcDbEntity
  8
0
100
AcDbLine
 10
57.0377
 20
267.009
 30
0.0
 11
57.0816
 21
266.9719999999999
 31
0.0
  0
LINE
  5
33C
330
1E
100
AcDbEntity
  8
0
100
AcDbLine
 10
57.0042
 20
201.9032999999999
 30
0.0
 11
57.3022
 21
213.4078
 31
0.0
  0
LINE
  5
33D
330
1E
100
AcDbEntity
  8
0
100
AcDbLine
 10
57.3022
 20
213.4078
 30
0.0
 11
57.5257
 21
224.1788
 31
0.0
  0
LINE
  5
33E
330
1E
100
AcDbEntity
  8
0
100
AcDbLine
 10
57.5257
 20
224.1788
 30
0.0
 11
57.6747
 21
232.6561
 31
0.0
  0
LINE
  5
33F
330
1E
100
AcDbEntity
  8
0
100
AcDbLine
 10
57.5257
 20
242.7521999999999
 30
0.0
 11
57.6747
 21
232.6561
 31
0.0
  0
LINE
  5
340
330
1E
100
AcDbEntity
  8
0
100
AcDbLine
 10
57.2277
 20
249.4979999999999
 30
0.0
 11
57.5257
 21
242.7521999999999
 31
0.0
  0
LINE
  5
341
330
1E
100
AcDbEntity
  8
0
100
AcDbLine
 10
56.9196557957016
 20
267.468628530528
 30
0.0
 11
57.0377
 21
267.009
 31
0.0
  0
LINE
  5
342
330
1E
100
AcDbEntity
  8
0
100
AcDbLine
 10
56.9586991229253
 20
267.450538949592
 30
0.0
 11
59.5
 21
268.114
 31
0.0
  0
LINE
  5
343
330
1E
100
AcDbEntity
  8
0
100
AcDbLine
 10
56.9509228567491
 20
267.4808173848339
 30
0.0
 11
57.0816
 21
266.9719999999999
 31
0.0
  0
LINE
  5
344
330
1E
100
AcDbEntity
  8
0
100
AcDbLine
 10
58.3567
 20
269.301
 30
0.0
 11
58.6838
 21
269.228
 31
0.0
  0
LINE
  5
345
330
1E
100
AcDbEntity
  8
0
100
AcDbLine
 10
58.3567
 20
269.301
 30
0.0
 11
58.5644
 21
269.56
 31
0.0
  0
LINE
  5
346
330
1E
100
AcDbEntity
  8
0
100
AcDbLine
 10
59.5
 20
268.114
 30
0.0
 11
60.91139656319199
 21
268.648314413208
 31
0.0
  0
LINE
  5
347
330
1E
100
AcDbEntity
  8
0
100
AcDbLine
 10
60.9278
 20
268.605
 30
0.0
 11
61.1452
 21
268.5849999999999
 31
0.0
  0
LINE
  5
348
330
1E
100
AcDbEntity
  8
0
100
AcDbLine
 10
60.9278
 20
268.605
 30
0.0
 11
61.2386
 21
268.8159999999999
 31
0.0
  0
LINE
  5
349
330
1E
100
AcDbEntity
  8
0
100
AcDbLine
 10
61.1452
 20
268.5849999999999
 30
0.0
 11
61.7869
 21
268.778
 31
0.0
  0
LINE
  5
34A
330
1E
100
AcDbEntity
  8
0
100
AcDbLine
 10
62.466
 20
269.062
 30
0.0
 11
62.77689999999999
 21
269.2729999999999
 31
0.0
  0
LINE
  5
34B
330
1E
100
AcDbEntity
  8
0
100
AcDbLine
 10
62.7498827038363
 20
269.3443127378809
 30
0.0
 11
66.5
 21
270.764
 31
0.0
  0
LINE
  5
34C
330
1E
100
AcDbEntity
  8
0
100
AcDbLine
 10
62.55939999999999
 20
269.292
 30
0.0
 11
62.77689999999999
 21
269.2729999999999
 31
0.0
  0
LINE
  5
34D
330
1E
100
AcDbEntity
  8
0
100
AcDbLine
 10
61.9177
 20
269.1
 30
0.0
 11
62.55939999999999
 21
269.292
 31
0.0
  0
LINE
  5
34E
330
1E
100
AcDbEntity
  8
0
100
AcDbLine
 10
61.2386
 20
268.8159999999999
 30
0.0
 11
61.9177
 21
269.1
 31
0.0
  0
LINE
  5
34F
330
1E
100
AcDbEntity
  8
0
100
AcDbLine
 10
61.7869
 20
268.778
 30
0.0
 11
62.466
 21
269.062
 31
0.0
  0
LINE
  5
350
330
1E
100
AcDbEntity
  8
0
100
AcDbLine
 10
58.6838
 20
269.228
 30
0.0
 11
59.3761
 21
269.3919999999999
 31
0.0
  0
LINE
  5
358
330
1E
100
AcDbEntity
  8
0
100
AcDbLine
 10
60.02069999999999
 20
269.689
 30
0.0
 11
60.2284
 21
269.947
 31
0.0
  0
LINE
  5
35F
330
1E
100
AcDbEntity
  8
0
100
AcDbLine
 10
61.85439999999999
 20
272.2309999999999
 30
0.0
 11
62.5628
 21
272.487
 31
0.0
  0
LINE
  5
360
330
1E
100
AcDbEntity
  8
0
100
AcDbLine
 10
61.3322
 20
271.857
 30
0.0
 11
61.85439999999999
 21
272.2309999999999
 31
0.0
  0
LINE
  5
361
330
1E
100
AcDbEntity
  8
0
100
AcDbLine
 10
61.3187
 20
271.584
 30
0.0
 11
61.7974
 21
271.5629999999999
 31
0.0
  0
LINE
  5
362
330
1E
100
AcDbEntity
  8
0
100
AcDbLine
 10
61.3187
 20
271.584
 30
0.0
 11
61.3322
 21
271.857
 31
0.0
  0
LINE
  5
363
330
1E
100
AcDbEntity
  8
0
100
AcDbLine
 10
61.7974
 20
271.5629999999999
 30
0.0
 11
62.5058
 21
271.8199999999999
 31
0.0
  0
LINE
  5
366
330
1E
100
AcDbEntity
  8
0
100
AcDbLine
 10
62.8166
 20
274.434
 30
0.0
 11
62.9982
 21
274.172
 31
0.0
  0
LINE
  5
367
330
1E
100
AcDbEntity
  8
0
100
AcDbLine
 10
62.8166
 20
274.434
 30
0.0
 11
63.1809
 21
274.866
 31
0.0
  0
LINE
  5
368
330
1E
100
AcDbEntity
  8
0
100
AcDbLine
 10
62.9982
 20
274.172
 30
0.0
 11
63.596
 21
274.2219999999999
 31
0.0
  0
LINE
  5
36A
330
1E
100
AcDbEntity
  8
0
100
AcDbLine
 10
62.5628
 20
272.487
 30
0.0
 11
63.04149999999999
 21
272.466
 31
0.0
  0
LINE
  5
36B
330
1E
100
AcDbEntity
  8
0
100
AcDbLine
 10
62.5058
 20
271.8199999999999
 30
0.0
 11
63.028
 21
272.194
 31
0.0
  0
LINE
  5
36D
330
1E
100
AcDbEntity
  8
0
100
AcDbLine
 10
59.9013
 20
270.0209999999999
 30
0.0
 11
60.2284
 21
269.947
 31
0.0
  0
LINE
  5
36E
330
1E
100
AcDbEntity
  8
0
100
AcDbLine
 10
59.20899999999999
 20
269.857
 30
0.0
 11
59.9013
 21
270.0209999999999
 31
0.0
  0
LINE
  5
36F
330
1E
100
AcDbEntity
  8
0
100
AcDbLine
 10
58.5644
 20
269.56
 30
0.0
 11
59.20899999999999
 21
269.857
 31
0.0
  0
LINE
  5
370
330
1E
100
AcDbEntity
  8
0
100
AcDbLine
 10
59.3761
 20
269.3919999999999
 30
0.0
 11
60.02069999999999
 21
269.689
 31
0.0
  0
LINE
  5
371
330
1E
100
AcDbEntity
  8
0
100
AcDbLine
 10
56.6608
 20
268.216
 30
0.0
 11
56.8138
 21
268.1109999999999
 31
0.0
  0
LINE
  5
374
330
1E
100
AcDbEntity
  8
0
100
AcDbLine
 10
61.85439999999999
 20
279.904
 30
0.0
 11
62.5628
 21
280.129
 31
0.0
  0
LINE
  5
375
330
1E
100
AcDbEntity
  8
0
100
AcDbLine
 10
61.3322
 20
280.0709999999999
 30
0.0
 11
61.85439999999999
 21
279.904
 31
0.0
  0
LINE
  5
376
330
1E
100
AcDbEntity
  8
0
100
AcDbLine
 10
61.3187
 20
280.5509999999999
 30
0.0
 11
61.7974
 21
281.0529999999999
 31
0.0
  0
LINE
  5
377
330
1E
100
AcDbEntity
  8
0
100
AcDbLine
 10
61.3187
 20
280.5509999999999
 30
0.0
 11
61.3322
 21
280.0709999999999
 31
0.0
  0
LINE
  5
378
330
1E
100
AcDbEntity
  8
0
100
AcDbLine
 10
58.5644
 20
282.3679999999999
 30
0.0
 11
59.20899999999999
 21
282.278
 31
0.0
  0
LINE
  5
37B
330
1E
100
AcDbEntity
  8
0
100
AcDbLine
 10
58.3567
 20
282.8329999999999
 30
0.0
 11
58.6838
 21
283.3879999999999
 31
0.0
  0
LINE
  5
37C
330
1E
100
AcDbEntity
  8
0
100
AcDbLine
 10
58.3567
 20
282.8329999999999
 30
0.0
 11
58.5644
 21
282.3679999999999
 31
0.0
  0
LINE
  5
37D
330
1E
100
AcDbEntity
  8
0
100
AcDbLine
 10
60.02069999999999
 20
283.6149999999999
 30
0.0
 11
60.2284
 21
283.1499999999999
 31
0.0
  0
LINE
  5
37E
330
1E
100
AcDbEntity
  8
0
100
AcDbLine
 10
59.9013
 20
282.595
 30
0.0
 11
60.2284
 21
283.1499999999999
 31
0.0
  0
LINE
  5
37F
330
1E
100
AcDbEntity
  8
0
100
AcDbLine
 10
59.20899999999999
 20
282.278
 30
0.0
 11
59.9013
 21
282.595
 31
0.0
  0
LINE
  5
380
330
1E
100
AcDbEntity
  8
0
100
AcDbLine
 10
58.6838
 20
283.3879999999999
 30
0.0
 11
59.3761
 21
283.7059999999999
 31
0.0
  0
LINE
  5
382
330
1E
100
AcDbEntity
  8
0
100
AcDbLine
 10
56.6608
 20
284.3999999999999
 30
0.0
 11
56.8138
 21
284.987
 31
0.0
  0
LINE
  5
383
330
1E
100
AcDbEntity
  8
0
100
AcDbLine
 10
59.3761
 20
283.7059999999999
 30
0.0
 11
60.02069999999999
 21
283.6149999999999
 31
0.0
  0
LINE
  5
384
330
1E
100
AcDbEntity
  8
0
100
AcDbLine
 10
61.2386
 20
287.541
 30
0.0
 11
61.9177
 21
287.515
 31
0.0
  0
LINE
  5
385
330
1E
100
AcDbEntity
  8
0
100
AcDbLine
 10
60.9278
 20
288.01
 30
0.0
 11
61.1452
 21
288.6319999999999
 31
0.0
  0
LINE
  5
386
330
1E
100
AcDbEntity
  8
0
100
AcDbLine
 10
60.9278
 20
288.01
 30
0.0
 11
61.2386
 21
287.541
 31
0.0
  0
LINE
  5
388
330
1E
100
AcDbEntity
  8
0
100
AcDbLine
 10
60.89999999999999
 20
301.362
 30
0.0
 11
68.59999999999999
 21
298.412
 31
0.0
  0
LINE
  5
389
330
1E
100
AcDbEntity
  8
0
100
AcDbLine
 10
57.0377
 20
290.2079999999999
 30
0.0
 11
57.0816
 21
290.8469999999999
 31
0.0
  0
LINE
  5
38C
330
1E
100
AcDbEntity
  8
0
100
AcDbLine
 10
61.1452
 20
288.6319999999999
 30
0.0
 11
61.7869
 21
289.042
 31
0.0
  0
LINE
  5
38E
330
1E
100
AcDbEntity
  8
0
100
AcDbLine
 10
61.9177
 20
287.515
 30
0.0
 11
62.55939999999999
 21
287.925
 31
0.0
  0
LINE
  5
38F
330
1E
100
AcDbEntity
  8
0
100
AcDbLine
 10
61.7869
 20
289.042
 30
0.0
 11
62.466
 21
289.0149999999999
 31
0.0
  0
LINE
  5
390
330
1E
100
AcDbEntity
  8
0
100
AcDbLine
 10
61.7974
 20
281.0529999999999
 30
0.0
 11
62.5058
 21
281.278
 31
0.0
  0
LINE
  5
391
330
1E
100
AcDbEntity
  8
0
100
AcDbLine
 10
62.5628
 20
280.129
 30
0.0
 11
63.04149999999999
 21
280.6309999999999
 31
0.0
  0
LINE
  5
392
330
1E
100
AcDbEntity
  8
0
100
AcDbLine
 10
62.466
 20
289.0149999999999
 30
0.0
 11
62.77689999999999
 21
288.547
 31
0.0
  0
LINE
  5
393
330
1E
100
AcDbEntity
  8
0
100
AcDbLine
 10
62.55939999999999
 20
287.925
 30
0.0
 11
62.77689999999999
 21
288.547
 31
0.0
  0
LINE
  5
394
330
1E
100
AcDbEntity
  8
0
100
AcDbLine
 10
62.5058
 20
281.278
 30
0.0
 11
63.028
 21
281.11
 31
0.0
  0
LINE
  5
398
330
1E
100
AcDbEntity
  8
0
100
AcDbLine
 10
62.8166
 20
277.494
 30
0.0
 11
62.9982
 21
277.9629999999999
 31
0.0
  0
LINE
  5
399
330
1E
100
AcDbEntity
  8
0
100
AcDbLine
 10
62.8166
 20
277.494
 30
0.0
 11
63.1809
 21
277.269
 31
0.0
  0
LINE
  5
39A
330
1E
100
AcDbEntity
  8
0
100
AcDbLine
 10
63.1809
 20
274.866
 30
0.0
 11
63.85699999999999
 21
275.214
 31
0.0
  0
LINE
  5
39B
330
1E
100
AcDbEntity
  8
0
100
AcDbLine
 10
63.028
 20
272.194
 30
0.0
 11
63.04149999999999
 21
272.466
 31
0.0
  0
LINE
  5
39D
330
1E
100
AcDbEntity
  8
0
100
AcDbLine
 10
63.028
 20
281.11
 30
0.0
 11
63.04149999999999
 21
280.6309999999999
 31
0.0
  0
LINE
  5
39E
330
1E
100
AcDbEntity
  8
0
100
AcDbLine
 10
63.1809
 20
277.269
 30
0.0
 11
63.85699999999999
 21
277.4019999999999
 31
0.0
  0
LINE
  5
39F
330
1E
100
AcDbEntity
  8
0
100
AcDbLine
 10
62.9982
 20
277.9629999999999
 30
0.0
 11
63.596
 21
278.394
 31
0.0
  0
LINE
  5
3A0
330
1E
100
AcDbEntity
  8
0
100
AcDbLine
 10
56.9942298376671
 20
267.3121930621139
 30
0.0
 11
57.01621230968121
 21
267.46555399942
 31
0.0
  0
LINE
  5
3A1
330
1E
100
AcDbEntity
  8
0
100
AcDbLine
 10
56.6317
 20
264.783
 30
0.0
 11
56.93866662182239
 21
266.9245557274119
 31
0.0
  0
LINE
  5
3A2
330
1E
100
AcDbEntity
  8
0
100
AcDbLine
 10
61.94729999999999
 20
326.0099999999999
 30
0.0
 11
66.93640000000001
 21
323.694
 31
0.0
  0
LINE
  5
3A3
330
1E
100
AcDbEntity
  8
0
100
AcDbLine
 10
63.1
 20
313.2719999999999
 30
0.0
 11
71.79999999999999
 21
309.972
 31
0.0
  0
LINE
  5
3A5
330
1E
100
AcDbEntity
  8
0
100
AcDbLine
 10
63.596
 20
274.2219999999999
 30
0.0
 11
64.27199999999999
 21
274.5699999999999
 31
0.0
  0
LINE
  5
3A6
330
1E
100
AcDbEntity
  8
0
100
AcDbLine
 10
63.596
 20
278.394
 30
0.0
 11
64.27199999999999
 21
278.528
 31
0.0
  0
LINE
  5
3A7
330
1E
100
AcDbEntity
  8
0
100
AcDbLine
 10
63.6
 20
314.1549999999999
 30
0.0
 11
72.5
 21
310.7549999999999
 31
0.0
  0
LINE
  5
3AA
330
1E
100
AcDbEntity
  8
0
100
AcDbLine
 10
63.85699999999999
 20
275.214
 30
0.0
 11
64.4548
 21
275.2639999999999
 31
0.0
  0
LINE
  5
3AB
330
1E
100
AcDbEntity
  8
0
100
AcDbLine
 10
64.27199999999999
 20
274.5699999999999
 30
0.0
 11
64.63639999999999
 21
275.002
 31
0.0
  0
LINE
  5
3AC
330
1E
100
AcDbEntity
  8
0
100
AcDbLine
 10
63.85699999999999
 20
277.4019999999999
 30
0.0
 11
64.4548
 21
277.834
 31
0.0
  0
LINE
  5
3AD
330
1E
100
AcDbEntity
  8
0
100
AcDbLine
 10
65.4467
 20
271.559
 30
0.0
 11
66.02219999999999
 21
271.927
 31
0.0
  0
LINE
  5
3AE
330
1E
100
AcDbEntity
  8
0
100
AcDbLine
 10
65.32219999999999
 20
271.32
 30
0.0
 11
65.6983
 21
271.3399999999999
 31
0.0
  0
LINE
  5
3AF
330
1E
100
AcDbEntity
  8
0
100
AcDbLine
 10
65.32219999999999
 20
271.32
 30
0.0
 11
65.4467
 21
271.559
 31
0.0
  0
LINE
  5
3B0
330
1E
100
AcDbEntity
  8
0
100
AcDbLine
 10
66.5
 20
270.764
 30
0.0
 11
71.79999999999999
 21
274.264
 31
0.0
  0
LINE
  5
3B1
330
1E
100
AcDbEntity
  8
0
100
AcDbLine
 10
65.6983
 20
271.3399999999999
 30
0.0
 11
66.3745
 21
271.619
 31
0.0
  0
LINE
  5
3B5
330
1E
100
AcDbEntity
  8
0
100
AcDbLine
 10
66.95
 20
271.986
 30
0.0
 11
67.0745
 21
272.225
 31
0.0
  0
LINE
  5
3B6
330
1E
100
AcDbEntity
  8
0
100
AcDbLine
 10
68.1613
 20
274.512
 30
0.0
 11
68.6705
 21
274.589
 31
0.0
  0
LINE
  5
3BB
330
1E
100
AcDbEntity
  8
0
100
AcDbLine
 10
69.1881
 20
275.5549999999999
 30
0.0
 11
69.6973
 21
275.6329999999999
 31
0.0
  0
LINE
  5
3BC
330
1E
100
AcDbEntity
  8
0
100
AcDbLine
 10
68.5236
 20
275.1879999999999
 30
0.0
 11
69.1881
 21
275.5549999999999
 31
0.0
  0
LINE
  5
3BD
330
1E
100
AcDbEntity
  8
0
100
AcDbLine
 10
68.09090000000001
 20
274.7549999999999
 30
0.0
 11
68.1613
 21
274.512
 31
0.0
  0
LINE
  5
3BE
330
1E
100
AcDbEntity
  8
0
100
AcDbLine
 10
68.09090000000001
 20
274.7549999999999
 30
0.0
 11
68.5236
 21
275.1879999999999
 31
0.0
  0
LINE
  5
3BF
330
1E
100
AcDbEntity
  8
0
100
AcDbLine
 10
68.6705
 20
274.589
 30
0.0
 11
69.33499999999999
 21
274.9569999999999
 31
0.0
  0
LINE
  5
3C0
330
1E
100
AcDbEntity
  8
0
100
AcDbLine
 10
71.79999999999999
 20
274.264
 30
0.0
 11
73.356589147287
 21
275.415875968992
 31
0.0
  0
LINE
  5
3C1
330
1E
100
AcDbEntity
  8
0
100
AcDbLine
 10
73.356589147287
 20
275.415875968992
 30
0.0
 11
74.5
 21
276.162
 31
0.0
  0
LINE
  5
3C3
330
1E
100
AcDbEntity
  8
0
100
AcDbLine
 10
74.5
 20
276.162
 30
0.0
 11
78.2
 21
280.612
 31
0.0
  0
LINE
  5
3C4
330
1E
100
AcDbEntity
  8
0
100
AcDbLine
 10
74.5
 20
276.162
 30
0.0
 11
75.4
 21
276.7279999999999
 31
0.0
  0
LINE
  5
3C5
330
1E
100
AcDbEntity
  8
0
100
AcDbLine
 10
75.4
 20
276.7279999999999
 30
0.0
 11
77.59999999999999
 21
279.259
 31
0.0
  0
LINE
  5
3C7
330
1E
100
AcDbEntity
  8
0
100
AcDbLine
 10
69.6973
 20
275.6329999999999
 30
0.0
 11
69.7676
 21
275.3899999999999
 31
0.0
  0
LINE
  5
3C8
330
1E
100
AcDbEntity
  8
0
100
AcDbLine
 10
69.33499999999999
 20
274.9569999999999
 30
0.0
 11
69.7676
 21
275.3899999999999
 31
0.0
  0
LINE
  5
3CB
330
1E
100
AcDbEntity
  8
0
100
AcDbLine
 10
66.69830000000001
 20
272.2059999999999
 30
0.0
 11
67.0745
 21
272.225
 31
0.0
  0
LINE
  5
3CC
330
1E
100
AcDbEntity
  8
0
100
AcDbLine
 10
66.02219999999999
 20
271.927
 30
0.0
 11
66.69830000000001
 21
272.2059999999999
 31
0.0
  0
LINE
  5
3CD
330
1E
100
AcDbEntity
  8
0
100
AcDbLine
 10
66.3745
 20
271.619
 30
0.0
 11
66.95
 21
271.986
 31
0.0
  0
LINE
  5
3CE
330
1E
100
AcDbEntity
  8
0
100
AcDbLine
 10
64.4548
 20
275.2639999999999
 30
0.0
 11
64.63639999999999
 21
275.002
 31
0.0
  0
LINE
  5
3D1
330
1E
100
AcDbEntity
  8
0
100
AcDbLine
 10
68.09090000000001
 20
281.602
 30
0.0
 11
68.1613
 21
282.103
 31
0.0
  0
LINE
  5
3D2
330
1E
100
AcDbEntity
  8
0
100
AcDbLine
 10
68.09090000000001
 20
281.602
 30
0.0
 11
68.5236
 21
281.427
 31
0.0
  0
LINE
  5
3D3
330
1E
100
AcDbEntity
  8
0
100
AcDbLine
 10
69.25159999999999
 20
277.9529999999999
 30
0.0
 11
69.8592
 21
278.104
 31
0.0
  0
LINE
  5
3D6
330
1E
100
AcDbEntity
  8
0
100
AcDbLine
 10
68.9912
 20
278.174
 30
0.0
 11
69.25159999999999
 21
278.653
 31
0.0
  0
LINE
  5
3D7
330
1E
100
AcDbEntity
  8
0
100
AcDbLine
 10
68.9912
 20
278.174
 30
0.0
 11
69.25159999999999
 21
277.9529999999999
 31
0.0
  0
LINE
  5
3D8
330
1E
100
AcDbEntity
  8
0
100
AcDbLine
 10
69.25159999999999
 20
278.653
 30
0.0
 11
69.8592
 21
279.104
 31
0.0
  0
LINE
  5
3D9
330
1E
100
AcDbEntity
  8
0
100
AcDbLine
 10
69.1881
 20
281.662
 30
0.0
 11
69.6973
 21
282.186
 31
0.0
  0
LINE
  5
3DA
330
1E
100
AcDbEntity
  8
0
100
AcDbLine
 10
68.5236
 20
281.427
 30
0.0
 11
69.1881
 21
281.662
 31
0.0
  0
LINE
  5
3DB
330
1E
100
AcDbEntity
  8
0
100
AcDbLine
 10
68.1613
 20
282.103
 30
0.0
 11
68.6705
 21
282.628
 31
0.0
  0
LINE
  5
3DD
330
1E
100
AcDbEntity
  8
0
100
AcDbLine
 10
65.2818063625807
 20
285.352919124781
 30
0.0
 11
65.32219999999999
 21
285.294
 31
0.0
  0
LINE
  5
3DE
330
1E
100
AcDbEntity
  8
0
100
AcDbLine
 10
66.02219999999999
 20
284.688
 30
0.0
 11
66.69830000000001
 21
285.0109999999999
 31
0.0
  0
LINE
  5
3DF
330
1E
100
AcDbEntity
  8
0
100
AcDbLine
 10
65.4467
 20
284.797
 30
0.0
 11
66.02219999999999
 21
284.688
 31
0.0
  0
LINE
  5
3E0
330
1E
100
AcDbEntity
  8
0
100
AcDbLine
 10
65.32219999999999
 20
285.294
 30
0.0
 11
65.6983
 21
285.877
 31
0.0
  0
LINE
  5
3E1
330
1E
100
AcDbEntity
  8
0
100
AcDbLine
 10
65.32219999999999
 20
285.294
 30
0.0
 11
65.4467
 21
284.797
 31
0.0
  0
LINE
  5
3E4
330
1E
100
AcDbEntity
  8
0
100
AcDbLine
 10
65.6983
 20
285.877
 30
0.0
 11
66.3745
 21
286.2
 31
0.0
  0
LINE
  5
3E6
330
1E
100
AcDbEntity
  8
0
100
AcDbLine
 10
66.95
 20
286.091
 30
0.0
 11
67.0745
 21
285.594
 31
0.0
  0
LINE
  5
3E7
330
1E
100
AcDbEntity
  8
0
100
AcDbLine
 10
66.69830000000001
 20
285.0109999999999
 30
0.0
 11
67.0745
 21
285.594
 31
0.0
  0
LINE
  5
3E8
330
1E
100
AcDbEntity
  8
0
100
AcDbLine
 10
66.3745
 20
286.2
 30
0.0
 11
66.95
 21
286.091
 31
0.0
  0
LINE
  5
3EB
330
1E
100
AcDbEntity
  8
0
100
AcDbLine
 10
68.6705
 20
282.628
 30
0.0
 11
69.33499999999999
 21
282.862
 31
0.0
  0
LINE
  5
3EC
330
1E
100
AcDbEntity
  8
0
100
AcDbLine
 10
70.4667
 20
278.555
 30
0.0
 11
70.72709999999999
 21
279.034
 31
0.0
  0
LINE
  5
3ED
330
1E
100
AcDbEntity
  8
0
100
AcDbLine
 10
69.8592
 20
278.104
 30
0.0
 11
70.4667
 21
278.555
 31
0.0
  0
LINE
  5
3F1
330
1E
100
AcDbEntity
  8
0
100
AcDbLine
 10
69.8592
 20
279.104
 30
0.0
 11
70.4667
 21
279.2549999999999
 31
0.0
  0
LINE
  5
3F3
330
1E
100
AcDbEntity
  8
0
100
AcDbLine
 10
77.59999999999999
 20
279.259
 30
0.0
 11
81.5
 21
284.059
 31
0.0
  0
LINE
  5
3F4
330
1E
100
AcDbEntity
  8
0
100
AcDbLine
 10
70.4667
 20
279.2549999999999
 30
0.0
 11
70.72709999999999
 21
279.034
 31
0.0
  0
LINE
  5
3F6
330
1E
100
AcDbEntity
  8
0
100
AcDbLine
 10
69.6973
 20
282.186
 30
0.0
 11
69.7676
 21
282.6869999999999
 31
0.0
  0
LINE
  5
3F7
330
1E
100
AcDbEntity
  8
0
100
AcDbLine
 10
69.33499999999999
 20
282.862
 30
0.0
 11
69.7676
 21
282.6869999999999
 31
0.0
  0
LINE
  5
3F8
330
1E
100
AcDbEntity
  8
0
100
AcDbLine
 10
64.4548
 20
277.834
 30
0.0
 11
64.63639999999999
 21
278.302
 31
0.0
  0
LINE
  5
3F9
330
1E
100
AcDbEntity
  8
0
100
AcDbLine
 10
64.27199999999999
 20
278.528
 30
0.0
 11
64.63639999999999
 21
278.302
 31
0.0
  0
LINE
  5
3FC
330
1E
100
AcDbEntity
  8
0
100
AcDbLine
 10
68.59999999999999
 20
298.412
 30
0.0
 11
74.5
 21
294.562
 31
0.0
  0
LINE
  5
3FF
330
1E
100
AcDbEntity
  8
0
100
AcDbLine
 10
74.5
 20
294.562
 30
0.0
 11
78.2
 21
290.112
 31
0.0
  0
LINE
  5
401
330
1E
100
AcDbEntity
  8
0
100
AcDbLine
 10
78.2
 20
280.612
 30
0.0
 11
79.5
 21
285.362
 31
0.0
  0
LINE
  5
402
330
1E
100
AcDbEntity
  8
0
100
AcDbLine
 10
81.5
 20
284.059
 30
0.0
 11
82.5
 21
286.074
 31
0.0
  0
LINE
  5
403
330
1E
100
AcDbEntity
  8
0
100
AcDbLine
 10
82.5
 20
286.074
 30
0.0
 11
84.0
 21
291.424
 31
0.0
  0
LINE
  5
404
330
1E
100
AcDbEntity
  8
0
100
AcDbLine
 10
78.2
 20
290.112
 30
0.0
 11
79.5
 21
285.362
 31
0.0
  0
LINE
  5
405
330
1E
100
AcDbEntity
  8
0
100
AcDbLine
 10
83.0
 20
300.2889999999999
 30
0.0
 11
84.50000000000001
 21
294.889
 31
0.0
  0
LINE
  5
408
330
1E
100
AcDbEntity
  8
0
100
AcDbLine
 10
78.79999999999999
 20
305.3889999999999
 30
0.0
 11
83.0
 21
300.2889999999999
 31
0.0
  0
LINE
  5
409
330
1E
100
AcDbEntity
  8
0
100
AcDbLine
 10
79.29999999999999
 20
306.305
 30
0.0
 11
83.49999999999999
 21
301.2049999999999
 31
0.0
  0
LINE
  5
40A
330
1E
100
AcDbEntity
  8
0
100
AcDbLine
 10
83.49999999999999
 20
301.2049999999999
 30
0.0
 11
85.0
 21
295.7549999999999
 31
0.0
  0
LINE
  5
40B
330
1E
100
AcDbEntity
  8
0
100
AcDbLine
 10
84.0
 20
291.424
 30
0.0
 11
84.50000000000001
 21
294.889
 31
0.0
  0
LINE
  5
40C
330
1E
100
AcDbEntity
  8
0
100
AcDbLine
 10
84.2116279069768
 20
292.8905813953489
 30
0.0
 11
85.0
 21
295.7549999999999
 31
0.0
  0
LINE
  5
40D
330
1E
100
AcDbEntity
  8
0
100
AcDbLine
 10
84.88082568807341
 20
300.5179999999999
 30
0.0
 11
85.0
 21
300.9509999999999
 31
0.0
  0
LINE
  5
40E
330
1E
100
AcDbEntity
  8
0
100
AcDbLine
 10
85.0
 20
300.0849999999999
 30
0.0
 11
85.0
 21
295.7549999999999
 31
0.0
  0
LINE
  5
40F
330
1E
100
AcDbEntity
  8
0
100
AcDbLine
 10
84.88082568807341
 20
300.5179999999999
 30
0.0
 11
85.0
 21
300.9509999999999
 31
0.0
  0
LINE
  5
410
330
1E
100
AcDbEntity
  8
0
100
AcDbLine
 10
85.0
 20
295.7549999999999
 30
0.0
 11
85.0
 21
300.0849999999999
 31
0.0
  0
LINE
  5
411
330
1E
100
AcDbEntity
  8
0
100
AcDbLine
 10
83.49999999999999
 20
305.535
 30
0.0
 11
85.0
 21
300.0849999999999
 31
0.0
  0
LINE
  5
412
330
1E
100
AcDbEntity
  8
0
100
AcDbLine
 10
71.79999999999999
 20
309.972
 30
0.0
 11
72.2
 21
309.739
 31
0.0
  0
LINE
  5
413
330
1E
100
AcDbEntity
  8
0
100
AcDbLine
 10
72.2
 20
309.739
 30
0.0
 11
78.79999999999999
 21
305.3889999999999
 31
0.0
  0
LINE
  5
414
330
1E
100
AcDbEntity
  8
0
100
AcDbLine
 10
72.5
 20
310.7549999999999
 30
0.0
 11
79.29999999999999
 21
306.305
 31
0.0
  0
LINE
  5
415
330
1E
100
AcDbEntity
  8
0
100
AcDbLine
 10
76.91459999999999
 20
315.3379999999999
 30
0.0
 11
80.78360000000001
 21
310.552
 31
0.0
  0
LINE
  5
417
330
1E
100
AcDbEntity
  8
0
100
AcDbLine
 10
72.5
 20
315.9509999999999
 30
0.0
 11
79.29999999999999
 21
311.5009999999999
 31
0.0
  0
LINE
  5
418
330
1E
100
AcDbEntity
  8
0
100
AcDbLine
 10
72.2
 20
315.368
 30
0.0
 11
78.79999999999999
 21
311.0179999999999
 31
0.0
  0
LINE
  5
419
330
1E
100
AcDbEntity
  8
0
100
AcDbLine
 10
80.78360000000001
 20
310.552
 30
0.0
 11
83.49999999999999
 21
306.401
 31
0.0
  0
LINE
  5
41A
330
1E
100
AcDbEntity
  8
0
100
AcDbLine
 10
79.29999999999999
 20
310.6349999999999
 30
0.0
 11
83.49999999999999
 21
305.535
 31
0.0
  0
LINE
  5
41B
330
1E
100
AcDbEntity
  8
0
100
AcDbLine
 10
79.29999999999999
 20
311.5009999999999
 30
0.0
 11
83.49999999999999
 21
306.401
 31
0.0
  0
LINE
  5
41D
330
1E
100
AcDbEntity
  8
0
100
AcDbLine
 10
78.79999999999999
 20
311.0179999999999
 30
0.0
 11
79.29999999999999
 21
310.6349999999999
 31
0.0
  0
LINE
  5
41E
330
1E
100
AcDbEntity
  8
0
100
AcDbLine
 10
83.49999999999999
 20
306.401
 30
0.0
 11
85.0
 21
300.9509999999999
 31
0.0
  0
LINE
  5
420
330
1E
100
AcDbEntity
  8
0
100
AcDbLine
 10
72.4345
 20
320.079
 30
0.0
 11
76.91459999999999
 21
315.3379999999999
 31
0.0
  0
LINE
  5
421
330
1E
100
AcDbEntity
  8
0
100
AcDbLine
 10
66.93640000000001
 20
323.694
 30
0.0
 11
72.4345
 21
320.079
 31
0.0
  0
LINE
  5
422
330
1E
100
AcDbEntity
  8
0
100
AcDbLine
 10
63.6
 20
319.3509999999999
 30
0.0
 11
72.5
 21
315.9509999999999
 31
0.0
  0
LINE
  5
423
330
1E
100
AcDbEntity
  8
0
100
AcDbLine
 10
63.5
 20
318.6679999999999
 30
0.0
 11
72.2
 21
315.368
 31
0.0
  0
LINE
  5
424
330
1E
100
AcDbEntity
  8
0
100
AcDbLine
 10
56.7
 20
191.22
 30
0.0
 11
56.79999999999999
 21
190.7199999999999
 31
0.0
  0
LINE
  5
425
330
1E
100
AcDbEntity
  8
0
100
AcDbLine
 10
56.366908305637
 20
191.619710033236
 30
0.0
 11
56.7
 21
191.22
 31
0.0
  0
LINE
  5
426
330
1E
100
AcDbEntity
  8
0
100
AcDbLine
 10
32.5891
 20
171.7759999999999
 30
0.0
 11
33.0003
 21
169.799
 31
0.0
  0
LINE
  5
427
330
1E
100
AcDbEntity
  8
0
100
AcDbLine
 10
31.9859816672419
 20
173.7364749416969
 30
0.0
 11
32.5891
 21
171.7759999999999
 31
0.0
  0
LINE
  5
429
330
1E
100
AcDbEntity
  8
0
100
AcDbLine
 10
28.3
 20
191.22
 30
0.0
 11
28.633091694363
 21
191.619710033236
 31
0.0
  0
LINE
  5
42E
330
1E
100
AcDbEntity
  8
0
100
AcDbLine
 10
26.77272727272729
 20
171.0381818181819
 30
0.0
 11
26.5
 21
163.68
 31
0.0
  0
LINE
  5
42F
330
1E
100
AcDbEntity
  8
0
100
AcDbLine
 10
58.2272727272727
 20
171.0381818181819
 30
0.0
 11
58.4982357092449
 21
164.250158786168
 31
0.0
  0
ENDSEC
  0
SECTION
  2
OBJECTS
  0
DICTIONARY
  5
C
330
0
100
AcDbDictionary
281
     1
  3
ACAD_GROUP
350
D
  3
ACAD_LAYOUT
350
19
  3
ACAD_MLINESTYLE
350
16
  3
ACAD_PLOTSETTINGS
350
18
  3
ACAD_PLOTSTYLENAME
350
E
  3
AcDbVariableDictionary
350
430
  0
DICTIONARY
  5
D
102
{ACAD_REACTORS
330
C
102
}
330
C
100
AcDbDictionary
281
     1
  0
DICTIONARY
  5
19
102
{ACAD_REACTORS
330
C
102
}
330
C
100
AcDbDictionary
281
     1
  3
Layout1
350
1D
  3
Model
350
21
  0
DICTIONARY
  5
16
102
{ACAD_REACTORS
330
C
102
}
330
C
100
AcDbDictionary
281
     1
  3
Standard
350
17
  0
DICTIONARY
  5
18
102
{ACAD_REACTORS
330
C
102
}
330
C
100
AcDbDictionary
281
     1
  0
ACDBDICTIONARYWDFLT
  5
E
102
{ACAD_REACTORS
330
C
102
}
330
C
100
AcDbDictionary
281
     1
  3
Normal
350
F
100
AcDbDictionaryWithDefault
340
F
  0
DICTIONARY
  5
430
102
{ACAD_REACTORS
330
C
102
}
330
C
100
AcDbDictionary
281
     1
  3
DIMASSOC
350
431
  0
LAYOUT
  5
1D
102
{ACAD_REACTORS
330
19
102
}
330
19
100
AcDbPlotSettings
  1

  2
hp deskjet 980c series
  4

  6

 40
0.0
 41
0.0
 42
0.0
 43
0.0
 44
0.0
 45
0.0
 46
0.0
 47
0.0
 48
0.0
 49
0.0
140
0.0
141
0.0
142
1.0
143
1.0
 70
   688
 72
     0
 73
     0
 74
     5
  7

 75
    16
147
1.0
148
0.0
149
0.0
100
AcDbLayout
  1
Layout1
 70
     1
 71
     1
 10
0.0
 20
0.0
 11
12.0
 21
9.0
 12
0.0
 22
0.0
 32
0.0
 14
1.000000000000000E+20
 24
1.000000000000000E+20
 34
1.000000000000000E+20
 15
-1.000000000000000E+20
 25
-1.000000000000000E+20
 35
-1.000000000000000E+20
146
0.0
 13
0.0
 23
0.0
 33
0.0
 16
1.0
 26
0.0
 36
0.0
 17
0.0
 27
1.0
 37
0.0
 76
     0
330
1A
  0
LAYOUT
  5
21
102
{ACAD_REACTORS
330
19
102
}
330
19
100
AcDbPlotSettings
  1

  2
hp deskjet 980c series
  4

  6

 40
0.0
 41
0.0
 42
0.0
 43
0.0
 44
0.0
 45
0.0
 46
0.0
 47
0.0
 48
0.0
 49
0.0
140
0.0
141
0.0
142
1.0
143
1.0
 70
  1712
 72
     0
 73
     0
 74
     0
  7

 75
     0
147
1.0
148
0.0
149
0.0
100
AcDbLayout
  1
Model
 70
     1
 71
     0
 10
0.0
 20
0.0
 11
12.0
 21
9.0
 12
0.0
 22
0.0
 32
0.0
 14
0.0
 24
0.0
 34
0.0
 15
0.0
 25
0.0
 35
0.0
146
0.0
 13
0.0
 23
0.0
 33
0.0
 16
1.0
 26
0.0
 36
0.0
 17
0.0
 27
1.0
 37
0.0
 76
     0
330
1E
  0
MLINESTYLE
  5
17
102
{ACAD_REACTORS
330
16
102
}
330
16
100
AcDbMlineStyle
  2
STANDARD
 70
     0
  3

 62
   256
 51
90.0
 52
90.0
 71
     2
 49
0.5
 62
   256
  6
BYLAYER
 49
-0.5
 62
   256
  6
BYLAYER
  0
ACDBPLACEHOLDER
  5
F
102
{ACAD_REACTORS
330
E
102
}
330
E
  0
DICTIONARYVAR
  5
431
102
{ACAD_REACTORS
330
430
102
}
330
430
100
DictionaryVariables
280
     0
  1
1
  0
ENDSEC
  0
EOF
