  0
SECTION
  2
HEADER
  9
$ACADVER
  1
AC1014
  9
$ACADMAINTVER
 70
     9
  9
$DWGCODEPAGE
  3
ANSI_1252
  9
$INSBASE
 10
0.0
 20
0.0
 30
0.0
  9
$EXTMIN
 10
0.0000000000000032
 20
-0.12430249999999
 30
0.0
  9
$EXTMAX
 10
114.0
 20
207.1243025
 30
0.0
  9
$LIMMIN
 10
0.0
 20
0.0
  9
$LIMMAX
 10
12.0
 20
9.0
  9
$ORTHOMODE
 70
     0
  9
$REGENMODE
 70
     1
  9
$FILLMODE
 70
     1
  9
$QTEXTMODE
 70
     0
  9
$MIRRTEXT
 70
     1
  9
$DRAGMODE
 70
     2
  9
$LTSCALE
 40
1.0
  9
$OSMODE
 70
    37
  9
$ATTMODE
 70
     1
  9
$TEXTSIZE
 40
0.2
  9
$TRACEWID
 40
0.05
  9
$TEXTSTYLE
  7
STANDARD
  9
$CLAYER
  8
0
  9
$CELTYPE
  6
CONTINUOUS
  9
$CECOLOR
 62
   256
  9
$CELTSCALE
 40
1.0
  9
$DELOBJ
 70
     1
  9
$DISPSILH
 70
     0
  9
$DIMSCALE
 40
1.0
  9
$DIMASZ
 40
0.18
  9
$DIMEXO
 40
0.0625
  9
$DIMDLI
 40
0.38
  9
$DIMRND
 40
0.0
  9
$DIMDLE
 40
0.0
  9
$DIMEXE
 40
0.18
  9
$DIMTP
 40
0.0
  9
$DIMTM
 40
0.0
  9
$DIMTXT
 40
0.18
  9
$DIMCEN
 40
0.09
  9
$DIMTSZ
 40
0.0
  9
$DIMTOL
 70
     0
  9
$DIMLIM
 70
     0
  9
$DIMTIH
 70
     1
  9
$DIMTOH
 70
     1
  9
$DIMSE1
 70
     0
  9
$DIMSE2
 70
     0
  9
$DIMTAD
 70
     0
  9
$DIMZIN
 70
     0
  9
$DIMBLK
  1

  9
$DIMASO
 70
     1
  9
$DIMSHO
 70
     1
  9
$DIMPOST
  1

  9
$DIMAPOST
  1

  9
$DIMALT
 70
     0
  9
$DIMALTD
 70
     2
  9
$DIMALTF
 40
25.4
  9
$DIMLFAC
 40
1.0
  9
$DIMTOFL
 70
     0
  9
$DIMTVP
 40
0.0
  9
$DIMTIX
 70
     0
  9
$DIMSOXD
 70
     0
  9
$DIMSAH
 70
     0
  9
$DIMBLK1
  1

  9
$DIMBLK2
  1

  9
$DIMSTYLE
  2
STANDARD
  9
$DIMCLRD
 70
     0
  9
$DIMCLRE
 70
     0
  9
$DIMCLRT
 70
     0
  9
$DIMTFAC
 40
1.0
  9
$DIMGAP
 40
0.09
  9
$DIMJUST
 70
     0
  9
$DIMSD1
 70
     0
  9
$DIMSD2
 70
     0
  9
$DIMTOLJ
 70
     1
  9
$DIMTZIN
 70
     0
  9
$DIMALTZ
 70
     0
  9
$DIMALTTZ
 70
     0
  9
$DIMFIT
 70
     3
  9
$DIMUPT
 70
     0
  9
$DIMUNIT
 70
     2
  9
$DIMDEC
 70
     4
  9
$DIMTDEC
 70
     4
  9
$DIMALTU
 70
     2
  9
$DIMALTTD
 70
     2
  9
$DIMTXSTY
  7
STANDARD
  9
$DIMAUNIT
 70
     0
  9
$LUNITS
 70
     2
  9
$LUPREC
 70
     4
  9
$SKETCHINC
 40
0.1
  9
$FILLETRAD
 40
0.0
  9
$AUNITS
 70
     0
  9
$AUPREC
 70
     0
  9
$MENU
  1
.
  9
$ELEVATION
 40
0.0
  9
$PELEVATION
 40
0.0
  9
$THICKNESS
 40
0.0
  9
$LIMCHECK
 70
     0
  9
$BLIPMODE
 70
     0
  9
$CHAMFERA
 40
0.0
  9
$CHAMFERB
 40
0.0
  9
$CHAMFERC
 40
0.0
  9
$CHAMFERD
 40
0.0
  9
$SKPOLY
 70
     0
  9
$TDCREATE
 40
2454698.442452071
  9
$TDUPDATE
 40
2454698.444666516
  9
$TDINDWG
 40
0.0022146296
  9
$TDUSRTIMER
 40
0.0022146296
  9
$USRTIMER
 70
     1
  9
$ANGBASE
 50
0.0
  9
$ANGDIR
 70
     0
  9
$PDMODE
 70
     0
  9
$PDSIZE
 40
0.0
  9
$PLINEWID
 40
0.0
  9
$COORDS
 70
     1
  9
$SPLFRAME
 70
     0
  9
$SPLINETYPE
 70
     6
  9
$SPLINESEGS
 70
     8
  9
$ATTDIA
 70
     0
  9
$ATTREQ
 70
     1
  9
$HANDLING
 70
 22529
  9
$HANDSEED
  5
164
  9
$SURFTAB1
 70
     6
  9
$SURFTAB2
 70
     6
  9
$SURFTYPE
 70
     6
  9
$SURFU
 70
     6
  9
$SURFV
 70
     6
  9
$UCSNAME
  2

  9
$UCSORG
 10
0.0
 20
0.0
 30
0.0
  9
$UCSXDIR
 10
1.0
 20
0.0
 30
0.0
  9
$UCSYDIR
 10
0.0
 20
1.0
 30
0.0
  9
$PUCSNAME
  2

  9
$PUCSORG
 10
0.0
 20
0.0
 30
0.0
  9
$PUCSXDIR
 10
1.0
 20
0.0
 30
0.0
  9
$PUCSYDIR
 10
0.0
 20
1.0
 30
0.0
  9
$USERI1
 70
     0
  9
$USERI2
 70
     0
  9
$USERI3
 70
     0
  9
$USERI4
 70
     0
  9
$USERI5
 70
     0
  9
$USERR1
 40
0.0
  9
$USERR2
 40
0.0
  9
$USERR3
 40
0.0
  9
$USERR4
 40
0.0
  9
$USERR5
 40
0.0
  9
$WORLDVIEW
 70
     1
  9
$SHADEDGE
 70
     3
  9
$SHADEDIF
 70
    70
  9
$TILEMODE
 70
     1
  9
$MAXACTVP
 70
    64
  9
$PINSBASE
 10
0.0
 20
0.0
 30
0.0
  9
$PLIMCHECK
 70
     0
  9
$PEXTMIN
 10
1.000000000000000E+20
 20
1.000000000000000E+20
 30
1.000000000000000E+20
  9
$PEXTMAX
 10
-1.000000000000000E+20
 20
-1.000000000000000E+20
 30
-1.000000000000000E+20
  9
$PLIMMIN
 10
0.0
 20
0.0
  9
$PLIMMAX
 10
12.0
 20
9.0
  9
$UNITMODE
 70
     0
  9
$VISRETAIN
 70
     1
  9
$PLINEGEN
 70
     0
  9
$PSLTSCALE
 70
     1
  9
$TREEDEPTH
 70
  3020
  9
$PICKSTYLE
 70
     1
  9
$CMLSTYLE
  2
STANDARD
  9
$CMLJUST
 70
     0
  9
$CMLSCALE
 40
1.0
  9
$PROXYGRAPHICS
 70
     1
  9
$MEASUREMENT
 70
     0
  0
ENDSEC
  0
SECTION
  2
CLASSES
  0
CLASS
  1
ACDBDICTIONARYWDFLT
  2
AcDbDictionaryWithDefault
  3
AutoCAD 2000
 90
        0
280
     0
281
     0
  0
CLASS
  1
ACDBPLACEHOLDER
  2
AcDbPlaceHolder
  3
AutoCAD 2000
 90
        0
280
     0
281
     0
  0
CLASS
  1
LAYOUT
  2
AcDbLayout
  3
AutoCAD 2000
 90
        0
280
     0
281
     0
  0
CLASS
  1
DICTIONARYVAR
  2
AcDbDictionaryVar
  3
AutoCAD 2000
 90
        0
280
     0
281
     0
  0
CLASS
  1
LONG_TRANSACTION
  2
AcDbLongTransaction
  3
AutoCAD 2000
 90
        0
280
     0
281
     0
  0
CLASS
  1
LWPOLYLINE
  2
AcDbPolyline
  3
AutoCAD 2000
 90
        0
280
     0
281
     1
  0
CLASS
  1
HATCH
  2
AcDbHatch
  3
AutoCAD 2000
 90
        0
280
     0
281
     1
  0
CLASS
  1
XRECORD
  2
AcDbXrecord
  3
AutoCAD 2000
 90
        0
280
     0
281
     0
  0
ENDSEC
  0
SECTION
  2
TABLES
  0
TABLE
  2
VPORT
  5
8
330
0
100
AcDbSymbolTable
 70
     2
  0
VPORT
  5
13F
330
8
100
AcDbSymbolTableRecord
100
AcDbViewportTableRecord
  2
*ACTIVE
 70
     0
 10
0.0
 20
0.0
 11
1.0
 21
1.0
 12
57.0
 22
103.5
 13
0.0
 23
0.0
 14
1.0
 24
1.0
 15
0.0
 25
0.0
 16
0.0
 26
0.0
 36
1.0
 17
0.0
 27
0.0
 37
0.0
 40
208.8387477493605
 41
2.078104993597951
 42
50.0
 43
0.0
 44
0.0
 50
0.0
 51
0.0
 71
     0
 72
   100
 73
     1
 74
     3
 75
     0
 76
     0
 77
     0
 78
     0
  0
ENDTAB
  0
TABLE
  2
LTYPE
  5
5
330
0
100
AcDbSymbolTable
 70
     1
  0
LTYPE
  5
13
330
5
100
AcDbSymbolTableRecord
100
AcDbLinetypeTableRecord
  2
BYBLOCK
 70
     0
  3

 72
    65
 73
     0
 40
0.0
  0
LTYPE
  5
14
330
5
100
AcDbSymbolTableRecord
100
AcDbLinetypeTableRecord
  2
BYLAYER
 70
     0
  3

 72
    65
 73
     0
 40
0.0
  0
LTYPE
  5
15
330
5
100
AcDbSymbolTableRecord
100
AcDbLinetypeTableRecord
  2
CONTINUOUS
 70
     0
  3
Solid line
 72
    65
 73
     0
 40
0.0
  0
ENDTAB
  0
TABLE
  2
LAYER
  5
2
330
0
100
AcDbSymbolTable
 70
     1
  0
LAYER
  5
10
330
2
100
AcDbSymbolTableRecord
100
AcDbLayerTableRecord
  2
0
 70
     0
 62
     7
  6
CONTINUOUS
  0
ENDTAB
  0
TABLE
  2
STYLE
  5
3
330
0
100
AcDbSymbolTable
 70
     1
  0
STYLE
  5
11
330
3
100
AcDbSymbolTableRecord
100
AcDbTextStyleTableRecord
  2
STANDARD
 70
     0
 40
0.0
 41
1.0
 50
0.0
 71
     0
 42
0.2
  3
txt
  4

  0
ENDTAB
  0
TABLE
  2
VIEW
  5
6
330
0
100
AcDbSymbolTable
 70
     0
  0
ENDTAB
  0
TABLE
  2
UCS
  5
7
330
0
100
AcDbSymbolTable
 70
     0
  0
ENDTAB
  0
TABLE
  2
APPID
  5
9
330
0
100
AcDbSymbolTable
 70
     1
  0
APPID
  5
12
330
9
100
AcDbSymbolTableRecord
100
AcDbRegAppTableRecord
  2
ACAD
 70
     0
  0
ENDTAB
  0
TABLE
  2
DIMSTYLE
  5
A
330
0
100
AcDbSymbolTable
 70
     1
  0
DIMSTYLE
105
139
330
A
100
AcDbSymbolTableRecord
100
AcDbDimStyleTableRecord
  2
STANDARD
 70
     0
  3

  4

  5

  6

  7

 40
1.0
 41
0.18
 42
0.0625
 43
0.38
 44
0.18
 45
0.0
 46
0.0
 47
0.0
 48
0.0
140
0.18
141
0.09
142
0.0
143
25.4
144
1.0
145
0.0
146
1.0
147
0.09
 71
     0
 72
     0
 73
     1
 74
     1
 75
     0
 76
     0
 77
     0
 78
     0
170
     0
171
     2
172
     0
173
     0
174
     0
175
     0
176
     0
177
     0
178
     0
270
     2
271
     4
272
     4
273
     2
274
     2
340
11
275
     0
280
     0
281
     0
282
     0
283
     1
284
     0
285
     0
286
     0
287
     3
288
     0
  0
ENDTAB
  0
TABLE
  2
BLOCK_RECORD
  5
1
330
0
100
AcDbSymbolTable
 70
     0
  0
BLOCK_RECORD
  5
1E
102
{ACAD_XDICTIONARY
360
162
102
}
330
1
100
AcDbSymbolTableRecord
100
AcDbBlockTableRecord
  2
*MODEL_SPACE
  0
BLOCK_RECORD
  5
1A
102
{ACAD_XDICTIONARY
360
160
102
}
330
1
100
AcDbSymbolTableRecord
100
AcDbBlockTableRecord
  2
*PAPER_SPACE
  0
ENDTAB
  0
ENDSEC
  0
SECTION
  2
BLOCKS
  0
BLOCK
  5
1F
330
1E
100
AcDbEntity
  8
0
100
AcDbBlockBegin
  2
*MODEL_SPACE
 70
     0
 10
0.0
 20
0.0
 30
0.0
  3
*MODEL_SPACE
  1

  0
ENDBLK
  5
20
330
1E
100
AcDbEntity
  8
0
100
AcDbBlockEnd
  0
BLOCK
  5
1B
330
1A
100
AcDbEntity
 67
     1
  8
0
100
AcDbBlockBegin
  2
*PAPER_SPACE
 70
     0
 10
0.0
 20
0.0
 30
0.0
  3
*PAPER_SPACE
  1

  0
ENDBLK
  5
1C
330
1A
100
AcDbEntity
 67
     1
  8
0
100
AcDbBlockEnd
  0
ENDSEC
  0
SECTION
  2
ENTITIES
  0
LINE
  5
22
330
1E
100
AcDbEntity
  8
0
100
AcDbLine
 10
2.1
 20
36.8256025
 30
0.0
 11
4.4
 21
30.6768025
 31
0.0
  0
LINE
  5
23
330
1E
100
AcDbEntity
  8
0
100
AcDbLine
 10
0.6000000000000029
 20
43.1475025
 30
0.0
 11
2.1
 21
36.8256025
 31
0.0
  0
LINE
  5
24
330
1E
100
AcDbEntity
  8
0
100
AcDbLine
 10
3.5
 20
53.8061025
 30
0.0
 11
4.0
 21
59.8683025
 31
0.0
  0
LINE
  5
25
330
1E
100
AcDbEntity
  8
0
100
AcDbLine
 10
3.5
 20
53.8061025
 30
0.0
 11
3.5
 21
53.5561025
 31
0.0
  0
LINE
  5
26
330
1E
100
AcDbEntity
  8
0
100
AcDbLine
 10
57.0
 20
-0.12430249999999
 30
0.0
 11
64.29999999999999
 21
0.39531250000001
 31
0.0
  0
LINE
  5
27
330
1E
100
AcDbEntity
  8
0
100
AcDbLine
 10
49.7
 20
0.39531250000001
 30
0.0
 11
57.0
 21
-0.12430249999999
 31
0.0
  0
LINE
  5
2A
330
1E
100
AcDbEntity
  8
0
100
AcDbLine
 10
28.9
 20
6.457492500000009
 30
0.0
 11
35.4
 21
3.686212500000009
 31
0.0
  0
LINE
  5
2B
330
1E
100
AcDbEntity
  8
0
100
AcDbLine
 10
35.4
 20
3.686212500000009
 30
0.0
 11
42.4
 21
1.60775250000001
 31
0.0
  0
LINE
  5
2C
330
1E
100
AcDbEntity
  8
0
100
AcDbLine
 10
35.4
 20
3.686212500000009
 30
0.0
 11
42.4
 21
1.60775250000001
 31
0.0
  0
LINE
  5
2D
330
1E
100
AcDbEntity
  8
0
100
AcDbLine
 10
42.4
 20
1.60775250000001
 30
0.0
 11
49.7
 21
0.39531250000001
 31
0.0
  0
LINE
  5
2E
330
1E
100
AcDbEntity
  8
0
100
AcDbLine
 10
42.4
 20
1.60775250000001
 30
0.0
 11
49.7
 21
0.39531250000001
 31
0.0
  0
LINE
  5
2F
330
1E
100
AcDbEntity
  8
0
100
AcDbLine
 10
49.7
 20
0.39531250000001
 30
0.0
 11
57.0
 21
-0.12430249999999
 31
0.0
  0
LINE
  5
30
330
1E
100
AcDbEntity
  8
0
100
AcDbLine
 10
43.3
 20
8.302232500000009
 30
0.0
 11
50.1
 21
7.089802500000009
 31
0.0
  0
LINE
  5
31
330
1E
100
AcDbEntity
  8
0
100
AcDbLine
 10
50.1
 20
7.089802500000009
 30
0.0
 11
57.0
 21
6.656782500000009
 31
0.0
  0
LINE
  5
34
330
1E
100
AcDbEntity
  8
0
100
AcDbLine
 10
36.79999999999999
 20
10.20750249999999
 30
0.0
 11
43.3
 21
8.302232500000009
 31
0.0
  0
LINE
  5
35
330
1E
100
AcDbEntity
  8
0
100
AcDbLine
 10
24.8
 20
16.1831025
 30
0.0
 11
30.6
 21
12.80560249999999
 31
0.0
  0
LINE
  5
36
330
1E
100
AcDbEntity
  8
0
100
AcDbLine
 10
30.6
 20
12.80560249999999
 30
0.0
 11
36.79999999999999
 21
10.20750249999999
 31
0.0
  0
LINE
  5
38
330
1E
100
AcDbEntity
  8
0
100
AcDbLine
 10
16.8
 20
14.7419025
 30
0.0
 11
22.7
 21
10.09480249999999
 31
0.0
  0
LINE
  5
39
330
1E
100
AcDbEntity
  8
0
100
AcDbLine
 10
22.7
 20
10.09480249999999
 30
0.0
 11
28.9
 21
6.457492500000009
 31
0.0
  0
LINE
  5
3A
330
1E
100
AcDbEntity
  8
0
100
AcDbLine
 10
11.9
 20
19.5050025
 30
0.0
 11
16.8
 21
14.7419025
 31
0.0
  0
LINE
  5
3B
330
1E
100
AcDbEntity
  8
0
100
AcDbLine
 10
26.89999999999999
 20
28.8579025
 30
0.0
 11
32.4
 21
25.65360249999999
 31
0.0
  0
LINE
  5
3C
330
1E
100
AcDbEntity
  8
0
100
AcDbLine
 10
32.4
 20
25.65360249999999
 30
0.0
 11
38.1
 21
23.3154025
 31
0.0
  0
LINE
  5
3D
330
1E
100
AcDbEntity
  8
0
100
AcDbLine
 10
38.1
 20
23.3154025
 30
0.0
 11
44.2
 21
21.49670249999999
 31
0.0
  0
LINE
  5
3E
330
1E
100
AcDbEntity
  8
0
100
AcDbLine
 10
44.2
 20
21.49670249999999
 30
0.0
 11
50.6
 21
20.37090249999999
 31
0.0
  0
LINE
  5
3F
330
1E
100
AcDbEntity
  8
0
100
AcDbLine
 10
50.6
 20
20.37090249999999
 30
0.0
 11
57.0
 21
19.93790249999999
 31
0.0
  0
LINE
  5
40
330
1E
100
AcDbEntity
  8
0
100
AcDbLine
 10
19.6
 20
20.16680249999999
 30
0.0
 11
24.8
 21
16.1831025
 31
0.0
  0
LINE
  5
41
330
1E
100
AcDbEntity
  8
0
100
AcDbLine
 10
15.0
 20
24.67010249999999
 30
0.0
 11
19.6
 21
20.16680249999999
 31
0.0
  0
LINE
  5
42
330
1E
100
AcDbEntity
  8
0
100
AcDbLine
 10
11.1
 20
29.6931025
 30
0.0
 11
15.0
 21
24.67010249999999
 31
0.0
  0
LINE
  5
43
330
1E
100
AcDbEntity
  8
0
100
AcDbLine
 10
7.599999999999999
 20
24.9610025
 30
0.0
 11
11.9
 21
19.5050025
 31
0.0
  0
LINE
  5
44
330
1E
100
AcDbEntity
  8
0
100
AcDbLine
 10
5.4
 20
41.60500250000001
 30
0.0
 11
7.7
 21
35.8892025
 31
0.0
  0
LINE
  5
45
330
1E
100
AcDbEntity
  8
0
100
AcDbLine
 10
7.7
 20
35.8892025
 30
0.0
 11
8.099999999999999
 21
35.0624025
 31
0.0
  0
LINE
  5
46
330
1E
100
AcDbEntity
  8
0
100
AcDbLine
 10
4.0
 20
47.49400249999999
 30
0.0
 11
5.4
 21
41.60500250000001
 31
0.0
  0
LINE
  5
47
330
1E
100
AcDbEntity
  8
0
100
AcDbLine
 10
22.1
 20
32.5818025
 30
0.0
 11
26.89999999999999
 21
28.8579025
 31
0.0
  0
LINE
  5
48
330
1E
100
AcDbEntity
  8
0
100
AcDbLine
 10
17.8
 20
36.7388025
 30
0.0
 11
22.1
 21
32.5818025
 31
0.0
  0
LINE
  5
49
330
1E
100
AcDbEntity
  8
0
100
AcDbLine
 10
14.1
 20
41.5019025
 30
0.0
 11
17.8
 21
36.7388025
 31
0.0
  0
LINE
  5
4A
330
1E
100
AcDbEntity
  8
0
100
AcDbLine
 10
11.4
 20
46.4382025
 30
0.0
 11
14.1
 21
41.5019025
 31
0.0
  0
LINE
  5
4B
330
1E
100
AcDbEntity
  8
0
100
AcDbLine
 10
9.3
 20
51.7210025
 30
0.0
 11
11.4
 21
46.4382025
 31
0.0
  0
LINE
  5
4C
330
1E
100
AcDbEntity
  8
0
100
AcDbLine
 10
8.099999999999999
 20
35.0624025
 30
0.0
 11
11.1
 21
29.6931025
 31
0.0
  0
LINE
  5
4D
330
1E
100
AcDbEntity
  8
0
100
AcDbLine
 10
4.4
 20
30.6768025
 30
0.0
 11
7.599999999999999
 21
24.9610025
 31
0.0
  0
LINE
  5
4E
330
1E
100
AcDbEntity
  8
0
100
AcDbLine
 10
63.39999999999999
 20
20.37090249999999
 30
0.0
 11
69.8
 21
21.49670249999999
 31
0.0
  0
LINE
  5
4F
330
1E
100
AcDbEntity
  8
0
100
AcDbLine
 10
57.0
 20
19.93790249999999
 30
0.0
 11
63.39999999999999
 21
20.37090249999999
 31
0.0
  0
LINE
  5
50
330
1E
100
AcDbEntity
  8
0
100
AcDbLine
 10
63.9
 20
7.089802500000009
 30
0.0
 11
70.7
 21
8.302232500000009
 31
0.0
  0
LINE
  5
51
330
1E
100
AcDbEntity
  8
0
100
AcDbLine
 10
57.0
 20
6.656782500000009
 30
0.0
 11
63.9
 21
7.089802500000009
 31
0.0
  0
LINE
  5
52
330
1E
100
AcDbEntity
  8
0
100
AcDbLine
 10
64.29999999999999
 20
0.39531250000001
 30
0.0
 11
71.6
 21
1.60775250000001
 31
0.0
  0
LINE
  5
54
330
1E
100
AcDbEntity
  8
0
100
AcDbLine
 10
71.6
 20
1.60775250000001
 30
0.0
 11
78.59999999999999
 21
3.686212500000009
 31
0.0
  0
LINE
  5
55
330
1E
100
AcDbEntity
  8
0
100
AcDbLine
 10
69.8
 20
21.49670249999999
 30
0.0
 11
75.9
 21
23.3154025
 31
0.0
  0
LINE
  5
56
330
1E
100
AcDbEntity
  8
0
100
AcDbLine
 10
75.9
 20
23.3154025
 30
0.0
 11
81.6
 21
25.65360249999999
 31
0.0
  0
LINE
  5
57
330
1E
100
AcDbEntity
  8
0
100
AcDbLine
 10
77.2
 20
10.20750249999999
 30
0.0
 11
83.40000000000001
 21
12.80560249999999
 31
0.0
  0
LINE
  5
58
330
1E
100
AcDbEntity
  8
0
100
AcDbLine
 10
70.7
 20
8.302232500000009
 30
0.0
 11
77.2
 21
10.20750249999999
 31
0.0
  0
LINE
  5
5B
330
1E
100
AcDbEntity
  8
0
100
AcDbLine
 10
81.6
 20
25.65360249999999
 30
0.0
 11
87.09999999999999
 21
28.8579025
 31
0.0
  0
LINE
  5
5C
330
1E
100
AcDbEntity
  8
0
100
AcDbLine
 10
87.09999999999999
 20
28.8579025
 30
0.0
 11
91.90000000000001
 21
32.5818025
 31
0.0
  0
LINE
  5
5D
330
1E
100
AcDbEntity
  8
0
100
AcDbLine
 10
89.19999999999999
 20
16.1831025
 30
0.0
 11
94.40000000000001
 21
20.16680249999999
 31
0.0
  0
LINE
  5
5E
330
1E
100
AcDbEntity
  8
0
100
AcDbLine
 10
83.40000000000001
 20
12.80560249999999
 30
0.0
 11
89.19999999999999
 21
16.1831025
 31
0.0
  0
LINE
  5
60
330
1E
100
AcDbEntity
  8
0
100
AcDbLine
 10
94.40000000000001
 20
20.16680249999999
 30
0.0
 11
99.0
 21
24.67010249999999
 31
0.0
  0
LINE
  5
61
330
1E
100
AcDbEntity
  8
0
100
AcDbLine
 10
99.0
 20
24.67010249999999
 30
0.0
 11
102.9
 21
29.6931025
 31
0.0
  0
LINE
  5
62
330
1E
100
AcDbEntity
  8
0
100
AcDbLine
 10
97.2
 20
14.7419025
 30
0.0
 11
102.0999999999999
 21
19.5050025
 31
0.0
  0
LINE
  5
63
330
1E
100
AcDbEntity
  8
0
100
AcDbLine
 10
102.0999999999999
 20
19.5050025
 30
0.0
 11
106.4
 21
24.9610025
 31
0.0
  0
LINE
  5
64
330
1E
100
AcDbEntity
  8
0
100
AcDbLine
 10
91.90000000000001
 20
32.5818025
 30
0.0
 11
96.2
 21
36.7388025
 31
0.0
  0
LINE
  5
65
330
1E
100
AcDbEntity
  8
0
100
AcDbLine
 10
96.2
 20
36.7388025
 30
0.0
 11
99.90000000000001
 21
41.5019025
 31
0.0
  0
LINE
  5
66
330
1E
100
AcDbEntity
  8
0
100
AcDbLine
 10
99.90000000000001
 20
41.5019025
 30
0.0
 11
102.6
 21
46.4382025
 31
0.0
  0
LINE
  5
67
330
1E
100
AcDbEntity
  8
0
100
AcDbLine
 10
102.6
 20
46.4382025
 30
0.0
 11
104.7
 21
51.7210025
 31
0.0
  0
LINE
  5
68
330
1E
100
AcDbEntity
  8
0
100
AcDbLine
 10
106.2999999999999
 20
35.8892025
 30
0.0
 11
108.6
 21
41.60500250000001
 31
0.0
  0
LINE
  5
69
330
1E
100
AcDbEntity
  8
0
100
AcDbLine
 10
105.9
 20
35.0624025
 30
0.0
 11
106.2999999999999
 21
35.8892025
 31
0.0
  0
LINE
  5
6A
330
1E
100
AcDbEntity
  8
0
100
AcDbLine
 10
104.7
 20
51.7210025
 30
0.0
 11
106.0
 21
57.2636025
 31
0.0
  0
LINE
  5
6B
330
1E
100
AcDbEntity
  8
0
100
AcDbLine
 10
108.6
 20
41.60500250000001
 30
0.0
 11
110.0
 21
47.49400249999999
 31
0.0
  0
LINE
  5
6C
330
1E
100
AcDbEntity
  8
0
100
AcDbLine
 10
102.9
 20
29.6931025
 30
0.0
 11
105.9
 21
35.0624025
 31
0.0
  0
LINE
  5
6D
330
1E
100
AcDbEntity
  8
0
100
AcDbLine
 10
106.4
 20
24.9610025
 30
0.0
 11
109.5999999999999
 21
30.6768025
 31
0.0
  0
LINE
  5
6E
330
1E
100
AcDbEntity
  8
0
100
AcDbLine
 10
110.4999999999999
 20
53.5561025
 30
0.0
 11
110.4999999999999
 21
53.8061025
 31
0.0
  0
LINE
  5
6F
330
1E
100
AcDbEntity
  8
0
100
AcDbLine
 10
110.0
 20
47.49400249999999
 30
0.0
 11
110.4999999999999
 21
53.5561025
 31
0.0
  0
LINE
  5
70
330
1E
100
AcDbEntity
  8
0
100
AcDbLine
 10
109.5999999999999
 20
30.6768025
 30
0.0
 11
111.8999999999999
 21
36.8256025
 31
0.0
  0
LINE
  5
72
330
1E
100
AcDbEntity
  8
0
100
AcDbLine
 10
91.3
 20
10.09480249999999
 30
0.0
 11
97.2
 21
14.7419025
 31
0.0
  0
LINE
  5
73
330
1E
100
AcDbEntity
  8
0
100
AcDbLine
 10
85.09999999999999
 20
6.457492500000009
 30
0.0
 11
91.3
 21
10.09480249999999
 31
0.0
  0
LINE
  5
74
330
1E
100
AcDbEntity
  8
0
100
AcDbLine
 10
78.59999999999999
 20
3.686212500000009
 30
0.0
 11
85.09999999999999
 21
6.457492500000009
 31
0.0
  0
LINE
  5
75
330
1E
100
AcDbEntity
  8
0
100
AcDbLine
 10
71.6
 20
1.60775250000001
 30
0.0
 11
78.59999999999999
 21
3.686212500000009
 31
0.0
  0
LINE
  5
76
330
1E
100
AcDbEntity
  8
0
100
AcDbLine
 10
64.29999999999999
 20
0.39531250000001
 30
0.0
 11
71.6
 21
1.60775250000001
 31
0.0
  0
LINE
  5
77
330
1E
100
AcDbEntity
  8
0
100
AcDbLine
 10
57.0
 20
-0.12430249999999
 30
0.0
 11
64.29999999999999
 21
0.39531250000001
 31
0.0
  0
LINE
  5
78
330
1E
100
AcDbEntity
  8
0
100
AcDbLine
 10
3.5
 20
53.5561025
 30
0.0
 11
3.5
 21
53.8061025
 31
0.0
  0
LINE
  5
79
330
1E
100
AcDbEntity
  8
0
100
AcDbLine
 10
3.5
 20
53.5561025
 30
0.0
 11
4.0
 21
47.49400249999999
 31
0.0
  0
LINE
  5
7A
330
1E
100
AcDbEntity
  8
0
100
AcDbLine
 10
8.0
 20
57.2636025
 30
0.0
 11
9.3
 21
51.7210025
 31
0.0
  0
LINE
  5
7B
330
1E
100
AcDbEntity
  8
0
100
AcDbLine
 10
106.0
 20
57.2636025
 30
0.0
 11
106.4999999999999
 21
62.8061025
 31
0.0
  0
LINE
  5
7C
330
1E
100
AcDbEntity
  8
0
100
AcDbLine
 10
4.0
 20
59.8683025
 30
0.0
 11
5.4
 21
65.75730250000001
 31
0.0
  0
LINE
  5
7D
330
1E
100
AcDbEntity
  8
0
100
AcDbLine
 10
0.6000000000000029
 20
55.9647025
 30
0.0
 11
2.1
 21
62.2867025
 31
0.0
  0
LINE
  5
7E
330
1E
100
AcDbEntity
  8
0
100
AcDbLine
 10
0.0000000000000032
 20
49.5561025
 30
0.0
 11
0.6000000000000029
 21
55.9647025
 31
0.0
  0
LINE
  5
7F
330
1E
100
AcDbEntity
  8
0
100
AcDbLine
 10
0.0000000000000032
 20
49.5561025
 30
0.0
 11
0.6000000000000029
 21
43.1475025
 31
0.0
  0
LINE
  5
81
330
1E
100
AcDbEntity
  8
0
100
AcDbLine
 10
2.1
 20
62.2867025
 30
0.0
 11
4.4
 21
68.43550249999999
 31
0.0
  0
LINE
  5
82
330
1E
100
AcDbEntity
  8
0
100
AcDbLine
 10
110.0
 20
59.8683025
 30
0.0
 11
110.4999999999999
 21
53.8061025
 31
0.0
  0
LINE
  5
83
330
1E
100
AcDbEntity
  8
0
100
AcDbLine
 10
111.8999999999999
 20
36.8256025
 30
0.0
 11
113.4
 21
43.1475025
 31
0.0
  0
LINE
  5
84
330
1E
100
AcDbEntity
  8
0
100
AcDbLine
 10
113.4
 20
43.1475025
 30
0.0
 11
114.0
 21
49.5561025
 31
0.0
  0
LINE
  5
85
330
1E
100
AcDbEntity
  8
0
100
AcDbLine
 10
110.4999999999999
 20
53.8061025
 30
0.0
 11
110.4999999999999
 21
53.5561025
 31
0.0
  0
LINE
  5
87
330
1E
100
AcDbEntity
  8
0
100
AcDbLine
 10
7.5
 20
62.8061025
 30
0.0
 11
8.0
 21
68.3487025
 31
0.0
  0
LINE
  5
88
330
1E
100
AcDbEntity
  8
0
100
AcDbLine
 10
7.5
 20
62.8061025
 30
0.0
 11
8.0
 21
57.2636025
 31
0.0
  0
LINE
  5
89
330
1E
100
AcDbEntity
  8
0
100
AcDbLine
 10
5.4
 20
65.75730250000001
 30
0.0
 11
6.4
 21
68.49750249999999
 31
0.0
  0
LINE
  5
8A
330
1E
100
AcDbEntity
  8
0
100
AcDbLine
 10
8.0
 20
68.3487025
 30
0.0
 11
9.3
 21
73.8913025
 31
0.0
  0
LINE
  5
8B
330
1E
100
AcDbEntity
  8
0
100
AcDbLine
 10
6.4
 20
68.49750249999999
 30
0.0
 11
8.599999999999999
 21
74.2132025
 31
0.0
  0
LINE
  5
8C
330
1E
100
AcDbEntity
  8
0
100
AcDbLine
 10
9.3
 20
73.8913025
 30
0.0
 11
11.4
 21
79.1740025
 31
0.0
  0
LINE
  5
8D
330
1E
100
AcDbEntity
  8
0
100
AcDbLine
 10
7.599999999999999
 20
74.1513025
 30
0.0
 11
9.89594351758045
 21
77.06442767152729
 31
0.0
  0
LINE
  5
8E
330
1E
100
AcDbEntity
  8
0
100
AcDbLine
 10
4.4
 20
68.43550249999999
 30
0.0
 11
7.599999999999999
 21
74.1513025
 31
0.0
  0
LINE
  5
8F
330
1E
100
AcDbEntity
  8
0
100
AcDbLine
 10
104.7
 20
73.8913025
 30
0.0
 11
106.0
 21
68.3487025
 31
0.0
  0
LINE
  5
90
330
1E
100
AcDbEntity
  8
0
100
AcDbLine
 10
106.0
 20
68.3487025
 30
0.0
 11
106.4999999999999
 21
62.8061025
 31
0.0
  0
LINE
  5
92
330
1E
100
AcDbEntity
  8
0
100
AcDbLine
 10
107.6
 20
68.49750249999999
 30
0.0
 11
108.6
 21
65.75730250000001
 31
0.0
  0
LINE
  5
94
330
1E
100
AcDbEntity
  8
0
100
AcDbLine
 10
108.6
 20
65.75730250000001
 30
0.0
 11
110.0
 21
59.8683025
 31
0.0
  0
LINE
  5
96
330
1E
100
AcDbEntity
  8
0
100
AcDbLine
 10
9.5
 20
76.36680250000001
 30
0.0
 11
10.9
 21
78.8472025
 31
0.0
  0
LINE
  5
97
330
1E
100
AcDbEntity
  8
0
100
AcDbLine
 10
8.599999999999999
 20
74.2132025
 30
0.0
 11
9.5
 21
76.36680250000001
 31
0.0
  0
LINE
  5
98
330
1E
100
AcDbEntity
  8
0
100
AcDbLine
 10
10.9
 20
78.8472025
 30
0.0
 11
13.7
 21
83.8702025
 31
0.0
  0
LINE
  5
99
330
1E
100
AcDbEntity
  8
0
100
AcDbLine
 10
11.4
 20
79.1740025
 30
0.0
 11
14.1
 21
84.1104025
 31
0.0
  0
LINE
  5
9A
330
1E
100
AcDbEntity
  8
0
100
AcDbLine
 10
14.1
 20
84.1104025
 30
0.0
 11
17.8
 21
88.8735025
 31
0.0
  0
LINE
  5
9B
330
1E
100
AcDbEntity
  8
0
100
AcDbLine
 10
17.4
 20
88.6333025
 30
0.0
 11
21.69999999999999
 21
92.87680249999999
 31
0.0
  0
LINE
  5
9C
330
1E
100
AcDbEntity
  8
0
100
AcDbLine
 10
13.7
 20
83.8702025
 30
0.0
 11
17.4
 21
88.6333025
 31
0.0
  0
LINE
  5
9D
330
1E
100
AcDbEntity
  8
0
100
AcDbLine
 10
99.90000000000001
 20
84.1104025
 30
0.0
 11
102.6
 21
79.1740025
 31
0.0
  0
LINE
  5
9E
330
1E
100
AcDbEntity
  8
0
100
AcDbLine
 10
22.1
 20
93.0304025
 30
0.0
 11
26.89999999999999
 21
96.75430250000001
 31
0.0
  0
LINE
  5
9F
330
1E
100
AcDbEntity
  8
0
100
AcDbLine
 10
21.69999999999999
 20
92.87680249999999
 30
0.0
 11
26.6
 21
96.6007025
 31
0.0
  0
LINE
  5
A0
330
1E
100
AcDbEntity
  8
0
100
AcDbLine
 10
17.8
 20
88.8735025
 30
0.0
 11
22.1
 21
93.0304025
 31
0.0
  0
LINE
  5
A1
330
1E
100
AcDbEntity
  8
0
100
AcDbLine
 10
26.89999999999999
 20
96.75430250000001
 30
0.0
 11
32.4
 21
99.9583025
 31
0.0
  0
LINE
  5
A2
330
1E
100
AcDbEntity
  8
0
100
AcDbLine
 10
32.1
 20
99.80530250000001
 30
0.0
 11
32.4
 21
99.9583025
 31
0.0
  0
LINE
  5
A3
330
1E
100
AcDbEntity
  8
0
100
AcDbLine
 10
32.4
 20
99.9583025
 30
0.0
 11
38.1
 21
102.2973024999999
 31
0.0
  0
LINE
  5
A4
330
1E
100
AcDbEntity
  8
0
100
AcDbLine
 10
38.1
 20
102.2973024999999
 30
0.0
 11
44.2
 21
104.1153025
 31
0.0
  0
LINE
  5
A5
330
1E
100
AcDbEntity
  8
0
100
AcDbLine
 10
44.2
 20
104.1153025
 30
0.0
 11
50.6
 21
105.2413024999999
 31
0.0
  0
LINE
  5
A6
330
1E
100
AcDbEntity
  8
0
100
AcDbLine
 10
26.6
 20
96.6007025
 30
0.0
 11
32.1
 21
99.80530250000001
 31
0.0
  0
LINE
  5
A7
330
1E
100
AcDbEntity
  8
0
100
AcDbLine
 10
50.6
 20
105.2413024999999
 30
0.0
 11
57.0
 21
105.6743025
 31
0.0
  0
LINE
  5
A8
330
1E
100
AcDbEntity
  8
0
100
AcDbLine
 10
45.0
 20
104.2560525
 30
0.0
 11
45.0
 21
109.3343025
 31
0.0
  0
LINE
  5
A9
330
1E
100
AcDbEntity
  8
0
100
AcDbLine
 10
75.9
 20
102.2973024999999
 30
0.0
 11
81.6
 21
99.9583025
 31
0.0
  0
LINE
  5
AA
330
1E
100
AcDbEntity
  8
0
100
AcDbLine
 10
81.6
 20
99.9583025
 30
0.0
 11
81.90000000000001
 21
99.80530250000001
 31
0.0
  0
LINE
  5
AB
330
1E
100
AcDbEntity
  8
0
100
AcDbLine
 10
81.6
 20
99.9583025
 30
0.0
 11
87.09999999999999
 21
96.75430250000001
 31
0.0
  0
LINE
  5
AC
330
1E
100
AcDbEntity
  8
0
100
AcDbLine
 10
69.0
 20
104.2560525
 30
0.0
 11
69.0
 21
109.3343025
 31
0.0
  0
LINE
  5
AD
330
1E
100
AcDbEntity
  8
0
100
AcDbLine
 10
69.8
 20
104.1153025
 30
0.0
 11
75.9
 21
102.2973024999999
 31
0.0
  0
LINE
  5
AE
330
1E
100
AcDbEntity
  8
0
100
AcDbLine
 10
63.39999999999999
 20
105.2413024999999
 30
0.0
 11
69.8
 21
104.1153025
 31
0.0
  0
LINE
  5
AF
330
1E
100
AcDbEntity
  8
0
100
AcDbLine
 10
43.0
 20
129.7923024999999
 30
0.0
 11
43.0
 21
129.8683025
 31
0.0
  0
LINE
  5
B0
330
1E
100
AcDbEntity
  8
0
100
AcDbLine
 10
43.0
 20
129.7923024999999
 30
0.0
 11
43.0
 21
129.7153024999999
 31
0.0
  0
LINE
  5
B1
330
1E
100
AcDbEntity
  8
0
100
AcDbLine
 10
43.0
 20
129.8683025
 30
0.0
 11
43.5
 21
132.1873024999999
 31
0.0
  0
LINE
  5
B2
330
1E
100
AcDbEntity
  8
0
100
AcDbLine
 10
43.0
 20
129.8683025
 30
0.0
 11
43.0
 21
129.7923024999999
 31
0.0
  0
LINE
  5
B3
330
1E
100
AcDbEntity
  8
0
100
AcDbLine
 10
45.0
 20
127.4973024999999
 30
0.0
 11
45.0
 21
125.9673024999999
 31
0.0
  0
LINE
  5
B4
330
1E
100
AcDbEntity
  8
0
100
AcDbLine
 10
45.0
 20
119.7043024999999
 30
0.0
 11
45.0
 21
109.3343025
 31
0.0
  0
LINE
  5
B5
330
1E
100
AcDbEntity
  8
0
100
AcDbLine
 10
45.0
 20
119.7043024999999
 30
0.0
 11
45.0
 21
125.9673024999999
 31
0.0
  0
LINE
  5
B6
330
1E
100
AcDbEntity
  8
0
100
AcDbLine
 10
45.0
 20
109.3343025
 30
0.0
 11
45.0
 21
104.2560525
 31
0.0
  0
LINE
  5
B7
330
1E
100
AcDbEntity
  8
0
100
AcDbLine
 10
45.0
 20
109.3343025
 30
0.0
 11
45.0
 21
119.7043024999999
 31
0.0
  0
LINE
  5
B8
330
1E
100
AcDbEntity
  8
0
100
AcDbLine
 10
43.5
 20
132.1873024999999
 30
0.0
 11
44.9
 21
134.3763024999999
 31
0.0
  0
LINE
  5
B9
330
1E
100
AcDbEntity
  8
0
100
AcDbLine
 10
43.0
 20
129.7153024999999
 30
0.0
 11
43.0
 21
129.7923024999999
 31
0.0
  0
LINE
  5
BA
330
1E
100
AcDbEntity
  8
0
100
AcDbLine
 10
43.0
 20
129.7153024999999
 30
0.0
 11
43.5
 21
127.3973024999999
 31
0.0
  0
LINE
  5
BB
330
1E
100
AcDbEntity
  8
0
100
AcDbLine
 10
44.9
 20
134.3763024999999
 30
0.0
 11
45.0
 21
134.5413025
 31
0.0
  0
LINE
  5
BC
330
1E
100
AcDbEntity
  8
0
100
AcDbLine
 10
44.9
 20
134.3763024999999
 30
0.0
 11
47.09999999999999
 21
136.2443025
 31
0.0
  0
LINE
  5
BD
330
1E
100
AcDbEntity
  8
0
100
AcDbLine
 10
45.0
 20
134.5413025
 30
0.0
 11
46.22880533656779
 21
135.504579031231
 31
0.0
  0
LINE
  5
BE
330
1E
100
AcDbEntity
  8
0
100
AcDbLine
 10
45.0
 20
134.5413025
 30
0.0
 11
45.0
 21
140.5123024999999
 31
0.0
  0
LINE
  5
BF
330
1E
100
AcDbEntity
  8
0
100
AcDbLine
 10
44.9
 20
134.2233024999999
 30
0.0
 11
47.09999999999999
 21
136.0913024999999
 31
0.0
  0
LINE
  5
C0
330
1E
100
AcDbEntity
  8
0
100
AcDbLine
 10
45.0
 20
125.9673024999999
 30
0.0
 11
45.0
 21
127.4973024999999
 31
0.0
  0
LINE
  5
C1
330
1E
100
AcDbEntity
  8
0
100
AcDbLine
 10
45.0
 20
125.9673024999999
 30
0.0
 11
45.0
 21
119.7043024999999
 31
0.0
  0
LINE
  5
C2
330
1E
100
AcDbEntity
  8
0
100
AcDbLine
 10
45.0
 20
150.5553024999999
 30
0.0
 11
45.0
 21
140.5123024999999
 31
0.0
  0
LINE
  5
C3
330
1E
100
AcDbEntity
  8
0
100
AcDbLine
 10
45.0
 20
150.5553024999999
 30
0.0
 11
45.0
 21
158.4053025
 31
0.0
  0
LINE
  5
C4
330
1E
100
AcDbEntity
  8
0
100
AcDbLine
 10
45.0
 20
140.5123024999999
 30
0.0
 11
45.0
 21
150.5553024999999
 31
0.0
  0
LINE
  5
C5
330
1E
100
AcDbEntity
  8
0
100
AcDbLine
 10
45.0
 20
140.5123024999999
 30
0.0
 11
45.0
 21
134.5413025
 31
0.0
  0
LINE
  5
C6
330
1E
100
AcDbEntity
  8
0
100
AcDbLine
 10
45.0
 20
175.3953024999999
 30
0.0
 11
45.0
 21
182.7863024999999
 31
0.0
  0
LINE
  5
C7
330
1E
100
AcDbEntity
  8
0
100
AcDbLine
 10
45.0
 20
175.3953024999999
 30
0.0
 11
45.0
 21
166.8183024999999
 31
0.0
  0
LINE
  5
C8
330
1E
100
AcDbEntity
  8
0
100
AcDbLine
 10
45.0
 20
182.7863024999999
 30
0.0
 11
45.0
 21
175.3953024999999
 31
0.0
  0
LINE
  5
C9
330
1E
100
AcDbEntity
  8
0
100
AcDbLine
 10
45.0
 20
182.7863024999999
 30
0.0
 11
45.0
 21
188.9283025
 31
0.0
  0
LINE
  5
CA
330
1E
100
AcDbEntity
  8
0
100
AcDbLine
 10
44.9
 20
185.7263024999999
 30
0.0
 11
45.0
 21
185.615757045455
 31
0.0
  0
LINE
  5
CB
330
1E
100
AcDbEntity
  8
0
100
AcDbLine
 10
43.5
 20
188.5773024999999
 30
0.0
 11
44.9
 21
185.7263024999999
 31
0.0
  0
LINE
  5
CC
330
1E
100
AcDbEntity
  8
0
100
AcDbLine
 10
43.0
 20
191.6513025
 30
0.0
 11
43.0
 21
191.5973024999999
 31
0.0
  0
LINE
  5
CD
330
1E
100
AcDbEntity
  8
0
100
AcDbLine
 10
43.0
 20
191.6513025
 30
0.0
 11
43.5
 21
194.6703024999999
 31
0.0
  0
LINE
  5
CF
330
1E
100
AcDbEntity
  8
0
100
AcDbLine
 10
44.9
 20
197.5223025
 30
0.0
 11
47.09999999999999
 21
199.9543024999999
 31
0.0
  0
LINE
  5
D0
330
1E
100
AcDbEntity
  8
0
100
AcDbLine
 10
43.5
 20
194.6703024999999
 30
0.0
 11
44.9
 21
197.5223025
 31
0.0
  0
LINE
  5
D1
330
1E
100
AcDbEntity
  8
0
100
AcDbLine
 10
43.0
 20
191.5973024999999
 30
0.0
 11
43.5
 21
188.5773024999999
 31
0.0
  0
LINE
  5
D2
330
1E
100
AcDbEntity
  8
0
100
AcDbLine
 10
43.0
 20
191.5973024999999
 30
0.0
 11
43.0
 21
191.6513025
 31
0.0
  0
LINE
  5
D3
330
1E
100
AcDbEntity
  8
0
100
AcDbLine
 10
45.0
 20
190.0173024999999
 30
0.0
 11
45.0
 21
188.9283025
 31
0.0
  0
LINE
  5
D4
330
1E
100
AcDbEntity
  8
0
100
AcDbLine
 10
45.0
 20
188.9283025
 30
0.0
 11
45.0
 21
182.7863024999999
 31
0.0
  0
LINE
  5
D5
330
1E
100
AcDbEntity
  8
0
100
AcDbLine
 10
45.0
 20
188.9283025
 30
0.0
 11
45.0
 21
190.0173024999999
 31
0.0
  0
LINE
  5
D6
330
1E
100
AcDbEntity
  8
0
100
AcDbLine
 10
45.0
 20
166.8183024999999
 30
0.0
 11
45.0
 21
158.4053025
 31
0.0
  0
LINE
  5
D7
330
1E
100
AcDbEntity
  8
0
100
AcDbLine
 10
45.0
 20
166.8183024999999
 30
0.0
 11
45.0
 21
175.3953024999999
 31
0.0
  0
LINE
  5
D8
330
1E
100
AcDbEntity
  8
0
100
AcDbLine
 10
46.1778073421195
 20
198.934860434561
 30
0.0
 11
46.396
 21
200.2363025
 31
0.0
  0
LINE
  5
D9
330
1E
100
AcDbEntity
  8
0
100
AcDbLine
 10
47.09999999999999
 20
136.2443025
 30
0.0
 11
50.0
 21
137.6603025
 31
0.0
  0
LINE
  5
DA
330
1E
100
AcDbEntity
  8
0
100
AcDbLine
 10
47.09999999999999
 20
136.0913024999999
 30
0.0
 11
50.0
 21
137.5073024999999
 31
0.0
  0
LINE
  5
DC
330
1E
100
AcDbEntity
  8
0
100
AcDbLine
 10
47.09999999999999
 20
199.9543024999999
 30
0.0
 11
50.0
 21
201.7993024999999
 31
0.0
  0
LINE
  5
DD
330
1E
100
AcDbEntity
  8
0
100
AcDbLine
 10
46.396
 20
200.2363025
 30
0.0
 11
47.45199999999999
 21
202.4503025
 31
0.0
  0
LINE
  5
DE
330
1E
100
AcDbEntity
  8
0
100
AcDbLine
 10
47.45199999999999
 20
202.4503025
 30
0.0
 11
49.21199999999999
 21
204.4053025
 31
0.0
  0
LINE
  5
DF
330
1E
100
AcDbEntity
  8
0
100
AcDbLine
 10
50.1
 20
137.8253025
 30
0.0
 11
53.39999999999999
 21
138.6623024999999
 31
0.0
  0
LINE
  5
E0
330
1E
100
AcDbEntity
  8
0
100
AcDbLine
 10
69.0
 20
127.4973024999999
 30
0.0
 11
69.0
 21
125.9673024999999
 31
0.0
  0
LINE
  5
E1
330
1E
100
AcDbEntity
  8
0
100
AcDbLine
 10
69.0
 20
134.5413025
 30
0.0
 11
69.1
 21
134.3763024999999
 31
0.0
  0
LINE
  5
E2
330
1E
100
AcDbEntity
  8
0
100
AcDbLine
 10
69.0
 20
134.5413025
 30
0.0
 11
69.0
 21
140.5123024999999
 31
0.0
  0
LINE
  5
E3
330
1E
100
AcDbEntity
  8
0
100
AcDbLine
 10
66.90000000000001
 20
136.0913024999999
 30
0.0
 11
69.1
 21
134.2233024999999
 31
0.0
  0
LINE
  5
E4
330
1E
100
AcDbEntity
  8
0
100
AcDbLine
 10
66.90000000000001
 20
136.2443025
 30
0.0
 11
69.1
 21
134.3763024999999
 31
0.0
  0
LINE
  5
E5
330
1E
100
AcDbEntity
  8
0
100
AcDbLine
 10
67.77119466343229
 20
135.504579031231
 30
0.0
 11
69.0
 21
134.5413025
 31
0.0
  0
LINE
  5
E6
330
1E
100
AcDbEntity
  8
0
100
AcDbLine
 10
69.0
 20
125.9673024999999
 30
0.0
 11
69.0
 21
119.7043024999999
 31
0.0
  0
LINE
  5
E7
330
1E
100
AcDbEntity
  8
0
100
AcDbLine
 10
69.0
 20
125.9673024999999
 30
0.0
 11
69.0
 21
127.4973024999999
 31
0.0
  0
LINE
  5
E8
330
1E
100
AcDbEntity
  8
0
100
AcDbLine
 10
64.0
 20
137.6603025
 30
0.0
 11
66.90000000000001
 21
136.2443025
 31
0.0
  0
LINE
  5
E9
330
1E
100
AcDbEntity
  8
0
100
AcDbLine
 10
69.0
 20
150.5553024999999
 30
0.0
 11
69.0
 21
140.5123024999999
 31
0.0
  0
LINE
  5
EA
330
1E
100
AcDbEntity
  8
0
100
AcDbLine
 10
69.0
 20
150.5553024999999
 30
0.0
 11
69.0
 21
158.4053025
 31
0.0
  0
LINE
  5
EB
330
1E
100
AcDbEntity
  8
0
100
AcDbLine
 10
69.0
 20
140.5123024999999
 30
0.0
 11
69.0
 21
150.5553024999999
 31
0.0
  0
LINE
  5
EC
330
1E
100
AcDbEntity
  8
0
100
AcDbLine
 10
69.0
 20
140.5123024999999
 30
0.0
 11
69.0
 21
134.5413025
 31
0.0
  0
LINE
  5
ED
330
1E
100
AcDbEntity
  8
0
100
AcDbLine
 10
64.0
 20
201.7993024999999
 30
0.0
 11
66.90000000000001
 21
199.9543024999999
 31
0.0
  0
LINE
  5
EF
330
1E
100
AcDbEntity
  8
0
100
AcDbLine
 10
69.0
 20
190.0173024999999
 30
0.0
 11
69.0
 21
188.9283025
 31
0.0
  0
LINE
  5
F0
330
1E
100
AcDbEntity
  8
0
100
AcDbLine
 10
69.0
 20
185.615757045455
 30
0.0
 11
69.1
 21
185.7263024999999
 31
0.0
  0
LINE
  5
F1
330
1E
100
AcDbEntity
  8
0
100
AcDbLine
 10
69.0
 20
188.9283025
 30
0.0
 11
69.0
 21
182.7863024999999
 31
0.0
  0
LINE
  5
F2
330
1E
100
AcDbEntity
  8
0
100
AcDbLine
 10
69.0
 20
188.9283025
 30
0.0
 11
69.0
 21
190.0173024999999
 31
0.0
  0
LINE
  5
F3
330
1E
100
AcDbEntity
  8
0
100
AcDbLine
 10
69.0
 20
182.7863024999999
 30
0.0
 11
69.0
 21
175.3953024999999
 31
0.0
  0
LINE
  5
F4
330
1E
100
AcDbEntity
  8
0
100
AcDbLine
 10
69.0
 20
182.7863024999999
 30
0.0
 11
69.0
 21
188.9283025
 31
0.0
  0
LINE
  5
F5
330
1E
100
AcDbEntity
  8
0
100
AcDbLine
 10
69.0
 20
175.3953024999999
 30
0.0
 11
69.0
 21
166.8183024999999
 31
0.0
  0
LINE
  5
F6
330
1E
100
AcDbEntity
  8
0
100
AcDbLine
 10
69.0
 20
175.3953024999999
 30
0.0
 11
69.0
 21
182.7863024999999
 31
0.0
  0
LINE
  5
F7
330
1E
100
AcDbEntity
  8
0
100
AcDbLine
 10
67.604
 20
200.2363025
 30
0.0
 11
67.82219265788049
 21
198.934860434561
 31
0.0
  0
LINE
  5
F8
330
1E
100
AcDbEntity
  8
0
100
AcDbLine
 10
66.90000000000001
 20
199.9543024999999
 30
0.0
 11
69.1
 21
197.5223025
 31
0.0
  0
LINE
  5
FA
330
1E
100
AcDbEntity
  8
0
100
AcDbLine
 10
69.0
 20
166.8183024999999
 30
0.0
 11
69.0
 21
158.4053025
 31
0.0
  0
LINE
  5
FB
330
1E
100
AcDbEntity
  8
0
100
AcDbLine
 10
69.0
 20
166.8183024999999
 30
0.0
 11
69.0
 21
175.3953024999999
 31
0.0
  0
LINE
  5
FC
330
1E
100
AcDbEntity
  8
0
100
AcDbLine
 10
69.0
 20
158.4053025
 30
0.0
 11
69.0
 21
166.8183024999999
 31
0.0
  0
LINE
  5
FD
330
1E
100
AcDbEntity
  8
0
100
AcDbLine
 10
69.0
 20
158.4053025
 30
0.0
 11
69.0
 21
150.5553024999999
 31
0.0
  0
LINE
  5
FE
330
1E
100
AcDbEntity
  8
0
100
AcDbLine
 10
60.6
 20
138.6623024999999
 30
0.0
 11
63.9
 21
137.8253025
 31
0.0
  0
LINE
  5
FF
330
1E
100
AcDbEntity
  8
0
100
AcDbLine
 10
57.0
 20
138.9843024999999
 30
0.0
 11
60.6
 21
138.6623024999999
 31
0.0
  0
LINE
  5
100
330
1E
100
AcDbEntity
  8
0
100
AcDbLine
 10
64.0
 20
137.5073024999999
 30
0.0
 11
66.90000000000001
 21
136.0913024999999
 31
0.0
  0
LINE
  5
101
330
1E
100
AcDbEntity
  8
0
100
AcDbLine
 10
71.0
 20
129.7153024999999
 30
0.0
 11
71.0
 21
129.7923024999999
 31
0.0
  0
LINE
  5
102
330
1E
100
AcDbEntity
  8
0
100
AcDbLine
 10
70.5
 20
127.3973024999999
 30
0.0
 11
71.0
 21
129.7153024999999
 31
0.0
  0
LINE
  5
103
330
1E
100
AcDbEntity
  8
0
100
AcDbLine
 10
71.0
 20
129.7923024999999
 30
0.0
 11
71.0
 21
129.7153024999999
 31
0.0
  0
LINE
  5
104
330
1E
100
AcDbEntity
  8
0
100
AcDbLine
 10
71.0
 20
129.7923024999999
 30
0.0
 11
71.0
 21
129.8683025
 31
0.0
  0
LINE
  5
105
330
1E
100
AcDbEntity
  8
0
100
AcDbLine
 10
71.0
 20
129.8683025
 30
0.0
 11
71.0
 21
129.7923024999999
 31
0.0
  0
LINE
  5
106
330
1E
100
AcDbEntity
  8
0
100
AcDbLine
 10
69.1
 20
185.7263024999999
 30
0.0
 11
70.5
 21
188.5773024999999
 31
0.0
  0
LINE
  5
107
330
1E
100
AcDbEntity
  8
0
100
AcDbLine
 10
69.1
 20
197.5223025
 30
0.0
 11
70.5
 21
194.6703024999999
 31
0.0
  0
LINE
  5
108
330
1E
100
AcDbEntity
  8
0
100
AcDbLine
 10
71.0
 20
191.5973024999999
 30
0.0
 11
71.0
 21
191.6513025
 31
0.0
  0
LINE
  5
109
330
1E
100
AcDbEntity
  8
0
100
AcDbLine
 10
70.5
 20
188.5773024999999
 30
0.0
 11
71.0
 21
191.5973024999999
 31
0.0
  0
LINE
  5
10A
330
1E
100
AcDbEntity
  8
0
100
AcDbLine
 10
71.0
 20
191.6513025
 30
0.0
 11
71.0
 21
191.5973024999999
 31
0.0
  0
LINE
  5
10B
330
1E
100
AcDbEntity
  8
0
100
AcDbLine
 10
70.5
 20
194.6703024999999
 30
0.0
 11
71.0
 21
191.6513025
 31
0.0
  0
LINE
  5
10C
330
1E
100
AcDbEntity
  8
0
100
AcDbLine
 10
69.1
 20
134.3763024999999
 30
0.0
 11
70.5
 21
132.1873024999999
 31
0.0
  0
LINE
  5
10D
330
1E
100
AcDbEntity
  8
0
100
AcDbLine
 10
70.5
 20
132.1873024999999
 30
0.0
 11
71.0
 21
129.8683025
 31
0.0
  0
LINE
  5
10E
330
1E
100
AcDbEntity
  8
0
100
AcDbLine
 10
69.0
 20
119.7043024999999
 30
0.0
 11
69.0
 21
109.3343025
 31
0.0
  0
LINE
  5
10F
330
1E
100
AcDbEntity
  8
0
100
AcDbLine
 10
69.0
 20
119.7043024999999
 30
0.0
 11
69.0
 21
125.9673024999999
 31
0.0
  0
LINE
  5
110
330
1E
100
AcDbEntity
  8
0
100
AcDbLine
 10
69.0
 20
109.3343025
 30
0.0
 11
69.0
 21
104.2560525
 31
0.0
  0
LINE
  5
111
330
1E
100
AcDbEntity
  8
0
100
AcDbLine
 10
69.0
 20
109.3343025
 30
0.0
 11
69.0
 21
119.7043024999999
 31
0.0
  0
LINE
  5
112
330
1E
100
AcDbEntity
  8
0
100
AcDbLine
 10
53.39999999999999
 20
138.6623024999999
 30
0.0
 11
57.0
 21
138.9843024999999
 31
0.0
  0
LINE
  5
113
330
1E
100
AcDbEntity
  8
0
100
AcDbLine
 10
66.548
 20
202.4503025
 30
0.0
 11
67.604
 21
200.2363025
 31
0.0
  0
LINE
  5
114
330
1E
100
AcDbEntity
  8
0
100
AcDbLine
 10
60.6
 20
202.9733025
 30
0.0
 11
64.0
 21
201.7993024999999
 31
0.0
  0
LINE
  5
115
330
1E
100
AcDbEntity
  8
0
100
AcDbLine
 10
64.78799999999999
 20
204.4053025
 30
0.0
 11
66.548
 21
202.4503025
 31
0.0
  0
LINE
  5
116
330
1E
100
AcDbEntity
  8
0
100
AcDbLine
 10
62.456
 20
205.8813025
 30
0.0
 11
64.78799999999999
 21
204.4053025
 31
0.0
  0
LINE
  5
117
330
1E
100
AcDbEntity
  8
0
100
AcDbLine
 10
57.0
 20
203.3923024999999
 30
0.0
 11
60.6
 21
202.9733025
 31
0.0
  0
LINE
  5
118
330
1E
100
AcDbEntity
  8
0
100
AcDbLine
 10
53.39999999999999
 20
202.9733025
 30
0.0
 11
57.0
 21
203.3923024999999
 31
0.0
  0
LINE
  5
119
330
1E
100
AcDbEntity
  8
0
100
AcDbLine
 10
50.0
 20
201.7993024999999
 30
0.0
 11
53.39999999999999
 21
202.9733025
 31
0.0
  0
LINE
  5
11A
330
1E
100
AcDbEntity
  8
0
100
AcDbLine
 10
49.21199999999999
 20
204.4053025
 30
0.0
 11
51.54399999999999
 21
205.8813025
 31
0.0
  0
LINE
  5
11B
330
1E
100
AcDbEntity
  8
0
100
AcDbLine
 10
53.312738317756
 20
206.474901799065
 30
0.0
 11
54.228
 21
206.7923024999999
 31
0.0
  0
LINE
  5
11C
330
1E
100
AcDbEntity
  8
0
100
AcDbLine
 10
54.184
 20
206.7673024999999
 30
0.0
 11
54.228
 21
206.7923024999999
 31
0.0
  0
LINE
  5
11D
330
1E
100
AcDbEntity
  8
0
100
AcDbLine
 10
57.0
 20
207.1243025
 30
0.0
 11
59.77199999999999
 21
206.7923024999999
 31
0.0
  0
LINE
  5
11E
330
1E
100
AcDbEntity
  8
0
100
AcDbLine
 10
59.77199999999999
 20
206.7923024999999
 30
0.0
 11
59.816
 21
206.7673024999999
 31
0.0
  0
LINE
  5
11F
330
1E
100
AcDbEntity
  8
0
100
AcDbLine
 10
59.77199999999999
 20
206.7923024999999
 30
0.0
 11
60.6872616822446
 21
206.474901799065
 31
0.0
  0
LINE
  5
120
330
1E
100
AcDbEntity
  8
0
100
AcDbLine
 10
59.816
 20
206.7673024999999
 30
0.0
 11
62.456
 21
205.8813025
 31
0.0
  0
LINE
  5
121
330
1E
100
AcDbEntity
  8
0
100
AcDbLine
 10
54.228
 20
206.7923024999999
 30
0.0
 11
57.0
 21
207.1243025
 31
0.0
  0
LINE
  5
122
330
1E
100
AcDbEntity
  8
0
100
AcDbLine
 10
51.54399999999999
 20
205.8813025
 30
0.0
 11
54.184
 21
206.7673024999999
 31
0.0
  0
LINE
  5
123
330
1E
100
AcDbEntity
  8
0
100
AcDbLine
 10
45.0
 20
158.4053025
 30
0.0
 11
45.0
 21
150.5553024999999
 31
0.0
  0
LINE
  5
124
330
1E
100
AcDbEntity
  8
0
100
AcDbLine
 10
45.0
 20
158.4053025
 30
0.0
 11
45.0
 21
166.8183024999999
 31
0.0
  0
LINE
  5
125
330
1E
100
AcDbEntity
  8
0
100
AcDbLine
 10
57.0
 20
105.6743025
 30
0.0
 11
63.39999999999999
 21
105.2413024999999
 31
0.0
  0
LINE
  5
126
330
1E
100
AcDbEntity
  8
0
100
AcDbLine
 10
87.09999999999999
 20
96.75430250000001
 30
0.0
 11
91.90000000000001
 21
93.0304025
 31
0.0
  0
LINE
  5
127
330
1E
100
AcDbEntity
  8
0
100
AcDbLine
 10
87.4
 20
96.6007025
 30
0.0
 11
92.3
 21
92.87680249999999
 31
0.0
  0
LINE
  5
128
330
1E
100
AcDbEntity
  8
0
100
AcDbLine
 10
81.90000000000001
 20
99.80530250000001
 30
0.0
 11
87.4
 21
96.6007025
 31
0.0
  0
LINE
  5
129
330
1E
100
AcDbEntity
  8
0
100
AcDbLine
 10
91.90000000000001
 20
93.0304025
 30
0.0
 11
96.2
 21
88.8735025
 31
0.0
  0
LINE
  5
12A
330
1E
100
AcDbEntity
  8
0
100
AcDbLine
 10
96.2
 20
88.8735025
 30
0.0
 11
99.90000000000001
 21
84.1104025
 31
0.0
  0
LINE
  5
12B
330
1E
100
AcDbEntity
  8
0
100
AcDbLine
 10
92.3
 20
92.87680249999999
 30
0.0
 11
96.6
 21
88.6333025
 31
0.0
  0
LINE
  5
12C
330
1E
100
AcDbEntity
  8
0
100
AcDbLine
 10
96.6
 20
88.6333025
 30
0.0
 11
100.2999999999999
 21
83.8702025
 31
0.0
  0
LINE
  5
12D
330
1E
100
AcDbEntity
  8
0
100
AcDbLine
 10
102.6
 20
79.1740025
 30
0.0
 11
104.7
 21
73.8913025
 31
0.0
  0
LINE
  5
12E
330
1E
100
AcDbEntity
  8
0
100
AcDbLine
 10
100.2999999999999
 20
83.8702025
 30
0.0
 11
103.0999999999999
 21
78.8472025
 31
0.0
  0
LINE
  5
130
330
1E
100
AcDbEntity
  8
0
100
AcDbLine
 10
103.134969714044
 20
78.77189172383442
 30
0.0
 11
104.4999999999999
 21
76.36680250000001
 31
0.0
  0
LINE
  5
131
330
1E
100
AcDbEntity
  8
0
100
AcDbLine
 10
103.0999999999999
 20
78.8472025
 30
0.0
 11
104.4999999999999
 21
76.36680250000001
 31
0.0
  0
LINE
  5
132
330
1E
100
AcDbEntity
  8
0
100
AcDbLine
 10
104.4999999999999
 20
76.36680250000001
 30
0.0
 11
105.4
 21
74.2132025
 31
0.0
  0
LINE
  5
133
330
1E
100
AcDbEntity
  8
0
100
AcDbLine
 10
105.4
 20
74.2132025
 30
0.0
 11
107.6
 21
68.49750249999999
 31
0.0
  0
LINE
  5
134
330
1E
100
AcDbEntity
  8
0
100
AcDbLine
 10
104.10405648242
 20
77.06442767152729
 30
0.0
 11
106.4
 21
74.1513025
 31
0.0
  0
LINE
  5
135
330
1E
100
AcDbEntity
  8
0
100
AcDbLine
 10
106.4
 20
74.1513025
 30
0.0
 11
109.5999999999999
 21
68.43550249999999
 31
0.0
  0
LINE
  5
136
330
1E
100
AcDbEntity
  8
0
100
AcDbLine
 10
109.5999999999999
 20
68.43550249999999
 30
0.0
 11
111.8999999999999
 21
62.2867025
 31
0.0
  0
LINE
  5
137
330
1E
100
AcDbEntity
  8
0
100
AcDbLine
 10
111.8999999999999
 20
62.2867025
 30
0.0
 11
113.4
 21
55.9647025
 31
0.0
  0
LINE
  5
138
330
1E
100
AcDbEntity
  8
0
100
AcDbLine
 10
113.4
 20
55.9647025
 30
0.0
 11
114.0
 21
49.5561025
 31
0.0
  0
ENDSEC
  0
SECTION
  2
OBJECTS
  0
DICTIONARY
  5
C
330
0
100
AcDbDictionary
  3
ACAD_GROUP
350
D
  3
ACAD_LAYOUT
350
19
  3
ACAD_MLINESTYLE
350
16
  3
ACAD_PLOTSETTINGS
350
18
  3
ACAD_PLOTSTYLENAME
350
E
  3
ACDBHEADERROUNDTRIPXREC
350
140
  3
ACDBVARIABLEDICTIONARY
350
13D
  0
DICTIONARY
  5
162
330
1E
100
AcDbDictionary
280
     1
  3
ACAD_LAYOUTSELFREF
360
163
  0
DICTIONARY
  5
160
330
1A
100
AcDbDictionary
280
     1
  3
ACAD_LAYOUTSELFREF
360
161
  0
DICTIONARY
  5
D
102
{ACAD_REACTORS
330
C
102
}
330
C
100
AcDbDictionary
  0
DICTIONARY
  5
19
102
{ACAD_REACTORS
330
C
102
}
330
C
100
AcDbDictionary
  0
DICTIONARY
  5
16
102
{ACAD_REACTORS
330
C
102
}
330
C
100
AcDbDictionary
  3
STANDARD
350
17
  0
DICTIONARY
  5
18
102
{ACAD_REACTORS
330
C
102
}
330
C
100
AcDbDictionary
  0
ACDBDICTIONARYWDFLT
  5
E
102
{ACAD_REACTORS
330
C
102
}
330
C
100
AcDbDictionary
281
     1
  3
Normal
350
F
100
AcDbDictionaryWithDefault
340
F
  0
DICTIONARY
  5
140
102
{ACAD_REACTORS
330
C
102
}
330
C
100
AcDbDictionary
  3
CEPSNTYPE
350
14A
  3
FINGERPRINTGUID
350
14B
  3
HYPERLINKBASE
350
143
  3
INSUNITS
350
149
  3
LAYOUTDICT
350
145
  3
LWETCUNION
350
148
  3
PLOTSETDICT
350
146
  3
PLOTSTYLNAMDICT
350
147
  3
PSVPSCALE
350
14D
  3
PUCSBASE
350
150
  3
PUCSORGBACK
350
156
  3
PUCSORGBOTTOM
350
152
  3
PUCSORGFRONT
350
155
  3
PUCSORGLEFT
350
153
  3
PUCSORGRIGHT
350
154
  3
PUCSORGTOP
350
151
  3
PUCSORTHOREF
350
14E
  3
PUCSORTHOVIEW
350
14F
  3
STYLESHEET
350
144
  3
TSTACKALIGN
350
141
  3
TSTACKSIZE
350
142
  3
UCSBASE
350
159
  3
UCSORGBACK
350
15F
  3
UCSORGBOTTOM
350
15B
  3
UCSORGFRONT
350
15E
  3
UCSORGLEFT
350
15C
  3
UCSORGRIGHT
350
15D
  3
UCSORGTOP
350
15A
  3
UCSORTHOREF
350
157
  3
UCSORTHOVIEW
350
158
  3
VERSIONGUID
350
14C
  0
DICTIONARY
  5
13D
102
{ACAD_REACTORS
330
C
102
}
330
C
100
AcDbDictionary
  3
DIMASSOC
350
13E
  0
XRECORD
  5
163
102
{ACAD_REACTORS
330
162
102
}
330
162
100
AcDbXrecord
340
1E
  0
XRECORD
  5
161
102
{ACAD_REACTORS
330
160
102
}
330
160
100
AcDbXrecord
340
1A
  0
MLINESTYLE
  5
17
102
{ACAD_REACTORS
330
16
102
}
330
16
100
AcDbMlineStyle
  2
STANDARD
 70
     0
  3

 62
   256
 51
90.0
 52
90.0
 71
     2
 49
0.5
 62
   256
  6
BYLAYER
 49
-0.5
 62
   256
  6
BYLAYER
  0
ACDBPLACEHOLDER
  5
F
102
{ACAD_REACTORS
330
E
102
}
330
E
100
AcDbPlaceHolder
280
     0
  0
XRECORD
  5
14A
102
{ACAD_REACTORS
330
140
102
}
330
140
100
AcDbXrecord
 90
        0
  0
XRECORD
  5
14B
102
{ACAD_REACTORS
330
140
102
}
330
140
100
AcDbXrecord
  1
{34B2179E-7CC3-4FEE-9645-2798D4B63F1E}
  0
XRECORD
  5
143
102
{ACAD_REACTORS
330
140
102
}
330
140
100
AcDbXrecord
  1

  0
XRECORD
  5
149
102
{ACAD_REACTORS
330
140
102
}
330
140
100
AcDbXrecord
 90
        0
  0
XRECORD
  5
145
102
{ACAD_REACTORS
330
140
102
}
330
140
100
AcDbXrecord
340
19
  0
XRECORD
  5
148
102
{ACAD_REACTORS
330
140
102
}
330
140
100
AcDbXrecord
 90
    10781
  0
XRECORD
  5
146
102
{ACAD_REACTORS
330
140
102
}
330
140
100
AcDbXrecord
340
18
  0
XRECORD
  5
147
102
{ACAD_REACTORS
330
140
102
}
330
140
100
AcDbXrecord
340
E
  0
XRECORD
  5
14D
102
{ACAD_REACTORS
330
140
102
}
330
140
100
AcDbXrecord
 40
0.0
  0
XRECORD
  5
150
102
{ACAD_REACTORS
330
140
102
}
330
140
100
AcDbXrecord
340
0
  0
XRECORD
  5
156
102
{ACAD_REACTORS
330
140
102
}
330
140
100
AcDbXrecord
 10
0.0
 20
0.0
 30
0.0
  0
XRECORD
  5
152
102
{ACAD_REACTORS
330
140
102
}
330
140
100
AcDbXrecord
 10
0.0
 20
0.0
 30
0.0
  0
XRECORD
  5
155
102
{ACAD_REACTORS
330
140
102
}
330
140
100
AcDbXrecord
 10
0.0
 20
0.0
 30
0.0
  0
XRECORD
  5
153
102
{ACAD_REACTORS
330
140
102
}
330
140
100
AcDbXrecord
 10
0.0
 20
0.0
 30
0.0
  0
XRECORD
  5
154
102
{ACAD_REACTORS
330
140
102
}
330
140
100
AcDbXrecord
 10
0.0
 20
0.0
 30
0.0
  0
XRECORD
  5
151
102
{ACAD_REACTORS
330
140
102
}
330
140
100
AcDbXrecord
 10
0.0
 20
0.0
 30
0.0
  0
XRECORD
  5
14E
102
{ACAD_REACTORS
330
140
102
}
330
140
100
AcDbXrecord
340
0
  0
XRECORD
  5
14F
102
{ACAD_REACTORS
330
140
102
}
330
140
100
AcDbXrecord
 70
     0
  0
XRECORD
  5
144
102
{ACAD_REACTORS
330
140
102
}
330
140
100
AcDbXrecord
  1

  0
XRECORD
  5
141
102
{ACAD_REACTORS
330
140
102
}
330
140
100
AcDbXrecord
 90
        1
  0
XRECORD
  5
142
102
{ACAD_REACTORS
330
140
102
}
330
140
100
AcDbXrecord
 90
       70
  0
XRECORD
  5
159
102
{ACAD_REACTORS
330
140
102
}
330
140
100
AcDbXrecord
340
0
  0
XRECORD
  5
15F
102
{ACAD_REACTORS
330
140
102
}
330
140
100
AcDbXrecord
 10
0.0
 20
0.0
 30
0.0
  0
XRECORD
  5
15B
102
{ACAD_REACTORS
330
140
102
}
330
140
100
AcDbXrecord
 10
0.0
 20
0.0
 30
0.0
  0
XRECORD
  5
15E
102
{ACAD_REACTORS
330
140
102
}
330
140
100
AcDbXrecord
 10
0.0
 20
0.0
 30
0.0
  0
XRECORD
  5
15C
102
{ACAD_REACTORS
330
140
102
}
330
140
100
AcDbXrecord
 10
0.0
 20
0.0
 30
0.0
  0
XRECORD
  5
15D
102
{ACAD_REACTORS
330
140
102
}
330
140
100
AcDbXrecord
 10
0.0
 20
0.0
 30
0.0
  0
XRECORD
  5
15A
102
{ACAD_REACTORS
330
140
102
}
330
140
100
AcDbXrecord
 10
0.0
 20
0.0
 30
0.0
  0
XRECORD
  5
157
102
{ACAD_REACTORS
330
140
102
}
330
140
100
AcDbXrecord
340
0
  0
XRECORD
  5
158
102
{ACAD_REACTORS
330
140
102
}
330
140
100
AcDbXrecord
 70
     1
  0
XRECORD
  5
14C
102
{ACAD_REACTORS
330
140
102
}
330
140
100
AcDbXrecord
  1
{C277BA48-C055-4ED3-9A34-B60F00158C64}
  0
DICTIONARYVAR
  5
13E
102
{ACAD_REACTORS
330
13D
102
}
330
13D
100
DictionaryVariables
280
     0
  1
1
  0
ENDSEC
  0
EOF
