  0
SECTION
  2
HEADER
  9
$ACADVER
  1
AC1015
  9
$ACADMAINTVER
 70
    13
  9
$DWGCODEPAGE
  3
ANSI_1252
  9
$INSBASE
 10
0.0
 20
0.0
 30
0.0
  9
$EXTMIN
 10
-0.0999999999999996
 20
-0.193465000000007
 30
0.0
  9
$EXTMAX
 10
96.09999999999999
 20
71.193465
 30
0.0
  9
$LIMMIN
 10
0.0
 20
0.0
  9
$LIMMAX
 10
12.0
 20
9.0
  9
$ORTHOMODE
 70
     0
  9
$REGENMODE
 70
     1
  9
$FILLMODE
 70
     1
  9
$QTEXTMODE
 70
     0
  9
$MIRRTEXT
 70
     1
  9
$LTSCALE
 40
1.0
  9
$ATTMODE
 70
     1
  9
$TEXTSIZE
 40
0.2
  9
$TRACEWID
 40
0.05
  9
$TEXTSTYLE
  7
Standard
  9
$CLAYER
  8
0
  9
$CELTYPE
  6
Continuous
  9
$CECOLOR
 62
   256
  9
$CELTSCALE
 40
1.0
  9
$DISPSILH
 70
     0
  9
$DIMSCALE
 40
1.0
  9
$DIMASZ
 40
0.18
  9
$DIMEXO
 40
0.0625
  9
$DIMDLI
 40
0.38
  9
$DIMRND
 40
0.0
  9
$DIMDLE
 40
0.0
  9
$DIMEXE
 40
0.18
  9
$DIMTP
 40
0.0
  9
$DIMTM
 40
0.0
  9
$DIMTXT
 40
0.18
  9
$DIMCEN
 40
0.09
  9
$DIMTSZ
 40
0.0
  9
$DIMTOL
 70
     0
  9
$DIMLIM
 70
     0
  9
$DIMTIH
 70
     1
  9
$DIMTOH
 70
     1
  9
$DIMSE1
 70
     0
  9
$DIMSE2
 70
     0
  9
$DIMTAD
 70
     0
  9
$DIMZIN
 70
     0
  9
$DIMBLK
  1

  9
$DIMASO
 70
     1
  9
$DIMSHO
 70
     1
  9
$DIMPOST
  1

  9
$DIMAPOST
  1

  9
$DIMALT
 70
     0
  9
$DIMALTD
 70
     2
  9
$DIMALTF
 40
25.4
  9
$DIMLFAC
 40
1.0
  9
$DIMTOFL
 70
     0
  9
$DIMTVP
 40
0.0
  9
$DIMTIX
 70
     0
  9
$DIMSOXD
 70
     0
  9
$DIMSAH
 70
     0
  9
$DIMBLK1
  1

  9
$DIMBLK2
  1

  9
$DIMSTYLE
  2
Standard
  9
$DIMCLRD
 70
     0
  9
$DIMCLRE
 70
     0
  9
$DIMCLRT
 70
     0
  9
$DIMTFAC
 40
1.0
  9
$DIMGAP
 40
0.09
  9
$DIMJUST
 70
     0
  9
$DIMSD1
 70
     0
  9
$DIMSD2
 70
     0
  9
$DIMTOLJ
 70
     1
  9
$DIMTZIN
 70
     0
  9
$DIMALTZ
 70
     0
  9
$DIMALTTZ
 70
     0
  9
$DIMUPT
 70
     0
  9
$DIMDEC
 70
     4
  9
$DIMTDEC
 70
     4
  9
$DIMALTU
 70
     2
  9
$DIMALTTD
 70
     2
  9
$DIMTXSTY
  7
Standard
  9
$DIMAUNIT
 70
     0
  9
$DIMADEC
 70
     0
  9
$DIMALTRND
 40
0.0
  9
$DIMAZIN
 70
     0
  9
$DIMDSEP
 70
    46
  9
$DIMATFIT
 70
     3
  9
$DIMFRAC
 70
     0
  9
$DIMLDRBLK
  1

  9
$DIMLUNIT
 70
     2
  9
$DIMLWD
 70
    -2
  9
$DIMLWE
 70
    -2
  9
$DIMTMOVE
 70
     0
  9
$LUNITS
 70
     2
  9
$LUPREC
 70
     4
  9
$SKETCHINC
 40
0.1
  9
$FILLETRAD
 40
0.0
  9
$AUNITS
 70
     0
  9
$AUPREC
 70
     0
  9
$MENU
  1
.
  9
$ELEVATION
 40
0.0
  9
$PELEVATION
 40
0.0
  9
$THICKNESS
 40
0.0
  9
$LIMCHECK
 70
     0
  9
$CHAMFERA
 40
0.0
  9
$CHAMFERB
 40
0.0
  9
$CHAMFERC
 40
0.0
  9
$CHAMFERD
 40
0.0
  9
$SKPOLY
 70
     0
  9
$TDCREATE
 40
2454762.816788911
  9
$TDUCREATE
 40
2454762.733455579
  9
$TDUPDATE
 40
2454762.821177835
  9
$TDUUPDATE
 40
2454762.737844502
  9
$TDINDWG
 40
0.0007400231
  9
$TDUSRTIMER
 40
0.0007400231
  9
$USRTIMER
 70
     1
  9
$ANGBASE
 50
0.0
  9
$ANGDIR
 70
     0
  9
$PDMODE
 70
     0
  9
$PDSIZE
 40
0.0
  9
$PLINEWID
 40
0.0
  9
$SPLFRAME
 70
     0
  9
$SPLINETYPE
 70
     6
  9
$SPLINESEGS
 70
     8
  9
$HANDSEED
  5
1B0
  9
$SURFTAB1
 70
     6
  9
$SURFTAB2
 70
     6
  9
$SURFTYPE
 70
     6
  9
$SURFU
 70
     6
  9
$SURFV
 70
     6
  9
$UCSBASE
  2

  9
$UCSNAME
  2

  9
$UCSORG
 10
0.0
 20
0.0
 30
0.0
  9
$UCSXDIR
 10
1.0
 20
0.0
 30
0.0
  9
$UCSYDIR
 10
0.0
 20
1.0
 30
0.0
  9
$UCSORTHOREF
  2

  9
$UCSORTHOVIEW
 70
     1
  9
$UCSORGTOP
 10
0.0
 20
0.0
 30
0.0
  9
$UCSORGBOTTOM
 10
0.0
 20
0.0
 30
0.0
  9
$UCSORGLEFT
 10
0.0
 20
0.0
 30
0.0
  9
$UCSORGRIGHT
 10
0.0
 20
0.0
 30
0.0
  9
$UCSORGFRONT
 10
0.0
 20
0.0
 30
0.0
  9
$UCSORGBACK
 10
0.0
 20
0.0
 30
0.0
  9
$PUCSBASE
  2

  9
$PUCSNAME
  2

  9
$PUCSORG
 10
0.0
 20
0.0
 30
0.0
  9
$PUCSXDIR
 10
1.0
 20
0.0
 30
0.0
  9
$PUCSYDIR
 10
0.0
 20
1.0
 30
0.0
  9
$PUCSORTHOREF
  2

  9
$PUCSORTHOVIEW
 70
     0
  9
$PUCSORGTOP
 10
0.0
 20
0.0
 30
0.0
  9
$PUCSORGBOTTOM
 10
0.0
 20
0.0
 30
0.0
  9
$PUCSORGLEFT
 10
0.0
 20
0.0
 30
0.0
  9
$PUCSORGRIGHT
 10
0.0
 20
0.0
 30
0.0
  9
$PUCSORGFRONT
 10
0.0
 20
0.0
 30
0.0
  9
$PUCSORGBACK
 10
0.0
 20
0.0
 30
0.0
  9
$USERI1
 70
     0
  9
$USERI2
 70
     0
  9
$USERI3
 70
     0
  9
$USERI4
 70
     0
  9
$USERI5
 70
     0
  9
$USERR1
 40
0.0
  9
$USERR2
 40
0.0
  9
$USERR3
 40
0.0
  9
$USERR4
 40
0.0
  9
$USERR5
 40
0.0
  9
$WORLDVIEW
 70
     1
  9
$SHADEDGE
 70
     3
  9
$SHADEDIF
 70
    70
  9
$TILEMODE
 70
     1
  9
$MAXACTVP
 70
    64
  9
$PINSBASE
 10
0.0
 20
0.0
 30
0.0
  9
$PLIMCHECK
 70
     0
  9
$PEXTMIN
 10
1.000000000000000E+20
 20
1.000000000000000E+20
 30
1.000000000000000E+20
  9
$PEXTMAX
 10
-1.000000000000000E+20
 20
-1.000000000000000E+20
 30
-1.000000000000000E+20
  9
$PLIMMIN
 10
0.0
 20
0.0
  9
$PLIMMAX
 10
12.0
 20
9.0
  9
$UNITMODE
 70
     0
  9
$VISRETAIN
 70
     1
  9
$PLINEGEN
 70
     0
  9
$PSLTSCALE
 70
     1
  9
$TREEDEPTH
 70
  3020
  9
$CMLSTYLE
  2
Standard
  9
$CMLJUST
 70
     0
  9
$CMLSCALE
 40
1.0
  9
$PROXYGRAPHICS
 70
     1
  9
$MEASUREMENT
 70
     0
  9
$CELWEIGHT
370
    -1
  9
$ENDCAPS
280
     0
  9
$JOINSTYLE
280
     0
  9
$LWDISPLAY
290
     0
  9
$INSUNITS
 70
     0
  9
$HYPERLINKBASE
  1

  9
$STYLESHEET
  1

  9
$XEDIT
290
     1
  9
$CEPSNTYPE
380
     0
  9
$PSTYLEMODE
290
     1
  9
$FINGERPRINTGUID
  2
{37ECD752-0641-4D04-8F4A-F7317DF82B0B}
  9
$VERSIONGUID
  2
{8FFBE594-6B93-45AE-BF30-F84E139A8E81}
  9
$EXTNAMES
290
     1
  9
$PSVPSCALE
 40
0.0
  9
$OLESTARTUP
290
     0
  0
ENDSEC
  0
SECTION
  2
CLASSES
  0
CLASS
  1
ACDBDICTIONARYWDFLT
  2
AcDbDictionaryWithDefault
  3
AutoCAD 2000
 90
        0
280
     0
281
     0
  0
CLASS
  1
ACDBPLACEHOLDER
  2
AcDbPlaceHolder
  3
AutoCAD 2000
 90
        0
280
     0
281
     0
  0
CLASS
  1
LAYOUT
  2
AcDbLayout
  3
AutoCAD 2000
 90
        0
280
     0
281
     0
  0
CLASS
  1
DICTIONARYVAR
  2
AcDbDictionaryVar
  3
AutoCAD 2000
 90
        0
280
     0
281
     0
  0
ENDSEC
  0
SECTION
  2
TABLES
  0
TABLE
  2
VPORT
  5
8
330
0
100
AcDbSymbolTable
 70
     2
  0
VPORT
  5
1AF
330
8
100
AcDbSymbolTableRecord
100
AcDbViewportTableRecord
  2
*Active
 70
     0
 10
0.0
 20
0.0
 11
1.0
 21
1.0
 12
48.0
 22
35.49999999999999
 13
0.0
 23
0.0
 14
1.0
 24
1.0
 15
0.0
 25
0.0
 16
0.0
 26
0.0
 36
1.0
 17
0.0
 27
0.0
 37
0.0
 40
71.93465580562659
 41
2.078104993597951
 42
50.0
 43
0.0
 44
0.0
 50
0.0
 51
0.0
 71
     0
 72
   100
 73
     1
 74
     3
 75
     0
 76
     0
 77
     0
 78
     0
281
     0
 65
     1
110
0.0
120
0.0
130
0.0
111
1.0
121
0.0
131
0.0
112
0.0
122
1.0
132
0.0
 79
     1
146
0.0
  0
ENDTAB
  0
TABLE
  2
LTYPE
  5
5
330
0
100
AcDbSymbolTable
 70
     1
  0
LTYPE
  5
13
330
5
100
AcDbSymbolTableRecord
100
AcDbLinetypeTableRecord
  2
ByBlock
 70
     0
  3

 72
    65
 73
     0
 40
0.0
  0
LTYPE
  5
14
330
5
100
AcDbSymbolTableRecord
100
AcDbLinetypeTableRecord
  2
ByLayer
 70
     0
  3

 72
    65
 73
     0
 40
0.0
  0
LTYPE
  5
15
330
5
100
AcDbSymbolTableRecord
100
AcDbLinetypeTableRecord
  2
Continuous
 70
     0
  3
Solid line
 72
    65
 73
     0
 40
0.0
  0
ENDTAB
  0
TABLE
  2
LAYER
  5
2
330
0
100
AcDbSymbolTable
 70
     1
  0
LAYER
  5
10
330
2
100
AcDbSymbolTableRecord
100
AcDbLayerTableRecord
  2
0
 70
     0
 62
     7
  6
Continuous
370
    -3
390
F
  0
ENDTAB
  0
TABLE
  2
STYLE
  5
3
330
0
100
AcDbSymbolTable
 70
     1
  0
STYLE
  5
11
330
3
100
AcDbSymbolTableRecord
100
AcDbTextStyleTableRecord
  2
Standard
 70
     0
 40
0.0
 41
1.0
 50
0.0
 71
     0
 42
0.2
  3
txt
  4

  0
ENDTAB
  0
TABLE
  2
VIEW
  5
6
330
0
100
AcDbSymbolTable
 70
     0
  0
ENDTAB
  0
TABLE
  2
UCS
  5
7
330
0
100
AcDbSymbolTable
 70
     0
  0
ENDTAB
  0
TABLE
  2
APPID
  5
9
330
0
100
AcDbSymbolTable
 70
     1
  0
APPID
  5
12
330
9
100
AcDbSymbolTableRecord
100
AcDbRegAppTableRecord
  2
ACAD
 70
     0
  0
ENDTAB
  0
TABLE
  2
DIMSTYLE
  5
A
330
0
100
AcDbSymbolTable
 70
     1
100
AcDbDimStyleTable
 71
     0
  0
DIMSTYLE
105
1A4
330
A
100
AcDbSymbolTableRecord
100
AcDbDimStyleTableRecord
  2
Standard
 70
     0
340
11
  0
ENDTAB
  0
TABLE
  2
BLOCK_RECORD
  5
1
330
0
100
AcDbSymbolTable
 70
     0
  0
BLOCK_RECORD
  5
1E
330
1
100
AcDbSymbolTableRecord
100
AcDbBlockTableRecord
  2
*Model_Space
340
21
  0
BLOCK_RECORD
  5
1A
330
1
100
AcDbSymbolTableRecord
100
AcDbBlockTableRecord
  2
*Paper_Space
340
1D
  0
ENDTAB
  0
ENDSEC
  0
SECTION
  2
BLOCKS
  0
BLOCK
  5
1F
330
1E
100
AcDbEntity
  8
0
100
AcDbBlockBegin
  2
*Model_Space
 70
     0
 10
0.0
 20
0.0
 30
0.0
  3
*Model_Space
  1

  0
ENDBLK
  5
20
330
1E
100
AcDbEntity
  8
0
100
AcDbBlockEnd
  0
BLOCK
  5
1B
330
1A
100
AcDbEntity
 67
     1
  8
0
100
AcDbBlockBegin
  2
*Paper_Space
 70
     0
 10
0.0
 20
0.0
 30
0.0
  3
*Paper_Space
  1

  0
ENDBLK
  5
1C
330
1A
100
AcDbEntity
 67
     1
  8
0
100
AcDbBlockEnd
  0
ENDSEC
  0
SECTION
  2
ENTITIES
  0
LINE
  5
22
330
1E
100
AcDbEntity
  8
0
100
AcDbLine
 10
-0.0999999999999996
 20
14.920565
 30
0.0
 11
27.9
 21
14.920565
 31
0.0
  0
LINE
  5
23
330
1E
100
AcDbEntity
  8
0
100
AcDbLine
 10
-0.0999999999999988
 20
14.920565
 30
0.0
 11
-0.0999999999999988
 21
15.22056499999998
 31
0.0
  0
LINE
  5
24
330
1E
100
AcDbEntity
  8
0
100
AcDbLine
 10
-0.0999999999999988
 20
14.920565
 30
0.0
 11
27.9
 21
14.920565
 31
0.0
  0
LINE
  5
25
330
1E
100
AcDbEntity
  8
0
100
AcDbLine
 10
-0.0999999999999988
 20
14.920565
 30
0.0
 11
-0.0999999999999988
 21
16.074565
 31
0.0
  0
LINE
  5
26
330
1E
100
AcDbEntity
  8
0
100
AcDbLine
 10
-0.0999999999999988
 20
14.920565
 30
0.0
 11
-0.0999999999999988
 21
16.074565
 31
0.0
  0
LINE
  5
27
330
1E
100
AcDbEntity
  8
0
100
AcDbLine
 10
-0.0999999999999988
 20
16.074565
 30
0.0
 11
-0.0999999999999988
 21
15.92056499999999
 31
0.0
  0
LINE
  5
28
330
1E
100
AcDbEntity
  8
0
100
AcDbLine
 10
-0.0999999999999988
 20
16.074565
 30
0.0
 11
-0.0999999999999988
 21
14.920565
 31
0.0
  0
LINE
  5
29
330
1E
100
AcDbEntity
  8
0
100
AcDbLine
 10
-0.0999999999999988
 20
15.92056499999999
 30
0.0
 11
-0.0999999999999988
 21
16.074565
 31
0.0
  0
LINE
  5
2A
330
1E
100
AcDbEntity
  8
0
100
AcDbLine
 10
-0.0999999999999988
 20
15.92056499999999
 30
0.0
 11
-0.0999999999999988
 21
16.074565
 31
0.0
  0
LINE
  5
2B
330
1E
100
AcDbEntity
  8
0
100
AcDbLine
 10
-0.0999999999999988
 20
16.074565
 30
0.0
 11
-0.0999999999999988
 21
14.920565
 31
0.0
  0
LINE
  5
2C
330
1E
100
AcDbEntity
  8
0
100
AcDbLine
 10
-0.0999999999999988
 20
16.074565
 30
0.0
 11
-0.0999999999999988
 21
15.92056499999999
 31
0.0
  0
LINE
  5
2D
330
1E
100
AcDbEntity
  8
0
100
AcDbLine
 10
-0.0999999999999988
 20
15.22056499999998
 30
0.0
 11
-0.0999999999999988
 21
16.720565
 31
0.0
  0
LINE
  5
2E
330
1E
100
AcDbEntity
  8
0
100
AcDbLine
 10
-0.0999999999999988
 20
15.22056499999998
 30
0.0
 11
-0.0999999999999988
 21
14.920565
 31
0.0
  0
LINE
  5
2F
330
1E
100
AcDbEntity
  8
0
100
AcDbLine
 10
28.9
 20
14.620565
 30
0.0
 11
28.9
 21
14.920565
 31
0.0
  0
LINE
  5
30
330
1E
100
AcDbEntity
  8
0
100
AcDbLine
 10
28.9
 20
14.920565
 30
0.0
 11
28.9
 21
15.22056499999998
 31
0.0
  0
LINE
  5
31
330
1E
100
AcDbEntity
  8
0
100
AcDbLine
 10
28.9
 20
15.22056499999998
 30
0.0
 11
28.9
 21
16.720565
 31
0.0
  0
LINE
  5
32
330
1E
100
AcDbEntity
  8
0
100
AcDbLine
 10
28.9
 20
16.720565
 30
0.0
 11
28.9
 21
17.120565
 31
0.0
  0
LINE
  5
33
330
1E
100
AcDbEntity
  8
0
100
AcDbLine
 10
27.9
 20
14.920565
 30
0.0
 11
27.9
 21
14.620565
 31
0.0
  0
LINE
  5
34
330
1E
100
AcDbEntity
  8
0
100
AcDbLine
 10
27.9
 20
14.620565
 30
0.0
 11
27.9
 21
14.920565
 31
0.0
  0
LINE
  5
35
330
1E
100
AcDbEntity
  8
0
100
AcDbLine
 10
27.9
 20
14.620565
 30
0.0
 11
28.9
 21
14.620565
 31
0.0
  0
LINE
  5
36
330
1E
100
AcDbEntity
  8
0
100
AcDbLine
 10
-0.0999999999999988
 20
16.720565
 30
0.0
 11
-0.0999999999999988
 21
17.120565
 31
0.0
  0
LINE
  5
37
330
1E
100
AcDbEntity
  8
0
100
AcDbLine
 10
-0.0999999999999988
 20
16.720565
 30
0.0
 11
-0.0999999999999988
 21
15.22056499999998
 31
0.0
  0
LINE
  5
38
330
1E
100
AcDbEntity
  8
0
100
AcDbLine
 10
-0.0999999999999996
 20
17.120565
 30
0.0
 11
27.9
 21
17.120565
 31
0.0
  0
LINE
  5
3A
330
1E
100
AcDbEntity
  8
0
100
AcDbLine
 10
-0.0999999999999988
 20
17.120565
 30
0.0
 11
-0.0999999999999988
 21
18.046065
 31
0.0
  0
LINE
  5
3B
330
1E
100
AcDbEntity
  8
0
100
AcDbLine
 10
-0.0999999999999988
 20
17.120565
 30
0.0
 11
-0.0999999999999988
 21
16.720565
 31
0.0
  0
LINE
  5
3C
330
1E
100
AcDbEntity
  8
0
100
AcDbLine
 10
-0.0999999999999988
 20
17.120565
 30
0.0
 11
27.9
 21
17.120565
 31
0.0
  0
LINE
  5
3D
330
1E
100
AcDbEntity
  8
0
100
AcDbLine
 10
28.9
 20
17.120565
 30
0.0
 11
28.9
 21
19.32056499999998
 31
0.0
  0
LINE
  5
3E
330
1E
100
AcDbEntity
  8
0
100
AcDbLine
 10
27.9
 20
17.120565
 30
0.0
 11
27.9
 21
18.107665
 31
0.0
  0
LINE
  5
3F
330
1E
100
AcDbEntity
  8
0
100
AcDbLine
 10
27.9
 20
17.120565
 30
0.0
 11
27.9
 21
19.32056499999998
 31
0.0
  0
LINE
  5
40
330
1E
100
AcDbEntity
  8
0
100
AcDbLine
 10
27.9
 20
18.107665
 30
0.0
 11
27.9
 21
20.12056499999999
 31
0.0
  0
LINE
  5
41
330
1E
100
AcDbEntity
  8
0
100
AcDbLine
 10
27.9
 20
18.107665
 30
0.0
 11
27.9
 21
17.120565
 31
0.0
  0
LINE
  5
42
330
1E
100
AcDbEntity
  8
0
100
AcDbLine
 10
-0.0999999999999988
 20
18.046065
 30
0.0
 11
-0.0999999999999988
 21
20.12056499999999
 31
0.0
  0
LINE
  5
43
330
1E
100
AcDbEntity
  8
0
100
AcDbLine
 10
-0.0999999999999988
 20
18.046065
 30
0.0
 11
-0.0999999999999988
 21
17.120565
 31
0.0
  0
LINE
  5
45
330
1E
100
AcDbEntity
  8
0
100
AcDbLine
 10
-0.0999999999999988
 20
18.046065
 30
0.0
 11
-0.0999999999999988
 21
20.12056499999999
 31
0.0
  0
LINE
  5
46
330
1E
100
AcDbEntity
  8
0
100
AcDbLine
 10
29.1
 20
16.720565
 30
0.0
 11
29.1
 21
15.16266499999999
 31
0.0
  0
LINE
  5
47
330
1E
100
AcDbEntity
  8
0
100
AcDbLine
 10
29.1
 20
15.16266499999999
 30
0.0
 11
29.1
 21
14.560965
 31
0.0
  0
LINE
  5
48
330
1E
100
AcDbEntity
  8
0
100
AcDbLine
 10
29.1
 20
14.560965
 30
0.0
 11
29.1
 21
15.211965
 31
0.0
  0
LINE
  5
49
330
1E
100
AcDbEntity
  8
0
100
AcDbLine
 10
29.1
 20
14.560965
 30
0.0
 11
69.1
 21
14.560965
 31
0.0
  0
LINE
  5
4A
330
1E
100
AcDbEntity
  8
0
100
AcDbLine
 10
29.1
 20
15.211965
 30
0.0
 11
29.1
 21
16.742365
 31
0.0
  0
LINE
  5
4B
330
1E
100
AcDbEntity
  8
0
100
AcDbLine
 10
-0.0999999999999988
 20
20.12056499999999
 30
0.0
 11
-0.0999999999999988
 21
18.046065
 31
0.0
  0
LINE
  5
4C
330
1E
100
AcDbEntity
  8
0
100
AcDbLine
 10
-0.0999999999999988
 20
20.12056499999999
 30
0.0
 11
-0.0999999999999988
 21
22.653665
 31
0.0
  0
LINE
  5
4D
330
1E
100
AcDbEntity
  8
0
100
AcDbLine
 10
28.9
 20
19.32056499999998
 30
0.0
 11
28.9
 21
21.8971190923865
 31
0.0
  0
LINE
  5
4E
330
1E
100
AcDbEntity
  8
0
100
AcDbLine
 10
27.9
 20
19.32056499999998
 30
0.0
 11
27.9
 21
17.120565
 31
0.0
  0
LINE
  5
4F
330
1E
100
AcDbEntity
  8
0
100
AcDbLine
 10
27.9
 20
19.32056499999998
 30
0.0
 11
27.9
 21
22.120565
 31
0.0
  0
LINE
  5
50
330
1E
100
AcDbEntity
  8
0
100
AcDbLine
 10
27.9
 20
20.12056499999999
 30
0.0
 11
27.9
 21
22.120565
 31
0.0
  0
LINE
  5
51
330
1E
100
AcDbEntity
  8
0
100
AcDbLine
 10
27.9
 20
20.12056499999999
 30
0.0
 11
27.9
 21
18.107665
 31
0.0
  0
LINE
  5
52
330
1E
100
AcDbEntity
  8
0
100
AcDbLine
 10
-0.0999999999999988
 20
20.12056499999999
 30
0.0
 11
-0.0999999999999988
 21
22.653665
 31
0.0
  0
LINE
  5
53
330
1E
100
AcDbEntity
  8
0
100
AcDbLine
 10
-0.0999999999999988
 20
20.12056499999999
 30
0.0
 11
-0.0999999999999988
 21
18.046065
 31
0.0
  0
LINE
  5
54
330
1E
100
AcDbEntity
  8
0
100
AcDbLine
 10
-0.0999999999999996
 20
22.120565
 30
0.0
 11
27.9
 21
22.120565
 31
0.0
  0
LINE
  5
55
330
1E
100
AcDbEntity
  8
0
100
AcDbLine
 10
-0.0999999999999988
 20
22.653665
 30
0.0
 11
-0.0999999999999988
 21
20.12056499999999
 31
0.0
  0
LINE
  5
56
330
1E
100
AcDbEntity
  8
0
100
AcDbLine
 10
-0.0999999999999988
 20
22.653665
 30
0.0
 11
-0.0999999999999988
 21
22.120565
 31
0.0
  0
LINE
  5
57
330
1E
100
AcDbEntity
  8
0
100
AcDbLine
 10
-0.0999999999999996
 20
28.320565
 30
0.0
 11
27.9
 21
28.320565
 31
0.0
  0
LINE
  5
58
330
1E
100
AcDbEntity
  8
0
100
AcDbLine
 10
-0.0999999999999996
 20
28.565065
 30
0.0
 11
27.9
 21
28.595865
 31
0.0
  0
LINE
  5
59
330
1E
100
AcDbEntity
  8
0
100
AcDbLine
 10
-0.0999999999999988
 20
32.676065
 30
0.0
 11
-0.0999999999999988
 21
32.920565
 31
0.0
  0
LINE
  5
5A
330
1E
100
AcDbEntity
  8
0
100
AcDbLine
 10
-0.0999999999999988
 20
32.676065
 30
0.0
 11
-0.0999999999999988
 21
30.620565
 31
0.0
  0
LINE
  5
5B
330
1E
100
AcDbEntity
  8
0
100
AcDbLine
 10
-0.0999999999999996
 20
32.676065
 30
0.0
 11
27.9
 21
32.645265
 31
0.0
  0
LINE
  5
5C
330
1E
100
AcDbEntity
  8
0
100
AcDbLine
 10
-0.0999999999999996
 20
32.920565
 30
0.0
 11
27.9
 21
32.920565
 31
0.0
  0
LINE
  5
5E
330
1E
100
AcDbEntity
  8
0
100
AcDbLine
 10
-0.0999999999999988
 20
32.676065
 30
0.0
 11
-0.0999999999999988
 21
30.620565
 31
0.0
  0
LINE
  5
5F
330
1E
100
AcDbEntity
  8
0
100
AcDbLine
 10
-0.0999999999999988
 20
32.676065
 30
0.0
 11
-0.0999999999999988
 21
32.920565
 31
0.0
  0
LINE
  5
60
330
1E
100
AcDbEntity
  8
0
100
AcDbLine
 10
-0.0999999999999988
 20
34.720565
 30
0.0
 11
-0.0999999999999988
 21
38.62056499999999
 31
0.0
  0
LINE
  5
61
330
1E
100
AcDbEntity
  8
0
100
AcDbLine
 10
-0.0999999999999988
 20
34.720565
 30
0.0
 11
-0.0999999999999988
 21
32.920565
 31
0.0
  0
LINE
  5
62
330
1E
100
AcDbEntity
  8
0
100
AcDbLine
 10
-0.0999999999999988
 20
39.120565
 30
0.0
 11
-0.0999999999999988
 21
38.587365
 31
0.0
  0
LINE
  5
63
330
1E
100
AcDbEntity
  8
0
100
AcDbLine
 10
-0.0999999999999988
 20
39.120565
 30
0.0
 11
-0.0999999999999988
 21
38.62056499999999
 31
0.0
  0
LINE
  5
64
330
1E
100
AcDbEntity
  8
0
100
AcDbLine
 10
-0.0999999999999988
 20
34.720565
 30
0.0
 11
-0.0999999999999988
 21
32.920565
 31
0.0
  0
LINE
  5
65
330
1E
100
AcDbEntity
  8
0
100
AcDbLine
 10
-0.0999999999999988
 20
34.720565
 30
0.0
 11
-0.0999999999999988
 21
38.62056499999999
 31
0.0
  0
LINE
  5
66
330
1E
100
AcDbEntity
  8
0
100
AcDbLine
 10
-0.0999999999999988
 20
32.920565
 30
0.0
 11
27.9
 21
32.920565
 31
0.0
  0
LINE
  5
67
330
1E
100
AcDbEntity
  8
0
100
AcDbLine
 10
-0.0999999999999988
 20
32.920565
 30
0.0
 11
-0.0999999999999988
 21
32.676065
 31
0.0
  0
LINE
  5
68
330
1E
100
AcDbEntity
  8
0
100
AcDbLine
 10
-0.0999999999999988
 20
32.920565
 30
0.0
 11
-0.0999999999999988
 21
34.720565
 31
0.0
  0
LINE
  5
69
330
1E
100
AcDbEntity
  8
0
100
AcDbLine
 10
-0.0999999999999988
 20
32.920565
 30
0.0
 11
-0.0999999999999988
 21
32.676065
 31
0.0
  0
LINE
  5
6A
330
1E
100
AcDbEntity
  8
0
100
AcDbLine
 10
-0.0999999999999988
 20
32.920565
 30
0.0
 11
-0.0999999999999988
 21
34.720565
 31
0.0
  0
LINE
  5
6B
330
1E
100
AcDbEntity
  8
0
100
AcDbLine
 10
-0.0999999999999988
 20
38.62056499999999
 30
0.0
 11
-0.0999999999999988
 21
34.720565
 31
0.0
  0
LINE
  5
6C
330
1E
100
AcDbEntity
  8
0
100
AcDbLine
 10
-0.0999999999999988
 20
38.62056499999999
 30
0.0
 11
-0.0999999999999988
 21
39.120565
 31
0.0
  0
LINE
  5
6D
330
1E
100
AcDbEntity
  8
0
100
AcDbLine
 10
-0.0999999999999988
 20
38.62056499999999
 30
0.0
 11
-0.0999999999999988
 21
34.720565
 31
0.0
  0
LINE
  5
6E
330
1E
100
AcDbEntity
  8
0
100
AcDbLine
 10
-0.0999999999999988
 20
38.62056499999999
 30
0.0
 11
-0.0999999999999988
 21
39.120565
 31
0.0
  0
LINE
  5
6F
330
1E
100
AcDbEntity
  8
0
100
AcDbLine
 10
-0.0999999999999996
 20
39.120565
 30
0.0
 11
27.9
 21
39.120565
 31
0.0
  0
LINE
  5
70
330
1E
100
AcDbEntity
  8
0
100
AcDbLine
 10
-0.0999999999999988
 20
38.587365
 30
0.0
 11
-0.0999999999999988
 21
39.120565
 31
0.0
  0
LINE
  5
71
330
1E
100
AcDbEntity
  8
0
100
AcDbLine
 10
-0.0999999999999988
 20
38.587365
 30
0.0
 11
-0.0999999999999988
 21
41.120565
 31
0.0
  0
LINE
  5
72
330
1E
100
AcDbEntity
  8
0
100
AcDbLine
 10
-0.0999999999999988
 20
38.587365
 30
0.0
 11
-0.0999999999999988
 21
39.120565
 31
0.0
  0
LINE
  5
73
330
1E
100
AcDbEntity
  8
0
100
AcDbLine
 10
-0.0999999999999988
 20
45.320565
 30
0.0
 11
-0.0999999999999988
 21
45.166565
 31
0.0
  0
LINE
  5
74
330
1E
100
AcDbEntity
  8
0
100
AcDbLine
 10
-0.0999999999999988
 20
45.166565
 30
0.0
 11
-0.0999999999999988
 21
46.320565
 31
0.0
  0
LINE
  5
75
330
1E
100
AcDbEntity
  8
0
100
AcDbLine
 10
-0.0999999999999988
 20
45.166565
 30
0.0
 11
-0.0999999999999988
 21
45.320565
 31
0.0
  0
LINE
  5
76
330
1E
100
AcDbEntity
  8
0
100
AcDbLine
 10
-0.0999999999999996
 20
46.320565
 30
0.0
 11
27.9
 21
46.320565
 31
0.0
  0
LINE
  5
77
330
1E
100
AcDbEntity
  8
0
100
AcDbLine
 10
-0.0999999999999988
 20
46.320565
 30
0.0
 11
-0.0999999999999988
 21
46.020565
 31
0.0
  0
LINE
  5
78
330
1E
100
AcDbEntity
  8
0
100
AcDbLine
 10
-0.0999999999999988
 20
46.320565
 30
0.0
 11
27.9
 21
46.320565
 31
0.0
  0
LINE
  5
79
330
1E
100
AcDbEntity
  8
0
100
AcDbLine
 10
-0.0999999999999988
 20
46.320565
 30
0.0
 11
-0.0999999999999988
 21
45.166565
 31
0.0
  0
LINE
  5
7A
330
1E
100
AcDbEntity
  8
0
100
AcDbLine
 10
-0.0999999999999988
 20
46.020565
 30
0.0
 11
-0.0999999999999988
 21
44.520565
 31
0.0
  0
LINE
  5
7B
330
1E
100
AcDbEntity
  8
0
100
AcDbLine
 10
-0.0999999999999988
 20
46.020565
 30
0.0
 11
-0.0999999999999988
 21
46.320565
 31
0.0
  0
LINE
  5
7C
330
1E
100
AcDbEntity
  8
0
100
AcDbLine
 10
-0.0999999999999988
 20
44.520565
 30
0.0
 11
-0.0999999999999988
 21
44.120565
 31
0.0
  0
LINE
  5
7D
330
1E
100
AcDbEntity
  8
0
100
AcDbLine
 10
-0.0999999999999988
 20
44.520565
 30
0.0
 11
-0.0999999999999988
 21
46.020565
 31
0.0
  0
LINE
  5
7E
330
1E
100
AcDbEntity
  8
0
100
AcDbLine
 10
-0.0999999999999996
 20
44.120565
 30
0.0
 11
27.9
 21
44.120565
 31
0.0
  0
LINE
  5
7F
330
1E
100
AcDbEntity
  8
0
100
AcDbLine
 10
-0.0999999999999988
 20
44.120565
 30
0.0
 11
-0.0999999999999988
 21
43.195065
 31
0.0
  0
LINE
  5
80
330
1E
100
AcDbEntity
  8
0
100
AcDbLine
 10
-0.0999999999999988
 20
44.120565
 30
0.0
 11
27.9
 21
44.120565
 31
0.0
  0
LINE
  5
81
330
1E
100
AcDbEntity
  8
0
100
AcDbLine
 10
-0.0999999999999988
 20
44.120565
 30
0.0
 11
-0.0999999999999988
 21
44.520565
 31
0.0
  0
LINE
  5
83
330
1E
100
AcDbEntity
  8
0
100
AcDbLine
 10
-0.0999999999999988
 20
43.195065
 30
0.0
 11
-0.0999999999999988
 21
41.120565
 31
0.0
  0
LINE
  5
85
330
1E
100
AcDbEntity
  8
0
100
AcDbLine
 10
-0.0999999999999988
 20
43.195065
 30
0.0
 11
-0.0999999999999988
 21
44.120565
 31
0.0
  0
LINE
  5
86
330
1E
100
AcDbEntity
  8
0
100
AcDbLine
 10
-0.0999999999999988
 20
39.120565
 30
0.0
 11
27.9
 21
39.120565
 31
0.0
  0
LINE
  5
87
330
1E
100
AcDbEntity
  8
0
100
AcDbLine
 10
-0.0999999999999988
 20
39.120565
 30
0.0
 11
-0.0999999999999988
 21
38.62056499999999
 31
0.0
  0
LINE
  5
88
330
1E
100
AcDbEntity
  8
0
100
AcDbLine
 10
-0.0999999999999988
 20
39.120565
 30
0.0
 11
-0.0999999999999988
 21
38.587365
 31
0.0
  0
LINE
  5
89
330
1E
100
AcDbEntity
  8
0
100
AcDbLine
 10
-0.0999999999999988
 20
41.120565
 30
0.0
 11
-0.0999999999999988
 21
38.587365
 31
0.0
  0
LINE
  5
8A
330
1E
100
AcDbEntity
  8
0
100
AcDbLine
 10
-0.0999999999999988
 20
41.120565
 30
0.0
 11
-0.0999999999999988
 21
43.195065
 31
0.0
  0
LINE
  5
8B
330
1E
100
AcDbEntity
  8
0
100
AcDbLine
 10
-0.0999999999999988
 20
28.565065
 30
0.0
 11
-0.0999999999999988
 21
28.320565
 31
0.0
  0
LINE
  5
8D
330
1E
100
AcDbEntity
  8
0
100
AcDbLine
 10
-0.0999999999999988
 20
28.565065
 30
0.0
 11
-0.0999999999999988
 21
30.620565
 31
0.0
  0
LINE
  5
8E
330
1E
100
AcDbEntity
  8
0
100
AcDbLine
 10
-0.0999999999999988
 20
30.620565
 30
0.0
 11
-0.0999999999999988
 21
28.565065
 31
0.0
  0
LINE
  5
8F
330
1E
100
AcDbEntity
  8
0
100
AcDbLine
 10
-0.0999999999999988
 20
30.620565
 30
0.0
 11
-0.0999999999999988
 21
28.565065
 31
0.0
  0
LINE
  5
90
330
1E
100
AcDbEntity
  8
0
100
AcDbLine
 10
-0.0999999999999988
 20
30.620565
 30
0.0
 11
-0.0999999999999988
 21
32.676065
 31
0.0
  0
LINE
  5
91
330
1E
100
AcDbEntity
  8
0
100
AcDbLine
 10
-0.0999999999999988
 20
30.620565
 30
0.0
 11
-0.0999999999999988
 21
32.676065
 31
0.0
  0
LINE
  5
92
330
1E
100
AcDbEntity
  8
0
100
AcDbLine
 10
-0.0999999999999988
 20
28.565065
 30
0.0
 11
-0.0999999999999988
 21
30.620565
 31
0.0
  0
LINE
  5
93
330
1E
100
AcDbEntity
  8
0
100
AcDbLine
 10
-0.0999999999999988
 20
28.565065
 30
0.0
 11
-0.0999999999999988
 21
28.320565
 31
0.0
  0
LINE
  5
94
330
1E
100
AcDbEntity
  8
0
100
AcDbLine
 10
-0.0999999999999988
 20
28.320565
 30
0.0
 11
-0.0999999999999988
 21
28.565065
 31
0.0
  0
LINE
  5
95
330
1E
100
AcDbEntity
  8
0
100
AcDbLine
 10
-0.0999999999999988
 20
28.320565
 30
0.0
 11
-0.0999999999999988
 21
26.520565
 31
0.0
  0
LINE
  5
96
330
1E
100
AcDbEntity
  8
0
100
AcDbLine
 10
-0.0999999999999988
 20
28.320565
 30
0.0
 11
27.9
 21
28.320565
 31
0.0
  0
LINE
  5
97
330
1E
100
AcDbEntity
  8
0
100
AcDbLine
 10
-0.0999999999999988
 20
28.320565
 30
0.0
 11
-0.0999999999999988
 21
28.565065
 31
0.0
  0
LINE
  5
98
330
1E
100
AcDbEntity
  8
0
100
AcDbLine
 10
-0.0999999999999988
 20
26.520565
 30
0.0
 11
-0.0999999999999988
 21
28.320565
 31
0.0
  0
LINE
  5
99
330
1E
100
AcDbEntity
  8
0
100
AcDbLine
 10
-0.0999999999999988
 20
26.520565
 30
0.0
 11
-0.0999999999999988
 21
22.62056499999999
 31
0.0
  0
LINE
  5
9A
330
1E
100
AcDbEntity
  8
0
100
AcDbLine
 10
-0.0999999999999988
 20
22.62056499999999
 30
0.0
 11
-0.0999999999999988
 21
26.520565
 31
0.0
  0
LINE
  5
9B
330
1E
100
AcDbEntity
  8
0
100
AcDbLine
 10
-0.0999999999999988
 20
22.62056499999999
 30
0.0
 11
-0.0999999999999988
 21
22.120565
 31
0.0
  0
LINE
  5
9C
330
1E
100
AcDbEntity
  8
0
100
AcDbLine
 10
-0.0999999999999988
 20
22.120565
 30
0.0
 11
-0.0999999999999988
 21
22.62056499999999
 31
0.0
  0
LINE
  5
9D
330
1E
100
AcDbEntity
  8
0
100
AcDbLine
 10
-0.0999999999999988
 20
22.120565
 30
0.0
 11
-0.0999999999999988
 21
22.653665
 31
0.0
  0
LINE
  5
9E
330
1E
100
AcDbEntity
  8
0
100
AcDbLine
 10
-0.0999999999999988
 20
22.120565
 30
0.0
 11
-0.0999999999999988
 21
22.653665
 31
0.0
  0
LINE
  5
9F
330
1E
100
AcDbEntity
  8
0
100
AcDbLine
 10
-0.0999999999999988
 20
22.120565
 30
0.0
 11
27.9
 21
22.120565
 31
0.0
  0
LINE
  5
A0
330
1E
100
AcDbEntity
  8
0
100
AcDbLine
 10
28.856
 20
22.19346499999999
 30
0.0
 11
30.872
 21
22.19346499999999
 31
0.0
  0
LINE
  5
A2
330
1E
100
AcDbEntity
  8
0
100
AcDbLine
 10
28.1
 20
22.19346499999999
 30
0.0
 11
28.1
 21
29.193465
 31
0.0
  0
LINE
  5
A3
330
1E
100
AcDbEntity
  8
0
100
AcDbLine
 10
28.1
 20
22.19346499999999
 30
0.0
 11
28.856
 21
22.19346499999999
 31
0.0
  0
LINE
  5
A4
330
1E
100
AcDbEntity
  8
0
100
AcDbLine
 10
28.1
 20
22.19346499999999
 30
0.0
 11
29.1153
 21
21.81736499999999
 31
0.0
  0
LINE
  5
A5
330
1E
100
AcDbEntity
  8
0
100
AcDbLine
 10
28.9
 20
21.89711909238639
 30
0.0
 11
29.1
 21
21.8230326154831
 31
0.0
  0
LINE
  5
A6
330
1E
100
AcDbEntity
  8
0
100
AcDbLine
 10
27.9
 20
22.120565
 30
0.0
 11
27.9
 21
19.32056499999998
 31
0.0
  0
LINE
  5
A7
330
1E
100
AcDbEntity
  8
0
100
AcDbLine
 10
27.9
 20
22.120565
 30
0.0
 11
27.9
 21
20.12056499999999
 31
0.0
  0
LINE
  5
A8
330
1E
100
AcDbEntity
  8
0
100
AcDbLine
 10
27.9
 20
32.920565
 30
0.0
 11
27.9
 21
30.620565
 31
0.0
  0
LINE
  5
A9
330
1E
100
AcDbEntity
  8
0
100
AcDbLine
 10
27.9
 20
32.920565
 30
0.0
 11
27.9
 21
32.645265
 31
0.0
  0
LINE
  5
AA
330
1E
100
AcDbEntity
  8
0
100
AcDbLine
 10
27.9
 20
41.920565
 30
0.0
 11
27.9
 21
39.120565
 31
0.0
  0
LINE
  5
AB
330
1E
100
AcDbEntity
  8
0
100
AcDbLine
 10
27.9
 20
41.920565
 30
0.0
 11
27.9
 21
44.120565
 31
0.0
  0
LINE
  5
AC
330
1E
100
AcDbEntity
  8
0
100
AcDbLine
 10
27.9
 20
44.120565
 30
0.0
 11
27.9
 21
41.920565
 31
0.0
  0
LINE
  5
AD
330
1E
100
AcDbEntity
  8
0
100
AcDbLine
 10
27.9
 20
44.120565
 30
0.0
 11
27.9
 21
43.133465
 31
0.0
  0
LINE
  5
AE
330
1E
100
AcDbEntity
  8
0
100
AcDbLine
 10
27.9
 20
46.320565
 30
0.0
 11
27.9
 21
46.620565
 31
0.0
  0
LINE
  5
AF
330
1E
100
AcDbEntity
  8
0
100
AcDbLine
 10
27.9
 20
46.620565
 30
0.0
 11
28.1
 21
46.620565
 31
0.0
  0
LINE
  5
B0
330
1E
100
AcDbEntity
  8
0
100
AcDbLine
 10
27.9
 20
46.620565
 30
0.0
 11
27.9
 21
46.320565
 31
0.0
  0
LINE
  5
B1
330
1E
100
AcDbEntity
  8
0
100
AcDbLine
 10
27.9
 20
43.133465
 30
0.0
 11
27.9
 21
44.120565
 31
0.0
  0
LINE
  5
B2
330
1E
100
AcDbEntity
  8
0
100
AcDbLine
 10
27.9
 20
43.133465
 30
0.0
 11
27.9
 21
41.120565
 31
0.0
  0
LINE
  5
B3
330
1E
100
AcDbEntity
  8
0
100
AcDbLine
 10
27.9
 20
41.120565
 30
0.0
 11
27.9
 21
43.133465
 31
0.0
  0
LINE
  5
B4
330
1E
100
AcDbEntity
  8
0
100
AcDbLine
 10
27.9
 20
41.120565
 30
0.0
 11
27.9
 21
39.120565
 31
0.0
  0
LINE
  5
B5
330
1E
100
AcDbEntity
  8
0
100
AcDbLine
 10
27.9
 20
32.645265
 30
0.0
 11
27.9
 21
32.920565
 31
0.0
  0
LINE
  5
B6
330
1E
100
AcDbEntity
  8
0
100
AcDbLine
 10
27.9
 20
32.645265
 30
0.0
 11
27.9
 21
30.620565
 31
0.0
  0
LINE
  5
B7
330
1E
100
AcDbEntity
  8
0
100
AcDbLine
 10
27.9
 20
39.120565
 30
0.0
 11
27.9
 21
41.120565
 31
0.0
  0
LINE
  5
B8
330
1E
100
AcDbEntity
  8
0
100
AcDbLine
 10
27.9
 20
39.120565
 30
0.0
 11
27.9
 21
41.920565
 31
0.0
  0
LINE
  5
B9
330
1E
100
AcDbEntity
  8
0
100
AcDbLine
 10
27.9
 20
30.620565
 30
0.0
 11
27.9
 21
28.320565
 31
0.0
  0
LINE
  5
BA
330
1E
100
AcDbEntity
  8
0
100
AcDbLine
 10
27.9
 20
30.620565
 30
0.0
 11
27.9
 21
28.595865
 31
0.0
  0
LINE
  5
BB
330
1E
100
AcDbEntity
  8
0
100
AcDbLine
 10
27.9
 20
30.620565
 30
0.0
 11
27.9
 21
32.645265
 31
0.0
  0
LINE
  5
BC
330
1E
100
AcDbEntity
  8
0
100
AcDbLine
 10
27.9
 20
30.620565
 30
0.0
 11
27.9
 21
32.920565
 31
0.0
  0
LINE
  5
BD
330
1E
100
AcDbEntity
  8
0
100
AcDbLine
 10
28.1
 20
29.593465
 30
0.0
 11
28.1
 21
71.193465
 31
0.0
  0
LINE
  5
BE
330
1E
100
AcDbEntity
  8
0
100
AcDbLine
 10
28.1
 20
29.593465
 30
0.0
 11
28.856
 21
29.593465
 31
0.0
  0
LINE
  5
BF
330
1E
100
AcDbEntity
  8
0
100
AcDbLine
 10
28.1
 20
29.593465
 30
0.0
 11
28.604
 21
29.193465
 31
0.0
  0
LINE
  5
C0
330
1E
100
AcDbEntity
  8
0
100
AcDbLine
 10
28.856
 20
29.593465
 30
0.0
 11
30.872
 21
29.593465
 31
0.0
  0
LINE
  5
C1
330
1E
100
AcDbEntity
  8
0
100
AcDbLine
 10
28.1
 20
29.193465
 30
0.0
 11
28.1
 21
22.19346499999999
 31
0.0
  0
LINE
  5
C2
330
1E
100
AcDbEntity
  8
0
100
AcDbLine
 10
28.1
 20
29.193465
 30
0.0
 11
28.856
 21
29.193465
 31
0.0
  0
LINE
  5
C3
330
1E
100
AcDbEntity
  8
0
100
AcDbLine
 10
28.856
 20
29.193465
 30
0.0
 11
30.872
 21
29.193465
 31
0.0
  0
LINE
  5
C4
330
1E
100
AcDbEntity
  8
0
100
AcDbLine
 10
28.1
 20
71.193465
 30
0.0
 11
28.856
 21
71.193465
 31
0.0
  0
LINE
  5
C5
330
1E
100
AcDbEntity
  8
0
100
AcDbLine
 10
28.1
 20
71.193465
 30
0.0
 11
28.1
 21
29.593465
 31
0.0
  0
LINE
  5
C6
330
1E
100
AcDbEntity
  8
0
100
AcDbLine
 10
28.856
 20
71.193465
 30
0.0
 11
30.872
 21
71.193465
 31
0.0
  0
LINE
  5
C7
330
1E
100
AcDbEntity
  8
0
100
AcDbLine
 10
28.1
 20
71.193465
 30
0.0
 11
28.1
 21
46.620565
 31
0.0
  0
LINE
  5
C8
330
1E
100
AcDbEntity
  8
0
100
AcDbLine
 10
28.1
 20
46.620565
 30
0.0
 11
28.1
 21
71.193465
 31
0.0
  0
LINE
  5
C9
330
1E
100
AcDbEntity
  8
0
100
AcDbLine
 10
27.9
 20
28.595865
 30
0.0
 11
27.9
 21
30.620565
 31
0.0
  0
LINE
  5
CA
330
1E
100
AcDbEntity
  8
0
100
AcDbLine
 10
27.9
 20
28.595865
 30
0.0
 11
27.9
 21
28.320565
 31
0.0
  0
LINE
  5
CB
330
1E
100
AcDbEntity
  8
0
100
AcDbLine
 10
27.9
 20
28.320565
 30
0.0
 11
27.9
 21
28.595865
 31
0.0
  0
LINE
  5
CC
330
1E
100
AcDbEntity
  8
0
100
AcDbLine
 10
27.9
 20
28.320565
 30
0.0
 11
27.9
 21
30.620565
 31
0.0
  0
LINE
  5
CD
330
1E
100
AcDbEntity
  8
0
100
AcDbLine
 10
-0.0999999999999988
 20
22.653665
 30
0.0
 11
-0.0999999999999988
 21
22.120565
 31
0.0
  0
LINE
  5
CE
330
1E
100
AcDbEntity
  8
0
100
AcDbLine
 10
-0.0999999999999988
 20
22.653665
 30
0.0
 11
-0.0999999999999988
 21
20.12056499999999
 31
0.0
  0
LINE
  5
CF
330
1E
100
AcDbEntity
  8
0
100
AcDbLine
 10
29.1
 20
21.8230326154831
 30
0.0
 11
29.1
 21
19.34806499999998
 31
0.0
  0
LINE
  5
D0
330
1E
100
AcDbEntity
  8
0
100
AcDbLine
 10
29.1
 20
19.34806499999998
 30
0.0
 11
29.1
 21
16.720565
 31
0.0
  0
LINE
  5
D1
330
1E
100
AcDbEntity
  8
0
100
AcDbLine
 10
29.1
 20
19.311965
 30
0.0
 11
29.1
 21
21.8230326154831
 31
0.0
  0
LINE
  5
D2
330
1E
100
AcDbEntity
  8
0
100
AcDbLine
 10
83.1
 20
-0.193465000000007
 30
0.0
 11
86.09999999999997
 21
0.152944999999993
 31
0.0
  0
LINE
  5
D3
330
1E
100
AcDbEntity
  8
0
100
AcDbLine
 10
86.09999999999997
 20
0.152944999999993
 30
0.0
 11
88.8
 21
1.105574999999988
 31
0.0
  0
LINE
  5
D4
330
1E
100
AcDbEntity
  8
0
100
AcDbLine
 10
88.8
 20
1.105574999999988
 30
0.0
 11
91.1323753818462
 21
2.704661280024529
 31
0.0
  0
LINE
  5
D5
330
1E
100
AcDbEntity
  8
0
100
AcDbLine
 10
80.09999999999998
 20
0.152944999999993
 30
0.0
 11
83.1
 21
-0.193465000000007
 31
0.0
  0
LINE
  5
D6
330
1E
100
AcDbEntity
  8
0
100
AcDbLine
 10
77.40000000000001
 20
1.105574999999988
 30
0.0
 11
80.09999999999998
 21
0.152944999999993
 31
0.0
  0
LINE
  5
D7
330
1E
100
AcDbEntity
  8
0
100
AcDbLine
 10
75.0676246181538
 20
2.70466128002452
 30
0.0
 11
77.40000000000001
 21
1.105574999999988
 31
0.0
  0
LINE
  5
D8
330
1E
100
AcDbEntity
  8
0
100
AcDbLine
 10
92.3
 20
1.693464999999988
 30
0.0
 11
94.40000000000001
 21
4.03173499999999
 31
0.0
  0
LINE
  5
D9
330
1E
100
AcDbEntity
  8
0
100
AcDbLine
 10
90.90000000000001
 20
2.90590499999999
 30
0.0
 11
92.3
 21
1.693464999999988
 31
0.0
  0
LINE
  5
DA
330
1E
100
AcDbEntity
  8
0
100
AcDbLine
 10
90.90000000000001
 20
2.90590499999999
 30
0.0
 11
92.59999999999999
 21
4.89776499999999
 31
0.0
  0
LINE
  5
DB
330
1E
100
AcDbEntity
  8
0
100
AcDbLine
 10
92.3
 20
1.693464999999988
 30
0.0
 11
94.40000000000001
 21
4.03173499999999
 31
0.0
  0
LINE
  5
DC
330
1E
100
AcDbEntity
  8
0
100
AcDbLine
 10
90.90000000000001
 20
3.01083388888889
 30
0.0
 11
90.90000000000001
 21
2.90590499999999
 31
0.0
  0
LINE
  5
DD
330
1E
100
AcDbEntity
  8
0
100
AcDbLine
 10
94.40000000000001
 20
4.03173499999999
 30
0.0
 11
95.6
 21
6.71641499999999
 31
0.0
  0
LINE
  5
DE
330
1E
100
AcDbEntity
  8
0
100
AcDbLine
 10
75.3
 20
2.90590499999999
 30
0.0
 11
75.3
 21
3.010833888888899
 31
0.0
  0
LINE
  5
DF
330
1E
100
AcDbEntity
  8
0
100
AcDbLine
 10
73.9
 20
1.693464999999988
 30
0.0
 11
75.3
 21
2.90590499999999
 31
0.0
  0
LINE
  5
E0
330
1E
100
AcDbEntity
  8
0
100
AcDbLine
 10
72.09999999999998
 20
9.66086499999999
 30
0.0
 11
72.09999999999998
 21
7.23603499999999
 31
0.0
  0
LINE
  5
E1
330
1E
100
AcDbEntity
  8
0
100
AcDbLine
 10
72.09999999999998
 20
9.66086499999999
 30
0.0
 11
72.09999999999998
 21
12.08576499999999
 31
0.0
  0
LINE
  5
E2
330
1E
100
AcDbEntity
  8
0
100
AcDbLine
 10
92.59999999999999
 20
4.89776499999999
 30
0.0
 11
94.1
 21
7.23603499999999
 31
0.0
  0
LINE
  5
E3
330
1E
100
AcDbEntity
  8
0
100
AcDbLine
 10
94.1
 20
7.23603499999999
 30
0.0
 11
94.1
 21
9.66086499999999
 31
0.0
  0
LINE
  5
E4
330
1E
100
AcDbEntity
  8
0
100
AcDbLine
 10
94.1
 20
9.66086499999999
 30
0.0
 11
94.1
 21
7.23603499999999
 31
0.0
  0
LINE
  5
E5
330
1E
100
AcDbEntity
  8
0
100
AcDbLine
 10
94.1
 20
9.66086499999999
 30
0.0
 11
94.1
 21
12.08576499999999
 31
0.0
  0
LINE
  5
E6
330
1E
100
AcDbEntity
  8
0
100
AcDbLine
 10
96.09999999999999
 20
9.66086499999999
 30
0.0
 11
96.09999999999999
 21
32.160965
 31
0.0
  0
LINE
  5
E7
330
1E
100
AcDbEntity
  8
0
100
AcDbLine
 10
95.6
 20
6.71641499999999
 30
0.0
 11
96.09999999999999
 21
9.66086499999999
 31
0.0
  0
LINE
  5
E8
330
1E
100
AcDbEntity
  8
0
100
AcDbLine
 10
73.59999999999998
 20
4.89776499999999
 30
0.0
 11
75.3
 21
2.90590499999999
 31
0.0
  0
LINE
  5
E9
330
1E
100
AcDbEntity
  8
0
100
AcDbLine
 10
72.09999999999998
 20
7.23603499999999
 30
0.0
 11
72.09999999999998
 21
9.66086499999999
 31
0.0
  0
LINE
  5
EA
330
1E
100
AcDbEntity
  8
0
100
AcDbLine
 10
72.09999999999998
 20
7.23603499999999
 30
0.0
 11
73.59999999999998
 21
4.89776499999999
 31
0.0
  0
LINE
  5
EB
330
1E
100
AcDbEntity
  8
0
100
AcDbLine
 10
71.79999999999998
 20
4.03173499999999
 30
0.0
 11
73.9
 21
1.693464999999988
 31
0.0
  0
LINE
  5
EC
330
1E
100
AcDbEntity
  8
0
100
AcDbLine
 10
71.79999999999998
 20
4.03173499999999
 30
0.0
 11
73.9
 21
1.693464999999988
 31
0.0
  0
LINE
  5
ED
330
1E
100
AcDbEntity
  8
0
100
AcDbLine
 10
70.59999999999998
 20
6.71641499999999
 30
0.0
 11
71.79999999999998
 21
4.03173499999999
 31
0.0
  0
LINE
  5
EE
330
1E
100
AcDbEntity
  8
0
100
AcDbLine
 10
46.41899999999998
 20
15.193465
 30
0.0
 11
47.0
 21
15.193465
 31
0.0
  0
LINE
  5
EF
330
1E
100
AcDbEntity
  8
0
100
AcDbLine
 10
46.41899999999998
 20
15.193465
 30
0.0
 11
47.7
 21
15.193465
 31
0.0
  0
LINE
  5
F0
330
1E
100
AcDbEntity
  8
0
100
AcDbLine
 10
47.7
 20
15.193465
 30
0.0
 11
49.1
 21
15.193465
 31
0.0
  0
LINE
  5
F1
330
1E
100
AcDbEntity
  8
0
100
AcDbLine
 10
47.0
 20
15.193465
 30
0.0
 11
49.1
 21
15.193465
 31
0.0
  0
LINE
  5
F5
330
1E
100
AcDbEntity
  8
0
100
AcDbLine
 10
44.00319999999999
 20
16.16076499999999
 30
0.0
 11
46.41899999999998
 21
15.193465
 31
0.0
  0
LINE
  5
FB
330
1E
100
AcDbEntity
  8
0
100
AcDbLine
 10
49.1
 20
15.193465
 30
0.0
 11
51.2
 21
15.193465
 31
0.0
  0
LINE
  5
FE
330
1E
100
AcDbEntity
  8
0
100
AcDbLine
 10
29.1153
 20
21.81736499999999
 30
0.0
 11
30.2976
 21
21.379565
 31
0.0
  0
LINE
  5
100
330
1E
100
AcDbEntity
  8
0
100
AcDbLine
 10
30.2976
 20
21.379565
 30
0.0
 11
32.13049999999999
 21
20.700665
 31
0.0
  0
LINE
  5
102
330
1E
100
AcDbEntity
  8
0
100
AcDbLine
 10
32.13049999999999
 20
20.700665
 30
0.0
 11
36.15809999999999
 21
19.20896499999998
 31
0.0
  0
LINE
  5
103
330
1E
100
AcDbEntity
  8
0
100
AcDbLine
 10
30.872
 20
22.19346499999999
 30
0.0
 11
34.232
 21
22.19346499999999
 31
0.0
  0
LINE
  5
108
330
1E
100
AcDbEntity
  8
0
100
AcDbLine
 10
36.15809999999999
 20
19.20896499999998
 30
0.0
 11
36.99949999999999
 21
18.897365
 31
0.0
  0
LINE
  5
10C
330
1E
100
AcDbEntity
  8
0
100
AcDbLine
 10
36.99949999999999
 20
18.897365
 30
0.0
 11
40.5551
 21
17.477165
 31
0.0
  0
LINE
  5
10E
330
1E
100
AcDbEntity
  8
0
100
AcDbLine
 10
40.5551
 20
17.477165
 30
0.0
 11
44.00319999999999
 21
16.16076499999999
 31
0.0
  0
LINE
  5
110
330
1E
100
AcDbEntity
  8
0
100
AcDbLine
 10
34.232
 20
22.19346499999999
 30
0.0
 11
38.68399999999999
 21
22.19346499999999
 31
0.0
  0
LINE
  5
111
330
1E
100
AcDbEntity
  8
0
100
AcDbLine
 10
38.68399999999999
 20
22.19346499999999
 30
0.0
 11
43.72399999999998
 21
22.19346499999999
 31
0.0
  0
LINE
  5
112
330
1E
100
AcDbEntity
  8
0
100
AcDbLine
 10
43.72399999999998
 20
22.19346499999999
 30
0.0
 11
49.1
 21
22.19346499999999
 31
0.0
  0
LINE
  5
115
330
1E
100
AcDbEntity
  8
0
100
AcDbLine
 10
30.872
 20
29.193465
 30
0.0
 11
34.232
 21
29.193465
 31
0.0
  0
LINE
  5
116
330
1E
100
AcDbEntity
  8
0
100
AcDbLine
 10
34.232
 20
29.193465
 30
0.0
 11
38.68399999999999
 21
29.193465
 31
0.0
  0
LINE
  5
117
330
1E
100
AcDbEntity
  8
0
100
AcDbLine
 10
38.68399999999999
 20
29.193465
 30
0.0
 11
43.72399999999998
 21
29.193465
 31
0.0
  0
LINE
  5
118
330
1E
100
AcDbEntity
  8
0
100
AcDbLine
 10
43.72399999999998
 20
29.193465
 30
0.0
 11
49.1
 21
29.193465
 31
0.0
  0
LINE
  5
119
330
1E
100
AcDbEntity
  8
0
100
AcDbLine
 10
49.1
 20
29.193465
 30
0.0
 11
54.47600000000001
 21
29.193465
 31
0.0
  0
LINE
  5
11A
330
1E
100
AcDbEntity
  8
0
100
AcDbLine
 10
49.1
 20
22.19346499999999
 30
0.0
 11
54.47600000000001
 21
22.19346499999999
 31
0.0
  0
LINE
  5
11B
330
1E
100
AcDbEntity
  8
0
100
AcDbLine
 10
51.781
 20
15.193465
 30
0.0
 11
54.1968
 21
16.16076499999999
 31
0.0
  0
LINE
  5
121
330
1E
100
AcDbEntity
  8
0
100
AcDbLine
 10
57.6449
 20
17.477165
 30
0.0
 11
61.20049999999999
 21
18.897365
 31
0.0
  0
LINE
  5
12A
330
1E
100
AcDbEntity
  8
0
100
AcDbLine
 10
54.1968
 20
16.16076499999999
 30
0.0
 11
57.6449
 21
17.477165
 31
0.0
  0
LINE
  5
12E
330
1E
100
AcDbEntity
  8
0
100
AcDbLine
 10
51.2
 20
15.193465
 30
0.0
 11
51.781
 21
15.193465
 31
0.0
  0
LINE
  5
12F
330
1E
100
AcDbEntity
  8
0
100
AcDbLine
 10
59.516
 20
22.19346499999999
 30
0.0
 11
63.968
 21
22.19346499999999
 31
0.0
  0
LINE
  5
130
330
1E
100
AcDbEntity
  8
0
100
AcDbLine
 10
54.47600000000001
 20
22.19346499999999
 30
0.0
 11
59.516
 21
22.19346499999999
 31
0.0
  0
LINE
  5
136
330
1E
100
AcDbEntity
  8
0
100
AcDbLine
 10
66.06950000000001
 20
20.700665
 30
0.0
 11
67.9024
 21
21.379565
 31
0.0
  0
LINE
  5
137
330
1E
100
AcDbEntity
  8
0
100
AcDbLine
 10
62.0419
 20
19.20896499999998
 30
0.0
 11
66.06950000000001
 21
20.700665
 31
0.0
  0
LINE
  5
13C
330
1E
100
AcDbEntity
  8
0
100
AcDbLine
 10
61.20049999999999
 20
18.897365
 30
0.0
 11
62.0419
 21
19.20896499999998
 31
0.0
  0
LINE
  5
13E
330
1E
100
AcDbEntity
  8
0
100
AcDbLine
 10
69.0847
 20
21.81736499999999
 30
0.0
 11
70.09999999999999
 21
22.19346499999999
 31
0.0
  0
LINE
  5
13F
330
1E
100
AcDbEntity
  8
0
100
AcDbLine
 10
67.9024
 20
21.379565
 30
0.0
 11
69.0847
 21
21.81736499999999
 31
0.0
  0
LINE
  5
140
330
1E
100
AcDbEntity
  8
0
100
AcDbLine
 10
69.344
 20
22.19346499999999
 30
0.0
 11
70.09999999999999
 21
22.19346499999999
 31
0.0
  0
LINE
  5
141
330
1E
100
AcDbEntity
  8
0
100
AcDbLine
 10
67.32800000000001
 20
22.19346499999999
 30
0.0
 11
69.344
 21
22.19346499999999
 31
0.0
  0
LINE
  5
143
330
1E
100
AcDbEntity
  8
0
100
AcDbLine
 10
69.596
 20
29.193465
 30
0.0
 11
70.09999999999999
 21
29.593465
 31
0.0
  0
LINE
  5
144
330
1E
100
AcDbEntity
  8
0
100
AcDbLine
 10
69.344
 20
29.193465
 30
0.0
 11
70.09999999999999
 21
29.193465
 31
0.0
  0
LINE
  5
145
330
1E
100
AcDbEntity
  8
0
100
AcDbLine
 10
67.32800000000001
 20
29.193465
 30
0.0
 11
69.344
 21
29.193465
 31
0.0
  0
LINE
  5
146
330
1E
100
AcDbEntity
  8
0
100
AcDbLine
 10
63.968
 20
29.193465
 30
0.0
 11
67.32800000000001
 21
29.193465
 31
0.0
  0
LINE
  5
147
330
1E
100
AcDbEntity
  8
0
100
AcDbLine
 10
63.968
 20
22.19346499999999
 30
0.0
 11
67.32800000000001
 21
22.19346499999999
 31
0.0
  0
LINE
  5
148
330
1E
100
AcDbEntity
  8
0
100
AcDbLine
 10
59.516
 20
29.193465
 30
0.0
 11
63.968
 21
29.193465
 31
0.0
  0
LINE
  5
149
330
1E
100
AcDbEntity
  8
0
100
AcDbLine
 10
54.47600000000001
 20
29.193465
 30
0.0
 11
59.516
 21
29.193465
 31
0.0
  0
LINE
  5
14A
330
1E
100
AcDbEntity
  8
0
100
AcDbLine
 10
69.1
 20
14.560965
 30
0.0
 11
70.09999999999999
 21
14.560965
 31
0.0
  0
LINE
  5
14B
330
1E
100
AcDbEntity
  8
0
100
AcDbLine
 10
70.09999999999999
 20
22.19346499999999
 30
0.0
 11
70.09999999999999
 21
9.66086499999999
 31
0.0
  0
LINE
  5
14C
330
1E
100
AcDbEntity
  8
0
100
AcDbLine
 10
70.09999999999999
 20
22.19346499999999
 30
0.0
 11
70.09999999999999
 21
29.193465
 31
0.0
  0
LINE
  5
14D
330
1E
100
AcDbEntity
  8
0
100
AcDbLine
 10
30.872
 20
29.593465
 30
0.0
 11
34.232
 21
29.593465
 31
0.0
  0
LINE
  5
14E
330
1E
100
AcDbEntity
  8
0
100
AcDbLine
 10
34.232
 20
29.593465
 30
0.0
 11
38.68399999999999
 21
29.593465
 31
0.0
  0
LINE
  5
14F
330
1E
100
AcDbEntity
  8
0
100
AcDbLine
 10
38.68399999999999
 20
29.593465
 30
0.0
 11
43.72399999999998
 21
29.593465
 31
0.0
  0
LINE
  5
150
330
1E
100
AcDbEntity
  8
0
100
AcDbLine
 10
43.72399999999998
 20
29.593465
 30
0.0
 11
49.1
 21
29.593465
 31
0.0
  0
LINE
  5
151
330
1E
100
AcDbEntity
  8
0
100
AcDbLine
 10
69.344
 20
29.593465
 30
0.0
 11
70.09999999999999
 21
29.593465
 31
0.0
  0
LINE
  5
152
330
1E
100
AcDbEntity
  8
0
100
AcDbLine
 10
67.32800000000001
 20
29.593465
 30
0.0
 11
69.344
 21
29.593465
 31
0.0
  0
LINE
  5
153
330
1E
100
AcDbEntity
  8
0
100
AcDbLine
 10
63.968
 20
29.593465
 30
0.0
 11
67.32800000000001
 21
29.593465
 31
0.0
  0
LINE
  5
154
330
1E
100
AcDbEntity
  8
0
100
AcDbLine
 10
59.516
 20
29.593465
 30
0.0
 11
63.968
 21
29.593465
 31
0.0
  0
LINE
  5
155
330
1E
100
AcDbEntity
  8
0
100
AcDbLine
 10
54.47600000000001
 20
29.593465
 30
0.0
 11
59.516
 21
29.593465
 31
0.0
  0
LINE
  5
156
330
1E
100
AcDbEntity
  8
0
100
AcDbLine
 10
49.1
 20
29.593465
 30
0.0
 11
54.47600000000001
 21
29.593465
 31
0.0
  0
LINE
  5
157
330
1E
100
AcDbEntity
  8
0
100
AcDbLine
 10
30.872
 20
71.193465
 30
0.0
 11
34.232
 21
71.193465
 31
0.0
  0
LINE
  5
158
330
1E
100
AcDbEntity
  8
0
100
AcDbLine
 10
34.232
 20
71.193465
 30
0.0
 11
38.68399999999999
 21
71.193465
 31
0.0
  0
LINE
  5
159
330
1E
100
AcDbEntity
  8
0
100
AcDbLine
 10
38.68399999999999
 20
71.193465
 30
0.0
 11
43.72399999999998
 21
71.193465
 31
0.0
  0
LINE
  5
15A
330
1E
100
AcDbEntity
  8
0
100
AcDbLine
 10
43.72399999999998
 20
71.193465
 30
0.0
 11
49.1
 21
71.193465
 31
0.0
  0
LINE
  5
15B
330
1E
100
AcDbEntity
  8
0
100
AcDbLine
 10
70.09999999999999
 20
71.193465
 30
0.0
 11
70.09999999999999
 21
29.593465
 31
0.0
  0
LINE
  5
15C
330
1E
100
AcDbEntity
  8
0
100
AcDbLine
 10
69.344
 20
71.193465
 30
0.0
 11
70.09999999999999
 21
71.193465
 31
0.0
  0
LINE
  5
15D
330
1E
100
AcDbEntity
  8
0
100
AcDbLine
 10
67.32800000000001
 20
71.193465
 30
0.0
 11
69.344
 21
71.193465
 31
0.0
  0
LINE
  5
15E
330
1E
100
AcDbEntity
  8
0
100
AcDbLine
 10
63.968
 20
71.193465
 30
0.0
 11
67.32800000000001
 21
71.193465
 31
0.0
  0
LINE
  5
15F
330
1E
100
AcDbEntity
  8
0
100
AcDbLine
 10
59.516
 20
71.193465
 30
0.0
 11
63.968
 21
71.193465
 31
0.0
  0
LINE
  5
160
330
1E
100
AcDbEntity
  8
0
100
AcDbLine
 10
54.47600000000001
 20
71.193465
 30
0.0
 11
59.516
 21
71.193465
 31
0.0
  0
LINE
  5
161
330
1E
100
AcDbEntity
  8
0
100
AcDbLine
 10
49.1
 20
71.193465
 30
0.0
 11
54.47600000000001
 21
71.193465
 31
0.0
  0
LINE
  5
162
330
1E
100
AcDbEntity
  8
0
100
AcDbLine
 10
70.09999999999999
 20
29.593465
 30
0.0
 11
70.09999999999999
 21
71.193465
 31
0.0
  0
LINE
  5
163
330
1E
100
AcDbEntity
  8
0
100
AcDbLine
 10
70.09999999999999
 20
46.636565
 30
0.0
 11
72.09999999999998
 21
46.636565
 31
0.0
  0
LINE
  5
164
330
1E
100
AcDbEntity
  8
0
100
AcDbLine
 10
94.1
 20
12.08576499999999
 30
0.0
 11
94.1
 21
9.66086499999999
 31
0.0
  0
LINE
  5
165
330
1E
100
AcDbEntity
  8
0
100
AcDbLine
 10
95.6
 20
12.605465
 30
0.0
 11
96.09999999999999
 21
9.66086499999999
 31
0.0
  0
LINE
  5
166
330
1E
100
AcDbEntity
  8
0
100
AcDbLine
 10
72.09999999999998
 20
12.08576499999999
 30
0.0
 11
73.59999999999998
 21
14.42406499999998
 31
0.0
  0
LINE
  5
167
330
1E
100
AcDbEntity
  8
0
100
AcDbLine
 10
72.09999999999998
 20
12.08576499999999
 30
0.0
 11
72.09999999999998
 21
9.66086499999999
 31
0.0
  0
LINE
  5
168
330
1E
100
AcDbEntity
  8
0
100
AcDbLine
 10
72.09999999999998
 20
38.12410785714286
 30
0.0
 11
73.9
 21
40.128365
 31
0.0
  0
LINE
  5
169
330
1E
100
AcDbEntity
  8
0
100
AcDbLine
 10
92.59999999999999
 20
14.42406499999998
 30
0.0
 11
94.1
 21
12.08576499999999
 31
0.0
  0
LINE
  5
16A
330
1E
100
AcDbEntity
  8
0
100
AcDbLine
 10
72.09999999999998
 20
38.12410785714289
 30
0.0
 11
72.09999999999998
 21
38.636565
 31
0.0
  0
LINE
  5
16B
330
1E
100
AcDbEntity
  8
0
100
AcDbLine
 10
72.09999999999998
 20
38.636565
 30
0.0
 11
72.09999999999998
 21
41.88556499999999
 31
0.0
  0
LINE
  5
16C
330
1E
100
AcDbEntity
  8
0
100
AcDbLine
 10
72.09999999999998
 20
41.88556499999999
 30
0.0
 11
72.09999999999998
 21
44.455165
 31
0.0
  0
LINE
  5
16D
330
1E
100
AcDbEntity
  8
0
100
AcDbLine
 10
73.9
 20
40.128365
 30
0.0
 11
76.6
 21
41.947065
 31
0.0
  0
LINE
  5
16E
330
1E
100
AcDbEntity
  8
0
100
AcDbLine
 10
75.03579999999998
 20
41.758165
 30
0.0
 11
75.08969999999997
 21
48.157165
 31
0.0
  0
LINE
  5
16F
330
1E
100
AcDbEntity
  8
0
100
AcDbLine
 10
75.0283550129022
 20
40.8884165785056
 30
0.0
 11
75.03579999999998
 21
41.758165
 31
0.0
  0
LINE
  5
170
330
1E
100
AcDbEntity
  8
0
100
AcDbLine
 10
75.3
 20
16.415965
 30
0.0
 11
77.59999999999998
 21
17.888165
 31
0.0
  0
LINE
  5
171
330
1E
100
AcDbEntity
  8
0
100
AcDbLine
 10
73.9
 20
17.62836499999998
 30
0.0
 11
76.6
 21
19.44706499999998
 31
0.0
  0
LINE
  5
172
330
1E
100
AcDbEntity
  8
0
100
AcDbLine
 10
76.6
 20
41.947065
 30
0.0
 11
79.7
 21
42.986265
 31
0.0
  0
LINE
  5
173
330
1E
100
AcDbEntity
  8
0
100
AcDbLine
 10
77.59999999999998
 20
17.888165
 30
0.0
 11
80.29999999999999
 21
19.187265
 31
0.0
  0
LINE
  5
174
330
1E
100
AcDbEntity
  8
0
100
AcDbLine
 10
76.6
 20
19.44706499999998
 30
0.0
 11
79.7
 21
20.486265
 31
0.0
  0
LINE
  5
175
330
1E
100
AcDbEntity
  8
0
100
AcDbLine
 10
72.09999999999998
 20
45.98556499999999
 30
0.0
 11
72.09999999999998
 21
46.636565
 31
0.0
  0
LINE
  5
176
330
1E
100
AcDbEntity
  8
0
100
AcDbLine
 10
74.2898
 20
59.50716499999989
 30
0.0
 11
74.55289999999997
 21
56.364165
 31
0.0
  0
LINE
  5
177
330
1E
100
AcDbEntity
  8
0
100
AcDbLine
 10
74.2898
 20
59.50716499999989
 30
0.0
 11
75.3258
 21
62.41316499999999
 31
0.0
  0
LINE
  5
178
330
1E
100
AcDbEntity
  8
0
100
AcDbLine
 10
74.55289999999997
 20
56.364165
 30
0.0
 11
75.14981768994809
 21
55.1966090152587
 31
0.0
  0
LINE
  5
179
330
1E
100
AcDbEntity
  8
0
100
AcDbLine
 10
77.2637
 20
64.80516499999989
 30
0.0
 11
80.06149999999998
 21
66.23416499999989
 31
0.0
  0
LINE
  5
17A
330
1E
100
AcDbEntity
  8
0
100
AcDbLine
 10
75.3258
 20
62.41316499999999
 30
0.0
 11
77.2637
 21
64.80516499999989
 31
0.0
  0
LINE
  5
17B
330
1E
100
AcDbEntity
  8
0
100
AcDbLine
 10
75.1597
 20
56.357165
 30
0.0
 11
75.1756
 21
58.256165
 31
0.0
  0
LINE
  5
17C
330
1E
100
AcDbEntity
  8
0
100
AcDbLine
 10
75.1316
 20
53.057165
 30
0.0
 11
75.1597
 21
56.357165
 31
0.0
  0
LINE
  5
17D
330
1E
100
AcDbEntity
  8
0
100
AcDbLine
 10
75.08969999999997
 20
48.157165
 30
0.0
 11
75.1316
 21
53.057165
 31
0.0
  0
LINE
  5
17E
330
1E
100
AcDbEntity
  8
0
100
AcDbLine
 10
72.09999999999998
 20
44.455165
 30
0.0
 11
72.09999999999998
 21
45.98556499999999
 31
0.0
  0
LINE
  5
17F
330
1E
100
AcDbEntity
  8
0
100
AcDbLine
 10
79.7
 20
42.986265
 30
0.0
 11
83.1
 21
43.419265
 31
0.0
  0
LINE
  5
180
330
1E
100
AcDbEntity
  8
0
100
AcDbLine
 10
90.90000000000001
 20
16.415965
 30
0.0
 11
92.59999999999999
 21
14.42406499999998
 31
0.0
  0
LINE
  5
181
330
1E
100
AcDbEntity
  8
0
100
AcDbLine
 10
88.59999999999997
 20
17.888165
 30
0.0
 11
90.90000000000001
 21
16.415965
 31
0.0
  0
LINE
  5
182
330
1E
100
AcDbEntity
  8
0
100
AcDbLine
 10
85.90000000000001
 20
19.187265
 30
0.0
 11
88.59999999999997
 21
17.888165
 31
0.0
  0
LINE
  5
183
330
1E
100
AcDbEntity
  8
0
100
AcDbLine
 10
83.1
 20
19.187265
 30
0.0
 11
85.90000000000001
 21
19.187265
 31
0.0
  0
LINE
  5
184
330
1E
100
AcDbEntity
  8
0
100
AcDbLine
 10
92.3
 20
17.62836499999998
 30
0.0
 11
94.40000000000001
 21
15.290065
 31
0.0
  0
LINE
  5
185
330
1E
100
AcDbEntity
  8
0
100
AcDbLine
 10
94.40000000000001
 20
15.290065
 30
0.0
 11
95.6
 21
12.605465
 31
0.0
  0
LINE
  5
186
330
1E
100
AcDbEntity
  8
0
100
AcDbLine
 10
89.59999999999999
 20
19.44706499999998
 30
0.0
 11
92.3
 21
17.62836499999998
 31
0.0
  0
LINE
  5
187
330
1E
100
AcDbEntity
  8
0
100
AcDbLine
 10
86.5
 20
20.486265
 30
0.0
 11
89.59999999999999
 21
19.44706499999998
 31
0.0
  0
LINE
  5
188
330
1E
100
AcDbEntity
  8
0
100
AcDbLine
 10
83.1
 20
20.919265
 30
0.0
 11
86.5
 21
20.486265
 31
0.0
  0
LINE
  5
189
330
1E
100
AcDbEntity
  8
0
100
AcDbLine
 10
80.06149999999998
 20
66.23416499999989
 30
0.0
 11
83.20529999999997
 21
66.49716499999989
 31
0.0
  0
LINE
  5
18A
330
1E
100
AcDbEntity
  8
0
100
AcDbLine
 10
91.03469999999999
 20
41.621165
 30
0.0
 11
91.08960000000001
 21
48.021165
 31
0.0
  0
LINE
  5
18B
330
1E
100
AcDbEntity
  8
0
100
AcDbLine
 10
91.0292706132161
 20
40.98431890212739
 30
0.0
 11
91.03469999999999
 21
41.621165
 31
0.0
  0
LINE
  5
18C
330
1E
100
AcDbEntity
  8
0
100
AcDbLine
 10
89.59999999999999
 20
41.947065
 30
0.0
 11
92.3
 21
40.128365
 31
0.0
  0
LINE
  5
18D
330
1E
100
AcDbEntity
  8
0
100
AcDbLine
 10
83.20529999999997
 20
66.49716499999989
 30
0.0
 11
86.33880000000003
 21
65.56216500000001
 31
0.0
  0
LINE
  5
18E
330
1E
100
AcDbEntity
  8
0
100
AcDbLine
 10
86.33880000000003
 20
65.56216500000001
 30
0.0
 11
88.8227
 21
63.741165
 31
0.0
  0
LINE
  5
18F
330
1E
100
AcDbEntity
  8
0
100
AcDbLine
 10
88.8227
 20
63.741165
 30
0.0
 11
90.60160000000001
 21
61.225165
 31
0.0
  0
LINE
  5
190
330
1E
100
AcDbEntity
  8
0
100
AcDbLine
 10
90.60160000000001
 20
61.225165
 30
0.0
 11
91.1758
 21
58.12116500000001
 31
0.0
  0
LINE
  5
191
330
1E
100
AcDbEntity
  8
0
100
AcDbLine
 10
91.15959999999999
 20
56.220165
 30
0.0
 11
91.1758
 21
58.12116500000001
 31
0.0
  0
LINE
  5
192
330
1E
100
AcDbEntity
  8
0
100
AcDbLine
 10
91.1306
 20
52.921165
 30
0.0
 11
91.15959999999999
 21
56.220165
 31
0.0
  0
LINE
  5
193
330
1E
100
AcDbEntity
  8
0
100
AcDbLine
 10
91.08960000000001
 20
48.021165
 30
0.0
 11
91.1306
 21
52.921165
 31
0.0
  0
LINE
  5
194
330
1E
100
AcDbEntity
  8
0
100
AcDbLine
 10
86.5
 20
42.986265
 30
0.0
 11
89.59999999999999
 21
41.947065
 31
0.0
  0
LINE
  5
195
330
1E
100
AcDbEntity
  8
0
100
AcDbLine
 10
83.1
 20
43.419265
 30
0.0
 11
86.5
 21
42.986265
 31
0.0
  0
LINE
  5
196
330
1E
100
AcDbEntity
  8
0
100
AcDbLine
 10
92.3
 20
40.128365
 30
0.0
 11
94.40000000000001
 21
37.790065
 31
0.0
  0
LINE
  5
197
330
1E
100
AcDbEntity
  8
0
100
AcDbLine
 10
94.40000000000001
 20
37.790065
 30
0.0
 11
95.6
 21
35.105465
 31
0.0
  0
LINE
  5
198
330
1E
100
AcDbEntity
  8
0
100
AcDbLine
 10
95.6
 20
35.105465
 30
0.0
 11
96.09999999999999
 21
32.160965
 31
0.0
  0
LINE
  5
199
330
1E
100
AcDbEntity
  8
0
100
AcDbLine
 10
96.09999999999999
 20
32.160965
 30
0.0
 11
96.09999999999999
 21
9.66086499999999
 31
0.0
  0
LINE
  5
19A
330
1E
100
AcDbEntity
  8
0
100
AcDbLine
 10
80.29999999999999
 20
19.187265
 30
0.0
 11
83.1
 21
19.187265
 31
0.0
  0
LINE
  5
19B
330
1E
100
AcDbEntity
  8
0
100
AcDbLine
 10
79.7
 20
20.486265
 30
0.0
 11
83.1
 21
20.919265
 31
0.0
  0
LINE
  5
19C
330
1E
100
AcDbEntity
  8
0
100
AcDbLine
 10
73.59999999999998
 20
14.42406499999998
 30
0.0
 11
75.3
 21
16.415965
 31
0.0
  0
LINE
  5
19D
330
1E
100
AcDbEntity
  8
0
100
AcDbLine
 10
71.79999999999998
 20
15.290065
 30
0.0
 11
73.9
 21
17.62836499999998
 31
0.0
  0
LINE
  5
19E
330
1E
100
AcDbEntity
  8
0
100
AcDbLine
 10
70.59999999999998
 20
12.605465
 30
0.0
 11
71.79999999999998
 21
15.290065
 31
0.0
  0
LINE
  5
19F
330
1E
100
AcDbEntity
  8
0
100
AcDbLine
 10
70.09999999999999
 20
29.193465
 30
0.0
 11
70.09999999999999
 21
22.19346499999999
 31
0.0
  0
LINE
  5
1A0
330
1E
100
AcDbEntity
  8
0
100
AcDbLine
 10
70.09999999999999
 20
9.66086499999999
 30
0.0
 11
70.59999999999998
 21
6.71641499999999
 31
0.0
  0
LINE
  5
1A1
330
1E
100
AcDbEntity
  8
0
100
AcDbLine
 10
70.09999999999999
 20
9.66086499999999
 30
0.0
 11
70.09999999999999
 21
22.19346499999999
 31
0.0
  0
LINE
  5
1A2
330
1E
100
AcDbEntity
  8
0
100
AcDbLine
 10
70.09999999999999
 20
9.66086499999999
 30
0.0
 11
70.59999999999998
 21
12.605465
 31
0.0
  0
LINE
  5
1A3
330
1E
100
AcDbEntity
  8
0
100
AcDbLine
 10
29.1
 20
16.742365
 30
0.0
 11
29.1
 21
19.311965
 31
0.0
  0
ENDSEC
  0
SECTION
  2
OBJECTS
  0
DICTIONARY
  5
C
330
0
100
AcDbDictionary
281
     1
  3
ACAD_GROUP
350
D
  3
ACAD_LAYOUT
350
19
  3
ACAD_MLINESTYLE
350
16
  3
ACAD_PLOTSETTINGS
350
18
  3
ACAD_PLOTSTYLENAME
350
E
  3
AcDbVariableDictionary
350
1A8
  0
DICTIONARY
  5
D
102
{ACAD_REACTORS
330
C
102
}
330
C
100
AcDbDictionary
281
     1
  0
DICTIONARY
  5
19
102
{ACAD_REACTORS
330
C
102
}
330
C
100
AcDbDictionary
281
     1
  3
Layout1
350
1D
  3
Model
350
21
  0
DICTIONARY
  5
16
102
{ACAD_REACTORS
330
C
102
}
330
C
100
AcDbDictionary
281
     1
  3
Standard
350
17
  0
DICTIONARY
  5
18
102
{ACAD_REACTORS
330
C
102
}
330
C
100
AcDbDictionary
281
     1
  0
ACDBDICTIONARYWDFLT
  5
E
102
{ACAD_REACTORS
330
C
102
}
330
C
100
AcDbDictionary
281
     1
  3
Normal
350
F
100
AcDbDictionaryWithDefault
340
F
  0
DICTIONARY
  5
1A8
102
{ACAD_REACTORS
330
C
102
}
330
C
100
AcDbDictionary
281
     1
  3
DIMASSOC
350
1A9
  0
LAYOUT
  5
1D
102
{ACAD_REACTORS
330
19
102
}
330
19
100
AcDbPlotSettings
  1

  2
hp deskjet 980c series
  4

  6

 40
0.0
 41
0.0
 42
0.0
 43
0.0
 44
0.0
 45
0.0
 46
0.0
 47
0.0
 48
0.0
 49
0.0
140
0.0
141
0.0
142
1.0
143
1.0
 70
   688
 72
     0
 73
     0
 74
     5
  7

 75
    16
147
1.0
148
0.0
149
0.0
100
AcDbLayout
  1
Layout1
 70
     1
 71
     1
 10
0.0
 20
0.0
 11
12.0
 21
9.0
 12
0.0
 22
0.0
 32
0.0
 14
1.000000000000000E+20
 24
1.000000000000000E+20
 34
1.000000000000000E+20
 15
-1.000000000000000E+20
 25
-1.000000000000000E+20
 35
-1.000000000000000E+20
146
0.0
 13
0.0
 23
0.0
 33
0.0
 16
1.0
 26
0.0
 36
0.0
 17
0.0
 27
1.0
 37
0.0
 76
     0
330
1A
  0
LAYOUT
  5
21
102
{ACAD_REACTORS
330
19
102
}
330
19
100
AcDbPlotSettings
  1

  2
hp deskjet 980c series
  4

  6

 40
0.0
 41
0.0
 42
0.0
 43
0.0
 44
0.0
 45
0.0
 46
0.0
 47
0.0
 48
0.0
 49
0.0
140
0.0
141
0.0
142
1.0
143
1.0
 70
  1712
 72
     0
 73
     0
 74
     0
  7

 75
     0
147
1.0
148
0.0
149
0.0
100
AcDbLayout
  1
Model
 70
     1
 71
     0
 10
0.0
 20
0.0
 11
12.0
 21
9.0
 12
0.0
 22
0.0
 32
0.0
 14
0.0
 24
0.0
 34
0.0
 15
0.0
 25
0.0
 35
0.0
146
0.0
 13
0.0
 23
0.0
 33
0.0
 16
1.0
 26
0.0
 36
0.0
 17
0.0
 27
1.0
 37
0.0
 76
     0
330
1E
  0
MLINESTYLE
  5
17
102
{ACAD_REACTORS
330
16
102
}
330
16
100
AcDbMlineStyle
  2
STANDARD
 70
     0
  3

 62
   256
 51
90.0
 52
90.0
 71
     2
 49
0.5
 62
   256
  6
BYLAYER
 49
-0.5
 62
   256
  6
BYLAYER
  0
ACDBPLACEHOLDER
  5
F
102
{ACAD_REACTORS
330
E
102
}
330
E
  0
DICTIONARYVAR
  5
1A9
102
{ACAD_REACTORS
330
1A8
102
}
330
1A8
100
DictionaryVariables
280
     0
  1
1
  0
ENDSEC
  0
EOF
